  0
SECTION
  2
HEADER
  9
$ACADVER
  1
AC1015
  9
$ACADMAINTVER
 70
    20
  9
$DWGCODEPAGE
  3
ANSI_1252
  9
$INSBASE
 10
0.0
 20
0.0
 30
0.0
  9
$EXTMIN
 10
-9.500000000000015
 20
-71.00851895412045
 30
-0.0015258207003583
  9
$EXTMAX
 10
150.3414921187115
 20
227.8075567633001
 30
0.0000000349246037
  9
$LIMMIN
 10
0.0
 20
0.0
  9
$LIMMAX
 10
210.0
 20
297.0
  9
$ORTHOMODE
 70
     0
  9
$REGENMODE
 70
     1
  9
$FILLMODE
 70
     1
  9
$QTEXTMODE
 70
     0
  9
$MIRRTEXT
 70
     1
  9
$LTSCALE
 40
25.4
  9
$ATTMODE
 70
     1
  9
$TEXTSIZE
 40
0.2
  9
$TRACEWID
 40
0.05
  9
$TEXTSTYLE
  7
Standard
  9
$CLAYER
  8
0
  9
$CELTYPE
  6
CONTINUOUS
  9
$CECOLOR
 62
   256
  9
$CELTSCALE
 40
1.0
  9
$DISPSILH
 70
     0
  9
$DIMSCALE
 40
1.0
  9
$DIMASZ
 40
0.18
  9
$DIMEXO
 40
0.0625
  9
$DIMDLI
 40
0.38
  9
$DIMRND
 40
0.0
  9
$DIMDLE
 40
0.0
  9
$DIMEXE
 40
0.18
  9
$DIMTP
 40
0.0
  9
$DIMTM
 40
0.0
  9
$DIMTXT
 40
0.18
  9
$DIMCEN
 40
0.09
  9
$DIMTSZ
 40
0.0
  9
$DIMTOL
 70
     0
  9
$DIMLIM
 70
     0
  9
$DIMTIH
 70
     1
  9
$DIMTOH
 70
     1
  9
$DIMSE1
 70
     0
  9
$DIMSE2
 70
     0
  9
$DIMTAD
 70
     0
  9
$DIMZIN
 70
     0
  9
$DIMBLK
  1

  9
$DIMASO
 70
     1
  9
$DIMSHO
 70
     1
  9
$DIMPOST
  1

  9
$DIMAPOST
  1

  9
$DIMALT
 70
     0
  9
$DIMALTD
 70
     2
  9
$DIMALTF
 40
25.4
  9
$DIMLFAC
 40
1.0
  9
$DIMTOFL
 70
     0
  9
$DIMTVP
 40
0.0
  9
$DIMTIX
 70
     0
  9
$DIMSOXD
 70
     0
  9
$DIMSAH
 70
     0
  9
$DIMBLK1
  1

  9
$DIMBLK2
  1

  9
$DIMSTYLE
  2
Standard
  9
$DIMCLRD
 70
     0
  9
$DIMCLRE
 70
     0
  9
$DIMCLRT
 70
     0
  9
$DIMTFAC
 40
1.0
  9
$DIMGAP
 40
0.09
  9
$DIMJUST
 70
     0
  9
$DIMSD1
 70
     0
  9
$DIMSD2
 70
     0
  9
$DIMTOLJ
 70
     1
  9
$DIMTZIN
 70
     0
  9
$DIMALTZ
 70
     0
  9
$DIMALTTZ
 70
     0
  9
$DIMUPT
 70
     0
  9
$DIMDEC
 70
     4
  9
$DIMTDEC
 70
     4
  9
$DIMALTU
 70
     2
  9
$DIMALTTD
 70
     2
  9
$DIMTXSTY
  7
Standard
  9
$DIMAUNIT
 70
     0
  9
$DIMADEC
 70
     0
  9
$DIMALTRND
 40
0.0
  9
$DIMAZIN
 70
     0
  9
$DIMDSEP
 70
     0
  9
$DIMATFIT
 70
     3
  9
$DIMFRAC
 70
     0
  9
$DIMLDRBLK
  1

  9
$DIMLUNIT
 70
     2
  9
$DIMLWD
 70
     0
  9
$DIMLWE
 70
     0
  9
$DIMTMOVE
 70
     0
  9
$LUNITS
 70
     2
  9
$LUPREC
 70
     4
  9
$SKETCHINC
 40
0.1
  9
$FILLETRAD
 40
0.0
  9
$AUNITS
 70
     0
  9
$AUPREC
 70
     0
  9
$MENU
  1
acad
  9
$ELEVATION
 40
0.0
  9
$PELEVATION
 40
0.0
  9
$THICKNESS
 40
0.0
  9
$LIMCHECK
 70
     0
  9
$CHAMFERA
 40
0.0
  9
$CHAMFERB
 40
0.0
  9
$CHAMFERC
 40
0.0
  9
$CHAMFERD
 40
0.0
  9
$SKPOLY
 70
     0
  9
$TDCREATE
 40
2455632.355647766
  9
$TDUCREATE
 40
2455632.313981100
  9
$TDUPDATE
 40
2455632.357810475
  9
$TDUUPDATE
 40
2455632.316143808
  9
$TDINDWG
 40
0.0022893287
  9
$TDUSRTIMER
 40
0.0022893287
  9
$USRTIMER
 70
     1
  9
$ANGBASE
 50
0.0
  9
$ANGDIR
 70
     0
  9
$PDMODE
 70
     0
  9
$PDSIZE
 40
0.0
  9
$PLINEWID
 40
0.0
  9
$SPLFRAME
 70
     0
  9
$SPLINETYPE
 70
     6
  9
$SPLINESEGS
 70
     8
  9
$HANDSEED
  5
369
  9
$SURFTAB1
 70
     6
  9
$SURFTAB2
 70
     6
  9
$SURFTYPE
 70
     6
  9
$SURFU
 70
     6
  9
$SURFV
 70
     6
  9
$UCSBASE
  2

  9
$UCSNAME
  2

  9
$UCSORG
 10
0.0
 20
0.0
 30
0.0
  9
$UCSXDIR
 10
1.0
 20
0.0
 30
0.0
  9
$UCSYDIR
 10
0.0
 20
1.0
 30
0.0
  9
$UCSORTHOREF
  2

  9
$UCSORTHOVIEW
 70
     0
  9
$UCSORGTOP
 10
0.0
 20
0.0
 30
0.0
  9
$UCSORGBOTTOM
 10
0.0
 20
0.0
 30
0.0
  9
$UCSORGLEFT
 10
0.0
 20
0.0
 30
0.0
  9
$UCSORGRIGHT
 10
0.0
 20
0.0
 30
0.0
  9
$UCSORGFRONT
 10
0.0
 20
0.0
 30
0.0
  9
$UCSORGBACK
 10
0.0
 20
0.0
 30
0.0
  9
$PUCSBASE
  2

  9
$PUCSNAME
  2

  9
$PUCSORG
 10
0.0
 20
0.0
 30
0.0
  9
$PUCSXDIR
 10
1.0
 20
0.0
 30
0.0
  9
$PUCSYDIR
 10
0.0
 20
1.0
 30
0.0
  9
$PUCSORTHOREF
  2

  9
$PUCSORTHOVIEW
 70
     0
  9
$PUCSORGTOP
 10
0.0
 20
0.0
 30
0.0
  9
$PUCSORGBOTTOM
 10
0.0
 20
0.0
 30
0.0
  9
$PUCSORGLEFT
 10
0.0
 20
0.0
 30
0.0
  9
$PUCSORGRIGHT
 10
0.0
 20
0.0
 30
0.0
  9
$PUCSORGFRONT
 10
0.0
 20
0.0
 30
0.0
  9
$PUCSORGBACK
 10
0.0
 20
0.0
 30
0.0
  9
$USERI1
 70
     0
  9
$USERI2
 70
     0
  9
$USERI3
 70
     0
  9
$USERI4
 70
     0
  9
$USERI5
 70
     0
  9
$USERR1
 40
0.0
  9
$USERR2
 40
0.0
  9
$USERR3
 40
0.0
  9
$USERR4
 40
0.0
  9
$USERR5
 40
0.0
  9
$WORLDVIEW
 70
     1
  9
$SHADEDGE
 70
     3
  9
$SHADEDIF
 70
    70
  9
$TILEMODE
 70
     1
  9
$MAXACTVP
 70
    16
  9
$PINSBASE
 10
0.0
 20
0.0
 30
0.0
  9
$PLIMCHECK
 70
     0
  9
$PEXTMIN
 10
1.000000000000000E+20
 20
1.000000000000000E+20
 30
1.000000000000000E+20
  9
$PEXTMAX
 10
-1.000000000000000E+20
 20
-1.000000000000000E+20
 30
-1.000000000000000E+20
  9
$PLIMMIN
 10
0.0
 20
0.0
  9
$PLIMMAX
 10
12.0
 20
9.0
  9
$UNITMODE
 70
     0
  9
$VISRETAIN
 70
     0
  9
$PLINEGEN
 70
     1
  9
$PSLTSCALE
 70
     0
  9
$TREEDEPTH
 70
  3020
  9
$CMLSTYLE
  2
Standard
  9
$CMLJUST
 70
     0
  9
$CMLSCALE
 40
1.0
  9
$PROXYGRAPHICS
 70
     0
  9
$MEASUREMENT
 70
     0
  9
$CELWEIGHT
370
     0
  9
$ENDCAPS
280
     0
  9
$JOINSTYLE
280
     0
  9
$LWDISPLAY
290
     0
  9
$INSUNITS
 70
     0
  9
$HYPERLINKBASE
  1

  9
$STYLESHEET
  1

  9
$XEDIT
290
     1
  9
$CEPSNTYPE
380
     0
  9
$PSTYLEMODE
290
     1
  9
$FINGERPRINTGUID
  2

  9
$VERSIONGUID
  2
{A461A825-E6B9-4D7C-90F7-021F198A0974}
  9
$EXTNAMES
290
     1
  9
$PSVPSCALE
 40
0.0
  9
$OLESTARTUP
290
     0
  0
ENDSEC
  0
SECTION
  2
CLASSES
  0
CLASS
  1
IMAGE
  2
AcDbRasterImage
  3
ISM
 90
    34943
280
     0
281
     1
  0
CLASS
  1
DICTIONARYVAR
  2
AcDbDictionaryVar
  3
ObjectDBX Classes
 90
        0
280
     0
281
     0
  0
CLASS
  1
RASTERVARIABLES
  2
AcDbRasterVariables
  3
ISM
 90
    32768
280
     0
281
     0
  0
CLASS
  1
IMAGEDEF
  2
AcDbRasterImageDef
  3
ISM
 90
    32768
280
     0
281
     0
  0
CLASS
  1
IMAGEDEF_REACTOR
  2
AcDbRasterImageDefReactor
  3
ISM
 90
    32769
280
     0
281
     0
  0
CLASS
  1
IDBUFFER
  2
AcDbIdBuffer
  3
ObjectDBX Classes
 90
    32768
280
     0
281
     0
  0
CLASS
  1
SPATIAL_FILTER
  2
AcDbSpatialFilter
  3
ObjectDBX Classes
 90
        0
280
     0
281
     0
  0
CLASS
  1
SORTENTSTABLE
  2
AcDbSortentsTable
  3
ObjectDBX Classes
 90
        0
280
     0
281
     0
  0
CLASS
  1
LAYER_INDEX
  2
AcDbLayerIndex
  3
ObjectDBX Classes
 90
    32768
280
     0
281
     0
  0
CLASS
  1
SPATIAL_INDEX
  2
AcDbSpatialIndex
  3
ObjectDBX Classes
 90
    32768
280
     0
281
     0
  0
CLASS
  1
OBJECT_PTR
  2
CAseDLPNTableRecord
  3
ASE-LPNTableRecord
 90
    32769
280
     0
281
     0
  0
CLASS
  1
LAYOUT
  2
AcDbLayout
  3
ObjectDBX Classes
 90
        0
280
     0
281
     0
  0
CLASS
  1
PLOTSETTINGS
  2
AcDbPlotSettings
  3
ObjectDBX Classes
 90
    32768
280
     0
281
     0
  0
CLASS
  1
ACDBDICTIONARYWDFLT
  2
AcDbDictionaryWithDefault
  3
ObjectDBX Classes
 90
        0
280
     0
281
     0
  0
CLASS
  1
ACDBPLACEHOLDER
  2
AcDbPlaceHolder
  3
ObjectDBX Classes
 90
        0
280
     0
281
     0
  0
CLASS
  1
VBA_PROJECT
  2
AcDbVbaProject
  3
acad
 90
    32768
280
     0
281
     0
  0
CLASS
  1
WIPEOUT
  2
AcDbWipeout
  3
"WipeOut|Product Desc: Object Enabler for WipeOut entity                        |Company: Autodesk, Inc.                        |WEB Address: www.autodesk.com"
 90
    34943
280
     0
281
     1
  0
CLASS
  1
WIPEOUTVARIABLES
  2
AcDbWipeoutVariables
  3
"WipeOut|Product Desc:     WipeOut Dbx Application|Company:          Autodesk, Inc.|WEB Address:      www.autodesk.com"
 90
        0
280
     0
281
     0
  0
CLASS
  1
RTEXT
  2
RText
  3
RText|AutoCAD Express Tool|expresstools@autodesk.com
 90
    32768
280
     0
281
     1
  0
CLASS
  1
ARCALIGNEDTEXT
  2
AcDbArcAlignedText
  3
ATEXT|AutoCAD Express Tool|expresstools@autodesk.com
 90
    32768
280
     0
281
     1
  0
CLASS
  1
MATERIAL
  2
AcDbMaterial
  3
ObjectDBX Classes
 90
     1153
280
     0
281
     0
  0
CLASS
  1
VISUALSTYLE
  2
AcDbVisualStyle
  3
ObjectDBX Classes
 90
     4095
280
     0
281
     0
  0
CLASS
  1
SCALE
  2
AcDbScale
  3
ObjectDBX Classes
 90
     1153
280
     0
281
     0
  0
CLASS
  1
TABLESTYLE
  2
AcDbTableStyle
  3
ObjectDBX Classes
 90
     4095
280
     0
281
     0
  0
CLASS
  1
MLEADERSTYLE
  2
AcDbMLeaderStyle
  3
ACDB_MLEADERSTYLE_CLASS
 90
     4095
280
     0
281
     0
  0
CLASS
  1
CELLSTYLEMAP
  2
AcDbCellStyleMap
  3
ObjectDBX Classes
 90
     1152
280
     0
281
     0
  0
ENDSEC
  0
SECTION
  2
TABLES
  0
TABLE
  2
VPORT
  5
7
330
0
100
AcDbSymbolTable
 70
     1
  0
VPORT
  5
15
330
7
100
AcDbSymbolTableRecord
100
AcDbViewportTableRecord
  2
*ACTIVE
 70
     0
 10
0.0
 20
0.0
 11
1.0
 21
1.0
 12
89.38421496499461
 22
76.05443249736424
 13
0.0
 23
0.0
 14
1.0
 24
1.0
 15
0.0
 25
0.0
 16
0.0
 26
0.0
 36
1.0
 17
0.0
 27
0.0
 37
0.0
 40
342.0184363479746
 41
2.251225490196078
 42
50.0
 43
0.0
 44
0.0
 50
0.0
 51
0.0
 71
     0
 72
   100
 73
     1
 74
     1
 75
     0
 76
     0
 77
     0
 78
     0
281
     0
 65
     0
110
0.0
120
0.0
130
0.0
111
1.0
121
0.0
131
0.0
112
0.0
122
1.0
132
0.0
 79
     0
146
0.0
  0
ENDTAB
  0
TABLE
  2
LTYPE
  5
4
330
0
100
AcDbSymbolTable
 70
     5
  0
LTYPE
  5
11
330
4
100
AcDbSymbolTableRecord
100
AcDbLinetypeTableRecord
  2
ByBlock
 70
     0
  3

 72
    65
 73
     0
 40
0.0
  0
LTYPE
  5
12
330
4
100
AcDbSymbolTableRecord
100
AcDbLinetypeTableRecord
  2
ByLayer
 70
     0
  3

 72
    65
 73
     0
 40
0.0
  0
LTYPE
  5
13
330
4
100
AcDbSymbolTableRecord
100
AcDbLinetypeTableRecord
  2
CONTINUOUS
 70
     0
  3
Solid line
 72
    65
 73
     0
 40
0.0
  0
LTYPE
  5
28
330
4
100
AcDbSymbolTableRecord
100
AcDbLinetypeTableRecord
  2
HIDDEN2
 70
     0
  3
_ _ _ _ _ _ _ _ _ _ _ _ _ _ _ _ _ _ _ _ _ _ _ _
 72
    65
 73
     2
 40
0.1875
 49
0.125
 74
     0
 49
-0.0625
 74
     0
  0
LTYPE
  5
29
330
4
100
AcDbSymbolTableRecord
100
AcDbLinetypeTableRecord
  2
CENTER2
 70
     0
  3
___ _ ___ _ ___ _ ___ _ ___ _ ___ _ ___ _ ___ _
 72
    65
 73
     4
 40
1.125
 49
0.75
 74
     0
 49
-0.125
 74
     0
 49
0.125
 74
     0
 49
-0.125
 74
     0
  0
LTYPE
  5
2A
330
4
100
AcDbSymbolTableRecord
100
AcDbLinetypeTableRecord
  2
PHANTOM2
 70
     0
  3
___ _ _ ___ _ _ ___ _ _ ___ _ _ ___ _ _ ___ _ _
 72
    65
 73
     6
 40
1.25
 49
0.625
 74
     0
 49
-0.125
 74
     0
 49
0.125
 74
     0
 49
-0.125
 74
     0
 49
0.125
 74
     0
 49
-0.125
 74
     0
  0
LTYPE
  5
2B
330
4
100
AcDbSymbolTableRecord
100
AcDbLinetypeTableRecord
  2
DOT2
 70
     0
  3
...............................................
 72
    65
 73
     2
 40
0.125
 49
0.0
 74
     0
 49
-0.125
 74
     0
  0
ENDTAB
  0
TABLE
  2
LAYER
  5
2
330
0
100
AcDbSymbolTable
 70
    15
  0
LAYER
  5
14
102
{ACAD_XDICTIONARY
360
304
102
}
330
2
100
AcDbSymbolTableRecord
100
AcDbLayerTableRecord
  2
0
 70
     0
 62
     7
  6
CONTINUOUS
370
    -3
390
1D
  0
LAYER
  5
2D
102
{ACAD_XDICTIONARY
360
306
102
}
330
2
100
AcDbSymbolTableRecord
100
AcDbLayerTableRecord
  2
1
 70
     0
 62
     7
  6
CONTINUOUS
370
    -3
390
1D
  0
LAYER
  5
2F
102
{ACAD_XDICTIONARY
360
308
102
}
330
2
100
AcDbSymbolTableRecord
100
AcDbLayerTableRecord
  2
11
 70
     0
 62
     7
  6
CONTINUOUS
370
    -3
390
1D
  0
LAYER
  5
31
102
{ACAD_XDICTIONARY
360
30A
102
}
330
2
100
AcDbSymbolTableRecord
100
AcDbLayerTableRecord
  2
7
 70
     0
 62
     7
  6
CONTINUOUS
370
    -3
390
1D
  0
LAYER
  5
33
102
{ACAD_XDICTIONARY
360
30C
102
}
330
2
100
AcDbSymbolTableRecord
100
AcDbLayerTableRecord
  2
AM_0
 70
     0
 62
     7
  6
CONTINUOUS
370
    -3
390
1D
  0
LAYER
  5
35
102
{ACAD_XDICTIONARY
360
30E
102
}
330
2
100
AcDbSymbolTableRecord
100
AcDbLayerTableRecord
  2
AM_1
 70
     0
 62
     7
  6
CONTINUOUS
370
    -3
390
1D
  0
LAYER
  5
37
102
{ACAD_XDICTIONARY
360
310
102
}
330
2
100
AcDbSymbolTableRecord
100
AcDbLayerTableRecord
  2
DEFAULT
 70
     0
 62
     7
  6
CONTINUOUS
370
    -3
390
1D
  0
LAYER
  5
39
102
{ACAD_XDICTIONARY
360
312
102
}
330
2
100
AcDbSymbolTableRecord
100
AcDbLayerTableRecord
  2
PREDEFINITO
 70
     0
 62
     7
  6
CONTINUOUS
370
    -3
390
1D
  0
LAYER
  5
3B
102
{ACAD_XDICTIONARY
360
314
102
}
330
2
100
AcDbSymbolTableRecord
100
AcDbLayerTableRecord
  2
PROFILATI-IN-ALLUMINIO
 70
     0
 62
     7
  6
CONTINUOUS
370
    -3
390
1D
  0
LAYER
  5
3D
102
{ACAD_XDICTIONARY
360
316
102
}
330
2
100
AcDbSymbolTableRecord
100
AcDbLayerTableRecord
  2
TESTI
 70
     0
 62
     7
  6
CONTINUOUS
370
    -3
390
1D
  0
LAYER
  5
48
102
{ACAD_XDICTIONARY
360
318
102
}
330
2
100
AcDbSymbolTableRecord
100
AcDbLayerTableRecord
  2
15_301_00
 70
     0
 62
     7
  6
CONTINUOUS
370
    -3
390
1D
  0
LAYER
  5
69
102
{ACAD_XDICTIONARY
360
31A
102
}
330
2
100
AcDbSymbolTableRecord
100
AcDbLayerTableRecord
  2
DV1_0
 70
     0
 62
     7
  6
CONTINUOUS
370
    -3
390
1D
  0
LAYER
  5
71
102
{ACAD_XDICTIONARY
360
31C
102
}
330
2
100
AcDbSymbolTableRecord
100
AcDbLayerTableRecord
  2
DV2_0
 70
     0
 62
     7
  6
CONTINUOUS
370
    -3
390
1D
  0
LAYER
  5
79
102
{ACAD_XDICTIONARY
360
31E
102
}
330
2
100
AcDbSymbolTableRecord
100
AcDbLayerTableRecord
  2
DV3_0
 70
     0
 62
     7
  6
CONTINUOUS
370
    -3
390
1D
  0
LAYER
  5
212
330
2
100
AcDbSymbolTableRecord
100
AcDbLayerTableRecord
  2
Defpoints
 70
     0
 62
     7
  6
CONTINUOUS
290
     0
370
    -3
390
1D
  0
ENDTAB
  0
TABLE
  2
STYLE
  5
3
330
0
100
AcDbSymbolTable
 70
     6
  0
STYLE
  5
17
330
3
100
AcDbSymbolTableRecord
100
AcDbTextStyleTableRecord
  2
Standard
 70
     0
 40
0.0
 41
1.0
 50
0.0
 71
     0
 42
0.2
  3
txt
  4

  0
STYLE
  5
55
330
3
100
AcDbSymbolTableRecord
100
AcDbTextStyleTableRecord
  2
seansi_ttf
 70
     0
 40
0.0
 41
1.0
 50
0.0
 71
     0
 42
0.2
  3
seansi.ttf
  4

1001
ACAD
1000
Stencil
1071
        2
  0
STYLE
  5
57
330
3
100
AcDbSymbolTableRecord
100
AcDbTextStyleTableRecord
  2
arial_ttf
 70
     0
 40
0.0
 41
1.0
 50
0.0
 71
     0
 42
0.2
  3
arial.ttf
  4

1001
ACAD
1000
Arial
1071
        2
  0
STYLE
  5
65
330
3
100
AcDbSymbolTableRecord
100
AcDbTextStyleTableRecord
  2
seiso_ttfB
 70
     0
 40
0.0
 41
1.0
 50
0.0
 71
     0
 42
0.2
  3
seiso.ttf
  4

1001
ACAD
1000
Solid Edge ISO
1071
 33554434
  0
STYLE
  5
80
330
3
100
AcDbSymbolTableRecord
100
AcDbTextStyleTableRecord
  2
seiso_ttf
 70
     0
 40
0.0
 41
1.0
 50
0.0
 71
     0
 42
0.2
  3
seiso.ttf
  4

1001
ACAD
1000
Solid Edge ISO
1071
        2
  0
STYLE
  5
9E
330
3
100
AcDbSymbolTableRecord
100
AcDbTextStyleTableRecord
  2
semeci1_ttf
 70
     0
 40
0.0
 41
1.0
 50
0.0
 71
     0
 42
0.2
  3
semeci1.ttf
  4

1001
ACAD
1000
Solid Edge ISO1 Symbols
1071
        2
  0
ENDTAB
  0
TABLE
  2
VIEW
  5
5
330
0
100
AcDbSymbolTable
 70
     0
  0
ENDTAB
  0
TABLE
  2
UCS
  5
6
330
0
100
AcDbSymbolTable
 70
     0
  0
ENDTAB
  0
TABLE
  2
APPID
  5
8
330
0
100
AcDbSymbolTable
 70
     3
  0
APPID
  5
16
330
8
100
AcDbSymbolTableRecord
100
AcDbRegAppTableRecord
  2
ACAD
 70
     0
  0
APPID
  5
322
330
8
100
AcDbSymbolTableRecord
100
AcDbRegAppTableRecord
  2
DCO15
 70
     0
  0
APPID
  5
366
330
8
100
AcDbSymbolTableRecord
100
AcDbRegAppTableRecord
  2
ACAD_MLEADERVER
 70
     0
  0
ENDTAB
  0
TABLE
  2
DIMSTYLE
  5
9
330
0
100
AcDbSymbolTable
 70
     2
100
AcDbDimStyleTable
 71
     0
  0
DIMSTYLE
105
18
330
9
100
AcDbSymbolTableRecord
100
AcDbDimStyleTableRecord
  2
Standard
 70
     0
289
     0
340
17
  0
DIMSTYLE
105
81
330
9
100
AcDbSymbolTableRecord
100
AcDbDimStyleTableRecord
  2
ISO
 70
     0
 41
3.0
 42
0.0
 44
1.5
 73
     0
 74
     0
 77
     1
 78
     8
140
3.0
141
1.5
147
1.5
172
     1
173
     1
176
   136
177
   136
178
   136
271
     1
272
     1
278
    44
284
     8
340
80
343
7F
344
7F
  0
ENDTAB
  0
TABLE
  2
BLOCK_RECORD
  5
1
330
0
100
AcDbSymbolTable
 70
    29
  0
BLOCK_RECORD
  5
A
102
{ACAD_XDICTIONARY
360
2E0
102
}
330
1
100
AcDbSymbolTableRecord
100
AcDbBlockTableRecord
  2
*MODEL_SPACE
340
20
  0
BLOCK_RECORD
  5
B
330
1
100
AcDbSymbolTableRecord
100
AcDbBlockTableRecord
  2
*PAPER_SPACE
340
21
  0
BLOCK_RECORD
  5
67
330
1
100
AcDbSymbolTableRecord
100
AcDbBlockTableRecord
  2
SE0
340
0
102
{BLKREFS
331
6E
102
}
  0
BLOCK_RECORD
  5
68
330
1
100
AcDbSymbolTableRecord
100
AcDbBlockTableRecord
  2
SE1
340
0
  0
BLOCK_RECORD
  5
6F
330
1
100
AcDbSymbolTableRecord
100
AcDbBlockTableRecord
  2
SE2
340
0
102
{BLKREFS
331
76
102
}
  0
BLOCK_RECORD
  5
70
330
1
100
AcDbSymbolTableRecord
100
AcDbBlockTableRecord
  2
SE3
340
0
  0
BLOCK_RECORD
  5
77
330
1
100
AcDbSymbolTableRecord
100
AcDbBlockTableRecord
  2
SE4
340
0
102
{BLKREFS
331
7E
102
}
  0
BLOCK_RECORD
  5
78
330
1
100
AcDbSymbolTableRecord
100
AcDbBlockTableRecord
  2
SE5
340
0
  0
BLOCK_RECORD
  5
7F
330
1
100
AcDbSymbolTableRecord
100
AcDbBlockTableRecord
  2
_SE_FILLED
340
0
102
{BLKREFS
331
26F
331
270
331
278
331
279
331
281
331
282
331
28A
331
28B
331
294
331
295
331
29B
331
29C
331
2A4
331
2A5
331
2AD
331
2AE
331
2B6
331
2B7
331
2BF
331
2C0
102
}
  0
BLOCK_RECORD
  5
82
330
1
100
AcDbSymbolTableRecord
100
AcDbBlockTableRecord
  2
SE6
340
0
102
{BLKREFS
331
138
102
}
  0
BLOCK_RECORD
  5
85
330
1
100
AcDbSymbolTableRecord
100
AcDbBlockTableRecord
  2
DMBLK1568
340
0
  0
BLOCK_RECORD
  5
87
330
1
100
AcDbSymbolTableRecord
100
AcDbBlockTableRecord
  2
SE7
340
0
  0
BLOCK_RECORD
  5
8A
330
1
100
AcDbSymbolTableRecord
100
AcDbBlockTableRecord
  2
DMBLK1569
340
0
  0
BLOCK_RECORD
  5
8C
330
1
100
AcDbSymbolTableRecord
100
AcDbBlockTableRecord
  2
SE8
340
0
  0
BLOCK_RECORD
  5
8F
330
1
100
AcDbSymbolTableRecord
100
AcDbBlockTableRecord
  2
DMBLK1570
340
0
  0
BLOCK_RECORD
  5
91
330
1
100
AcDbSymbolTableRecord
100
AcDbBlockTableRecord
  2
SE9
340
0
  0
BLOCK_RECORD
  5
94
330
1
100
AcDbSymbolTableRecord
100
AcDbBlockTableRecord
  2
DMBLK1571
340
0
  0
BLOCK_RECORD
  5
96
330
1
100
AcDbSymbolTableRecord
100
AcDbBlockTableRecord
  2
SE10
340
0
  0
BLOCK_RECORD
  5
99
330
1
100
AcDbSymbolTableRecord
100
AcDbBlockTableRecord
  2
DMBLK1572
340
0
  0
BLOCK_RECORD
  5
9B
330
1
100
AcDbSymbolTableRecord
100
AcDbBlockTableRecord
  2
SE11
340
0
  0
BLOCK_RECORD
  5
9F
330
1
100
AcDbSymbolTableRecord
100
AcDbBlockTableRecord
  2
DMBLK1573
340
0
  0
BLOCK_RECORD
  5
A1
330
1
100
AcDbSymbolTableRecord
100
AcDbBlockTableRecord
  2
SE12
340
0
  0
BLOCK_RECORD
  5
A4
330
1
100
AcDbSymbolTableRecord
100
AcDbBlockTableRecord
  2
DMBLK1574
340
0
  0
BLOCK_RECORD
  5
A6
330
1
100
AcDbSymbolTableRecord
100
AcDbBlockTableRecord
  2
SE13
340
0
  0
BLOCK_RECORD
  5
A9
330
1
100
AcDbSymbolTableRecord
100
AcDbBlockTableRecord
  2
DMBLK1575
340
0
  0
BLOCK_RECORD
  5
AB
330
1
100
AcDbSymbolTableRecord
100
AcDbBlockTableRecord
  2
SE14
340
0
  0
BLOCK_RECORD
  5
AE
330
1
100
AcDbSymbolTableRecord
100
AcDbBlockTableRecord
  2
DMBLK1576
340
0
  0
BLOCK_RECORD
  5
B0
330
1
100
AcDbSymbolTableRecord
100
AcDbBlockTableRecord
  2
SE15
340
0
  0
BLOCK_RECORD
  5
B3
330
1
100
AcDbSymbolTableRecord
100
AcDbBlockTableRecord
  2
DMBLK1577
340
0
  0
BLOCK_RECORD
  5
B5
330
1
100
AcDbSymbolTableRecord
100
AcDbBlockTableRecord
  2
SE16
340
0
  0
BLOCK_RECORD
  5
B8
330
1
100
AcDbSymbolTableRecord
100
AcDbBlockTableRecord
  2
DMBLK1578
340
0
  0
ENDTAB
  0
ENDSEC
  0
SECTION
  2
BLOCKS
  0
BLOCK
  5
D
330
A
100
AcDbEntity
  8
0
100
AcDbBlockBegin
  2
*MODEL_SPACE
 70
     0
 10
0.0
 20
0.0
 30
0.0
  3
*MODEL_SPACE
  1

  0
ENDBLK
  5
E
330
A
100
AcDbEntity
  8
0
100
AcDbBlockEnd
  0
BLOCK
  5
F
330
B
100
AcDbEntity
 67
     1
  8
0
100
AcDbBlockBegin
  2
*PAPER_SPACE
 70
     0
 10
0.0
 20
0.0
 30
0.0
  3
*PAPER_SPACE
  1

  0
ENDBLK
  5
10
330
B
100
AcDbEntity
 67
     1
  8
0
100
AcDbBlockEnd
  0
BLOCK
  5
DE
330
67
100
AcDbEntity
  8
0
 62
     1
 48
0.0
370
     0
100
AcDbBlockBegin
  2
SE0
 70
     0
 10
0.0
 20
0.0
 30
0.0
  3
SE0
  1

  0
ENDBLK
  5
DF
330
67
100
AcDbEntity
  8
0
 62
     1
 48
0.0
370
     0
100
AcDbBlockEnd
  0
BLOCK
  5
BA
330
68
100
AcDbEntity
  8
0
 62
     1
 48
0.0
370
     0
100
AcDbBlockBegin
  2
SE1
 70
     0
 10
0.0
 20
0.0
 30
0.0
  3
SE1
  1

  0
LINE
  5
BB
330
68
100
AcDbEntity
  8
DV1_0
  6
Continuous
 62
     7
370
     0
100
AcDbLine
 10
143.9871265018805
 20
108.4425385393096
 30
0.0
 11
136.4908767140974
 21
108.4425385393096
 31
0.0
  0
LINE
  5
BC
330
68
100
AcDbEntity
  8
0
  6
Continuous
 62
     7
370
     0
100
AcDbLine
 10
136.4908767140974
 20
219.4425385393096
 30
0.0
 11
143.9871265018805
 21
219.4425385393096
 31
0.0
  0
LINE
  5
BD
330
68
100
AcDbEntity
  8
0
  6
Continuous
 62
     7
370
     0
100
AcDbLine
 10
136.4908767140974
 20
108.4425385393096
 30
0.0
 11
136.4908767140974
 21
219.4425385393096
 31
0.0
  0
LINE
  5
BE
330
68
100
AcDbEntity
  8
0
  6
HIDDEN2
 62
     7
370
     0
100
AcDbLine
 10
126.4908772498505
 20
108.4425385393096
 30
0.0
 11
126.4908772498505
 21
219.4425385393096
 31
0.0
  0
LINE
  5
BF
330
68
100
AcDbEntity
  8
0
  6
Continuous
 62
     7
370
     0
100
AcDbLine
 10
136.4898766779159
 20
106.4425385393096
 30
0.0
 11
141.9871265222902
 21
106.4425385393096
 31
0.0
  0
ARC
  5
C0
330
68
100
AcDbEntity
  8
0
  6
HIDDEN2
 62
     7
370
     0
100
AcDbCircle
 10
124.4908772498505
 20
108.4425385393096
 30
0.0
 40
2.000000000000001
100
AcDbArc
 50
269.9999999999996
 51
360.0
  0
LINE
  5
C1
330
68
100
AcDbEntity
  8
0
  6
Continuous
 62
     7
370
     0
100
AcDbLine
 10
127.740157688141
 20
106.4425385393096
 30
0.0
 11
109.1508718467212
 21
106.4425385393096
 31
0.0
  0
LINE
  5
C2
330
68
100
AcDbEntity
  8
0
  6
Continuous
 62
     7
370
     0
100
AcDbLine
 10
136.4908767140974
 20
219.4425385393096
 30
0.0
 11
127.7411577243225
 21
219.4425385393096
 31
0.0
  0
LINE
  5
C3
330
68
100
AcDbEntity
  8
0
  6
Continuous
 62
     7
370
     0
100
AcDbLine
 10
136.4898766779159
 20
106.4425385393096
 30
0.0
 11
127.740157688141
 21
106.4425385393096
 31
0.0
  0
LINE
  5
C4
330
68
100
AcDbEntity
  8
0
  6
Continuous
 62
     7
370
     0
100
AcDbLine
 10
127.7411577243225
 20
108.4425385393096
 30
0.0
 11
136.4908767140974
 21
108.4425385393096
 31
0.0
  0
LINE
  5
C5
330
68
100
AcDbEntity
  8
0
  6
Continuous
 62
     7
370
     0
100
AcDbLine
 10
107.1508718467212
 20
108.4425385393096
 30
0.0
 11
107.1508718467212
 21
219.4425385393096
 31
0.0
  0
LINE
  5
C6
330
68
100
AcDbEntity
  8
0
  6
Continuous
 62
     7
370
     0
100
AcDbLine
 10
127.7411577243225
 20
219.4425385393096
 30
0.0
 11
107.1510124644103
 21
219.4425385393096
 31
0.0
  0
LINE
  5
C7
330
68
100
AcDbEntity
  8
0
  6
Continuous
 62
     7
370
     0
100
AcDbLine
 10
141.9871265222902
 20
221.4425385393096
 30
0.0
 11
136.4898766779159
 21
221.4425385393096
 31
0.0
  0
LINE
  5
C8
330
68
100
AcDbEntity
  8
0
  6
Continuous
 62
     7
370
     0
100
AcDbLine
 10
127.740157688141
 20
221.4425385393096
 30
0.0
 11
136.4898766779159
 21
221.4425385393096
 31
0.0
  0
LINE
  5
C9
330
68
100
AcDbEntity
  8
0
  6
Continuous
 62
     7
370
     0
100
AcDbLine
 10
107.1510124644103
 20
219.4425385393096
 30
0.0
 11
107.1510124644103
 21
108.4425385393096
 31
0.0
  0
LINE
  5
CA
330
68
100
AcDbEntity
  8
0
  6
Continuous
 62
     7
370
     0
100
AcDbLine
 10
107.1510124644103
 20
108.4425385393096
 30
0.0
 11
127.7411577243225
 21
108.4425385393096
 31
0.0
  0
ARC
  5
CB
330
68
100
AcDbEntity
  8
0
  6
HIDDEN2
 62
     7
370
     0
100
AcDbCircle
 10
124.4908772498505
 20
219.4425385393096
 30
0.0
 40
2.0
100
AcDbArc
 50
0.0
 51
90.0
  0
ELLIPSE
  5
CC
330
68
100
AcDbEntity
  8
0
  6
Continuous
 62
     7
370
     0
100
AcDbEllipse
 10
136.4898766779159
 20
219.4425385393096
 30
0.0
 11
0.0
 21
-1.999999999999997
 31
0.0
210
0.0
220
0.0
230
1.0
 40
0.0005000180907608
 41
1.570796326794896
 42
3.141592653589793
  0
ELLIPSE
  5
CD
330
68
100
AcDbEntity
  8
0
  6
Continuous
 62
     7
370
     0
100
AcDbEllipse
 10
109.1508718467212
 20
219.4425385393096
 30
0.0
 11
-0.0000000000329632
 21
-1.999999999997904
 31
0.0
210
0.0
220
0.0
230
1.0
 40
0.9999296911575596
 41
3.141592653589793
 42
4.712388980401169
  0
ELLIPSE
  5
CE
330
68
100
AcDbEntity
  8
0
  6
Continuous
 62
     7
370
     0
100
AcDbEllipse
 10
127.740157688141
 20
219.4425385393096
 30
0.0
 11
0.0000000000000009
 21
-1.999999999999998
 31
0.0
210
0.0
220
0.0
230
1.0
 40
0.0005000180907603
 41
1.570796326794896
 42
3.141592653588925
  0
LINE
  5
CF
330
68
100
AcDbEntity
  8
0
  6
Continuous
 62
     7
370
     0
100
AcDbLine
 10
127.7411577243225
 20
108.4425385393096
 30
0.0
 11
127.7411577243225
 21
219.4425385393096
 31
0.0
  0
ELLIPSE
  5
D0
330
68
100
AcDbEntity
  8
0
  6
Continuous
 62
     7
370
     0
100
AcDbEllipse
 10
136.4898766779159
 20
108.4425385393096
 30
0.0
 11
0.0
 21
2.000000000000001
 31
0.0
210
0.0
220
0.0
230
1.0
 40
0.0005000180907608
 41
3.141592653589793
 42
4.712388980384689
  0
ELLIPSE
  5
D1
330
68
100
AcDbEntity
  8
0
  6
Continuous
 62
     7
370
     0
100
AcDbEllipse
 10
127.740157688141
 20
108.4425385393096
 30
0.0
 11
0.0
 21
1.999999999999974
 31
0.0
210
0.0
220
0.0
230
1.0
 40
0.0005000180907607
 41
3.141592653589793
 42
4.712388980384696
  0
ARC
  5
D2
330
68
100
AcDbEntity
  8
0
  6
Continuous
 62
     7
370
     0
100
AcDbCircle
 10
109.1508718467212
 20
219.4425385393096
 30
0.0
 40
2.000000000000001
100
AcDbArc
 50
90.0
 51
180.0
  0
LINE
  5
D3
330
68
100
AcDbEntity
  8
0
  6
Continuous
 62
     7
370
     0
100
AcDbLine
 10
107.1510124644103
 20
108.4425385393096
 30
0.0
 11
107.1508718467212
 21
108.4425385393096
 31
0.0
  0
ARC
  5
D4
330
68
100
AcDbEntity
  8
0
  6
Continuous
 62
     7
370
     0
100
AcDbCircle
 10
109.1508718467212
 20
108.4425385393096
 30
0.0
 40
2.000000000000001
100
AcDbArc
 50
180.0
 51
270.0
  0
ELLIPSE
  5
D5
330
68
100
AcDbEntity
  8
0
  6
Continuous
 62
     7
370
     0
100
AcDbEllipse
 10
109.1508718467212
 20
108.4425385393096
 30
0.0
 11
-0.0000000001018456
 21
1.999999999997892
 31
0.0
210
0.0
220
0.0
230
1.0
 40
0.9999296911575596
 41
1.57079632674397
 42
3.141592653538866
  0
LINE
  5
D6
330
68
100
AcDbEntity
  8
0
  6
Continuous
 62
     7
370
     0
100
AcDbLine
 10
107.1510124644103
 20
219.4425385393096
 30
0.0
 11
107.1508718467212
 21
219.4425385393096
 31
0.0
  0
CIRCLE
  5
D7
330
68
100
AcDbEntity
  8
0
  6
HIDDEN2
 62
     7
370
     0
100
AcDbCircle
 10
116.6508718467212
 20
211.9425385393096
 30
0.0
 40
3.174999999999999
  0
CIRCLE
  5
D8
330
68
100
AcDbEntity
  8
0
  6
HIDDEN2
 62
     7
370
     0
100
AcDbCircle
 10
116.6508718467212
 20
115.9425385393096
 30
0.0
 40
3.174999999999999
  0
LINE
  5
D9
330
68
100
AcDbEntity
  8
0
  6
Continuous
 62
     7
370
     0
100
AcDbLine
 10
143.9871265784167
 20
108.4425385393096
 30
0.0
 11
143.9871265784167
 21
219.4425385393096
 31
0.0
  0
ARC
  5
DA
330
68
100
AcDbEntity
  8
0
  6
Continuous
 62
     7
370
     0
100
AcDbCircle
 10
141.9871265784167
 20
108.4425385393096
 30
0.0
 40
2.000000000000001
100
AcDbArc
 50
270.0
 51
360.0
  0
ARC
  5
DB
330
68
100
AcDbEntity
  8
0
  6
Continuous
 62
     7
370
     0
100
AcDbCircle
 10
141.9871265784167
 20
219.4425385393096
 30
0.0
 40
2.0
100
AcDbArc
 50
0.0
 51
90.0
  0
LINE
  5
DC
330
68
100
AcDbEntity
  8
0
  6
Continuous
 62
     7
370
     0
100
AcDbLine
 10
109.1508718467212
 20
221.4425385393096
 30
0.0
 11
127.740157688141
 21
221.4425385393096
 31
0.0
  0
ENDBLK
  5
1EF
330
68
100
AcDbEntity
  8
0
370
     0
100
AcDbBlockEnd
  0
BLOCK
  5
FC
330
6F
100
AcDbEntity
  8
0
 62
     1
 48
0.0
370
     0
100
AcDbBlockBegin
  2
SE2
 70
     0
 10
0.0
 20
0.0
 30
0.0
  3
SE2
  1

  0
ENDBLK
  5
FD
330
6F
100
AcDbEntity
  8
0
 62
     1
 48
0.0
370
     0
100
AcDbBlockEnd
  0
BLOCK
  5
E0
330
70
100
AcDbEntity
  8
0
 62
     1
 48
0.0
370
     0
100
AcDbBlockBegin
  2
SE3
 70
     0
 10
0.0
 20
0.0
 30
0.0
  3
SE3
  1

  0
ARC
  5
E1
330
70
100
AcDbEntity
  8
DV2_0
  6
Continuous
 62
     7
370
     0
100
AcDbCircle
 10
136.4871265784167
 20
52.4383962388011
 30
0.0
 40
7.499999999999999
100
AcDbArc
 50
270.0286489274747
 51
89.98772188826682
  0
LINE
  5
E2
330
70
100
AcDbEntity
  8
0
  6
Continuous
 62
     7
370
     0
100
AcDbLine
 10
126.4908772498505
 20
80.4391214050573
 30
0.0
 11
126.4908772498505
 21
69.9383953012332
 31
0.0
  0
LINE
  5
E3
330
70
100
AcDbEntity
  8
0
  6
HIDDEN2
 62
     7
370
     0
100
AcDbLine
 10
124.4908772498505
 20
78.43912140505729
 30
0.0
 11
126.4908772498505
 21
80.4391214050573
 31
0.0
  0
ARC
  5
E4
330
70
100
AcDbEntity
  8
0
  6
Continuous
 62
     7
370
     0
100
AcDbCircle
 10
136.4908767140974
 20
69.9383953012332
 30
0.0
 40
9.999999464246901
100
AcDbArc
 50
180.0
 51
269.987721888267
  0
LINE
  5
E5
330
70
100
AcDbEntity
  8
0
  6
Continuous
 62
     7
370
     0
100
AcDbLine
 10
136.4908767140974
 20
44.93839717636901
 30
0.0
 11
127.7411577243225
 21
44.93402215803813
 31
0.0
  0
LINE
  5
E6
330
70
100
AcDbEntity
  8
0
  6
Continuous
 62
     7
370
     0
100
AcDbLine
 10
124.4908772498505
 20
80.4391214050573
 30
0.0
 11
126.4908772498505
 21
80.4391214050573
 31
0.0
  0
LINE
  5
E7
330
70
100
AcDbEntity
  8
0
  6
Continuous
 62
     7
370
     0
100
AcDbLine
 10
107.1508718467212
 20
65.29498334322275
 30
0.0
 11
107.1508718467212
 21
78.43912140505729
 31
0.0
  0
ARC
  5
E8
330
70
100
AcDbEntity
  8
0
  6
Continuous
 62
     7
370
     0
100
AcDbCircle
 10
127.7308667013489
 20
65.51532086964009
 30
0.0
 40
20.58130128445096
100
AcDbArc
 50
180.6794306822948
 51
270.0286489274746
  0
ARC
  5
E9
330
70
100
AcDbEntity
  8
0
  6
Continuous
 62
     7
370
     0
100
AcDbCircle
 10
136.4908767140974
 20
69.9383953012332
 30
0.0
 40
11.9999994642469
100
AcDbArc
 50
180.0
 51
269.9877218882668
  0
LINE
  5
EA
330
70
100
AcDbEntity
  8
0
  6
Continuous
 62
     7
370
     0
100
AcDbLine
 10
127.740157688141
 20
46.93402190802001
 30
0.0
 11
136.4898766779159
 21
46.9383969263509
 31
0.0
  0
ARC
  5
EB
330
70
100
AcDbEntity
  8
0
  6
Continuous
 62
     7
370
     0
100
AcDbCircle
 10
136.4871265784167
 20
52.4383962388011
 30
0.0
 40
5.5
100
AcDbArc
 50
270.0286489274747
 51
89.98772188826681
  0
LINE
  5
EC
330
70
100
AcDbEntity
  8
0
  6
Continuous
 62
     7
370
     0
100
AcDbLine
 10
124.4908772498505
 20
69.9383953012332
 30
0.0
 11
124.4908772498505
 21
80.4391214050573
 31
0.0
  0
LINE
  5
ED
330
70
100
AcDbEntity
  8
0
  6
Continuous
 62
     7
370
     0
100
AcDbLine
 10
127.7411577243225
 20
44.93402215803812
 30
0.0
 11
127.740157688141
 21
46.93402190802001
 31
0.0
  0
LINE
  5
EE
330
70
100
AcDbEntity
  8
0
  6
Continuous
 62
     7
370
     0
100
AcDbLine
 10
136.4887337794719
 20
59.93839606659475
 30
0.0
 11
136.4883051925239
 21
57.93839611251645
 31
0.0
  0
LINE
  5
EF
330
70
100
AcDbEntity
  8
0
  6
Continuous
 62
     7
370
     0
100
AcDbLine
 10
136.4908767140974
 20
44.93839717636901
 30
0.0
 11
136.4898766779159
 21
46.9383969263509
 31
0.0
  0
LINE
  5
F0
330
70
100
AcDbEntity
  8
0
  6
Continuous
 62
     7
370
     0
100
AcDbLine
 10
126.4908772498505
 20
69.9383953012332
 30
0.0
 11
124.4908772498505
 21
69.9383953012332
 31
0.0
  0
LINE
  5
F1
330
70
100
AcDbEntity
  8
0
  6
Continuous
 62
     7
370
     0
100
AcDbLine
 10
107.1510124644103
 20
65.27126729416416
 30
0.0
 11
109.1508718467212
 21
65.29498334322262
 31
0.0
  0
LINE
  5
F2
330
70
100
AcDbEntity
  8
0
  6
Continuous
 62
     7
370
     0
100
AcDbLine
 10
124.4908772498505
 20
80.4391214050573
 30
0.0
 11
109.1508718467212
 21
80.4391214050573
 31
0.0
  0
ARC
  5
F3
330
70
100
AcDbEntity
  8
0
  6
Continuous
 62
     7
370
     0
100
AcDbCircle
 10
109.1508718467212
 20
78.43912140505729
 30
0.0
 40
2.000000000000001
100
AcDbArc
 50
90.0
 51
180.0
  0
LINE
  5
F4
330
70
100
AcDbEntity
  8
0
  6
Continuous
 62
     7
370
     0
100
AcDbLine
 10
107.1508718467212
 20
65.29498334322275
 30
0.0
 11
109.1508718467212
 21
65.29498334322261
 31
0.0
  0
ARC
  5
F5
330
70
100
AcDbEntity
  8
0
  6
Continuous
 62
     7
370
     0
100
AcDbCircle
 10
109.1508718467212
 20
65.29498334322275
 30
0.0
 40
2.0
100
AcDbArc
 50
180.0
 51
180.6794306822946
  0
LINE
  5
F6
330
70
100
AcDbEntity
  8
0
  6
HIDDEN2
 62
     7
370
     0
100
AcDbLine
 10
119.8258718467212
 20
66.43912140505729
 30
0.0
 11
113.4758718467212
 21
66.43912140505729
 31
0.0
  0
LINE
  5
F7
330
70
100
AcDbEntity
  8
0
  6
HIDDEN2
 62
     7
370
     0
100
AcDbLine
 10
113.4758718467212
 20
80.4391214050573
 30
0.0
 11
113.4758718467212
 21
66.43912140505729
 31
0.0
  0
LINE
  5
F8
330
70
100
AcDbEntity
  8
0
  6
HIDDEN2
 62
     7
370
     0
100
AcDbLine
 10
119.8258718467212
 20
66.4391214050573
 30
0.0
 11
119.8258718467212
 21
80.4391214050573
 31
0.0
  0
LINE
  5
F9
330
70
100
AcDbEntity
  8
0
  6
Continuous
 62
     7
370
     0
100
AcDbLine
 10
109.1508718467212
 20
80.4391214050573
 30
0.0
 11
109.1508718467212
 21
65.29498334322259
 31
0.0
  0
ARC
  5
FA
330
70
100
AcDbEntity
  8
0
  6
Continuous
 62
     7
370
     0
100
AcDbCircle
 10
127.7308667013489
 20
65.51532086964009
 30
0.0
 40
18.58130128445096
100
AcDbArc
 50
180.6794306822953
 51
270.0286489274746
  0
ENDBLK
  5
1F0
330
70
100
AcDbEntity
  8
0
370
     0
100
AcDbBlockEnd
  0
BLOCK
  5
129
330
77
100
AcDbEntity
  8
0
 62
     1
 48
0.0
370
     0
100
AcDbBlockBegin
  2
SE4
 70
     0
 10
0.0
 20
0.0
 30
0.0
  3
SE4
  1

  0
ENDBLK
  5
12A
330
77
100
AcDbEntity
  8
0
 62
     1
 48
0.0
370
     0
100
AcDbBlockEnd
  0
BLOCK
  5
FE
330
78
100
AcDbEntity
  8
0
 62
     1
 48
0.0
370
     0
100
AcDbBlockBegin
  2
SE5
 70
     0
 10
0.0
 20
0.0
 30
0.0
  3
SE5
  1

  0
ELLIPSE
  5
FF
330
78
100
AcDbEntity
  8
DV3_0
  6
Continuous
 62
     7
370
     0
100
AcDbEllipse
 10
41.18988095371641
 20
19.58845968369307
 30
0.0
 11
-7.5
 21
0.0
 31
0.0
210
0.0
220
0.0
230
1.0
 40
0.5773502691895606
 41
0.7858981815090456
 42
3.14159265358979
  0
LINE
  5
100
330
78
100
AcDbEntity
  8
0
  6
Continuous
 62
     7
370
     0
100
AcDbLine
 10
53.92096791025636
 20
125.7317800469843
 30
0.0
 11
46.49583327485975
 21
121.4448765664694
 31
0.0
  0
LINE
  5
101
330
78
100
AcDbEntity
  8
0
  6
Continuous
 62
     7
370
     0
100
AcDbLine
 10
35.88923250414813
 20
16.52506690149428
 30
0.0
 11
35.88923250414814
 21
107.156187384477
 31
0.0
  0
ELLIPSE
  5
102
330
78
100
AcDbEntity
  8
0
  6
Continuous
 62
     7
370
     0
100
AcDbEllipse
 10
41.18988095371641
 20
110.2195801666759
 30
0.0
 11
-7.499999999999992
 21
-0.0000000000000035
 31
0.0
210
0.0
220
0.0
230
1.0
 40
0.5773502691895604
 41
0.7858981815090429
 42
3.141825397094271
  0
ELLIPSE
  5
103
330
78
100
AcDbEntity
  8
0
  6
Continuous
 62
     7
370
     0
100
AcDbEllipse
 10
51.09254078551016
 20
35.10065956400154
 30
0.0
 11
-2.828427124746191
 21
0.0000000000000041
 31
0.0
210
0.0
220
0.0
230
1.0
 40
0.5773502691896583
 41
2.35619449019226
 42
3.141592653589786
  0
LINE
  5
104
330
78
100
AcDbEntity
  8
0
  6
Continuous
 62
     7
370
     0
100
AcDbLine
 10
46.49583327485974
 20
113.9289938931719
 30
0.0
 11
46.49583327485974
 21
121.4448765664694
 31
0.0
  0
ELLIPSE
  5
105
330
78
100
AcDbEntity
  8
0
  6
Continuous
 62
     7
370
     0
100
AcDbEllipse
 10
53.56690070789057
 20
117.3623938805515
 30
0.0
 11
9.999999464246903
 21
-0.0000000000000009
 31
0.0
210
0.0
220
0.0
230
1.0
 40
0.5773502691895592
 41
2.356194490192344
 42
3.141943374524721
  0
LINE
  5
106
330
78
100
AcDbEntity
  8
0
  6
Continuous
 62
     7
370
     0
100
AcDbLine
 10
53.92096791025636
 20
35.10065956400153
 30
0.0
 11
53.92096791025636
 21
125.7317800469843
 31
0.0
  0
LINE
  5
107
330
78
100
AcDbEntity
  8
0
  6
Continuous
 62
     7
370
     0
100
AcDbLine
 10
48.68988095371641
 20
32.08049010148921
 30
0.0
 11
53.92096791025636
 21
35.10065956400154
 31
0.0
  0
ELLIPSE
  5
108
330
78
100
AcDbEntity
  8
0
  6
Continuous
 62
     7
370
     0
100
AcDbEllipse
 10
52.50675434788327
 20
126.5482766279119
 30
0.0
 11
-0.9999999999999156
 21
1.732050807568928
 31
0.0
210
0.0
220
0.0
230
1.0
 40
0.5773502691896563
 41
3.926990816987342
 42
5.49778714378224
  0
LINE
  5
109
330
78
100
AcDbEntity
  8
0
  6
Continuous
 62
     7
370
     0
100
AcDbLine
 10
29.69915326787202
 20
20.09533862735435
 30
0.0
 11
35.88923250414813
 21
16.52506690149429
 31
0.0
  0
LINE
  5
10A
330
78
100
AcDbEntity
  8
0
  6
Continuous
 62
     7
370
     0
100
AcDbLine
 10
35.88923250414813
 20
107.1561873844771
 30
0.0
 11
29.69915326787202
 21
110.7264591103371
 31
0.0
  0
ELLIPSE
  5
10B
330
78
100
AcDbEntity
  8
0
  6
Continuous
 62
     7
370
     0
100
AcDbEllipse
 10
44.24505230034172
 20
119.1329404174099
 30
0.0
 11
20.58130128445096
 21
0.0000000000000043
 31
0.0
210
0.0
220
0.0
230
0.9999999999999998
 40
0.5773502691895596
 41
3.141433559128753
 42
3.927490835098837
  0
ELLIPSE
  5
10C
330
78
100
AcDbEntity
  8
0
  6
Continuous
 62
     7
370
     0
100
AcDbEllipse
 10
44.24505230034173
 20
28.50181993442711
 30
0.0
 11
20.58130128445097
 21
0.0000000000000104
 31
0.0
210
0.0
220
0.0
230
1.0
 40
0.5773502691895592
 41
3.141592653589793
 42
3.927490835098836
  0
LINE
  5
10D
330
78
100
AcDbEntity
  8
0
  6
Continuous
 62
     7
370
     0
100
AcDbLine
 10
31.11265952109023
 20
113.1763570141123
 30
0.0
 11
37.30273875736634
 21
109.6060852882523
 31
0.0
  0
ELLIPSE
  5
10E
330
78
100
AcDbEntity
  8
0
  6
Continuous
 62
     7
370
     0
100
AcDbEllipse
 10
53.56690070789056
 20
118.995387042407
 30
0.0
 11
11.99999946424691
 21
-0.0000000000000022
 31
0.0
210
0.0
220
0.0
230
1.0
 40
0.5773502691895592
 41
2.356194490192346
 42
3.926776523511572
  0
LINE
  5
10F
330
78
100
AcDbEntity
  8
0
  6
Continuous
 62
     7
370
     0
100
AcDbLine
 10
45.08161971248664
 20
123.8943663092525
 30
0.0
 11
52.50675434788327
 21
128.1812697897675
 31
0.0
  0
ELLIPSE
  5
110
330
78
100
AcDbEntity
  8
0
  6
Continuous
 62
     7
370
     0
100
AcDbEllipse
 10
41.18988095371641
 20
111.8525733285314
 30
0.0
 11
-5.500000000000003
 21
0.0000000000000013
 31
0.0
210
0.0
220
0.0
230
1.0
 40
0.5773502691895592
 41
0.7858981815090461
 42
3.926776523511573
  0
ELLIPSE
  5
111
330
78
100
AcDbEntity
  8
0
  6
Continuous
 62
     7
370
     0
100
AcDbEllipse
 10
45.08161971248664
 20
122.261373147397
 30
0.0
 11
0.9999999999999205
 21
-1.732050807568923
 31
0.0
210
0.0
220
0.0
230
1.0
 40
0.5773502691896584
 41
0.7853981633975212
 42
2.356194490192407
  0
ELLIPSE
  5
112
330
78
100
AcDbEntity
  8
0
  6
Continuous
 62
     7
370
     0
100
AcDbEllipse
 10
30.95120978514377
 20
126.6282391351532
 30
0.0
 11
1.017840072143554
 21
-1.721627598390203
 31
0.0
210
0.0
220
0.0
230
1.0
 40
0.5841559100133473
 41
2.350194610791907
 42
3.141758428222686
  0
ELLIPSE
  5
113
330
78
100
AcDbEntity
  8
0
  6
Continuous
 62
     7
370
     0
100
AcDbEllipse
 10
31.11265952109022
 20
111.5433638522568
 30
0.0
 11
-0.9992500665971027
 21
-1.732483565407094
 31
0.0
210
0.0
220
0.0
230
1.0
 40
0.5770615114363461
 41
3.926740932909169
 42
5.497537259704069
  0
ELLIPSE
  5
114
330
78
100
AcDbEntity
  8
0
  6
Continuous
 62
     7
370
     0
100
AcDbEllipse
 10
45.07980156697326
 20
112.464464545477
 30
0.0
 11
-1.00032145743343
 21
-1.73186517425527
 31
0.0
210
0.0
220
0.0
230
1.0
 40
0.577473978328125
 41
3.14135617797046
 42
3.9270979866883
  0
ELLIPSE
  5
115
330
78
100
AcDbEntity
  8
0
  6
Continuous
 62
     7
370
     0
100
AcDbEllipse
 10
37.30273875736634
 20
107.9730921263967
 30
0.0
 11
-0.9992500665970828
 21
-1.732483565407103
 31
0.0
210
0.0
220
0.0
230
1.0
 40
0.577061511436349
 41
3.926740932909158
 42
5.497537259704056
  0
LINE
  5
116
330
78
100
AcDbEntity
  8
0
  6
Continuous
 62
     7
370
     0
100
AcDbLine
 10
29.69915326787202
 20
20.09533862735435
 30
0.0
 11
29.69915326787202
 21
110.7264591103371
 31
0.0
  0
LINE
  5
117
330
78
100
AcDbEntity
  8
0
  6
Continuous
 62
     7
370
     0
100
AcDbLine
 10
52.50675434788327
 20
128.1812697897675
 30
0.0
 11
41.65973250389227
 21
134.4438007713008
 31
0.0
  0
ELLIPSE
  5
118
330
78
100
AcDbEntity
  8
0
  6
Continuous
 62
     7
370
     0
100
AcDbEllipse
 10
31.11265952109023
 20
20.91224336927402
 30
0.0
 11
0.9992500665970903
 21
1.732483565407092
 31
0.0
210
0.0
220
0.0
230
1.0
 40
0.5770615114363502
 41
2.355944606114259
 42
3.141592653589794
  0
ELLIPSE
  5
119
330
78
100
AcDbEntity
  8
0
  6
Continuous
 62
     7
370
     0
100
AcDbEllipse
 10
37.30273875736634
 20
17.34197164341396
 30
0.0
 11
0.9992500665970871
 21
1.732483565407129
 31
0.0
210
0.0
220
0.0
230
1.0
 40
0.5770615114363436
 41
2.35594460611426
 42
3.14426732765384
  0
ELLIPSE
  5
11A
330
78
100
AcDbEntity
  8
0
  6
Continuous
 62
     7
370
     0
100
AcDbEllipse
 10
40.24551894151918
 20
131.9943110285176
 30
0.0
 11
-1.414213562373159
 21
-2.449489742783137
 31
0.0
210
0.0
220
0.0
230
1.0
 40
0.5773502691896093
 41
3.141592653589793
 42
3.926990816987206
  0
ELLIPSE
  5
11B
330
78
100
AcDbEntity
  8
0
  6
Continuous
 62
     7
370
     0
100
AcDbEllipse
 10
30.95120978514366
 20
126.6282391351532
 30
0.0
 11
0.9999999999998101
 21
-1.732050807568987
 31
0.0
210
0.0
220
0.0
230
1.0
 40
0.577350269189618
 41
2.356194490192448
 42
3.141592653589782
  0
LINE
  5
11C
330
78
100
AcDbEntity
  8
0
  6
Continuous
 62
     7
370
     0
100
AcDbLine
 10
48.68988095371641
 20
19.58845968369305
 30
0.0
 11
48.68988095371641
 21
110.2195801666759
 31
0.0
  0
SPLINE
  5
11D
330
78
100
AcDbEntity
  8
0
  6
Continuous
 62
     7
370
     0
100
AcDbSpline
210
0.0
220
0.0
230
1.0
 70
     8
 71
     3
 72
    80
 73
    76
 74
     0
 42
0.0000000001
 43
0.0000000001
 40
0.0
 40
0.0
 40
0.0
 40
0.0
 40
0.0241781230445376
 40
0.0241781230445376
 40
0.0241781230445376
 40
0.0672849777422368
 40
0.0672849777422368
 40
0.0672849777422368
 40
0.110334007205824
 40
0.110334007205824
 40
0.110334007205824
 40
0.1532885062103908
 40
0.1532885062103908
 40
0.1532885062103908
 40
0.1960842113593783
 40
0.1960842113593783
 40
0.1960842113593783
 40
0.2387219342953533
 40
0.2387219342953533
 40
0.2387219342953533
 40
0.2812402031535872
 40
0.2812402031535872
 40
0.2812402031535872
 40
0.3236976667521162
 40
0.3236976667521162
 40
0.3236976667521162
 40
0.3661632355783719
 40
0.3661632355783719
 40
0.3661632355783719
 40
0.4086969126300778
 40
0.4086969126300778
 40
0.4086969126300778
 40
0.4513642398705097
 40
0.4513642398705097
 40
0.4513642398705097
 40
0.4942409446495481
 40
0.4942409446495481
 40
0.4942409446495481
 40
0.537396788223279
 40
0.537396788223279
 40
0.537396788223279
 40
0.5808846693989258
 40
0.5808846693989258
 40
0.5808846693989258
 40
0.6247199640925768
 40
0.6247199640925768
 40
0.6247199640925768
 40
0.6688461165158646
 40
0.6688461165158646
 40
0.6688461165158646
 40
0.713024403807974
 40
0.713024403807974
 40
0.713024403807974
 40
0.7568629816795678
 40
0.7568629816795678
 40
0.7568629816795678
 40
0.7999142975326418
 40
0.7999142975326418
 40
0.7999142975326418
 40
0.8375003877705562
 40
0.8375003877705562
 40
0.8375003877705562
 40
0.8780729780859706
 40
0.8780729780859706
 40
0.8780729780859706
 40
0.917410842575132
 40
0.917410842575132
 40
0.917410842575132
 40
0.9556031895816097
 40
0.9556031895816097
 40
0.9556031895816097
 40
0.9929231171525076
 40
0.9929231171525076
 40
0.9929231171525076
 40
1.0
 40
1.0
 40
1.0
 40
1.0
 10
36.30348869076924
 20
15.60948807800684
 30
0.0
 10
36.41768980832825
 20
15.54550451631368
 30
0.0
 10
36.51500673686833
 20
15.49151376687906
 30
0.0
 10
36.61807197578968
 20
15.43813890397036
 30
0.0
 10
36.80182562243884
 20
15.34297756925148
 30
0.0
 10
37.00385133757169
 20
15.24977394384772
 30
0.0
 10
37.2082900614766
 20
15.1647904597119
 30
0.0
 10
37.41245454321852
 20
15.07992097577164
 30
0.0
 10
37.61902556426444
 20
15.00324959424808
 30
0.0
 10
37.8312554860739
 20
14.93318562566726
 30
0.0
 10
38.04301937665858
 20
14.86327550908247
 30
0.0
 10
38.26041734277086
 20
14.79994381914216
 30
0.0
 10
38.4815107083703
 20
14.74373667020697
 30
0.0
 10
38.701786737747
 20
14.68773730741984
 30
0.0
 10
38.92573089486541
 20
14.63880990710893
 30
0.0
 10
39.15270931171014
 20
14.59693817048682
 30
0.0
 10
39.37884982782455
 20
14.55522100520758
 30
0.0
 10
39.60800224281026
 20
14.52050750718737
 30
0.0
 10
39.8391170647368
 20
14.49291440658887
 30
0.0
 10
40.06958439411437
 20
14.46539861097191
 30
0.0
 10
40.30200315005568
 20
14.44496337157589
 30
0.0
 10
40.53538594041763
 20
14.43165514398538
 30
0.0
 10
40.76843497069105
 20
14.41836594845465
 30
0.0
 10
41.0024452800308
 20
14.41218339466537
 30
0.0
 10
41.2363863117906
 20
14.41312702230927
 30
0.0
 10
41.47037200343294
 20
14.41407083009386
 30
0.0
 10
41.70428839104231
 20
14.42214354038029
 30
0.0
 10
41.93711277497149
 20
14.43732203781468
 30
0.0
 10
42.17031057331778
 20
14.45252487921888
 30
0.0
 10
42.40241286236378
 20
14.47485631922359
 30
0.0
 10
42.6324148754435
 20
14.50425706678882
 30
0.0
 10
42.8631396055462
 20
14.53375019798353
 30
0.0
 10
43.09175083988535
 20
14.5703571331831
 30
0.0
 10
43.31728117354914
 20
14.61398950393778
 30
0.0
 10
43.54391823194113
 20
14.65783598790233
 30
0.0
 10
43.76744407821376
 20
14.7087770271759
 30
0.0
 10
43.98694118787349
 20
14.76670890717764
 30
0.0
 10
44.20786728231518
 20
14.82501793918399
 30
0.0
 10
44.42471201308996
 20
14.89040913269425
 30
0.0
 10
44.63661527919328
 20
14.96278242310376
 30
0.0
 10
44.85014891204392
 20
15.03571254780964
 30
0.0
 10
45.05866474923982
 20
15.11573262211777
 30
0.0
 10
45.26135680054493
 20
15.20276981639817
 30
0.0
 10
45.4656681066105
 20
15.2905023284785
 30
0.0
 10
45.66406220565048
 20
15.3853645243037
 30
0.0
 10
45.85576656667345
 20
15.48733429917145
 30
0.0
 10
46.04874293226713
 20
15.58998066803537
 30
0.0
 10
46.23494048927521
 20
15.69982924985799
 30
0.0
 10
46.41357366042258
 20
15.81691982826181
 30
0.0
 10
46.59241788593187
 20
15.93414874870567
 30
0.0
 10
46.7636798404391
 20
16.0586367886188
 30
0.0
 10
46.92649535825254
 20
16.19046203967543
 30
0.0
 10
47.08805890437135
 20
16.32127361903063
 30
0.0
 10
47.24130541230418
 20
16.45931000423843
 30
0.0
 10
47.38522003800379
 20
16.60460444037268
 30
0.0
 10
47.52655021584436
 20
16.74728964973398
 30
0.0
 10
47.6588806695922
 20
16.89697456763815
 30
0.0
 10
47.78104899502683
 20
17.05351210757987
 30
0.0
 10
47.88770844580117
 20
17.19017771199368
 30
0.0
 10
47.98662209944439
 20
17.33206653525329
 30
0.0
 10
48.07681469133538
 20
17.47880078847613
 30
0.0
 10
48.17417376904513
 20
17.63719419155594
 30
0.0
 10
48.26137081544128
 20
17.80123362861797
 30
0.0
 10
48.33755069718613
 20
17.97047018110809
 30
0.0
 10
48.41141223379452
 20
18.13455644024792
 30
0.0
 10
48.47491696232193
 20
18.30352830550938
 30
0.0
 10
48.52578279339583
 20
18.47496492971874
 30
0.0
 10
48.5751674129316
 20
18.64140932436112
 30
0.0
 10
48.61263850623433
 20
18.8101770205804
 30
0.0
 10
48.64208611844689
 20
18.98441149048887
 30
0.0
 10
48.67086106528958
 20
19.15466596048085
 30
0.0
 10
48.69197490169849
 20
19.33014030405124
 30
0.0
 10
48.68869095576444
 20
19.49294867336439
 30
0.0
 10
48.688068229458
 20
19.52382160992172
 30
0.0
 10
48.68656819375567
 20
19.55423909614066
 30
0.0
 10
48.68475028824718
 20
19.58970935774251
 30
0.0
  0
ARC
  5
11E
330
78
100
AcDbEntity
  8
0
  6
Continuous
 62
     7
370
     0
100
AcDbCircle
 10
44.03141517704155
 20
110.0130924926647
 30
0.0
 40
4.657969250840914
100
AcDbArc
 50
2.554471713615435
 51
63.90705772763389
  0
SPLINE
  5
11F
330
78
100
AcDbEntity
  8
0
  6
Continuous
 62
     7
370
     0
100
AcDbSpline
210
0.0
220
0.0
230
1.0
 70
     8
 71
     3
 72
    38
 73
    34
 74
     0
 42
0.0000000001
 43
0.0000000001
 40
0.0
 40
0.0
 40
0.0
 40
0.0
 40
0.0503218410783099
 40
0.0503218410783099
 40
0.0503218410783099
 40
0.1462928959369998
 40
0.1462928959369998
 40
0.1462928959369998
 40
0.2420041921385617
 40
0.2420041921385617
 40
0.2420041921385617
 40
0.3376786349855267
 40
0.3376786349855267
 40
0.3376786349855267
 40
0.4335979306108781
 40
0.4335979306108781
 40
0.4335979306108781
 40
0.5303156011588202
 40
0.5303156011588202
 40
0.5303156011588202
 40
0.6286959773724423
 40
0.6286959773724423
 40
0.6286959773724423
 40
0.7300658834654527
 40
0.7300658834654527
 40
0.7300658834654527
 40
0.8364280524285019
 40
0.8364280524285019
 40
0.8364280524285019
 40
0.9506184223397873
 40
0.9506184223397873
 40
0.9506184223397873
 40
1.0
 40
1.0
 40
1.0
 40
1.0
 10
46.0801230244067
 20
114.1963297197323
 30
0.0
 10
45.98183320461986
 20
114.2542363032598
 30
0.0
 10
45.89871249018143
 20
114.3035332791433
 30
0.0
 10
45.81547348606834
 20
114.3552436824956
 30
0.0
 10
45.65672462356769
 20
114.4538629271526
 30
0.0
 10
45.49754551755468
 20
114.5612602964764
 30
0.0
 10
45.34976430118677
 20
114.668543487374
 30
0.0
 10
45.20238307469464
 20
114.7755363017862
 30
0.0
 10
45.06633812148326
 20
114.8824155550145
 30
0.0
 10
44.93900779340154
 20
114.9905363718026
 30
0.0
 10
44.81172649349011
 20
115.0986155569865
 30
0.0
 10
44.69315310891857
 20
115.2079353497936
 30
0.0
 10
44.58429897274788
 20
115.3170222897854
 30
0.0
 10
44.47516625394962
 20
115.426388408203
 30
0.0
 10
44.37580259476848
 20
115.5355204804331
 30
0.0
 10
44.28592875588691
 20
115.6436798092365
 30
0.0
 10
44.19530686085362
 20
115.7527393916875
 30
0.0
 10
44.11433341875695
 20
115.8608099702506
 30
0.0
 10
44.04273050294668
 20
115.9669926465294
 30
0.0
 10
43.96989663757856
 20
116.0750007445376
 30
0.0
 10
43.9067582515527
 20
116.1810554711939
 30
0.0
 10
43.85242122331346
 20
116.2847063065578
 30
0.0
 10
43.79643303072895
 20
116.3915068276747
 30
0.0
 10
43.74978922492459
 20
116.4957551414437
 30
0.0
 10
43.71195204446761
 20
116.5968518181176
 30
0.0
 10
43.67225145939298
 20
116.7029273016653
 30
0.0
 10
43.64224627590828
 20
116.8055330807465
 30
0.0
 10
43.61847165138128
 20
116.9072997419667
 30
0.0
 10
43.59294722671311
 20
117.016556377128
 30
0.0
 10
43.57460424309127
 20
117.1248458317377
 30
0.0
 10
43.57156266198976
 20
117.2258183706814
 30
0.0
 10
43.57024733151583
 20
117.2694839028735
 30
0.0
 10
43.57179355672895
 20
117.3117810793475
 30
0.0
 10
43.57390508335252
 20
117.3613325948762
 30
0.0
  0
LINE
  5
120
330
78
100
AcDbEntity
  8
0
  6
Continuous
 62
     7
370
     0
100
AcDbLine
 10
30.11340945449313
 20
19.17975980386691
 30
0.0
 11
36.30348869076924
 21
15.60948807800686
 31
0.0
  0
LINE
  5
121
330
78
100
AcDbEntity
  8
0
  6
Continuous
 62
     7
370
     0
100
AcDbLine
 10
40.24551894151934
 20
134.3037121052761
 30
0.0
 11
29.95120978514382
 21
128.3602899427221
 31
0.0
  0
LINE
  5
122
330
78
100
AcDbEntity
  8
0
  6
Continuous
 62
     7
370
     0
100
AcDbLine
 10
23.66375101589077
 20
119.1329404174099
 30
0.0
 11
23.66375101589076
 21
28.5018199344271
 31
0.0
  0
ARC
  5
123
330
78
100
AcDbEntity
  8
0
  6
Continuous
 62
     7
370
     0
100
AcDbCircle
 10
34.72982910542731
 20
118.3548603564576
 30
0.0
 40
11.08630574994165
100
AcDbArc
 50
115.6356772281432
 51
175.9638447215738
  0
LINE
  5
124
330
78
100
AcDbEntity
  8
0
  6
Continuous
 62
     7
370
     0
100
AcDbLine
 10
48.68988095371641
 20
31.40408218658605
 30
0.0
 11
53.09254078550999
 21
33.94595902562213
 31
0.0
  0
SPLINE
  5
125
330
78
100
AcDbEntity
  8
0
  6
Continuous
 62
     7
370
     0
100
AcDbSpline
210
0.0
220
0.0
230
1.0
 70
     8
 71
     3
 72
    50
 73
    46
 74
     0
 42
0.0000000001
 43
0.0000000001
 40
0.0
 40
0.0
 40
0.0
 40
0.0
 40
0.0437176429082815
 40
0.0437176429082815
 40
0.0437176429082815
 40
0.1106503085811223
 40
0.1106503085811223
 40
0.1106503085811223
 40
0.1776450594170934
 40
0.1776450594170934
 40
0.1776450594170934
 40
0.2449166433702849
 40
0.2449166433702849
 40
0.2449166433702849
 40
0.3126559037506605
 40
0.3126559037506605
 40
0.3126559037506605
 40
0.3810159219514446
 40
0.3810159219514446
 40
0.3810159219514446
 40
0.4501005541326736
 40
0.4501005541326736
 40
0.4501005541326736
 40
0.5199570484774301
 40
0.5199570484774301
 40
0.5199570484774301
 40
0.5905747397890428
 40
0.5905747397890428
 40
0.5905747397890428
 40
0.6618910889970037
 40
0.6618910889970037
 40
0.6618910889970037
 40
0.7338045418850243
 40
0.7338045418850243
 40
0.7338045418850243
 40
0.8061915551616213
 40
0.8061915551616213
 40
0.8061915551616213
 40
0.8789238771918022
 40
0.8789238771918022
 40
0.8789238771918022
 40
0.9518825299968804
 40
0.9518825299968804
 40
0.9518825299968804
 40
1.0
 40
1.0
 40
1.0
 40
1.0
 10
23.67122529339914
 20
28.49036452999995
 30
0.0
 10
23.67076668908755
 20
28.31470906119819
 30
0.0
 10
23.67104346259481
 20
28.16585637331121
 30
0.0
 10
23.67843052257188
 20
28.0114587873061
 30
0.0
 10
23.68974027266035
 20
27.7750727125478
 30
0.0
 10
23.71771673222444
 20
27.52568924219943
 30
0.0
 10
23.75493788769437
 20
27.28107804068363
 30
0.0
 10
23.79219356863084
 20
27.03623994358258
 30
0.0
 10
23.83871110375134
 20
26.79618297270833
 30
0.0
 10
23.89619484659077
 20
26.55695416560698
 30
0.0
 10
23.95391612152819
 20
26.31673682648524
 30
0.0
 10
24.02269441970832
 20
26.07735450948969
 30
0.0
 10
24.10167195603973
 20
25.84059292928413
 30
0.0
 10
24.18119854934065
 20
25.60218536717332
 30
0.0
 10
24.27106668526838
 20
25.36643510758112
 30
0.0
 10
24.37102875000862
 20
25.13347205265292
 30
0.0
 10
24.47190686008333
 20
24.89837414066545
 30
0.0
 10
24.58306474674271
 20
24.66611475089998
 30
0.0
 10
24.70403879050146
 20
24.4371627543574
 30
0.0
 10
24.8262951552087
 20
24.20578387406153
 30
0.0
 10
24.95857688184708
 20
23.97778287512721
 30
0.0
 10
25.10045772730541
 20
23.75343374429419
 30
0.0
 10
25.24392376548866
 20
23.52657802697381
 30
0.0
 10
25.39720461697458
 20
23.30345623609945
 30
0.0
 10
25.55985349650612
 20
23.08431553961128
 30
0.0
 10
25.7242746927696
 20
22.86278695871744
 30
0.0
 10
25.89826918835363
 20
22.64532670554388
 30
0.0
 10
26.08143296013036
 20
22.43210478509784
 30
0.0
 10
26.26640886726722
 20
22.21677334824553
 30
0.0
 10
26.46073638102938
 20
22.00576452307834
 30
0.0
 10
26.66390771285098
 20
21.7993010612294
 30
0.0
 10
26.86878011814675
 20
21.59110896219925
 30
0.0
 10
27.08264505306329
 20
21.38753865819041
 30
0.0
 10
27.30543470452672
 20
21.18848936991058
 30
0.0
 10
27.52969145775875
 20
20.98812931355444
 30
0.0
 10
27.76299085562385
 20
20.79235001204951
 30
0.0
 10
28.0036437523975
 20
20.60220030884632
 30
0.0
 10
28.24544463895646
 20
20.41114353192873
 30
0.0
 10
28.49466934875103
 20
20.22577019131803
 30
0.0
 10
28.75573461804866
 20
20.04278578206137
 30
0.0
 10
29.01761227863327
 20
19.85923195604494
 30
0.0
 10
29.29140430504543
 20
19.67808195242233
 30
0.0
 10
29.55860687502389
 20
19.51233757025962
 30
0.0
 10
29.73483150570676
 20
19.40302633670097
 30
0.0
 10
29.90818996902039
 20
19.30041597292959
 30
0.0
 10
30.11340945449313
 20
19.17975980386691
 30
0.0
  0
LINE
  5
126
330
78
100
AcDbEntity
  8
0
  6
Continuous
 62
     7
370
     0
100
AcDbLine
 10
41.65973250389226
 20
134.4438007713007
 30
0.0
 11
30.95120978514366
 21
128.2612322970087
 31
0.0
  0
ELLIPSE
  5
127
330
78
100
AcDbEntity
  8
0
  6
Continuous
 62
     7
370
     0
100
AcDbEllipse
 10
44.24505230034174
 20
120.7659335792654
 30
0.0
 11
18.58130128445097
 21
0.0000000000000009
 31
0.0
210
0.0
220
0.0
230
1.0
 40
0.5773502691895592
 41
2.368052792637469
 42
3.927490835098836
  0
ENDBLK
  5
1F1
330
78
100
AcDbEntity
  8
0
370
     0
100
AcDbBlockEnd
  0
BLOCK
  5
12B
330
7F
100
AcDbEntity
  8
DEFAULT
  6
Continuous
 62
   136
370
     0
100
AcDbBlockBegin
  2
_SE_FILLED
 70
     0
 10
0.0
 20
0.0
 30
0.0
  3
_SE_FILLED
  1

  0
SOLID
  5
12C
330
7F
100
AcDbEntity
  8
DEFAULT
  6
Continuous
 62
   136
370
     0
100
AcDbTrace
 10
0.0
 20
0.0
 30
0.0
 11
-1.0
 21
-0.1665
 31
0.0
 12
-1.0
 22
0.1665
 32
0.0
 13
0.0
 23
0.0
 33
0.0
  0
LINE
  5
12D
330
7F
100
AcDbEntity
  8
DEFAULT
  6
Continuous
 62
   136
370
     0
100
AcDbLine
 10
0.0
 20
0.0
 30
0.0
 11
-1.0
 21
0.0
 31
0.0
  0
ENDBLK
  5
12E
330
7F
100
AcDbEntity
  8
DEFAULT
  6
Continuous
 62
   136
370
     0
100
AcDbBlockEnd
  0
BLOCK
  5
12F
330
82
100
AcDbEntity
  8
DEFAULT
 62
     1
 48
0.0
370
     0
100
AcDbBlockBegin
  2
SE6
 70
     0
 10
0.0
 20
0.0
 30
0.0
  3
SE6
  1

  0
HATCH
  5
130
330
82
100
AcDbEntity
  8
DEFAULT
  6
Continuous
 62
   136
100
AcDbHatch
 10
0.0
 20
0.0
 30
0.0
210
0.0
220
0.0
230
1.0
  2
SOLID
 70
     1
 71
     0
 91
        1
 92
        1
 93
        3
 72
     1
 10
110.1508718727982
 20
234.7365119597458
 11
107.1508718467212
 21
234.2365119553996
 72
     1
 10
107.1508718467212
 20
234.2365119553996
 11
110.1508718727982
 21
233.7365119510534
 72
     1
 10
110.1508718727982
 20
233.7365119510534
 11
110.1508718727982
 21
234.7365119597458
 97
        0
 75
     0
 76
     1
 98
        1
 10
0.0
 20
0.0
  0
HATCH
  5
131
330
82
100
AcDbEntity
  8
DEFAULT
  6
Continuous
 62
   136
100
AcDbHatch
 10
0.0
 20
0.0
 30
0.0
210
0.0
220
0.0
230
1.0
  2
SOLID
 70
     1
 71
     0
 91
        1
 92
        1
 93
        3
 72
     1
 10
140.9871265523397
 20
234.7365119597458
 11
143.9871265784167
 21
234.2365119553996
 72
     1
 10
143.9871265784167
 20
234.2365119553996
 11
140.9871265523397
 21
233.7365119510534
 72
     1
 10
140.9871265523397
 20
233.7365119510534
 11
140.9871265523397
 21
234.7365119597458
 97
        0
 75
     0
 76
     1
 98
        1
 10
0.0
 20
0.0
  0
LINE
  5
132
330
82
100
AcDbEntity
  8
DEFAULT
  6
Continuous
 62
   136
370
     0
100
AcDbLine
 10
107.1508718467212
 20
219.4425385393096
 30
0.0
 11
107.1508718467212
 21
235.7365119684381
 31
0.0
  0
LINE
  5
133
330
82
100
AcDbEntity
  8
DEFAULT
  6
Continuous
 62
   136
370
     0
100
AcDbLine
 10
143.9871265784167
 20
219.4425385393096
 30
0.0
 11
143.9871265784167
 21
235.7365119684381
 31
0.0
  0
LINE
  5
134
330
82
100
AcDbEntity
  8
DEFAULT
  6
Continuous
 62
   136
370
     0
100
AcDbLine
 10
107.1508718467212
 20
234.2365119553996
 30
0.0
 11
143.9871271884895
 21
234.2365119553996
 31
0.0
  0
TEXT
  5
135
330
82
100
AcDbEntity
  8
DEFAULT
  6
Continuous
 62
   136
370
     0
100
AcDbText
 10
122.6371813357872
 20
234.9865119553996
 30
0.0
 40
3.0
  1
36,8
  7
seiso_ttf
 11
122.6371813357872
 21
237.9865119553996
 31
0.0
100
AcDbText
 73
     3
  0
ENDBLK
  5
1F2
330
82
100
AcDbEntity
  8
0
370
     0
100
AcDbBlockEnd
  0
BLOCK
  5
1F3
330
85
100
AcDbEntity
  8
0
370
     0
100
AcDbBlockBegin
  2
DMBLK1568
 70
     0
 10
0.0
 20
0.0
 30
0.0
  3
DMBLK1568
  1

  0
INSERT
  5
138
330
85
100
AcDbEntity
  8
DEFAULT
 62
     0
 48
0.0
370
     0
100
AcDbBlockReference
  2
SE6
 10
0.0
 20
0.0
 30
0.0
  0
ENDBLK
  5
139
330
85
100
AcDbEntity
  8
DEFAULT
 62
     0
 48
0.0
370
     0
100
AcDbBlockEnd
  0
BLOCK
  5
13A
330
87
100
AcDbEntity
  8
DEFAULT
 62
     1
 48
0.0
370
     0
100
AcDbBlockBegin
  2
SE7
 70
     0
 10
0.0
 20
0.0
 30
0.0
  3
SE7
  1

  0
HATCH
  5
13B
330
87
100
AcDbEntity
  8
DEFAULT
  6
Continuous
 62
   136
100
AcDbHatch
 10
0.0
 20
0.0
 30
0.0
210
0.0
220
0.0
230
1.0
  2
SOLID
 70
     1
 71
     0
 91
        1
 92
        1
 93
        3
 72
     1
 10
155.0445954210645
 20
218.4425385132326
 11
154.5445954167184
 21
221.4425385393096
 72
     1
 10
154.5445954167184
 20
221.4425385393096
 11
154.0445954123722
 21
218.4425385132326
 72
     1
 10
154.0445954123722
 20
218.4425385132326
 11
155.0445954210645
 21
218.4425385132326
 97
        0
 75
     0
 76
     1
 98
        1
 10
0.0
 20
0.0
  0
HATCH
  5
13C
330
87
100
AcDbEntity
  8
DEFAULT
  6
Continuous
 62
   136
100
AcDbHatch
 10
0.0
 20
0.0
 30
0.0
210
0.0
220
0.0
230
1.0
  2
SOLID
 70
     1
 71
     0
 91
        1
 92
        1
 93
        3
 72
     1
 10
155.0445954210645
 20
109.4425385653866
 11
154.5445954167184
 21
106.4425385393096
 72
     1
 10
154.5445954167184
 20
106.4425385393096
 11
154.0445954123722
 21
109.4425385653866
 72
     1
 10
154.0445954123722
 20
109.4425385653866
 11
155.0445954210645
 21
109.4425385653866
 97
        0
 75
     0
 76
     1
 98
        1
 10
0.0
 20
0.0
  0
LINE
  5
13D
330
87
100
AcDbEntity
  8
DEFAULT
  6
Continuous
 62
   136
370
     0
100
AcDbLine
 10
141.9871265740034
 20
221.4425385393096
 30
0.0
 11
156.0445954297569
 21
221.4425385393096
 31
0.0
  0
LINE
  5
13E
330
87
100
AcDbEntity
  8
DEFAULT
  6
Continuous
 62
   136
370
     0
100
AcDbLine
 10
139.237715857407
 20
106.4425385393096
 30
0.0
 11
156.0445954297569
 21
106.4425385393096
 31
0.0
  0
LINE
  5
13F
330
87
100
AcDbEntity
  8
DEFAULT
  6
Continuous
 62
   136
370
     0
100
AcDbLine
 10
154.5445954167184
 20
221.4425385393096
 30
0.0
 11
154.5445954167184
 21
106.442536453147
 31
0.0
  0
TEXT
  5
140
330
87
100
AcDbEntity
  8
DEFAULT
  6
Continuous
 62
   136
370
     0
100
AcDbText
 10
153.7945954167184
 20
161.8629920416829
 30
0.0
 40
3.0
  1
115
 50
90.0
  7
seiso_ttf
 11
150.7945954167184
 21
161.8629920416829
 31
0.0
100
AcDbText
 73
     3
  0
ENDBLK
  5
1F4
330
87
100
AcDbEntity
  8
0
370
     0
100
AcDbBlockEnd
  0
BLOCK
  5
1F5
330
8A
100
AcDbEntity
  8
0
370
     0
100
AcDbBlockBegin
  2
DMBLK1569
 70
     0
 10
0.0
 20
0.0
 30
0.0
  3
DMBLK1569
  1

  0
LINE
  5
26C
330
8A
100
AcDbEntity
  8
DEFAULT
  6
Continuous
 62
   136
370
    -2
100
AcDbLine
 10
136.4883051925239
 20
221.4425385393096
 30
0.0
 11
156.0445954167184
 21
221.4425385393096
 31
0.0
  0
LINE
  5
26D
330
8A
100
AcDbEntity
  8
DEFAULT
  6
Continuous
 62
   136
370
    -2
100
AcDbLine
 10
139.237715857407
 20
106.4425385393096
 30
0.0
 11
156.0445954167184
 21
106.4425385393096
 31
0.0
  0
LINE
  5
26E
330
8A
100
AcDbEntity
  8
DEFAULT
  6
Continuous
 62
   136
370
    -2
100
AcDbLine
 10
154.5445954167185
 20
218.4425385393096
 30
0.0
 11
154.5445954167184
 21
109.4425385393096
 31
0.0
  0
INSERT
  5
26F
330
8A
100
AcDbEntity
  8
DEFAULT
  6
Continuous
 62
   136
370
    -2
100
AcDbBlockReference
  2
_SE_FILLED
 10
154.5445954167185
 20
221.4425385393096
 30
0.0
 41
3.0
 42
3.0
 43
3.0
 50
90.0
  0
INSERT
  5
270
330
8A
100
AcDbEntity
  8
DEFAULT
  6
Continuous
 62
   136
370
    -2
100
AcDbBlockReference
  2
_SE_FILLED
 10
154.5445954167184
 20
106.4425385393096
 30
0.0
 41
3.0
 42
3.0
 43
3.0
 50
270.0
  0
MTEXT
  5
271
330
8A
100
AcDbEntity
  8
DEFAULT
  6
Continuous
 62
   136
370
     0
100
AcDbMText
 10
151.5445954167184
 20
163.9425374962283
 30
0.0
 40
3.0
 41
0.0
 71
     5
 72
     1
  1
\A1;\A1;115
  7
seiso_ttf
 11
0.0000000000000001
 21
1.0
 31
0.0
 73
     1
 44
1.0
1001
ACAD
1000
MTEXTBEGIN
1070
    73
1070
     1
1070
    44
1040
1.0
1070
    74
1070
     0
1000
MTEXTEND
  0
POINT
  5
272
330
8A
100
AcDbEntity
  8
Defpoints
  6
Continuous
 62
     0
370
     0
100
AcDbPoint
 10
136.4883051925239
 20
221.4425385393096
 30
0.0
  0
POINT
  5
273
330
8A
100
AcDbEntity
  8
Defpoints
  6
Continuous
 62
     0
370
     0
100
AcDbPoint
 10
139.237715857407
 20
106.4425385393096
 30
0.0
  0
POINT
  5
274
330
8A
100
AcDbEntity
  8
Defpoints
  6
Continuous
 62
     0
370
     0
100
AcDbPoint
 10
154.5445954167184
 20
106.4425385393096
 30
0.0
  0
ENDBLK
  5
144
330
8A
100
AcDbEntity
  8
DEFAULT
 62
     0
 48
0.0
370
     0
100
AcDbBlockEnd
  0
BLOCK
  5
145
330
8C
100
AcDbEntity
  8
DEFAULT
 62
     1
 48
0.0
370
     0
100
AcDbBlockBegin
  2
SE8
 70
     0
 10
0.0
 20
0.0
 30
0.0
  3
SE8
  1

  0
HATCH
  5
146
330
8C
100
AcDbEntity
  8
DEFAULT
  6
Continuous
 62
   136
100
AcDbHatch
 10
0.0
 20
0.0
 30
0.0
210
0.0
220
0.0
230
1.0
  2
SOLID
 70
     1
 71
     0
 91
        1
 92
        1
 93
        3
 72
     1
 10
98.51604915337826
 20
218.4425385132326
 11
99.01604915772445
 21
221.4425385393096
 72
     1
 10
99.01604915772445
 20
221.4425385393096
 11
99.51604916207061
 21
218.4425385132326
 72
     1
 10
99.51604916207061
 20
218.4425385132326
 11
98.51604915337826
 21
218.4425385132326
 97
        0
 75
     0
 76
     1
 98
        1
 10
0.0
 20
0.0
  0
HATCH
  5
147
330
8C
100
AcDbEntity
  8
DEFAULT
  6
Continuous
 62
   136
100
AcDbHatch
 10
0.0
 20
0.0
 30
0.0
210
0.0
220
0.0
230
1.0
  2
SOLID
 70
     1
 71
     0
 91
        1
 92
        1
 93
        3
 72
     1
 10
98.51604915337826
 20
214.9425385653866
 11
99.01604915772445
 21
211.9425385393096
 72
     1
 10
99.01604915772445
 20
211.9425385393096
 11
99.51604916207061
 21
214.9425385653866
 72
     1
 10
99.51604916207061
 20
214.9425385653866
 11
98.51604915337826
 21
214.9425385653866
 97
        0
 75
     0
 76
     1
 98
        1
 10
0.0
 20
0.0
  0
LINE
  5
148
330
8C
100
AcDbEntity
  8
DEFAULT
  6
Continuous
 62
   136
370
     0
100
AcDbLine
 10
109.1508718467212
 20
221.4425385393096
 30
0.0
 11
97.51604914468593
 21
221.4425385393096
 31
0.0
  0
LINE
  5
149
330
8C
100
AcDbEntity
  8
DEFAULT
  6
Continuous
 62
   136
370
     0
100
AcDbLine
 10
116.6508718467212
 20
211.9425385393096
 30
0.0
 11
97.51604914468593
 21
211.9425385393096
 31
0.0
  0
LINE
  5
14A
330
8C
100
AcDbEntity
  8
DEFAULT
  6
Continuous
 62
   136
370
     0
100
AcDbLine
 10
99.01604915772445
 20
221.4425385393096
 30
0.0
 11
99.01604915772445
 21
211.9425388447834
 31
0.0
  0
TEXT
  5
14B
330
8C
100
AcDbEntity
  8
DEFAULT
  6
Continuous
 62
   136
370
     0
100
AcDbText
 10
98.26604915772444
 20
214.6470841465919
 30
0.0
 40
3.0
  1
9,5
 50
90.0
  7
seiso_ttf
 11
95.26604915772443
 21
214.6470841465919
 31
0.0
100
AcDbText
 73
     3
  0
ENDBLK
  5
1F6
330
8C
100
AcDbEntity
  8
0
370
     0
100
AcDbBlockEnd
  0
BLOCK
  5
1F7
330
8F
100
AcDbEntity
  8
0
370
     0
100
AcDbBlockBegin
  2
DMBLK1570
 70
     0
 10
0.0
 20
0.0
 30
0.0
  3
DMBLK1570
  1

  0
LINE
  5
275
330
8F
100
AcDbEntity
  8
DEFAULT
  6
Continuous
 62
   136
370
    -2
100
AcDbLine
 10
109.1508718467212
 20
221.4425385393096
 30
0.0
 11
97.51604915772446
 21
221.4425385393096
 31
0.0
  0
LINE
  5
276
330
8F
100
AcDbEntity
  8
DEFAULT
  6
Continuous
 62
   136
370
    -2
100
AcDbLine
 10
116.6508718467212
 20
211.9425385393096
 30
0.0
 11
97.51604915772446
 21
211.9425385393096
 31
0.0
  0
LINE
  5
277
330
8F
100
AcDbEntity
  8
DEFAULT
  6
Continuous
 62
   136
370
    -2
100
AcDbLine
 10
99.01604915772447
 20
218.4425385393096
 30
0.0
 11
99.01604915772447
 21
214.9425385393096
 31
0.0
  0
INSERT
  5
278
330
8F
100
AcDbEntity
  8
DEFAULT
  6
Continuous
 62
   136
370
    -2
100
AcDbBlockReference
  2
_SE_FILLED
 10
99.01604915772447
 20
221.4425385393096
 30
0.0
 41
3.0
 42
3.0
 43
3.0
 50
90.0
  0
INSERT
  5
279
330
8F
100
AcDbEntity
  8
DEFAULT
  6
Continuous
 62
   136
370
    -2
100
AcDbBlockReference
  2
_SE_FILLED
 10
99.01604915772447
 20
211.9425385393096
 30
0.0
 41
3.0
 42
3.0
 43
3.0
 50
270.0
  0
MTEXT
  5
27A
330
8F
100
AcDbEntity
  8
DEFAULT
  6
Continuous
 62
   136
370
     0
100
AcDbMText
 10
95.73033487201014
 20
216.6925386920465
 30
0.0
 40
3.0
 41
0.0
 71
     5
 72
     1
  1
\A1;\A1;9,5
  7
seiso_ttf
 11
0.0000000000000001
 21
1.0
 31
0.0
 73
     1
 44
1.0
1001
ACAD
1000
MTEXTBEGIN
1070
    73
1070
     1
1070
    44
1040
1.0
1070
    74
1070
     0
1000
MTEXTEND
  0
POINT
  5
27B
330
8F
100
AcDbEntity
  8
Defpoints
  6
Continuous
 62
     0
370
     0
100
AcDbPoint
 10
109.1508718467212
 20
221.4425385393096
 30
0.0
  0
POINT
  5
27C
330
8F
100
AcDbEntity
  8
Defpoints
  6
Continuous
 62
     0
370
     0
100
AcDbPoint
 10
116.6508718467212
 20
211.9425385393096
 30
0.0
  0
POINT
  5
27D
330
8F
100
AcDbEntity
  8
Defpoints
  6
Continuous
 62
     0
370
     0
100
AcDbPoint
 10
99.01604915772447
 20
211.9425385393096
 30
0.0
  0
ENDBLK
  5
14F
330
8F
100
AcDbEntity
  8
DEFAULT
 62
     0
 48
0.0
370
     0
100
AcDbBlockEnd
  0
BLOCK
  5
150
330
91
100
AcDbEntity
  8
DEFAULT
 62
     1
 48
0.0
370
     0
100
AcDbBlockBegin
  2
SE9
 70
     0
 10
0.0
 20
0.0
 30
0.0
  3
SE9
  1

  0
HATCH
  5
151
330
91
100
AcDbEntity
  8
DEFAULT
  6
Continuous
 62
   136
100
AcDbHatch
 10
0.0
 20
0.0
 30
0.0
210
0.0
220
0.0
230
1.0
  2
SOLID
 70
     1
 71
     0
 91
        1
 92
        1
 93
        3
 72
     1
 10
98.51604978667763
 20
208.9425385132326
 11
99.0160497910238
 21
211.9425385393096
 72
     1
 10
99.0160497910238
 20
211.9425385393096
 11
99.51604979536998
 21
208.9425385132326
 72
     1
 10
99.51604979536998
 20
208.9425385132326
 11
98.51604978667763
 21
208.9425385132326
 97
        0
 75
     0
 76
     1
 98
        1
 10
0.0
 20
0.0
  0
HATCH
  5
152
330
91
100
AcDbEntity
  8
DEFAULT
  6
Continuous
 62
   136
100
AcDbHatch
 10
0.0
 20
0.0
 30
0.0
210
0.0
220
0.0
230
1.0
  2
SOLID
 70
     1
 71
     0
 91
        1
 92
        1
 93
        3
 72
     1
 10
98.51604978667763
 20
118.9425385653866
 11
99.0160497910238
 21
115.9425385393096
 72
     1
 10
99.0160497910238
 20
115.9425385393096
 11
99.51604979536998
 21
118.9425385653866
 72
     1
 10
99.51604979536998
 20
118.9425385653866
 11
98.51604978667763
 21
118.9425385653866
 97
        0
 75
     0
 76
     1
 98
        1
 10
0.0
 20
0.0
  0
LINE
  5
153
330
91
100
AcDbEntity
  8
DEFAULT
  6
Continuous
 62
   136
370
     0
100
AcDbLine
 10
116.6508718467212
 20
211.9425385393096
 30
0.0
 11
97.51604977798528
 21
211.9425385393096
 31
0.0
  0
LINE
  5
154
330
91
100
AcDbEntity
  8
DEFAULT
  6
Continuous
 62
   136
370
     0
100
AcDbLine
 10
116.6508718467212
 20
115.9425385393096
 30
0.0
 11
97.51604977798528
 21
115.9425385393096
 31
0.0
  0
LINE
  5
155
330
91
100
AcDbEntity
  8
DEFAULT
  6
Continuous
 62
   136
370
     0
100
AcDbLine
 10
99.0160497910238
 20
211.9425385393096
 30
0.0
 11
99.0160497910238
 21
115.9425377048446
 31
0.0
  0
TEXT
  5
156
330
91
100
AcDbEntity
  8
DEFAULT
  6
Continuous
 62
   136
370
     0
100
AcDbText
 10
98.26604979102379
 20
162.101629031168
 30
0.0
 40
3.0
  1
96
 50
90.0
  7
seiso_ttf
 11
95.26604979102378
 21
162.101629031168
 31
0.0
100
AcDbText
 73
     3
  0
ENDBLK
  5
1F8
330
91
100
AcDbEntity
  8
0
370
     0
100
AcDbBlockEnd
  0
BLOCK
  5
1F9
330
94
100
AcDbEntity
  8
0
370
     0
100
AcDbBlockBegin
  2
DMBLK1571
 70
     0
 10
0.0
 20
0.0
 30
0.0
  3
DMBLK1571
  1

  0
LINE
  5
27E
330
94
100
AcDbEntity
  8
DEFAULT
  6
Continuous
 62
   136
370
    -2
100
AcDbLine
 10
116.6508718467212
 20
211.9425385393096
 30
0.0
 11
97.51604979102383
 21
211.9425385393096
 31
0.0
  0
LINE
  5
27F
330
94
100
AcDbEntity
  8
DEFAULT
  6
Continuous
 62
   136
370
    -2
100
AcDbLine
 10
116.6508718467212
 20
115.9425385393096
 30
0.0
 11
97.51604979102381
 21
115.9425385393096
 31
0.0
  0
LINE
  5
280
330
94
100
AcDbEntity
  8
DEFAULT
  6
Continuous
 62
   136
370
    -2
100
AcDbLine
 10
99.01604979102383
 20
208.9425385393096
 30
0.0
 11
99.01604979102382
 21
118.9425385393096
 31
0.0
  0
INSERT
  5
281
330
94
100
AcDbEntity
  8
DEFAULT
  6
Continuous
 62
   136
370
    -2
100
AcDbBlockReference
  2
_SE_FILLED
 10
99.01604979102383
 20
211.9425385393096
 30
0.0
 41
3.0
 42
3.0
 43
3.0
 50
90.0
  0
INSERT
  5
282
330
94
100
AcDbEntity
  8
DEFAULT
  6
Continuous
 62
   136
370
    -2
100
AcDbBlockReference
  2
_SE_FILLED
 10
99.01604979102382
 20
115.9425385393096
 30
0.0
 41
3.0
 42
3.0
 43
3.0
 50
270.0
  0
MTEXT
  5
283
330
94
100
AcDbEntity
  8
DEFAULT
  6
Continuous
 62
   136
370
     0
100
AcDbMText
 10
96.01604979102381
 20
163.9425381220771
 30
0.0
 40
3.0
 41
0.0
 71
     5
 72
     1
  1
\A1;\A1;96
  7
seiso_ttf
 11
0.0000000000000001
 21
1.0
 31
0.0
 73
     1
 44
1.0
1001
ACAD
1000
MTEXTBEGIN
1070
    73
1070
     1
1070
    44
1040
1.0
1070
    74
1070
     0
1000
MTEXTEND
  0
POINT
  5
284
330
94
100
AcDbEntity
  8
Defpoints
  6
Continuous
 62
     0
370
     0
100
AcDbPoint
 10
116.6508718467212
 20
211.9425385393096
 30
0.0
  0
POINT
  5
285
330
94
100
AcDbEntity
  8
Defpoints
  6
Continuous
 62
     0
370
     0
100
AcDbPoint
 10
116.6508718467212
 20
115.9425385393096
 30
0.0
  0
POINT
  5
286
330
94
100
AcDbEntity
  8
Defpoints
  6
Continuous
 62
     0
370
     0
100
AcDbPoint
 10
99.01604979102382
 20
115.9425385393096
 30
0.0
  0
ENDBLK
  5
15A
330
94
100
AcDbEntity
  8
DEFAULT
 62
     0
 48
0.0
370
     0
100
AcDbBlockEnd
  0
BLOCK
  5
15B
330
96
100
AcDbEntity
  8
DEFAULT
 62
     1
 48
0.0
370
     0
100
AcDbBlockBegin
  2
SE10
 70
     0
 10
0.0
 20
0.0
 30
0.0
  3
SE10
  1

  0
HATCH
  5
15C
330
96
100
AcDbEntity
  8
DEFAULT
  6
Continuous
 62
   136
100
AcDbHatch
 10
0.0
 20
0.0
 30
0.0
210
0.0
220
0.0
230
1.0
  2
SOLID
 70
     1
 71
     0
 91
        1
 92
        1
 93
        3
 72
     1
 10
98.51604978667763
 20
112.9425385132325
 11
99.0160497910238
 21
115.9425385393096
 72
     1
 10
99.0160497910238
 20
115.9425385393096
 11
99.51604979536998
 21
112.9425385132325
 72
     1
 10
99.51604979536998
 20
112.9425385132325
 11
98.51604978667763
 21
112.9425385132325
 97
        0
 75
     0
 76
     1
 98
        1
 10
0.0
 20
0.0
  0
HATCH
  5
15D
330
96
100
AcDbEntity
  8
DEFAULT
  6
Continuous
 62
   136
100
AcDbHatch
 10
0.0
 20
0.0
 30
0.0
210
0.0
220
0.0
230
1.0
  2
SOLID
 70
     1
 71
     0
 91
        1
 92
        1
 93
        3
 72
     1
 10
98.51604978667763
 20
109.4425385653866
 11
99.0160497910238
 21
106.4425385393096
 72
     1
 10
99.0160497910238
 20
106.4425385393096
 11
99.51604979536998
 21
109.4425385653866
 72
     1
 10
99.51604979536998
 20
109.4425385653866
 11
98.51604978667763
 21
109.4425385653866
 97
        0
 75
     0
 76
     1
 98
        1
 10
0.0
 20
0.0
  0
LINE
  5
15E
330
96
100
AcDbEntity
  8
DEFAULT
  6
Continuous
 62
   136
370
     0
100
AcDbLine
 10
116.6508718467212
 20
115.9425385393096
 30
0.0
 11
97.51604977798528
 21
115.9425385393096
 31
0.0
  0
LINE
  5
15F
330
96
100
AcDbEntity
  8
DEFAULT
  6
Continuous
 62
   136
370
     0
100
AcDbLine
 10
118.4455147674311
 20
106.4425385393096
 30
0.0
 11
97.51604977798528
 21
106.4425385393096
 31
0.0
  0
LINE
  5
160
330
96
100
AcDbEntity
  8
DEFAULT
  6
Continuous
 62
   136
370
     0
100
AcDbLine
 10
99.0160497910238
 20
115.9425385393096
 30
0.0
 11
99.0160497910238
 21
106.4425388447834
 31
0.0
  0
TEXT
  5
161
330
96
100
AcDbEntity
  8
DEFAULT
  6
Continuous
 62
   136
370
     0
100
AcDbText
 10
98.26604979102379
 20
109.1470841465919
 30
0.0
 40
3.0
  1
9,5
 50
90.0
  7
seiso_ttf
 11
95.26604979102378
 21
109.1470841465919
 31
0.0
100
AcDbText
 73
     3
  0
ENDBLK
  5
1FA
330
96
100
AcDbEntity
  8
0
370
     0
100
AcDbBlockEnd
  0
BLOCK
  5
1FB
330
99
100
AcDbEntity
  8
0
370
     0
100
AcDbBlockBegin
  2
DMBLK1572
 70
     0
 10
0.0
 20
0.0
 30
0.0
  3
DMBLK1572
  1

  0
LINE
  5
287
330
99
100
AcDbEntity
  8
DEFAULT
  6
Continuous
 62
   136
370
    -2
100
AcDbLine
 10
116.6508718467212
 20
115.9425385393096
 30
0.0
 11
97.51604979102383
 21
115.9425385393096
 31
0.0
  0
LINE
  5
288
330
99
100
AcDbEntity
  8
DEFAULT
  6
Continuous
 62
   136
370
    -2
100
AcDbLine
 10
118.4455147674311
 20
106.4425385393096
 30
0.0
 11
97.51604979102383
 21
106.4425385393096
 31
0.0
  0
LINE
  5
289
330
99
100
AcDbEntity
  8
DEFAULT
  6
Continuous
 62
   136
370
    -2
100
AcDbLine
 10
99.01604979102383
 20
112.9425385393096
 30
0.0
 11
99.01604979102383
 21
109.4425385393096
 31
0.0
  0
INSERT
  5
28A
330
99
100
AcDbEntity
  8
DEFAULT
  6
Continuous
 62
   136
370
    -2
100
AcDbBlockReference
  2
_SE_FILLED
 10
99.01604979102383
 20
115.9425385393096
 30
0.0
 41
3.0
 42
3.0
 43
3.0
 50
90.0
  0
INSERT
  5
28B
330
99
100
AcDbEntity
  8
DEFAULT
  6
Continuous
 62
   136
370
    -2
100
AcDbBlockReference
  2
_SE_FILLED
 10
99.01604979102383
 20
106.4425385393096
 30
0.0
 41
3.0
 42
3.0
 43
3.0
 50
270.0
  0
MTEXT
  5
28C
330
99
100
AcDbEntity
  8
DEFAULT
  6
Continuous
 62
   136
370
     0
100
AcDbMText
 10
95.73033550530951
 20
111.1925386920465
 30
0.0
 40
3.0
 41
0.0
 71
     5
 72
     1
  1
\A1;\A1;9,5
  7
seiso_ttf
 11
0.0000000000000001
 21
1.0
 31
0.0
 73
     1
 44
1.0
1001
ACAD
1000
MTEXTBEGIN
1070
    73
1070
     1
1070
    44
1040
1.0
1070
    74
1070
     0
1000
MTEXTEND
  0
POINT
  5
28D
330
99
100
AcDbEntity
  8
Defpoints
  6
Continuous
 62
     0
370
     0
100
AcDbPoint
 10
116.6508718467212
 20
115.9425385393096
 30
0.0
  0
POINT
  5
28E
330
99
100
AcDbEntity
  8
Defpoints
  6
Continuous
 62
     0
370
     0
100
AcDbPoint
 10
118.4455147674311
 20
106.4425385393096
 30
0.0
  0
POINT
  5
28F
330
99
100
AcDbEntity
  8
Defpoints
  6
Continuous
 62
     0
370
     0
100
AcDbPoint
 10
99.01604979102383
 20
106.4425385393096
 30
0.0
  0
ENDBLK
  5
165
330
99
100
AcDbEntity
  8
DEFAULT
 62
     0
 48
0.0
370
     0
100
AcDbBlockEnd
  0
BLOCK
  5
166
330
9B
100
AcDbEntity
  8
DEFAULT
 62
     1
 48
0.0
370
     0
100
AcDbBlockBegin
  2
SE11
 70
     0
 10
0.0
 20
0.0
 30
0.0
  3
SE11
  1

  0
LINE
  5
167
330
9B
100
AcDbEntity
  8
DEFAULT
  6
Continuous
 62
   136
370
     0
100
AcDbLine
 10
124.8792779859322
 20
216.0013509721798
 30
0.0
 11
113.8034398345104
 21
210.5379904096494
 31
0.0
  0
LINE
  5
168
330
9B
100
AcDbEntity
  8
DEFAULT
  6
Continuous
 62
   136
370
     0
100
AcDbLine
 10
113.8034397656869
 20
210.5379903757009
 30
0.0
 11
80.72720554216784
 21
194.2225304400034
 31
0.0
  0
HATCH
  5
169
330
9B
100
AcDbEntity
  8
DEFAULT
  6
Continuous
 62
   136
100
AcDbHatch
 10
0.0
 20
0.0
 30
0.0
210
0.0
220
0.0
230
1.0
  2
SOLID
 70
     1
 71
     0
 91
        1
 92
        1
 93
        3
 72
     1
 10
122.409979645949
 20
214.225804332701
 11
119.4983039277555
 21
213.3470867029183
 72
     1
 10
119.4983039277555
 20
213.3470867029183
 11
121.9676022677388
 21
215.1226333423971
 72
     1
 10
121.9676022677388
 20
215.1226333423971
 11
122.409979645949
 21
214.225804332701
 97
        0
 75
     0
 76
     1
 98
        1
 10
0.0
 20
0.0
  0
HATCH
  5
16A
330
9B
100
AcDbEntity
  8
DEFAULT
  6
Continuous
 62
   136
100
AcDbHatch
 10
0.0
 20
0.0
 30
0.0
210
0.0
220
0.0
230
1.0
  2
SOLID
 70
     1
 71
     0
 91
        1
 92
        1
 93
        3
 72
     1
 10
111.3341414257037
 20
208.7624437362221
 11
113.8034397656869
 21
210.5379903757009
 72
     1
 10
113.8034397656869
 20
210.5379903757009
 11
110.8917640474934
 21
209.6592727459182
 72
     1
 10
110.8917640474934
 20
209.6592727459182
 11
111.3341414257037
 21
208.7624437362221
 97
        0
 75
     0
 76
     1
 98
        1
 10
0.0
 20
0.0
  0
TEXT
  5
16B
330
9B
100
AcDbEntity
  8
DEFAULT
  6
Continuous
 62
   136
370
     0
100
AcDbText
 10
81.33709358621043
 20
195.3596487417298
 30
0.0
 40
3.0
  1
O
 50
26.25566563230123
  7
semeci1_ttf
 11
80.00996146311559
 21
198.0501357474315
 31
0.0
100
AcDbText
 73
     3
  0
TEXT
  5
16C
330
9B
100
AcDbEntity
  8
DEFAULT
  6
Continuous
 62
   136
370
     0
100
AcDbText
 10
85.94734293571852
 20
197.6337388950154
 30
0.0
 40
3.0
  1
6,35
 50
26.25566563230123
  7
seiso_ttf
 11
84.62021081262369
 21
200.3242259007172
 31
0.0
100
AcDbText
 73
     3
  0
ENDBLK
  5
1FC
330
9B
100
AcDbEntity
  8
0
370
     0
100
AcDbBlockEnd
  0
BLOCK
  5
1FD
330
9F
100
AcDbEntity
  8
0
370
     0
100
AcDbBlockBegin
  2
DMBLK1573
 70
     0
 10
0.0
 20
0.0
 30
0.0
  3
DMBLK1573
  1

  0
LINE
  5
290
330
9F
100
AcDbEntity
  8
DEFAULT
  6
Continuous
 62
   136
370
    -2
100
AcDbLine
 10
122.1887909334573
 20
214.6742188260132
 30
0.0
 11
124.879277939159
 21
216.001350949108
 31
0.0
  0
LINE
  5
291
330
9F
100
AcDbEntity
  8
DEFAULT
  6
Continuous
 62
   136
370
    -2
100
AcDbLine
 10
111.1129527599852
 20
209.210858252606
 30
0.0
 11
108.4224657542835
 21
207.8837261295112
 31
0.0
  0
MTEXT
  5
292
102
{ACAD_XDICTIONARY
360
367
102
}
330
9F
100
AcDbEntity
  8
DEFAULT
  6
Continuous
 62
   136
370
     0
100
AcDbMText
 10
92.29603327015244
 20
199.9290671643294
 30
0.0
 40
3.0
 41
0.0
 71
     5
 72
     1
  1
\A1;\A1;\U+22056,35
  7
seiso_ttf
 73
     1
 44
1.0
1001
ACAD
1000
MTEXTBEGIN
1070
    73
1070
     1
1070
    44
1040
1.0
1070
    74
1070
     0
1000
MTEXTEND
  0
LINE
  5
293
330
9F
100
AcDbEntity
  8
DEFAULT
  6
Continuous
 62
   136
370
    -2
100
AcDbLine
 10
119.4983039277555
 20
213.3470867029183
 30
0.0
 11
113.8034397656869
 21
210.5379903757009
 31
0.0
  0
INSERT
  5
294
330
9F
100
AcDbEntity
  8
DEFAULT
  6
Continuous
 62
   136
370
    -2
100
AcDbBlockReference
  2
_SE_FILLED
 10
119.4983039277555
 20
213.3470867029183
 30
0.0
 41
3.0
 42
3.0
 43
3.0
 50
206.2556656323017
  0
INSERT
  5
295
330
9F
100
AcDbEntity
  8
DEFAULT
  6
Continuous
 62
   136
370
    -2
100
AcDbBlockReference
  2
_SE_FILLED
 10
113.8034397656869
 20
210.5379903757009
 30
0.0
 41
3.0
 42
3.0
 43
3.0
 50
26.25566563230165
  0
POINT
  5
296
330
9F
100
AcDbEntity
  8
Defpoints
  6
Continuous
 62
     0
370
     0
100
AcDbPoint
 10
113.8034397656869
 20
210.5379903757009
 30
0.0
  0
POINT
  5
297
330
9F
100
AcDbEntity
  8
Defpoints
  6
Continuous
 62
     0
370
     0
100
AcDbPoint
 10
119.4983039277555
 20
213.3470867029183
 30
0.0
  0
ENDBLK
  5
170
330
9F
100
AcDbEntity
  8
DEFAULT
 62
     0
 48
0.0
370
     0
100
AcDbBlockEnd
  0
BLOCK
  5
171
330
A1
100
AcDbEntity
  8
DEFAULT
 62
     1
 48
0.0
370
     0
100
AcDbBlockBegin
  2
SE12
 70
     0
 10
0.0
 20
0.0
 30
0.0
  3
SE12
  1

  0
HATCH
  5
172
330
A1
100
AcDbEntity
  8
DEFAULT
  6
Continuous
 62
   136
100
AcDbHatch
 10
0.0
 20
0.0
 30
0.0
210
0.0
220
0.0
230
1.0
  2
SOLID
 70
     1
 71
     0
 91
        1
 92
        1
 93
        3
 72
     1
 10
100.2844748936799
 20
69.43912143113433
 11
100.784474898026
 21
66.43912140505729
 72
     1
 10
100.784474898026
 20
66.43912140505729
 11
101.2844749023722
 21
69.43912143113433
 72
     1
 10
101.2844749023722
 20
69.43912143113433
 11
100.2844748936799
 21
69.43912143113433
 97
        0
 75
     0
 76
     1
 98
        1
 10
0.0
 20
0.0
  0
HATCH
  5
173
330
A1
100
AcDbEntity
  8
DEFAULT
  6
Continuous
 62
   136
100
AcDbHatch
 10
0.0
 20
0.0
 30
0.0
210
0.0
220
0.0
230
1.0
  2
SOLID
 70
     1
 71
     0
 91
        1
 92
        1
 93
        3
 72
     1
 10
100.2844748936799
 20
77.43912137898026
 11
100.784474898026
 21
80.4391214050573
 72
     1
 10
100.784474898026
 20
80.4391214050573
 11
101.2844749023722
 21
77.43912137898026
 72
     1
 10
101.2844749023722
 20
77.43912137898026
 11
100.2844748936799
 21
77.43912137898026
 97
        0
 75
     0
 76
     1
 98
        1
 10
0.0
 20
0.0
  0
LINE
  5
174
330
A1
100
AcDbEntity
  8
DEFAULT
  6
Continuous
 62
   136
370
     0
100
AcDbLine
 10
116.6508718467212
 20
66.43912140505729
 30
0.0
 11
99.28447488498754
 21
66.43912140505729
 31
0.0
  0
LINE
  5
175
330
A1
100
AcDbEntity
  8
DEFAULT
  6
Continuous
 62
   136
370
     0
100
AcDbLine
 10
116.8208745482859
 20
80.4391214050573
 30
0.0
 11
99.28447488498754
 21
80.4391214050573
 31
0.0
  0
LINE
  5
176
330
A1
100
AcDbEntity
  8
DEFAULT
  6
Continuous
 62
   136
370
     0
100
AcDbLine
 10
100.784474898026
 20
66.43912140505729
 30
0.0
 11
100.784474898026
 21
80.43912183719097
 31
0.0
  0
TEXT
  5
177
330
A1
100
AcDbEntity
  8
DEFAULT
  6
Continuous
 62
   136
370
     0
100
AcDbText
 10
100.034474898026
 20
71.93912162112413
 30
0.0
 40
3.0
  1
14
 50
90.0
  7
seiso_ttf
 11
97.03447489802606
 21
71.93912162112413
 31
0.0
100
AcDbText
 73
     3
  0
ENDBLK
  5
1FE
330
A1
100
AcDbEntity
  8
0
370
     0
100
AcDbBlockEnd
  0
BLOCK
  5
1FF
330
A4
100
AcDbEntity
  8
0
370
     0
100
AcDbBlockBegin
  2
DMBLK1574
 70
     0
 10
0.0
 20
0.0
 30
0.0
  3
DMBLK1574
  1

  0
LINE
  5
298
330
A4
100
AcDbEntity
  8
DEFAULT
  6
Continuous
 62
   136
370
    -2
100
AcDbLine
 10
116.6508718467212
 20
66.43912140505729
 30
0.0
 11
99.28447489802607
 21
66.43912140505729
 31
0.0
  0
LINE
  5
299
330
A4
100
AcDbEntity
  8
DEFAULT
  6
Continuous
 62
   136
370
    -2
100
AcDbLine
 10
116.8208745482859
 20
80.4391214050573
 30
0.0
 11
99.28447489802607
 21
80.4391214050573
 31
0.0
  0
LINE
  5
29A
330
A4
100
AcDbEntity
  8
DEFAULT
  6
Continuous
 62
   136
370
    -2
100
AcDbLine
 10
100.7844748980261
 20
69.43912140505729
 30
0.0
 11
100.7844748980261
 21
77.43912140505729
 31
0.0
  0
INSERT
  5
29B
330
A4
100
AcDbEntity
  8
DEFAULT
  6
Continuous
 62
   136
370
    -2
100
AcDbBlockReference
  2
_SE_FILLED
 10
100.7844748980261
 20
66.43912140505729
 30
0.0
 41
3.0
 42
3.0
 43
3.0
 50
270.0
  0
INSERT
  5
29C
330
A4
100
AcDbEntity
  8
DEFAULT
  6
Continuous
 62
   136
370
    -2
100
AcDbBlockReference
  2
_SE_FILLED
 10
100.7844748980261
 20
80.4391214050573
 30
0.0
 41
3.0
 42
3.0
 43
3.0
 50
90.0
  0
MTEXT
  5
29D
330
A4
100
AcDbEntity
  8
DEFAULT
  6
Continuous
 62
   136
370
     0
100
AcDbMText
 10
97.78447489802607
 20
73.43912162112413
 30
0.0
 40
3.0
 41
0.0
 71
     5
 72
     1
  1
\A1;\A1;14
  7
seiso_ttf
 11
0.0000000000000001
 21
1.0
 31
0.0
 73
     1
 44
1.0
1001
ACAD
1000
MTEXTBEGIN
1070
    73
1070
     1
1070
    44
1040
1.0
1070
    74
1070
     0
1000
MTEXTEND
  0
POINT
  5
29E
330
A4
100
AcDbEntity
  8
Defpoints
  6
Continuous
 62
     0
370
     0
100
AcDbPoint
 10
116.6508718467212
 20
66.43912140505729
 30
0.0
  0
POINT
  5
29F
330
A4
100
AcDbEntity
  8
Defpoints
  6
Continuous
 62
     0
370
     0
100
AcDbPoint
 10
116.8208745482859
 20
80.4391214050573
 30
0.0
  0
POINT
  5
2A0
330
A4
100
AcDbEntity
  8
Defpoints
  6
Continuous
 62
     0
370
     0
100
AcDbPoint
 10
100.7844748980261
 20
80.4391214050573
 30
0.0
  0
ENDBLK
  5
17B
330
A4
100
AcDbEntity
  8
DEFAULT
 62
     0
 48
0.0
370
     0
100
AcDbBlockEnd
  0
BLOCK
  5
17C
330
A6
100
AcDbEntity
  8
DEFAULT
 62
     1
 48
0.0
370
     0
100
AcDbBlockBegin
  2
SE13
 70
     0
 10
0.0
 20
0.0
 30
0.0
  3
SE13
  1

  0
HATCH
  5
17D
330
A6
100
AcDbEntity
  8
DEFAULT
  6
Continuous
 62
   136
100
AcDbHatch
 10
0.0
 20
0.0
 30
0.0
210
0.0
220
0.0
230
1.0
  2
SOLID
 70
     1
 71
     0
 91
        1
 92
        1
 93
        3
 72
     1
 10
93.56445819333661
 20
77.43912137898026
 11
94.06445819768277
 21
80.4391214050573
 72
     1
 10
94.06445819768277
 20
80.4391214050573
 11
94.56445820202896
 21
77.43912137898026
 72
     1
 10
94.56445820202896
 20
77.43912137898026
 11
93.56445819333661
 21
77.43912137898026
 97
        0
 75
     0
 76
     1
 98
        1
 10
0.0
 20
0.0
  0
HATCH
  5
17E
330
A6
100
AcDbEntity
  8
DEFAULT
  6
Continuous
 62
   136
100
AcDbHatch
 10
0.0
 20
0.0
 30
0.0
210
0.0
220
0.0
230
1.0
  2
SOLID
 70
     1
 71
     0
 91
        1
 92
        1
 93
        3
 72
     1
 10
93.56445819333661
 20
47.9362096932806
 11
94.06445819768277
 21
44.93620966720357
 72
     1
 10
94.06445819768277
 20
44.93620966720357
 11
94.56445820202896
 21
47.9362096932806
 72
     1
 10
94.56445820202896
 20
47.9362096932806
 11
93.56445819333661
 21
47.9362096932806
 97
        0
 75
     0
 76
     1
 98
        1
 10
0.0
 20
0.0
  0
LINE
  5
17F
330
A6
100
AcDbEntity
  8
DEFAULT
  6
Continuous
 62
   136
370
     0
100
AcDbLine
 10
116.8208745482859
 20
80.4391214050573
 30
0.0
 11
92.56445818464426
 21
80.4391214050573
 31
0.0
  0
LINE
  5
180
330
A6
100
AcDbEntity
  8
DEFAULT
  6
Continuous
 62
   136
370
     0
100
AcDbLine
 10
132.11601721921
 20
44.93620966720357
 30
0.0
 11
92.56445818464426
 21
44.93620966720357
 31
0.0
  0
LINE
  5
181
330
A6
100
AcDbEntity
  8
DEFAULT
  6
Continuous
 62
   136
370
     0
100
AcDbLine
 10
94.06445819768277
 20
80.4391214050573
 30
0.0
 11
94.06445819768277
 21
44.93621079104362
 31
0.0
  0
TEXT
  5
182
330
A6
100
AcDbEntity
  8
DEFAULT
  6
Continuous
 62
   136
370
     0
100
AcDbText
 10
93.31445819768276
 20
59.92630246168683
 30
0.0
 40
3.0
  1
35,5
 50
90.0
  7
seiso_ttf
 11
90.31445819768277
 21
59.92630246168683
 31
0.0
100
AcDbText
 73
     3
  0
ENDBLK
  5
200
330
A6
100
AcDbEntity
  8
0
370
     0
100
AcDbBlockEnd
  0
BLOCK
  5
201
330
A9
100
AcDbEntity
  8
0
370
     0
100
AcDbBlockBegin
  2
DMBLK1575
 70
     0
 10
0.0
 20
0.0
 30
0.0
  3
DMBLK1575
  1

  0
LINE
  5
2A1
330
A9
100
AcDbEntity
  8
DEFAULT
  6
Continuous
 62
   136
370
    -2
100
AcDbLine
 10
116.8208745482859
 20
80.4391214050573
 30
0.0
 11
92.56445819768279
 21
80.4391214050573
 31
0.0
  0
LINE
  5
2A2
330
A9
100
AcDbEntity
  8
DEFAULT
  6
Continuous
 62
   136
370
    -2
100
AcDbLine
 10
132.11601721921
 20
44.93620966720357
 30
0.0
 11
92.56445819768279
 21
44.93620966720357
 31
0.0
  0
LINE
  5
2A3
330
A9
100
AcDbEntity
  8
DEFAULT
  6
Continuous
 62
   136
370
    -2
100
AcDbLine
 10
94.06445819768279
 20
77.43912140505731
 30
0.0
 11
94.06445819768279
 21
47.93620966720357
 31
0.0
  0
INSERT
  5
2A4
330
A9
100
AcDbEntity
  8
DEFAULT
  6
Continuous
 62
   136
370
    -2
100
AcDbBlockReference
  2
_SE_FILLED
 10
94.06445819768279
 20
80.4391214050573
 30
0.0
 41
3.0
 42
3.0
 43
3.0
 50
90.0
  0
INSERT
  5
2A5
330
A9
100
AcDbEntity
  8
DEFAULT
  6
Continuous
 62
   136
370
    -2
100
AcDbBlockReference
  2
_SE_FILLED
 10
94.06445819768279
 20
44.93620966720357
 30
0.0
 41
3.0
 42
3.0
 43
3.0
 50
270.0
  0
MTEXT
  5
2A6
330
A9
100
AcDbEntity
  8
DEFAULT
  6
Continuous
 62
   136
370
     0
100
AcDbMText
 10
90.77874391196848
 20
62.68766609805045
 30
0.0
 40
3.0
 41
0.0
 71
     5
 72
     1
  1
\A1;\A1;35,5
  7
seiso_ttf
 11
0.0000000000000001
 21
1.0
 31
0.0
 73
     1
 44
1.0
1001
ACAD
1000
MTEXTBEGIN
1070
    73
1070
     1
1070
    44
1040
1.0
1070
    74
1070
     0
1000
MTEXTEND
  0
POINT
  5
2A7
330
A9
100
AcDbEntity
  8
Defpoints
  6
Continuous
 62
     0
370
     0
100
AcDbPoint
 10
116.8208745482859
 20
80.4391214050573
 30
0.0
  0
POINT
  5
2A8
330
A9
100
AcDbEntity
  8
Defpoints
  6
Continuous
 62
     0
370
     0
100
AcDbPoint
 10
132.11601721921
 20
44.93620966720357
 30
0.0
  0
POINT
  5
2A9
330
A9
100
AcDbEntity
  8
Defpoints
  6
Continuous
 62
     0
370
     0
100
AcDbPoint
 10
94.06445819768279
 20
44.93620966720357
 30
0.0
  0
ENDBLK
  5
186
330
A9
100
AcDbEntity
  8
DEFAULT
 62
     0
 48
0.0
370
     0
100
AcDbBlockEnd
  0
BLOCK
  5
187
330
AB
100
AcDbEntity
  8
DEFAULT
 62
     1
 48
0.0
370
     0
100
AcDbBlockBegin
  2
SE14
 70
     0
 10
0.0
 20
0.0
 30
0.0
  3
SE14
  1

  0
HATCH
  5
188
330
AB
100
AcDbEntity
  8
DEFAULT
  6
Continuous
 62
   136
100
AcDbHatch
 10
0.0
 20
0.0
 30
0.0
210
0.0
220
0.0
230
1.0
  2
SOLID
 70
     1
 71
     0
 91
        1
 92
        1
 93
        3
 72
     1
 10
110.1508718727982
 20
93.90934819204669
 11
107.1508718467212
 21
93.40934818770051
 72
     1
 10
107.1508718467212
 20
93.40934818770051
 11
110.1508718727982
 21
92.90934818335434
 72
     1
 10
110.1508718727982
 20
92.90934818335434
 11
110.1508718727982
 21
93.90934819204669
 97
        0
 75
     0
 76
     1
 98
        1
 10
0.0
 20
0.0
  0
HATCH
  5
189
330
AB
100
AcDbEntity
  8
DEFAULT
  6
Continuous
 62
   136
100
AcDbHatch
 10
0.0
 20
0.0
 30
0.0
210
0.0
220
0.0
230
1.0
  2
SOLID
 70
     1
 71
     0
 91
        1
 92
        1
 93
        3
 72
     1
 10
123.4908772237735
 20
93.90934819204669
 11
126.4908772498505
 21
93.40934818770051
 72
     1
 10
126.4908772498505
 20
93.40934818770051
 11
123.4908772237735
 21
92.90934818335434
 72
     1
 10
123.4908772237735
 20
92.90934818335434
 11
123.4908772237735
 21
93.90934819204669
 97
        0
 75
     0
 76
     1
 98
        1
 10
0.0
 20
0.0
  0
LINE
  5
18A
330
AB
100
AcDbEntity
  8
DEFAULT
  6
Continuous
 62
   136
370
     0
100
AcDbLine
 10
107.1508718467212
 20
71.86705237414003
 30
0.0
 11
107.1508718467212
 21
94.90934820073903
 31
0.0
  0
LINE
  5
18B
330
AB
100
AcDbEntity
  8
DEFAULT
  6
Continuous
 62
   136
370
     0
100
AcDbLine
 10
126.4908772498505
 20
80.4391214050573
 30
0.0
 11
126.4908772498505
 21
94.90934820073903
 31
0.0
  0
LINE
  5
18C
330
AB
100
AcDbEntity
  8
DEFAULT
  6
Continuous
 62
   136
370
     0
100
AcDbLine
 10
107.1508718467212
 20
93.40934818770051
 30
0.0
 11
126.4908766186691
 21
93.40934818770051
 31
0.0
  0
TEXT
  5
18D
330
AB
100
AcDbEntity
  8
DEFAULT
  6
Continuous
 62
   136
370
     0
100
AcDbText
 10
114.229965141786
 20
94.15934818770052
 30
0.0
 40
3.0
  1
19,3
  7
seiso_ttf
 11
114.229965141786
 21
97.15934818770051
 31
0.0
100
AcDbText
 73
     3
  0
ENDBLK
  5
202
330
AB
100
AcDbEntity
  8
0
370
     0
100
AcDbBlockEnd
  0
BLOCK
  5
203
330
AE
100
AcDbEntity
  8
0
370
     0
100
AcDbBlockBegin
  2
DMBLK1576
 70
     0
 10
0.0
 20
0.0
 30
0.0
  3
DMBLK1576
  1

  0
LINE
  5
2AA
330
AE
100
AcDbEntity
  8
DEFAULT
  6
Continuous
 62
   136
370
    -2
100
AcDbLine
 10
107.1508718467212
 20
71.86705237414003
 30
0.0
 11
107.1508718467212
 21
94.90934818770051
 31
0.0
  0
LINE
  5
2AB
330
AE
100
AcDbEntity
  8
DEFAULT
  6
Continuous
 62
   136
370
    -2
100
AcDbLine
 10
126.4908772498505
 20
80.4391214050573
 30
0.0
 11
126.4908772498505
 21
94.90934818770051
 31
0.0
  0
LINE
  5
2AC
330
AE
100
AcDbEntity
  8
DEFAULT
  6
Continuous
 62
   136
370
    -2
100
AcDbLine
 10
110.1508718467212
 20
93.40934818770051
 30
0.0
 11
123.4908772498505
 21
93.40934818770051
 31
0.0
  0
INSERT
  5
2AD
330
AE
100
AcDbEntity
  8
DEFAULT
  6
Continuous
 62
   136
370
    -2
100
AcDbBlockReference
  2
_SE_FILLED
 10
107.1508718467212
 20
93.40934818770051
 30
0.0
 41
3.0
 42
3.0
 43
3.0
 50
180.0
  0
INSERT
  5
2AE
330
AE
100
AcDbEntity
  8
DEFAULT
  6
Continuous
 62
   136
370
    -2
100
AcDbBlockReference
  2
_SE_FILLED
 10
126.4908772498505
 20
93.40934818770051
 30
0.0
 41
3.0
 42
3.0
 43
3.0
  0
MTEXT
  5
2AF
330
AE
100
AcDbEntity
  8
DEFAULT
  6
Continuous
 62
   136
370
     0
100
AcDbMText
 10
116.8208742326951
 20
96.6950624734148
 30
0.0
 40
3.0
 41
0.0
 71
     5
 72
     1
  1
\A1;\A1;19,3
  7
seiso_ttf
 73
     1
 44
1.0
1001
ACAD
1000
MTEXTBEGIN
1070
    73
1070
     1
1070
    44
1040
1.0
1070
    74
1070
     0
1000
MTEXTEND
  0
POINT
  5
2B0
330
AE
100
AcDbEntity
  8
Defpoints
  6
Continuous
 62
     0
370
     0
100
AcDbPoint
 10
107.1508718467212
 20
71.86705237414003
 30
0.0
  0
POINT
  5
2B1
330
AE
100
AcDbEntity
  8
Defpoints
  6
Continuous
 62
     0
370
     0
100
AcDbPoint
 10
126.4908772498505
 20
80.4391214050573
 30
0.0
  0
POINT
  5
2B2
330
AE
100
AcDbEntity
  8
Defpoints
  6
Continuous
 62
     0
370
     0
100
AcDbPoint
 10
126.4908772498505
 20
93.40934818770051
 30
0.0
  0
ENDBLK
  5
191
330
AE
100
AcDbEntity
  8
DEFAULT
 62
     0
 48
0.0
370
     0
100
AcDbBlockEnd
  0
BLOCK
  5
192
330
B0
100
AcDbEntity
  8
DEFAULT
 62
     1
 48
0.0
370
     0
100
AcDbBlockBegin
  2
SE15
 70
     0
 10
0.0
 20
0.0
 30
0.0
  3
SE15
  1

  0
HATCH
  5
193
330
B0
100
AcDbEntity
  8
DEFAULT
  6
Continuous
 62
   136
100
AcDbHatch
 10
0.0
 20
0.0
 30
0.0
210
0.0
220
0.0
230
1.0
  2
SOLID
 70
     1
 71
     0
 91
        1
 92
        1
 93
        3
 72
     1
 10
110.1508718727982
 20
100.7509494328144
 11
107.1508718467212
 21
101.2509494371606
 72
     1
 10
107.1508718467212
 20
101.2509494371606
 11
110.1508718727982
 21
101.7509494415067
 72
     1
 10
110.1508718727982
 20
101.7509494415067
 11
110.1508718727982
 21
100.7509494328144
 97
        0
 75
     0
 76
     1
 98
        1
 10
0.0
 20
0.0
  0
HATCH
  5
194
330
B0
100
AcDbEntity
  8
DEFAULT
  6
Continuous
 62
   136
100
AcDbHatch
 10
0.0
 20
0.0
 30
0.0
210
0.0
220
0.0
230
1.0
  2
SOLID
 70
     1
 71
     0
 91
        1
 92
        1
 93
        3
 72
     1
 10
113.6508718206442
 20
100.7509494328144
 11
116.6508718467212
 21
101.2509494371606
 72
     1
 10
116.6508718467212
 20
101.2509494371606
 11
113.6508718206442
 21
101.7509494415067
 72
     1
 10
113.6508718206442
 20
101.7509494415067
 11
113.6508718206442
 21
100.7509494328144
 97
        0
 75
     0
 76
     1
 98
        1
 10
0.0
 20
0.0
  0
LINE
  5
195
330
B0
100
AcDbEntity
  8
DEFAULT
  6
Continuous
 62
   136
370
     0
100
AcDbLine
 10
107.1508718467212
 20
108.4425385393096
 30
0.0
 11
107.1508718467212
 21
99.75094942412207
 31
0.0
  0
LINE
  5
196
330
B0
100
AcDbEntity
  8
DEFAULT
  6
Continuous
 62
   136
370
     0
100
AcDbLine
 10
116.6508718467212
 20
115.9425385393096
 30
0.0
 11
116.6508718467212
 21
99.75094942412207
 31
0.0
  0
LINE
  5
197
330
B0
100
AcDbEntity
  8
DEFAULT
  6
Continuous
 62
   136
370
     0
100
AcDbLine
 10
107.1508718467212
 20
101.2509494371606
 30
0.0
 11
116.6508715412474
 21
101.2509494371606
 31
0.0
  0
TEXT
  5
198
330
B0
100
AcDbEntity
  8
DEFAULT
  6
Continuous
 62
   136
370
     0
100
AcDbText
 10
109.8554171485297
 20
102.0009494371606
 30
0.0
 40
3.0
  1
9,5
  7
seiso_ttf
 11
109.8554171485297
 21
105.0009494371606
 31
0.0
100
AcDbText
 73
     3
  0
ENDBLK
  5
204
330
B0
100
AcDbEntity
  8
0
370
     0
100
AcDbBlockEnd
  0
BLOCK
  5
205
330
B3
100
AcDbEntity
  8
0
370
     0
100
AcDbBlockBegin
  2
DMBLK1577
 70
     0
 10
0.0
 20
0.0
 30
0.0
  3
DMBLK1577
  1

  0
LINE
  5
2B3
330
B3
100
AcDbEntity
  8
DEFAULT
  6
Continuous
 62
   136
370
    -2
100
AcDbLine
 10
107.1508718467212
 20
108.4425385393096
 30
0.0
 11
107.1508718467212
 21
99.75094943716058
 31
0.0
  0
LINE
  5
2B4
330
B3
100
AcDbEntity
  8
DEFAULT
  6
Continuous
 62
   136
370
    -2
100
AcDbLine
 10
116.6508718467212
 20
115.9425385393096
 30
0.0
 11
116.6508718467212
 21
99.75094943716058
 31
0.0
  0
LINE
  5
2B5
330
B3
100
AcDbEntity
  8
DEFAULT
  6
Continuous
 62
   136
370
    -2
100
AcDbLine
 10
110.1508718467212
 20
101.2509494371606
 30
0.0
 11
113.6508718467212
 21
101.2509494371606
 31
0.0
  0
INSERT
  5
2B6
330
B3
100
AcDbEntity
  8
DEFAULT
  6
Continuous
 62
   136
370
    -2
100
AcDbBlockReference
  2
_SE_FILLED
 10
107.1508718467212
 20
101.2509494371606
 30
0.0
 41
3.0
 42
3.0
 43
3.0
 50
180.0
  0
INSERT
  5
2B7
330
B3
100
AcDbEntity
  8
DEFAULT
  6
Continuous
 62
   136
370
    -2
100
AcDbBlockReference
  2
_SE_FILLED
 10
116.6508718467212
 20
101.2509494371606
 30
0.0
 41
3.0
 42
3.0
 43
3.0
  0
MTEXT
  5
2B8
330
B3
100
AcDbEntity
  8
DEFAULT
  6
Continuous
 62
   136
370
     0
100
AcDbMText
 10
111.9008716939843
 20
104.5366637228749
 30
0.0
 40
3.0
 41
0.0
 71
     5
 72
     1
  1
\A1;\A1;9,5
  7
seiso_ttf
 73
     1
 44
1.0
1001
ACAD
1000
MTEXTBEGIN
1070
    73
1070
     1
1070
    44
1040
1.0
1070
    74
1070
     0
1000
MTEXTEND
  0
POINT
  5
2B9
330
B3
100
AcDbEntity
  8
Defpoints
  6
Continuous
 62
     0
370
     0
100
AcDbPoint
 10
107.1508718467212
 20
108.4425385393096
 30
0.0
  0
POINT
  5
2BA
330
B3
100
AcDbEntity
  8
Defpoints
  6
Continuous
 62
     0
370
     0
100
AcDbPoint
 10
116.6508718467212
 20
115.9425385393096
 30
0.0
  0
POINT
  5
2BB
330
B3
100
AcDbEntity
  8
Defpoints
  6
Continuous
 62
     0
370
     0
100
AcDbPoint
 10
116.6508718467212
 20
101.2509494371606
 30
0.0
  0
ENDBLK
  5
19C
330
B3
100
AcDbEntity
  8
DEFAULT
 62
     0
 48
0.0
370
     0
100
AcDbBlockEnd
  0
BLOCK
  5
19D
330
B5
100
AcDbEntity
  8
DEFAULT
 62
     1
 48
0.0
370
     0
100
AcDbBlockBegin
  2
SE16
 70
     0
 10
0.0
 20
0.0
 30
0.0
  3
SE16
  1

  0
HATCH
  5
19E
330
B5
100
AcDbEntity
  8
DEFAULT
  6
Continuous
 62
   136
100
AcDbHatch
 10
0.0
 20
0.0
 30
0.0
210
0.0
220
0.0
230
1.0
  2
SOLID
 70
     1
 71
     0
 91
        1
 92
        1
 93
        3
 72
     1
 10
119.6508718727983
 20
100.7509491347911
 11
116.6508718467212
 21
101.2509491391373
 72
     1
 10
116.6508718467212
 20
101.2509491391373
 11
119.6508718727983
 21
101.7509491434835
 72
     1
 10
119.6508718727983
 20
101.7509491434835
 11
119.6508718727983
 21
100.7509491347911
 97
        0
 75
     0
 76
     1
 98
        1
 10
0.0
 20
0.0
  0
HATCH
  5
19F
330
B5
100
AcDbEntity
  8
DEFAULT
  6
Continuous
 62
   136
100
AcDbHatch
 10
0.0
 20
0.0
 30
0.0
210
0.0
220
0.0
230
1.0
  2
SOLID
 70
     1
 71
     0
 91
        1
 92
        1
 93
        3
 72
     1
 10
123.4908772237735
 20
100.7509491347911
 11
126.4908772498505
 21
101.2509491391373
 72
     1
 10
126.4908772498505
 20
101.2509491391373
 11
123.4908772237735
 21
101.7509491434835
 72
     1
 10
123.4908772237735
 20
101.7509491434835
 11
123.4908772237735
 21
100.7509491347911
 97
        0
 75
     0
 76
     1
 98
        1
 10
0.0
 20
0.0
  0
LINE
  5
1A0
330
B5
100
AcDbEntity
  8
DEFAULT
  6
Continuous
 62
   136
370
     0
100
AcDbLine
 10
116.6508718467212
 20
115.9425385393096
 30
0.0
 11
116.6508718467212
 21
99.75094912609883
 31
0.0
  0
LINE
  5
1A1
330
B5
100
AcDbEntity
  8
DEFAULT
  6
Continuous
 62
   136
370
     0
100
AcDbLine
 10
126.4908772498505
 20
108.4425385393096
 30
0.0
 11
126.4908772498505
 21
99.75094912609883
 31
0.0
  0
LINE
  5
1A2
330
B5
100
AcDbEntity
  8
DEFAULT
  6
Continuous
 62
   136
370
     0
100
AcDbLine
 10
116.6508718467212
 20
101.2509491391373
 30
0.0
 11
126.4908769241429
 21
101.2509491391373
 31
0.0
  0
TEXT
  5
1A3
330
B5
100
AcDbEntity
  8
DEFAULT
  6
Continuous
 62
   136
370
     0
100
AcDbText
 10
119.4231471127048
 20
102.0009491391373
 30
0.0
 40
3.0
  1
9,8
  7
seiso_ttf
 11
119.4231471127048
 21
105.0009491391373
 31
0.0
100
AcDbText
 73
     3
  0
ENDBLK
  5
206
330
B5
100
AcDbEntity
  8
0
370
     0
100
AcDbBlockEnd
  0
BLOCK
  5
207
330
B8
100
AcDbEntity
  8
0
370
     0
100
AcDbBlockBegin
  2
DMBLK1578
 70
     0
 10
0.0
 20
0.0
 30
0.0
  3
DMBLK1578
  1

  0
LINE
  5
2BC
330
B8
100
AcDbEntity
  8
DEFAULT
  6
Continuous
 62
   136
370
    -2
100
AcDbLine
 10
116.6508718467212
 20
115.9425385393096
 30
0.0
 11
116.6508718467212
 21
99.75094913913736
 31
0.0
  0
LINE
  5
2BD
330
B8
100
AcDbEntity
  8
DEFAULT
  6
Continuous
 62
   136
370
    -2
100
AcDbLine
 10
126.4908772498505
 20
108.4425385393096
 30
0.0
 11
126.4908772498505
 21
99.75094913913736
 31
0.0
  0
LINE
  5
2BE
330
B8
100
AcDbEntity
  8
DEFAULT
  6
Continuous
 62
   136
370
    -2
100
AcDbLine
 10
119.6508718467212
 20
101.2509491391373
 30
0.0
 11
123.4908772498505
 21
101.2509491391373
 31
0.0
  0
INSERT
  5
2BF
330
B8
100
AcDbEntity
  8
DEFAULT
  6
Continuous
 62
   136
370
    -2
100
AcDbBlockReference
  2
_SE_FILLED
 10
116.6508718467212
 20
101.2509491391373
 30
0.0
 41
3.0
 42
3.0
 43
3.0
 50
180.0
  0
INSERT
  5
2C0
330
B8
100
AcDbEntity
  8
DEFAULT
  6
Continuous
 62
   136
370
    -2
100
AcDbBlockReference
  2
_SE_FILLED
 10
126.4908772498505
 20
101.2509491391373
 30
0.0
 41
3.0
 42
3.0
 43
3.0
  0
MTEXT
  5
2C1
330
B8
100
AcDbEntity
  8
DEFAULT
  6
Continuous
 62
   136
370
     0
100
AcDbMText
 10
121.5708743854321
 20
104.5366634248516
 30
0.0
 40
3.0
 41
0.0
 71
     5
 72
     1
  1
\A1;\A1;9,8
  7
seiso_ttf
 73
     1
 44
1.0
1001
ACAD
1000
MTEXTBEGIN
1070
    73
1070
     1
1070
    44
1040
1.0
1070
    74
1070
     0
1000
MTEXTEND
  0
POINT
  5
2C2
330
B8
100
AcDbEntity
  8
Defpoints
  6
Continuous
 62
     0
370
     0
100
AcDbPoint
 10
116.6508718467212
 20
115.9425385393096
 30
0.0
  0
POINT
  5
2C3
330
B8
100
AcDbEntity
  8
Defpoints
  6
Continuous
 62
     0
370
     0
100
AcDbPoint
 10
126.4908772498505
 20
108.4425385393096
 30
0.0
  0
POINT
  5
2C4
330
B8
100
AcDbEntity
  8
Defpoints
  6
Continuous
 62
     0
370
     0
100
AcDbPoint
 10
126.4908772498505
 20
101.2509491391373
 30
0.0
  0
ENDBLK
  5
1A7
330
B8
100
AcDbEntity
  8
DEFAULT
 62
     0
 48
0.0
370
     0
100
AcDbBlockEnd
  0
ENDSEC
  0
SECTION
  2
ENTITIES
  0
INSERT
  5
6E
330
A
100
AcDbEntity
  8
0
 62
     0
 48
0.0
370
     0
100
AcDbBlockReference
  2
SE0
 10
0.0
 20
0.0
 30
0.0
  0
INSERT
  5
76
330
A
100
AcDbEntity
  8
0
 62
     0
 48
0.0
370
     0
100
AcDbBlockReference
  2
SE2
 10
0.0
 20
0.0
 30
0.0
  0
INSERT
  5
7E
330
A
100
AcDbEntity
  8
0
 62
     0
 48
0.0
370
     0
100
AcDbBlockReference
  2
SE4
 10
0.0
 20
0.0
 30
0.0
  0
ARC
  5
2C6
330
A
100
AcDbEntity
  8
DV2_0
  6
Continuous
 62
     7
370
     0
100
AcDbCircle
 10
19.83625473169546
 20
-63.50414230050848
 30
0.0
 40
7.499999999999999
100
AcDbArc
 50
270.0286489274747
 51
89.9877218882669
  0
LINE
  5
2C7
330
A
100
AcDbEntity
  8
0
  6
Continuous
 62
     7
370
     0
100
AcDbLine
 10
9.840005403129282
 20
-35.50341713425229
 30
0.0
 11
9.840005403129282
 21
-46.00414323807638
 31
0.0
  0
LINE
  5
2C8
330
A
100
AcDbEntity
  8
0
  6
HIDDEN2
 62
     7
370
     0
100
AcDbLine
 10
7.840005403129268
 20
-37.50341713425229
 30
0.0
 11
9.840005403129268
 21
-35.50341713425228
 31
0.0
  0
ARC
  5
2C9
330
A
100
AcDbEntity
  8
0
  6
Continuous
 62
     7
370
     0
100
AcDbCircle
 10
19.84000486737618
 20
-46.00414323807638
 30
0.0
 40
9.999999464246901
100
AcDbArc
 50
180.0
 51
269.9877218882668
  0
LINE
  5
2CA
330
A
100
AcDbEntity
  8
0
  6
Continuous
 62
     7
370
     0
100
AcDbLine
 10
19.84000486737618
 20
-71.00414136294057
 30
0.0
 11
11.09028587760129
 21
-71.00851638127145
 31
0.0
  0
LINE
  5
2CB
330
A
100
AcDbEntity
  8
0
  6
Continuous
 62
     7
370
     0
100
AcDbLine
 10
7.840005403129282
 20
-35.50341713425229
 30
0.0
 11
9.840005403129282
 21
-35.50341713425229
 31
0.0
  0
LINE
  5
2CC
330
A
100
AcDbEntity
  8
0
  6
Continuous
 62
     7
370
     0
100
AcDbLine
 10
-9.500000000000014
 20
-50.64755519608683
 30
0.0
 11
-9.500000000000014
 21
-37.50341713425229
 31
0.0
  0
ARC
  5
2CD
330
A
100
AcDbEntity
  8
0
  6
Continuous
 62
     7
370
     0
100
AcDbCircle
 10
11.07999485462767
 20
-50.42721766966948
 30
0.0
 40
20.58130128445096
100
AcDbArc
 50
180.679430682295
 51
270.0286489274747
  0
ARC
  5
2CE
330
A
100
AcDbEntity
  8
0
  6
Continuous
 62
     7
370
     0
100
AcDbCircle
 10
19.84000486737618
 20
-46.00414323807638
 30
0.0
 40
11.9999994642469
100
AcDbArc
 50
180.0
 51
269.9877218882668
  0
LINE
  5
2CF
330
A
100
AcDbEntity
  8
0
  6
Continuous
 62
     7
370
     0
100
AcDbLine
 10
11.08928584141976
 20
-69.00851663128957
 30
0.0
 11
19.83900483119466
 21
-69.00414161295867
 31
0.0
  0
ARC
  5
2D0
330
A
100
AcDbEntity
  8
0
  6
Continuous
 62
     7
370
     0
100
AcDbCircle
 10
19.83625473169546
 20
-63.50414230050848
 30
0.0
 40
5.5
100
AcDbArc
 50
270.0286489274747
 51
89.9877218882669
  0
LINE
  5
2D1
330
A
100
AcDbEntity
  8
0
  6
Continuous
 62
     7
370
     0
100
AcDbLine
 10
7.840005403129282
 20
-46.00414323807638
 30
0.0
 11
7.840005403129282
 21
-35.50341713425228
 31
0.0
  0
LINE
  5
2D2
330
A
100
AcDbEntity
  8
0
  6
Continuous
 62
     7
370
     0
100
AcDbLine
 10
11.09028587760129
 20
-71.00851638127145
 30
0.0
 11
11.08928584141976
 21
-69.00851663128957
 31
0.0
  0
LINE
  5
2D3
330
A
100
AcDbEntity
  8
0
  6
Continuous
 62
     7
370
     0
100
AcDbLine
 10
19.8378619327507
 20
-56.00414247271483
 30
0.0
 11
19.83743334580264
 21
-58.00414242679313
 31
0.0
  0
LINE
  5
2D4
330
A
100
AcDbEntity
  8
0
  6
Continuous
 62
     7
370
     0
100
AcDbLine
 10
19.84000486737618
 20
-71.00414136294057
 30
0.0
 11
19.83900483119466
 21
-69.00414161295867
 31
0.0
  0
LINE
  5
2D5
330
A
100
AcDbEntity
  8
0
  6
Continuous
 62
     7
370
     0
100
AcDbLine
 10
9.840005403129282
 20
-46.00414323807638
 30
0.0
 11
7.840005403129282
 21
-46.00414323807638
 31
0.0
  0
LINE
  5
2D6
330
A
100
AcDbEntity
  8
0
  6
Continuous
 62
     7
370
     0
100
AcDbLine
 10
-9.499859382310944
 20
-50.67127124514541
 30
0.0
 11
-7.500000000000014
 21
-50.64755519608695
 31
0.0
  0
LINE
  5
2D7
330
A
100
AcDbEntity
  8
0
  6
Continuous
 62
     7
370
     0
100
AcDbLine
 10
7.840005403129282
 20
-35.50341713425229
 30
0.0
 11
-7.5
 21
-35.50341713425229
 31
0.0
  0
ARC
  5
2D8
330
A
100
AcDbEntity
  8
0
  6
Continuous
 62
     7
370
     0
100
AcDbCircle
 10
-7.500000000000014
 20
-37.50341713425229
 30
0.0
 40
2.000000000000001
100
AcDbArc
 50
90.0
 51
180.0
  0
LINE
  5
2D9
330
A
100
AcDbEntity
  8
0
  6
Continuous
 62
     7
370
     0
100
AcDbLine
 10
-9.500000000000014
 20
-50.64755519608683
 30
0.0
 11
-7.500000000000014
 21
-50.64755519608697
 31
0.0
  0
ARC
  5
2DA
330
A
100
AcDbEntity
  8
0
  6
Continuous
 62
     7
370
     0
100
AcDbCircle
 10
-7.500000000000014
 20
-50.64755519608683
 30
0.0
 40
2.0
100
AcDbArc
 50
180.0
 51
180.6794306822942
  0
LINE
  5
2DB
330
A
100
AcDbEntity
  8
0
  6
HIDDEN2
 62
     7
370
     0
100
AcDbLine
 10
3.174999999999968
 20
-49.50341713425228
 30
0.0
 11
-3.174999999999968
 21
-49.50341713425228
 31
0.0
  0
LINE
  5
2DC
330
A
100
AcDbEntity
  8
0
  6
HIDDEN2
 62
     7
370
     0
100
AcDbLine
 10
-3.175000000000011
 20
-35.50341713425229
 30
0.0
 11
-3.175000000000011
 21
-49.50341713425228
 31
0.0
  0
LINE
  5
2DD
330
A
100
AcDbEntity
  8
0
  6
HIDDEN2
 62
     7
370
     0
100
AcDbLine
 10
3.174999999999997
 20
-49.50341713425228
 30
0.0
 11
3.174999999999997
 21
-35.50341713425228
 31
0.0
  0
LINE
  5
2DE
330
A
100
AcDbEntity
  8
0
  6
Continuous
 62
     7
370
     0
100
AcDbLine
 10
-7.500000000000014
 20
-35.50341713425229
 30
0.0
 11
-7.500000000000014
 21
-50.64755519608699
 31
0.0
  0
ARC
  5
2DF
330
A
100
AcDbEntity
  8
0
  6
Continuous
 62
     7
370
     0
100
AcDbCircle
 10
11.07999485462767
 20
-50.42721766966948
 30
0.0
 40
18.58130128445096
100
AcDbArc
 50
180.679430682295
 51
270.0286489274747
  0
LINE
  5
2E2
330
A
100
AcDbEntity
  8
DV1_0
  6
Continuous
 62
     7
370
     0
100
AcDbLine
 10
27.33625465515932
 20
-7.499999999999985
 30
0.0
 11
19.84000486737618
 21
-7.499999999999985
 31
0.0
  0
LINE
  5
2E3
330
A
100
AcDbEntity
  8
0
  6
Continuous
 62
     7
370
     0
100
AcDbLine
 10
19.84000486737618
 20
103.5
 30
0.0
 11
27.33625465515932
 21
103.5
 31
0.0
  0
LINE
  5
2E4
330
A
100
AcDbEntity
  8
0
  6
Continuous
 62
     7
370
     0
100
AcDbLine
 10
19.84000486737618
 20
-7.499999999999985
 30
0.0
 11
19.84000486737618
 21
103.5
 31
0.0
  0
LINE
  5
2E5
330
A
100
AcDbEntity
  8
0
  6
HIDDEN2
 62
     7
370
     0
100
AcDbLine
 10
9.840005403129282
 20
-7.499999999999985
 30
0.0
 11
9.840005403129282
 21
103.5
 31
0.0
  0
LINE
  5
2E6
330
A
100
AcDbEntity
  8
0
  6
Continuous
 62
     7
370
     0
100
AcDbLine
 10
19.83900483119466
 20
-9.499999999999985
 30
0.0
 11
25.33625467556895
 21
-9.499999999999985
 31
0.0
  0
ARC
  5
2E7
330
A
100
AcDbEntity
  8
0
  6
HIDDEN2
 62
     7
370
     0
100
AcDbCircle
 10
7.840005403129282
 20
-7.499999999999985
 30
0.0
 40
2.000000000000001
100
AcDbArc
 50
269.9999999999992
 51
0.0
  0
LINE
  5
2E8
330
A
100
AcDbEntity
  8
0
  6
Continuous
 62
     7
370
     0
100
AcDbLine
 10
11.08928584141976
 20
-9.499999999999985
 30
0.0
 11
-7.5
 21
-9.499999999999985
 31
0.0
  0
LINE
  5
2E9
330
A
100
AcDbEntity
  8
0
  6
Continuous
 62
     7
370
     0
100
AcDbLine
 10
19.84000486737618
 20
103.5
 30
0.0
 11
11.09028587760129
 21
103.5
 31
0.0
  0
LINE
  5
2EA
330
A
100
AcDbEntity
  8
0
  6
Continuous
 62
     7
370
     0
100
AcDbLine
 10
19.83900483119466
 20
-9.499999999999985
 30
0.0
 11
11.08928584141976
 21
-9.499999999999985
 31
0.0
  0
LINE
  5
2EB
330
A
100
AcDbEntity
  8
0
  6
Continuous
 62
     7
370
     0
100
AcDbLine
 10
11.09028587760129
 20
-7.499999999999985
 30
0.0
 11
19.84000486737618
 21
-7.499999999999985
 31
0.0
  0
LINE
  5
2EC
330
A
100
AcDbEntity
  8
0
  6
Continuous
 62
     7
370
     0
100
AcDbLine
 10
-9.500000000000014
 20
-7.499999999999985
 30
0.0
 11
-9.500000000000014
 21
103.5
 31
0.0
  0
LINE
  5
2ED
330
A
100
AcDbEntity
  8
0
  6
Continuous
 62
     7
370
     0
100
AcDbLine
 10
11.09028587760129
 20
103.5
 30
0.0
 11
-9.499859382310944
 21
103.5
 31
0.0
  0
LINE
  5
2EE
330
A
100
AcDbEntity
  8
0
  6
Continuous
 62
     7
370
     0
100
AcDbLine
 10
25.33625467556895
 20
105.5
 30
0.0
 11
19.83900483119466
 21
105.5
 31
0.0
  0
LINE
  5
2EF
330
A
100
AcDbEntity
  8
0
  6
Continuous
 62
     7
370
     0
100
AcDbLine
 10
11.08928584141976
 20
105.5
 30
0.0
 11
19.83900483119466
 21
105.5
 31
0.0
  0
LINE
  5
2F0
330
A
100
AcDbEntity
  8
0
  6
Continuous
 62
     7
370
     0
100
AcDbLine
 10
-9.499859382310944
 20
103.5
 30
0.0
 11
-9.499859382310944
 21
-7.499999999999985
 31
0.0
  0
LINE
  5
2F1
330
A
100
AcDbEntity
  8
0
  6
Continuous
 62
     7
370
     0
100
AcDbLine
 10
-9.499859382310944
 20
-7.499999999999985
 30
0.0
 11
11.09028587760129
 21
-7.499999999999985
 31
0.0
  0
ARC
  5
2F2
330
A
100
AcDbEntity
  8
0
  6
HIDDEN2
 62
     7
370
     0
100
AcDbCircle
 10
7.840005403129282
 20
103.5
 30
0.0
 40
2.0
100
AcDbArc
 50
0.0
 51
90.0
  0
ELLIPSE
  5
2F3
330
A
100
AcDbEntity
  8
0
  6
Continuous
 62
     7
370
     0
100
AcDbEllipse
 10
19.83900483119466
 20
103.5
 30
0.0
 11
0.0
 21
-1.999999999999997
 31
0.0
210
0.0
220
0.0
230
1.0
 40
0.0005000180907608
 41
1.570796326794896
 42
3.141592653589793
  0
ELLIPSE
  5
2F4
330
A
100
AcDbEntity
  8
0
  6
Continuous
 62
     7
370
     0
100
AcDbEllipse
 10
-7.500000000000014
 20
103.5
 30
0.0
 11
-0.0000000000329632
 21
-1.999999999997904
 31
0.0
210
0.0
220
0.0
230
1.0
 40
0.9999296911575596
 41
3.141592653589793
 42
4.712388980401169
  0
ELLIPSE
  5
2F5
330
A
100
AcDbEntity
  8
0
  6
Continuous
 62
     7
370
     0
100
AcDbEllipse
 10
11.08928584141976
 20
103.5
 30
0.0
 11
0.0000000000000009
 21
-1.999999999999998
 31
0.0
210
0.0
220
0.0
230
1.0
 40
0.0005000180907603
 41
1.570796326794896
 42
3.141592653588925
  0
LINE
  5
2F6
330
A
100
AcDbEntity
  8
0
  6
Continuous
 62
     7
370
     0
100
AcDbLine
 10
11.09028587760129
 20
-7.499999999999985
 30
0.0
 11
11.09028587760129
 21
103.5
 31
0.0
  0
ELLIPSE
  5
2F7
330
A
100
AcDbEntity
  8
0
  6
Continuous
 62
     7
370
     0
100
AcDbEllipse
 10
19.83900483119466
 20
-7.499999999999985
 30
0.0
 11
0.0
 21
2.000000000000001
 31
0.0
210
0.0
220
0.0
230
1.0
 40
0.0005000180907608
 41
3.141592653589793
 42
4.712388980384689
  0
ELLIPSE
  5
2F8
330
A
100
AcDbEntity
  8
0
  6
Continuous
 62
     7
370
     0
100
AcDbEllipse
 10
11.08928584141976
 20
-7.5
 30
0.0
 11
0.0
 21
1.999999999999974
 31
0.0
210
0.0
220
0.0
230
1.0
 40
0.0005000180907607
 41
3.141592653589793
 42
4.712388980384696
  0
ARC
  5
2F9
330
A
100
AcDbEntity
  8
0
  6
Continuous
 62
     7
370
     0
100
AcDbCircle
 10
-7.500000000000014
 20
103.5
 30
0.0
 40
2.000000000000001
100
AcDbArc
 50
90.0
 51
180.0
  0
LINE
  5
2FA
330
A
100
AcDbEntity
  8
0
  6
Continuous
 62
     7
370
     0
100
AcDbLine
 10
-9.499859382310944
 20
-7.499999999999985
 30
0.0
 11
-9.500000000000014
 21
-7.499999999999985
 31
0.0
  0
ARC
  5
2FB
330
A
100
AcDbEntity
  8
0
  6
Continuous
 62
     7
370
     0
100
AcDbCircle
 10
-7.500000000000014
 20
-7.499999999999985
 30
0.0
 40
2.000000000000001
100
AcDbArc
 50
180.0
 51
270.0
  0
ELLIPSE
  5
2FC
330
A
100
AcDbEntity
  8
0
  6
Continuous
 62
     7
370
     0
100
AcDbEllipse
 10
-7.500000000000014
 20
-7.5
 30
0.0
 11
-0.0000000001018456
 21
1.999999999997892
 31
0.0
210
0.0
220
0.0
230
1.0
 40
0.9999296911575596
 41
1.57079632674397
 42
3.141592653538866
  0
LINE
  5
2FD
330
A
100
AcDbEntity
  8
0
  6
Continuous
 62
     7
370
     0
100
AcDbLine
 10
-9.499859382310944
 20
103.5
 30
0.0
 11
-9.500000000000014
 21
103.5
 31
0.0
  0
CIRCLE
  5
2FE
330
A
100
AcDbEntity
  8
0
  6
HIDDEN2
 62
     7
370
     0
100
AcDbCircle
 10
0.0
 20
96.00000000000004
 30
0.0
 40
3.174999999999999
  0
CIRCLE
  5
2FF
330
A
100
AcDbEntity
  8
0
  6
HIDDEN2
 62
     7
370
     0
100
AcDbCircle
 10
0.0
 20
0.0
 30
0.0
 40
3.174999999999999
  0
LINE
  5
300
330
A
100
AcDbEntity
  8
0
  6
Continuous
 62
     7
370
     0
100
AcDbLine
 10
27.33625473169549
 20
-7.499999999999985
 30
0.0
 11
27.33625473169549
 21
103.5
 31
0.0
  0
ARC
  5
301
330
A
100
AcDbEntity
  8
0
  6
Continuous
 62
     7
370
     0
100
AcDbCircle
 10
25.33625473169549
 20
-7.499999999999985
 30
0.0
 40
2.000000000000001
100
AcDbArc
 50
270.0
 51
0.0
  0
ARC
  5
302
330
A
100
AcDbEntity
  8
0
  6
Continuous
 62
     7
370
     0
100
AcDbCircle
 10
25.33625473169549
 20
103.5
 30
0.0
 40
2.0
100
AcDbArc
 50
0.0
 51
90.0
  0
LINE
  5
303
330
A
100
AcDbEntity
  8
0
  6
Continuous
 62
     7
370
     0
100
AcDbLine
 10
-7.500000000000014
 20
105.5
 30
0.0
 11
11.08928584141976
 21
105.5
 31
0.0
  0
ENDSEC
  0
SECTION
  2
OBJECTS
  0
DICTIONARY
  5
19
330
0
100
AcDbDictionary
281
     1
  3
ACAD_COLOR
350
1DC
  3
ACAD_GROUP
350
1A
  3
ACAD_LAYOUT
350
1E
  3
ACAD_MATERIAL
350
1AA
  3
ACAD_MLEADERSTYLE
350
20E
  3
ACAD_MLINESTYLE
350
1B
  3
ACAD_PLOTSETTINGS
350
22
  3
ACAD_PLOTSTYLENAME
350
1F
  3
ACAD_SCALELIST
350
1DD
  3
ACAD_TABLESTYLE
350
208
  3
ACAD_VISUALSTYLE
350
1C3
  3
ACAD_WIPEOUT_VARS
350
23
  3
ACDB_RECOMPOSE_DATA
350
32C
  3
AcDbVariableDictionary
350
1A8
  3
ASE_INDEX_DICTIONARY
350
321
  3
DWGPROPS
350
32D
  0
DICTIONARY
  5
304
330
14
100
AcDbDictionary
280
     1
281
     1
  3
ADSK_XREC_LAYER_RECONCILED
360
305
  0
DICTIONARY
  5
306
330
2D
100
AcDbDictionary
280
     1
281
     1
  3
ADSK_XREC_LAYER_RECONCILED
360
307
  0
DICTIONARY
  5
308
330
2F
100
AcDbDictionary
280
     1
281
     1
  3
ADSK_XREC_LAYER_RECONCILED
360
309
  0
DICTIONARY
  5
30A
330
31
100
AcDbDictionary
280
     1
281
     1
  3
ADSK_XREC_LAYER_RECONCILED
360
30B
  0
DICTIONARY
  5
30C
330
33
100
AcDbDictionary
280
     1
281
     1
  3
ADSK_XREC_LAYER_RECONCILED
360
30D
  0
DICTIONARY
  5
30E
330
35
100
AcDbDictionary
280
     1
281
     1
  3
ADSK_XREC_LAYER_RECONCILED
360
30F
  0
DICTIONARY
  5
310
330
37
100
AcDbDictionary
280
     1
281
     1
  3
ADSK_XREC_LAYER_RECONCILED
360
311
  0
DICTIONARY
  5
312
330
39
100
AcDbDictionary
280
     1
281
     1
  3
ADSK_XREC_LAYER_RECONCILED
360
313
  0
DICTIONARY
  5
314
330
3B
100
AcDbDictionary
280
     1
281
     1
  3
ADSK_XREC_LAYER_RECONCILED
360
315
  0
DICTIONARY
  5
316
330
3D
100
AcDbDictionary
280
     1
281
     1
  3
ADSK_XREC_LAYER_RECONCILED
360
317
  0
DICTIONARY
  5
318
330
48
100
AcDbDictionary
280
     1
281
     1
  3
ADSK_XREC_LAYER_RECONCILED
360
319
  0
DICTIONARY
  5
31A
330
69
100
AcDbDictionary
280
     1
281
     1
  3
ADSK_XREC_LAYER_RECONCILED
360
31B
  0
DICTIONARY
  5
31C
330
71
100
AcDbDictionary
280
     1
281
     1
  3
ADSK_XREC_LAYER_RECONCILED
360
31D
  0
DICTIONARY
  5
31E
330
79
100
AcDbDictionary
280
     1
281
     1
  3
ADSK_XREC_LAYER_RECONCILED
360
31F
  0
DICTIONARY
  5
2E0
330
A
100
AcDbDictionary
280
     1
281
     1
  3
ACAD_SORTENTS
360
2E1
  0
DICTIONARY
  5
367
330
292
100
AcDbDictionary
280
     1
281
     1
  3
ACAD_MTEXT_RT
360
368
  0
DICTIONARY
  5
1DC
102
{ACAD_REACTORS
330
19
102
}
330
19
100
AcDbDictionary
281
     1
  0
DICTIONARY
  5
1A
102
{ACAD_REACTORS
330
19
102
}
330
19
100
AcDbDictionary
281
     1
  0
DICTIONARY
  5
1E
102
{ACAD_REACTORS
330
19
102
}
330
19
100
AcDbDictionary
281
     1
  3
Layout1
350
21
  3
Model
350
20
  0
DICTIONARY
  5
1AA
102
{ACAD_REACTORS
330
19
102
}
330
19
100
AcDbDictionary
281
     1
  3
ByBlock
350
1B3
  3
ByLayer
350
1AB
  3
Global
350
1BB
  0
DICTIONARY
  5
20E
102
{ACAD_REACTORS
330
19
102
}
330
19
100
AcDbDictionary
281
     1
  3
Standard
350
20F
  0
DICTIONARY
  5
1B
102
{ACAD_REACTORS
330
19
102
}
330
19
100
AcDbDictionary
281
     1
  3
Standard
350
1C
  0
DICTIONARY
  5
22
102
{ACAD_REACTORS
330
19
102
}
330
19
100
AcDbDictionary
281
     1
  0
ACDBDICTIONARYWDFLT
  5
1F
102
{ACAD_REACTORS
330
19
102
}
330
19
100
AcDbDictionary
281
     1
  3
Normal
350
1D
100
AcDbDictionaryWithDefault
340
1D
  0
DICTIONARY
  5
1DD
102
{ACAD_REACTORS
330
19
102
}
330
19
100
AcDbDictionary
281
     1
  3
A0
350
1DE
  3
A1
350
1DF
  3
A2
350
1E0
  3
A3
350
1E1
  3
A4
350
1E2
  3
A5
350
1E3
  3
A6
350
1E4
  3
A7
350
1E5
  3
A8
350
1E6
  3
A9
350
1E7
  3
B0
350
1E8
  3
B1
350
1E9
  3
B2
350
1EA
  3
B3
350
1EB
  3
B4
350
1EC
  3
B5
350
1ED
  3
B6
350
1EE
  0
DICTIONARY
  5
208
102
{ACAD_REACTORS
330
19
102
}
330
19
100
AcDbDictionary
281
     1
  3
Standard
350
209
  0
DICTIONARY
  5
1C3
102
{ACAD_REACTORS
330
19
102
}
330
19
100
AcDbDictionary
281
     1
  3
2dWireframe
350
1C9
  3
Basic
350
1C8
  3
Brighten
350
1CF
  3
ColorChange
350
1D3
  3
Conceptual
350
1CC
  3
Dim
350
1CE
  3
EdgeColorOff
350
1DB
  3
Facepattern
350
1D2
  3
Flat
350
1C4
  3
FlatWithEdges
350
1C5
  3
Gouraud
350
1C6
  3
GouraudWithEdges
350
1C7
  3
Hidden
350
1CB
  3
JitterOff
350
1D9
  3
Linepattern
350
1D1
  3
OverhangOff
350
1DA
  3
Realistic
350
1CD
  3
Shaded
350
1D8
  3
Shaded with edges
350
1D7
  3
Shades of Gray
350
1D4
  3
Sketchy
350
1D5
  3
Thicken
350
1D0
  3
Wireframe
350
1CA
  3
X-Ray
350
1D6
  0
WIPEOUTVARIABLES
  5
23
330
19
100
AcDbWipeoutVariables
 70
     1
  0
XRECORD
  5
32C
102
{ACAD_REACTORS
330
19
102
}
330
19
100
AcDbXrecord
280
     1
 90
        1
330
209
  0
DICTIONARY
  5
1A8
330
19
100
AcDbDictionary
281
     0
  3
CANNOSCALE
350
326
  3
CMLEADERSTYLE
350
325
  3
CTABLESTYLE
350
324
  3
DIMASSOC
350
1A9
  3
INDEXCTL
350
328
  3
SORTENTS
350
327
  3
XCLIPFRAME
350
329
  0
DICTIONARY
  5
321
102
{ACAD_REACTORS
330
19
102
}
330
19
100
AcDbDictionary
281
     1
  3
ASEBlockHierarchyIndexRecord
350
323
1001
DCO15
1040
1713238210.825
  0
XRECORD
  5
32D
102
{ACAD_REACTORS
330
19
102
}
330
19
100
AcDbXrecord
280
     1
  1
DWGPROPS COOKIE
  2

  3

  4

  6

  7

  8
mpistoia
  9

300
=
301
=
302
=
303
=
304
=
305
=
306
=
307
=
308
=
309
=
 40
0.0022887962962963
 41
2455632.355647766
 42
2455632.357810475
  1

 90
        0
  0
XRECORD
  5
305
102
{ACAD_REACTORS
330
304
102
}
330
304
100
AcDbXrecord
280
     1
290
     1
  0
XRECORD
  5
307
102
{ACAD_REACTORS
330
306
102
}
330
306
100
AcDbXrecord
280
     1
290
     1
  0
XRECORD
  5
309
102
{ACAD_REACTORS
330
308
102
}
330
308
100
AcDbXrecord
280
     1
290
     1
  0
XRECORD
  5
30B
102
{ACAD_REACTORS
330
30A
102
}
330
30A
100
AcDbXrecord
280
     1
290
     1
  0
XRECORD
  5
30D
102
{ACAD_REACTORS
330
30C
102
}
330
30C
100
AcDbXrecord
280
     1
290
     1
  0
XRECORD
  5
30F
102
{ACAD_REACTORS
330
30E
102
}
330
30E
100
AcDbXrecord
280
     1
290
     1
  0
XRECORD
  5
311
102
{ACAD_REACTORS
330
310
102
}
330
310
100
AcDbXrecord
280
     1
290
     1
  0
XRECORD
  5
313
102
{ACAD_REACTORS
330
312
102
}
330
312
100
AcDbXrecord
280
     1
290
     1
  0
XRECORD
  5
315
102
{ACAD_REACTORS
330
314
102
}
330
314
100
AcDbXrecord
280
     1
290
     1
  0
XRECORD
  5
317
102
{ACAD_REACTORS
330
316
102
}
330
316
100
AcDbXrecord
280
     1
290
     1
  0
XRECORD
  5
319
102
{ACAD_REACTORS
330
318
102
}
330
318
100
AcDbXrecord
280
     1
290
     1
  0
XRECORD
  5
31B
102
{ACAD_REACTORS
330
31A
102
}
330
31A
100
AcDbXrecord
280
     1
290
     1
  0
XRECORD
  5
31D
102
{ACAD_REACTORS
330
31C
102
}
330
31C
100
AcDbXrecord
280
     1
290
     1
  0
XRECORD
  5
31F
102
{ACAD_REACTORS
330
31E
102
}
330
31E
100
AcDbXrecord
280
     1
290
     1
  0
SORTENTSTABLE
  5
2E1
102
{ACAD_REACTORS
330
2E0
102
}
330
2E0
100
AcDbSortentsTable
330
A
331
2DD
  5
2FF
331
2D4
  5
2F6
331
2FF
  5
2E2
331
2EE
  5
2CF
331
2DB
  5
2FD
331
2D2
  5
2F4
331
2FD
  5
2DE
331
2EC
  5
2CD
331
2D9
  5
2FB
331
2D0
  5
2F2
331
2FB
  5
2DC
331
2EA
  5
2CB
331
2CE
  5
2F0
331
2F9
  5
2DA
331
7E
  5
303
331
2E8
  5
2C9
331
2CC
  5
2EE
331
2F7
  5
2D8
331
2E6
  5
2C7
331
2CA
  5
2EC
331
2F5
  5
2D6
331
2E4
  5
7E
331
2C8
  5
2EA
331
2F3
  5
2D4
331
2E2
  5
6E
331
2C6
  5
2E8
331
76
  5
302
331
302
  5
2E5
331
2D7
  5
2F9
331
2F1
  5
2D2
331
2DE
  5
300
331
2D5
  5
2F7
331
300
  5
2E3
331
2EF
  5
2D0
331
2DC
  5
2FE
331
2D3
  5
2F5
331
2FE
  5
2DF
331
2ED
  5
2CE
331
2DA
  5
2FC
331
2D1
  5
2F3
331
2FC
  5
2DD
331
2EB
  5
2CC
331
2D8
  5
2FA
331
2CF
  5
2F1
331
6E
  5
2E7
331
2FA
  5
2DB
331
2E9
  5
2CA
331
2CD
  5
2EF
331
2F8
  5
2D9
331
2E7
  5
2C8
331
2CB
  5
2ED
331
2F6
  5
2D7
331
2E5
  5
2C6
331
2C9
  5
2EB
331
2F4
  5
2D5
331
2E3
  5
76
331
2C7
  5
2E9
331
303
  5
2E6
331
2F2
  5
2D3
331
2DF
  5
301
331
2D6
  5
2F8
331
301
  5
2E4
331
2F0
  5
2D1
  0
XRECORD
  5
368
102
{ACAD_REACTORS
330
367
102
}
330
367
100
AcDbXrecord
280
     1
 40
10675.0
  1
\A1;\A1;\U+22056,35
  0
LAYOUT
  5
21
102
{ACAD_XDICTIONARY
360
330
102
}
102
{ACAD_REACTORS
330
1E
102
}
330
1E
100
AcDbPlotSettings
  1

  2

  4

  6

 40
0.0
 41
0.0
 42
0.0
 43
0.0
 44
0.0
 45
0.0
 46
0.0
 47
0.0
 48
0.0
 49
0.0
140
0.0
141
0.0
142
1.0
143
1.0
 70
     0
 72
     0
 73
     0
 74
     0
  7

 75
     0
147
1.0
148
0.0
149
0.0
100
AcDbLayout
  1
Layout1
 70
     0
 71
     1
 10
0.0
 20
0.0
 11
12.0
 21
9.0
 12
0.0
 22
0.0
 32
0.0
 14
1.000000000000000E+20
 24
1.000000000000000E+20
 34
1.000000000000000E+20
 15
-1.000000000000000E+20
 25
-1.000000000000000E+20
 35
-1.000000000000000E+20
146
0.0
 13
0.0
 23
0.0
 33
0.0
 16
1.0
 26
0.0
 36
0.0
 17
0.0
 27
1.0
 37
0.0
 76
     0
330
B
  0
LAYOUT
  5
20
102
{ACAD_XDICTIONARY
360
32E
102
}
102
{ACAD_REACTORS
330
1E
102
}
330
1E
100
AcDbPlotSettings
  1

  2

  4

  6

 40
0.0
 41
0.0
 42
0.0
 43
0.0
 44
0.0
 45
0.0
 46
0.0
 47
0.0
 48
0.0
 49
0.0
140
0.0
141
0.0
142
1.0
143
1.0
 70
  1024
 72
     0
 73
     0
 74
     0
  7

 75
     0
147
1.0
148
0.0
149
0.0
100
AcDbLayout
  1
Model
 70
     0
 71
     0
 10
0.0
 20
0.0
 11
0.0
 21
0.0
 12
0.0
 22
0.0
 32
0.0
 14
0.0
 24
0.0
 34
0.0
 15
0.0
 25
0.0
 35
0.0
146
0.0
 13
0.0
 23
0.0
 33
0.0
 16
0.0
 26
0.0
 36
0.0
 17
0.0
 27
0.0
 37
0.0
 76
     0
330
A
331
15
  0
MATERIAL
  5
1B3
102
{ACAD_XDICTIONARY
360
1B4
102
}
102
{ACAD_REACTORS
330
1AA
102
}
330
1AA
100
AcDbMaterial
  1
ByBlock
 72
     0
 43
0.0208333333333333
 43
0.0
 43
0.0
 43
0.0
 43
0.0
 43
0.0208333333333333
 43
0.0
 43
0.0
 43
0.0
 43
0.0
 43
1.0
 43
0.0
 43
0.0
 43
0.0
 43
0.0
 43
1.0
 77
     0
 47
0.0208333333333333
 47
0.0
 47
0.0
 47
0.0
 47
0.0
 47
0.0208333333333333
 47
0.0
 47
0.0
 47
0.0
 47
0.0
 47
1.0
 47
0.0
 47
0.0
 47
0.0
 47
0.0
 47
1.0
171
     0
 49
0.0208333333333333
 49
0.0
 49
0.0
 49
0.0
 49
0.0
 49
0.0208333333333333
 49
0.0
 49
0.0
 49
0.0
 49
0.0
 49
1.0
 49
0.0
 49
0.0
 49
0.0
 49
0.0
 49
1.0
175
     0
142
0.0208333333333333
142
0.0
142
0.0
142
0.0
142
0.0
142
0.0208333333333333
142
0.0
142
0.0
142
0.0
142
0.0
142
1.0
142
0.0
142
0.0
142
0.0
142
0.0
142
1.0
179
     0
144
0.0208333333333333
144
0.0
144
0.0
144
0.0
144
0.0
144
0.0208333333333333
144
0.0
144
0.0
144
0.0
144
0.0
144
1.0
144
0.0
144
0.0
144
0.0
144
0.0
144
1.0
147
0.0208333333333333
147
0.0
147
0.0
147
0.0
147
0.0
147
0.0208333333333333
147
0.0
147
0.0
147
0.0
147
0.0
147
1.0
147
0.0
147
0.0
147
0.0
147
0.0
147
1.0
  0
MATERIAL
  5
1AB
102
{ACAD_XDICTIONARY
360
1AC
102
}
102
{ACAD_REACTORS
330
1AA
102
}
330
1AA
100
AcDbMaterial
  1
ByLayer
 72
     0
 43
0.0208333333333333
 43
0.0
 43
0.0
 43
0.0
 43
0.0
 43
0.0208333333333333
 43
0.0
 43
0.0
 43
0.0
 43
0.0
 43
1.0
 43
0.0
 43
0.0
 43
0.0
 43
0.0
 43
1.0
 77
     0
 47
0.0208333333333333
 47
0.0
 47
0.0
 47
0.0
 47
0.0
 47
0.0208333333333333
 47
0.0
 47
0.0
 47
0.0
 47
0.0
 47
1.0
 47
0.0
 47
0.0
 47
0.0
 47
0.0
 47
1.0
171
     0
 49
0.0208333333333333
 49
0.0
 49
0.0
 49
0.0
 49
0.0
 49
0.0208333333333333
 49
0.0
 49
0.0
 49
0.0
 49
0.0
 49
1.0
 49
0.0
 49
0.0
 49
0.0
 49
0.0
 49
1.0
175
     0
142
0.0208333333333333
142
0.0
142
0.0
142
0.0
142
0.0
142
0.0208333333333333
142
0.0
142
0.0
142
0.0
142
0.0
142
1.0
142
0.0
142
0.0
142
0.0
142
0.0
142
1.0
179
     0
144
0.0208333333333333
144
0.0
144
0.0
144
0.0
144
0.0
144
0.0208333333333333
144
0.0
144
0.0
144
0.0
144
0.0
144
1.0
144
0.0
144
0.0
144
0.0
144
0.0
144
1.0
147
0.0208333333333333
147
0.0
147
0.0
147
0.0
147
0.0
147
0.0208333333333333
147
0.0
147
0.0
147
0.0
147
0.0
147
1.0
147
0.0
147
0.0
147
0.0
147
0.0
147
1.0
  0
MATERIAL
  5
1BB
102
{ACAD_XDICTIONARY
360
1BC
102
}
102
{ACAD_REACTORS
330
1AA
102
}
330
1AA
100
AcDbMaterial
  1
Global
 72
     0
 43
0.0208333333333333
 43
0.0
 43
0.0
 43
0.0
 43
0.0
 43
0.0208333333333333
 43
0.0
 43
0.0
 43
0.0
 43
0.0
 43
1.0
 43
0.0
 43
0.0
 43
0.0
 43
0.0
 43
1.0
 77
     0
 47
0.0208333333333333
 47
0.0
 47
0.0
 47
0.0
 47
0.0
 47
0.0208333333333333
 47
0.0
 47
0.0
 47
0.0
 47
0.0
 47
1.0
 47
0.0
 47
0.0
 47
0.0
 47
0.0
 47
1.0
171
     0
 49
0.0208333333333333
 49
0.0
 49
0.0
 49
0.0
 49
0.0
 49
0.0208333333333333
 49
0.0
 49
0.0
 49
0.0
 49
0.0
 49
1.0
 49
0.0
 49
0.0
 49
0.0
 49
0.0
 49
1.0
175
     0
142
0.0208333333333333
142
0.0
142
0.0
142
0.0
142
0.0
142
0.0208333333333333
142
0.0
142
0.0
142
0.0
142
0.0
142
1.0
142
0.0
142
0.0
142
0.0
142
0.0
142
1.0
179
     0
144
0.0208333333333333
144
0.0
144
0.0
144
0.0
144
0.0
144
0.0208333333333333
144
0.0
144
0.0
144
0.0
144
0.0
144
1.0
144
0.0
144
0.0
144
0.0
144
0.0
144
1.0
147
0.0208333333333333
147
0.0
147
0.0
147
0.0
147
0.0
147
0.0208333333333333
147
0.0
147
0.0
147
0.0
147
0.0
147
1.0
147
0.0
147
0.0
147
0.0
147
0.0
147
1.0
  0
MLEADERSTYLE
  5
20F
102
{ACAD_REACTORS
330
20E
102
}
330
20E
100
AcDbMLeaderStyle
170
     2
171
     1
172
     0
 90
        2
 40
0.0
 41
0.0
173
     1
 91
-1056964608
340
11
 92
       -2
290
     1
 42
0.09
291
     1
 43
0.36
  3
Standard
 44
0.18
300

342
17
174
     1
178
     6
175
     1
176
     0
 93
-1056964608
 45
0.18
292
     0
297
     0
 46
0.18
 94
-1056964608
 47
1.0
 49
1.0
140
1.0
293
     1
141
0.0
294
     1
177
     0
142
1.0
295
     0
296
     0
143
0.125
1001
ACAD_MLEADERVER
1070
     2
  0
MLINESTYLE
  5
1C
102
{ACAD_REACTORS
330
1B
102
}
330
1B
100
AcDbMlineStyle
  2
STANDARD
 70
     0
  3

 62
     0
 51
90.0
 52
90.0
 71
     2
 49
0.5
 62
   256
  6
BYLAYER
 49
-0.5
 62
   256
  6
BYLAYER
  0
ACDBPLACEHOLDER
  5
1D
102
{ACAD_REACTORS
330
1F
102
}
330
1F
  0
SCALE
  5
1DE
102
{ACAD_REACTORS
330
1DD
102
}
330
1DD
100
AcDbScale
 70
     0
300
1:1
140
1.0
141
1.0
290
     1
  0
SCALE
  5
1DF
102
{ACAD_REACTORS
330
1DD
102
}
330
1DD
100
AcDbScale
 70
     0
300
1/128" = 1'-0"
140
0.0078125
141
12.0
290
     0
  0
SCALE
  5
1E0
102
{ACAD_REACTORS
330
1DD
102
}
330
1DD
100
AcDbScale
 70
     0
300
1/64" = 1'-0"
140
0.015625
141
12.0
290
     0
  0
SCALE
  5
1E1
102
{ACAD_REACTORS
330
1DD
102
}
330
1DD
100
AcDbScale
 70
     0
300
1/32" = 1'-0"
140
0.03125
141
12.0
290
     0
  0
SCALE
  5
1E2
102
{ACAD_REACTORS
330
1DD
102
}
330
1DD
100
AcDbScale
 70
     0
300
1/16" = 1'-0"
140
0.0625
141
12.0
290
     0
  0
SCALE
  5
1E3
102
{ACAD_REACTORS
330
1DD
102
}
330
1DD
100
AcDbScale
 70
     0
300
3/32" = 1'-0"
140
0.09375
141
12.0
290
     0
  0
SCALE
  5
1E4
102
{ACAD_REACTORS
330
1DD
102
}
330
1DD
100
AcDbScale
 70
     0
300
1/8" = 1'-0"
140
0.125
141
12.0
290
     0
  0
SCALE
  5
1E5
102
{ACAD_REACTORS
330
1DD
102
}
330
1DD
100
AcDbScale
 70
     0
300
3/16" = 1'-0"
140
0.1875
141
12.0
290
     0
  0
SCALE
  5
1E6
102
{ACAD_REACTORS
330
1DD
102
}
330
1DD
100
AcDbScale
 70
     0
300
1/4" = 1'-0"
140
0.25
141
12.0
290
     0
  0
SCALE
  5
1E7
102
{ACAD_REACTORS
330
1DD
102
}
330
1DD
100
AcDbScale
 70
     0
300
3/8" = 1'-0"
140
0.375
141
12.0
290
     0
  0
SCALE
  5
1E8
102
{ACAD_REACTORS
330
1DD
102
}
330
1DD
100
AcDbScale
 70
     0
300
1/2" = 1'-0"
140
0.5
141
12.0
290
     0
  0
SCALE
  5
1E9
102
{ACAD_REACTORS
330
1DD
102
}
330
1DD
100
AcDbScale
 70
     0
300
3/4" = 1'-0"
140
0.75
141
12.0
290
     0
  0
SCALE
  5
1EA
102
{ACAD_REACTORS
330
1DD
102
}
330
1DD
100
AcDbScale
 70
     0
300
1" = 1'-0"
140
1.0
141
12.0
290
     0
  0
SCALE
  5
1EB
102
{ACAD_REACTORS
330
1DD
102
}
330
1DD
100
AcDbScale
 70
     0
300
1-1/2" = 1'-0"
140
1.5
141
12.0
290
     0
  0
SCALE
  5
1EC
102
{ACAD_REACTORS
330
1DD
102
}
330
1DD
100
AcDbScale
 70
     0
300
3" = 1'-0"
140
3.0
141
12.0
290
     0
  0
SCALE
  5
1ED
102
{ACAD_REACTORS
330
1DD
102
}
330
1DD
100
AcDbScale
 70
     0
300
6" = 1'-0"
140
6.0
141
12.0
290
     0
  0
SCALE
  5
1EE
102
{ACAD_REACTORS
330
1DD
102
}
330
1DD
100
AcDbScale
 70
     0
300
1'-0" = 1'-0"
140
12.0
141
12.0
290
     0
  0
TABLESTYLE
  5
209
102
{ACAD_XDICTIONARY
360
32A
102
}
102
{ACAD_REACTORS
330
208
102
}
330
208
100
AcDbTableStyle
  3
Standard
 70
     0
 71
     0
 40
0.06
 41
0.06
280
     0
281
     0
  7
Standard
140
0.18
170
     2
 62
     0
 63
     7
283
     0
274
    -2
284
     1
 64
     0
275
    -2
285
     1
 65
     0
276
    -2
286
     1
 66
     0
277
    -2
287
     1
 67
     0
278
    -2
288
     1
 68
     0
279
    -2
289
     1
 69
     0
  7
Standard
140
0.25
170
     5
 62
     0
 63
     7
283
     0
274
    -2
284
     1
 64
     0
275
    -2
285
     1
 65
     0
276
    -2
286
     1
 66
     0
277
    -2
287
     1
 67
     0
278
    -2
288
     1
 68
     0
279
    -2
289
     1
 69
     0
  7
Standard
140
0.18
170
     5
 62
     0
 63
     7
283
     0
274
    -2
284
     1
 64
     0
275
    -2
285
     1
 65
     0
276
    -2
286
     1
 66
     0
277
    -2
287
     1
 67
     0
278
    -2
288
     1
 68
     0
279
    -2
289
     1
 69
     0
  0
VISUALSTYLE
  5
1C9
102
{ACAD_XDICTIONARY
360
33F
102
}
102
{ACAD_REACTORS
330
1C3
102
}
330
1C3
100
AcDbVisualStyle
  2
2dWireframe
 70
     4
 71
     0
 72
     2
 73
     0
 90
        0
 40
-0.6
 41
-30.0
 62
     5
 63
     7
 74
     1
 91
        4
 64
     7
 65
   257
 75
     1
175
     1
 42
1.0
 92
        0
 66
   257
 43
1.0
 76
     1
 77
     6
 78
     2
 67
     7
 79
     5
170
     0
171
     0
290
     0
174
     0
 93
        1
 44
0.0
173
     0
291
     0
 45
0.0
1001
ACAD
1000
AcDbSavedByObjectVersion
1070
     0
  0
VISUALSTYLE
  5
1C8
102
{ACAD_XDICTIONARY
360
33D
102
}
102
{ACAD_REACTORS
330
1C3
102
}
330
1C3
100
AcDbVisualStyle
  2
Basic
 70
     7
 71
     1
 72
     0
 73
     1
 90
        0
 40
-0.6
 41
-30.0
 62
     5
 63
     7
 74
     0
 91
        4
 64
     7
 65
   257
 75
     1
175
     1
 42
1.0
 92
        8
 66
     7
 43
1.0
 76
     1
 77
     6
 78
     2
 67
     7
 79
     5
170
     0
171
     0
290
     0
174
     0
 93
        1
 44
0.0
173
     0
291
     1
 45
0.0
1001
ACAD
1000
AcDbSavedByObjectVersion
1070
     0
  0
VISUALSTYLE
  5
1CF
102
{ACAD_XDICTIONARY
360
34B
102
}
102
{ACAD_REACTORS
330
1C3
102
}
330
1C3
100
AcDbVisualStyle
  2
Brighten
 70
    12
 71
     2
 72
     2
 73
     0
 90
        0
 40
-0.6
 41
-30.0
 62
     5
 63
     7
 74
     1
 91
        4
 64
     7
 65
   257
 75
     1
175
     1
 42
1.0
 92
        8
 66
     7
 43
1.0
 76
     1
 77
     6
 78
     2
 67
     7
 79
     5
170
     0
171
     0
290
     0
174
     0
 93
        1
 44
50.0
173
     0
291
     1
 45
0.0
1001
ACAD
1000
AcDbSavedByObjectVersion
1070
     0
  0
VISUALSTYLE
  5
1D3
102
{ACAD_XDICTIONARY
360
353
102
}
102
{ACAD_REACTORS
330
1C3
102
}
330
1C3
100
AcDbVisualStyle
  2
ColorChange
 70
    16
 71
     2
 72
     2
 73
     3
 90
        0
 40
-0.6
 41
-30.0
 62
     5
 63
     8
 74
     1
 91
        4
 64
     7
 65
   257
 75
     1
175
     1
 42
1.0
 92
        8
 66
     8
 43
1.0
 76
     1
 77
     6
 78
     2
 67
     7
 79
     5
170
     0
171
     0
290
     0
174
     0
 93
        1
 44
0.0
173
     0
291
     1
 45
0.0
1001
ACAD
1000
AcDbSavedByObjectVersion
1070
     0
  0
VISUALSTYLE
  5
1CC
102
{ACAD_XDICTIONARY
360
345
102
}
102
{ACAD_REACTORS
330
1C3
102
}
330
1C3
100
AcDbVisualStyle
  2
Conceptual
 70
     9
 71
     3
 72
     2
 73
     0
 90
        0
 40
-0.6
 41
-30.0
 62
     5
 63
     7
 74
     2
 91
        2
 64
     7
 65
   257
 75
     1
175
     1
 42
179.0
 92
        8
 66
     7
 43
1.0
 76
     1
 77
     6
 78
     2
 67
     7
 79
     3
170
     0
171
     0
290
     0
174
     0
 93
        1
 44
0.0
173
     0
291
     0
 45
0.0
1001
ACAD
1000
AcDbSavedByObjectVersion
1070
     0
  0
VISUALSTYLE
  5
1CE
102
{ACAD_XDICTIONARY
360
349
102
}
102
{ACAD_REACTORS
330
1C3
102
}
330
1C3
100
AcDbVisualStyle
  2
Dim
 70
    11
 71
     2
 72
     2
 73
     0
 90
        0
 40
-0.6
 41
-30.0
 62
     5
 63
     7
 74
     1
 91
        4
 64
     7
 65
   257
 75
     1
175
     1
 42
1.0
 92
        8
 66
     7
 43
1.0
 76
     1
 77
     6
 78
     2
 67
     7
 79
     5
170
     0
171
     0
290
     0
174
     0
 93
        1
 44
-50.0
173
     0
291
     1
 45
0.0
1001
ACAD
1000
AcDbSavedByObjectVersion
1070
     0
  0
VISUALSTYLE
  5
1DB
102
{ACAD_XDICTIONARY
360
363
102
}
102
{ACAD_REACTORS
330
1C3
102
}
330
1C3
100
AcDbVisualStyle
  2
EdgeColorOff
 70
    22
 71
     2
 72
     2
 73
     0
 90
        0
 40
-0.6
 41
-30.0
 62
     5
 63
     7
 74
     1
 91
        4
 64
     7
 65
   257
 75
     1
175
     1
 42
1.0
 92
        8
 66
     7
 43
1.0
 76
     1
 77
     6
 78
     2
 67
     7
 79
     5
170
     0
171
     0
290
     0
174
     0
 93
        1
 44
0.0
173
     0
291
     1
 45
0.0
1001
ACAD
1000
AcDbSavedByObjectVersion
1070
     0
  0
VISUALSTYLE
  5
1D2
102
{ACAD_XDICTIONARY
360
351
102
}
102
{ACAD_REACTORS
330
1C3
102
}
330
1C3
100
AcDbVisualStyle
  2
Facepattern
 70
    15
 71
     2
 72
     2
 73
     0
 90
        0
 40
-0.6
 41
-30.0
 62
     5
 63
     7
 74
     1
 91
        4
 64
     7
 65
   257
 75
     1
175
     1
 42
1.0
 92
        8
 66
     7
 43
1.0
 76
     1
 77
     6
 78
     2
 67
     7
 79
     5
170
     0
171
     0
290
     0
174
     0
 93
        1
 44
0.0
173
     0
291
     1
 45
0.0
1001
ACAD
1000
AcDbSavedByObjectVersion
1070
     0
  0
VISUALSTYLE
  5
1C4
102
{ACAD_XDICTIONARY
360
335
102
}
102
{ACAD_REACTORS
330
1C3
102
}
330
1C3
100
AcDbVisualStyle
  2
Flat
 70
     0
 71
     2
 72
     1
 73
     1
 90
        2
 40
-0.6
 41
30.0
 62
     5
 63
     7
 74
     0
 91
        0
 64
     7
 65
   257
 75
     1
175
     1
 42
1.0
 92
        8
 66
     7
 43
1.0
 76
     1
 77
     6
 78
     2
 67
     7
 79
     5
170
     0
171
     0
290
     0
174
     0
 93
       13
 44
0.0
173
     0
291
     1
 45
0.0
1001
ACAD
1000
AcDbSavedByObjectVersion
1070
     0
  0
VISUALSTYLE
  5
1C5
102
{ACAD_XDICTIONARY
360
337
102
}
102
{ACAD_REACTORS
330
1C3
102
}
330
1C3
100
AcDbVisualStyle
  2
FlatWithEdges
 70
     1
 71
     2
 72
     1
 73
     1
 90
        2
 40
-0.6
 41
30.0
 62
     5
 63
     7
 74
     1
 91
        0
 64
     7
 65
   257
 75
     1
175
     1
 42
1.0
 92
        0
 66
   257
 43
1.0
 76
     1
 77
     6
 78
     2
 67
     7
 79
     5
170
     0
171
     0
290
     0
174
     0
 93
       13
 44
0.0
173
     0
291
     1
 45
0.0
1001
ACAD
1000
AcDbSavedByObjectVersion
1070
     0
  0
VISUALSTYLE
  5
1C6
102
{ACAD_XDICTIONARY
360
339
102
}
102
{ACAD_REACTORS
330
1C3
102
}
330
1C3
100
AcDbVisualStyle
  2
Gouraud
 70
     2
 71
     2
 72
     2
 73
     1
 90
        2
 40
-0.6
 41
30.0
 62
     5
 63
     7
 74
     0
 91
        0
 64
     7
 65
   257
 75
     1
175
     1
 42
1.0
 92
        0
 66
     7
 43
1.0
 76
     1
 77
     6
 78
     2
 67
     7
 79
     5
170
     0
171
     0
290
     0
174
     0
 93
       13
 44
0.0
173
     0
291
     1
 45
0.0
1001
ACAD
1000
AcDbSavedByObjectVersion
1070
     0
  0
VISUALSTYLE
  5
1C7
102
{ACAD_XDICTIONARY
360
33B
102
}
102
{ACAD_REACTORS
330
1C3
102
}
330
1C3
100
AcDbVisualStyle
  2
GouraudWithEdges
 70
     3
 71
     2
 72
     2
 73
     1
 90
        2
 40
-0.6
 41
30.0
 62
     5
 63
     7
 74
     1
 91
        0
 64
     7
 65
   257
 75
     1
175
     1
 42
1.0
 92
        0
 66
   257
 43
1.0
 76
     1
 77
     6
 78
     2
 67
     7
 79
     5
170
     0
171
     0
290
     0
174
     0
 93
       13
 44
0.0
173
     0
291
     1
 45
0.0
1001
ACAD
1000
AcDbSavedByObjectVersion
1070
     0
  0
VISUALSTYLE
  5
1CB
102
{ACAD_XDICTIONARY
360
343
102
}
102
{ACAD_REACTORS
330
1C3
102
}
330
1C3
100
AcDbVisualStyle
  2
Hidden
 70
     6
 71
     1
 72
     2
 73
     2
 90
        0
 40
-0.6
 41
-30.0
 62
     5
 63
     7
 74
     2
 91
        2
 64
     7
 65
   257
 75
     2
175
     1
 42
40.0
 92
        0
 66
   257
 43
1.0
 76
     1
 77
     6
 78
     2
 67
     7
 79
     3
170
     0
171
     0
290
     0
174
     0
 93
        1
 44
0.0
173
     0
291
     0
 45
0.0
1001
ACAD
1000
AcDbSavedByObjectVersion
1070
     0
  0
VISUALSTYLE
  5
1D9
102
{ACAD_XDICTIONARY
360
35F
102
}
102
{ACAD_REACTORS
330
1C3
102
}
330
1C3
100
AcDbVisualStyle
  2
JitterOff
 70
    20
 71
     2
 72
     2
 73
     0
 90
        0
 40
-0.6
 41
-30.0
 62
     5
 63
     7
 74
     1
 91
        4
 64
     7
 65
   257
 75
     1
175
     1
 42
1.0
 92
       10
 66
     7
 43
1.0
 76
     1
 77
     6
 78
     2
 67
     7
 79
     5
170
     0
171
     0
290
     0
174
     0
 93
        1
 44
0.0
173
     0
291
     1
 45
0.0
1001
ACAD
1000
AcDbSavedByObjectVersion
1070
     0
  0
VISUALSTYLE
  5
1D1
102
{ACAD_XDICTIONARY
360
34F
102
}
102
{ACAD_REACTORS
330
1C3
102
}
330
1C3
100
AcDbVisualStyle
  2
Linepattern
 70
    14
 71
     2
 72
     2
 73
     0
 90
        0
 40
-0.6
 41
-30.0
 62
     5
 63
     7
 74
     1
 91
        4
 64
     7
 65
   257
 75
     7
175
     7
 42
1.0
 92
        8
 66
     7
 43
1.0
 76
     1
 77
     6
 78
     2
 67
     7
 79
     5
170
     0
171
     0
290
     0
174
     0
 93
        1
 44
0.0
173
     0
291
     1
 45
0.0
1001
ACAD
1000
AcDbSavedByObjectVersion
1070
     0
  0
VISUALSTYLE
  5
1DA
102
{ACAD_XDICTIONARY
360
361
102
}
102
{ACAD_REACTORS
330
1C3
102
}
330
1C3
100
AcDbVisualStyle
  2
OverhangOff
 70
    21
 71
     2
 72
     2
 73
     0
 90
        0
 40
-0.6
 41
-30.0
 62
     5
 63
     7
 74
     1
 91
        4
 64
     7
 65
   257
 75
     1
175
     1
 42
1.0
 92
        9
 66
     7
 43
1.0
 76
     1
 77
     6
 78
     2
 67
     7
 79
     5
170
     0
171
     0
290
     0
174
     0
 93
        1
 44
0.0
173
     0
291
     1
 45
0.0
1001
ACAD
1000
AcDbSavedByObjectVersion
1070
     0
  0
VISUALSTYLE
  5
1CD
102
{ACAD_XDICTIONARY
360
347
102
}
102
{ACAD_REACTORS
330
1C3
102
}
330
1C3
100
AcDbVisualStyle
  2
Realistic
 70
     8
 71
     2
 72
     3
 73
     0
 90
        2
 40
-0.6
 41
30.0
 62
     5
 63
     7
 74
     0
 91
        0
 64
     7
 65
   257
 75
     1
175
     1
 42
1.0
 92
        8
 66
   257
 43
1.0
 76
     1
 77
     6
 78
     2
 67
     7
 79
     3
170
     0
171
     0
290
     0
174
     0
 93
       13
 44
0.0
173
     0
291
     0
 45
0.0
1001
ACAD
1000
AcDbSavedByObjectVersion
1070
     0
  0
VISUALSTYLE
  5
1D8
102
{ACAD_XDICTIONARY
360
35D
102
}
102
{ACAD_REACTORS
330
1C3
102
}
330
1C3
100
AcDbVisualStyle
  2
Shaded
 70
    27
 71
     2
 72
     2
 73
     1
 90
        2
 40
-0.6
 41
30.0
 62
     5
 63
     7
 74
     0
 91
        4
 64
     7
 65
   257
 75
     1
175
     1
 42
1.0
 92
        8
 66
   257
 43
1.0
 76
     1
 77
     6
 78
     2
 67
     8
 79
     3
170
     0
171
     0
290
     0
174
     0
 93
        5
 44
0.0
173
     0
291
     0
 45
0.0
1001
ACAD
1000
AcDbSavedByObjectVersion
1070
     0
  0
VISUALSTYLE
  5
1D7
102
{ACAD_XDICTIONARY
360
35B
102
}
102
{ACAD_REACTORS
330
1C3
102
}
330
1C3
100
AcDbVisualStyle
  2
Shaded with edges
 70
    26
 71
     2
 72
     2
 73
     1
 90
        2
 40
-0.6
 41
30.0
 62
     5
 63
     7
 74
     1
 91
       10
 64
     7
 65
   257
 75
     2
175
     1
 42
1.0
 92
        8
 66
   257
 43
1.0
 76
     1
 77
     6
 78
     2
 67
     7
 79
     3
170
     0
171
     0
290
     0
174
     0
 93
        5
 44
0.0
173
     0
291
     0
 45
0.0
1001
ACAD
1000
AcDbSavedByObjectVersion
1070
     0
  0
VISUALSTYLE
  5
1D4
102
{ACAD_XDICTIONARY
360
355
102
}
102
{ACAD_REACTORS
330
1C3
102
}
330
1C3
100
AcDbVisualStyle
  2
Shades of Gray
 70
    23
 71
     2
 72
     2
 73
     3
 90
        0
 40
-0.6
 41
-30.0
 62
     5
 63
     7
 74
     2
 91
        2
 64
     7
 65
     7
 75
     1
175
     1
 42
40.0
 92
        8
 66
     7
 43
1.0
 76
     1
 77
     6
 78
     2
 67
     7
 79
     3
170
     0
171
     0
290
     0
174
     0
 93
        1
 44
0.0
173
     0
291
     0
 45
0.0
1001
ACAD
1000
AcDbSavedByObjectVersion
1070
     0
  0
VISUALSTYLE
  5
1D5
102
{ACAD_XDICTIONARY
360
357
102
}
102
{ACAD_REACTORS
330
1C3
102
}
330
1C3
100
AcDbVisualStyle
  2
Sketchy
 70
    24
 71
     1
 72
     2
 73
     2
 90
        0
 40
-0.6
 41
-30.0
 62
     5
 63
     7
 74
     2
 91
        2
 64
     7
 65
     7
 75
     1
175
     1
 42
40.0
 92
       11
 66
     7
 43
1.0
 76
     1
 77
     6
 78
     2
 67
     7
 79
     6
170
     0
171
     0
290
     0
174
     0
 93
        1
 44
0.0
173
     0
291
     0
 45
0.0
1001
ACAD
1000
AcDbSavedByObjectVersion
1070
     0
  0
VISUALSTYLE
  5
1D0
102
{ACAD_XDICTIONARY
360
34D
102
}
102
{ACAD_REACTORS
330
1C3
102
}
330
1C3
100
AcDbVisualStyle
  2
Thicken
 70
    13
 71
     2
 72
     2
 73
     0
 90
        0
 40
-0.6
 41
-30.0
 62
     5
 63
     7
 74
     1
 91
        4
 64
     7
 65
   257
 75
     1
175
     1
 42
1.0
 92
       12
 66
     7
 43
1.0
 76
     1
 77
     6
 78
     2
 67
     7
 79
     5
170
     0
171
     0
290
     0
174
     0
 93
        1
 44
0.0
173
     0
291
     1
 45
0.0
1001
ACAD
1000
AcDbSavedByObjectVersion
1070
     0
  0
VISUALSTYLE
  5
1CA
102
{ACAD_XDICTIONARY
360
341
102
}
102
{ACAD_REACTORS
330
1C3
102
}
330
1C3
100
AcDbVisualStyle
  2
Wireframe
 70
     5
 71
     0
 72
     2
 73
     0
 90
        0
 40
-0.6
 41
-30.0
 62
     5
 63
     7
 74
     1
 91
        4
 64
     7
 65
   257
 75
     1
175
     1
 42
1.0
 92
        0
 66
   257
 43
1.0
 76
     1
 77
     6
 78
     2
 67
     7
 79
     3
170
     0
171
     0
290
     0
174
     0
 93
        1
 44
0.0
173
     0
291
     0
 45
0.0
1001
ACAD
1000
AcDbSavedByObjectVersion
1070
     0
  0
VISUALSTYLE
  5
1D6
102
{ACAD_XDICTIONARY
360
359
102
}
102
{ACAD_REACTORS
330
1C3
102
}
330
1C3
100
AcDbVisualStyle
  2
X-Ray
 70
    25
 71
     2
 72
     2
 73
     1
 90
        1
 40
0.5
 41
-30.0
 62
     5
 63
     7
 74
     1
 91
        0
 64
     7
 65
   257
 75
     1
175
     1
 42
1.0
 92
        8
 66
     7
 43
1.0
 76
     1
 77
     6
 78
     2
 67
     7
 79
     3
170
     0
171
     0
290
     0
174
     0
 93
       13
 44
0.0
173
     0
291
     0
 45
0.0
1001
ACAD
1000
AcDbSavedByObjectVersion
1070
     0
  0
DICTIONARYVAR
  5
326
102
{ACAD_REACTORS
330
1A8
102
}
330
1A8
100
DictionaryVariables
280
     0
  1
1:1
  0
DICTIONARYVAR
  5
325
102
{ACAD_REACTORS
330
1A8
102
}
330
1A8
100
DictionaryVariables
280
     0
  1
STANDARD
  0
DICTIONARYVAR
  5
324
102
{ACAD_REACTORS
330
1A8
102
}
330
1A8
100
DictionaryVariables
280
     0
  1
STANDARD
  0
DICTIONARYVAR
  5
1A9
330
1A8
100
DictionaryVariables
280
     0
  1
2
  0
DICTIONARYVAR
  5
328
102
{ACAD_REACTORS
330
1A8
102
}
330
1A8
100
DictionaryVariables
280
     0
  1
0
  0
DICTIONARYVAR
  5
327
102
{ACAD_REACTORS
330
1A8
102
}
330
1A8
100
DictionaryVariables
280
     0
  1
127
  0
DICTIONARYVAR
  5
329
102
{ACAD_REACTORS
330
1A8
102
}
330
1A8
100
DictionaryVariables
280
     0
  1
2
  0
XRECORD
  5
323
102
{ACAD_REACTORS
330
321
102
}
330
321
100
AcDbXrecord
280
     1
330
6E
330
76
330
7E
330
138
330
26F
330
270
330
278
330
279
330
281
330
282
330
28A
330
28B
330
294
330
295
330
29B
330
29C
330
2A4
330
2A5
330
2AD
330
2AE
330
2B6
330
2B7
330
2BF
330
2C0
  0
DICTIONARY
  5
330
330
21
100
AcDbDictionary
280
     1
281
     1
  3
ACAD_XREC_ROUNDTRIP
360
331
  0
DICTIONARY
  5
32E
330
20
100
AcDbDictionary
280
     1
281
     1
  3
ACAD_XREC_ROUNDTRIP
360
32F
  0
DICTIONARY
  5
1B4
330
1B3
100
AcDbDictionary
280
     1
281
     1
  3
ACAD_XREC_ROUNDTRIP
360
333
  3
BUMPTILE
360
1B6
  3
DIFFUSETILE
360
1B5
  3
OPACITYTILE
360
1B9
  3
REFLECTIONTILE
360
1B8
  3
REFRACTIONTILE
360
1BA
  3
SPECULARTILE
360
1B7
  0
DICTIONARY
  5
1AC
330
1AB
100
AcDbDictionary
280
     1
281
     1
  3
ACAD_XREC_ROUNDTRIP
360
332
  3
BUMPTILE
360
1AE
  3
DIFFUSETILE
360
1AD
  3
OPACITYTILE
360
1B1
  3
REFLECTIONTILE
360
1B0
  3
REFRACTIONTILE
360
1B2
  3
SPECULARTILE
360
1AF
  0
DICTIONARY
  5
1BC
330
1BB
100
AcDbDictionary
280
     1
281
     1
  3
ACAD_XREC_ROUNDTRIP
360
334
  3
BUMPTILE
360
1BE
  3
DIFFUSETILE
360
1BD
  3
OPACITYTILE
360
1C1
  3
REFLECTIONTILE
360
1C0
  3
REFRACTIONTILE
360
1C2
  3
SPECULARTILE
360
1BF
  0
DICTIONARY
  5
32A
330
209
100
AcDbDictionary
280
     1
281
     1
  3
ACAD_ROUNDTRIP_2008_TABLESTYLE_CELLSTYLEMAP
360
32B
  3
ACAD_XREC_ROUNDTRIP
360
365
  0
DICTIONARY
  5
33F
330
1C9
100
AcDbDictionary
280
     1
281
     1
  3
ACAD_XREC_ROUNDTRIP
360
340
  0
DICTIONARY
  5
33D
330
1C8
100
AcDbDictionary
280
     1
281
     1
  3
ACAD_XREC_ROUNDTRIP
360
33E
  0
DICTIONARY
  5
34B
330
1CF
100
AcDbDictionary
280
     1
281
     1
  3
ACAD_XREC_ROUNDTRIP
360
34C
  0
DICTIONARY
  5
353
330
1D3
100
AcDbDictionary
280
     1
281
     1
  3
ACAD_XREC_ROUNDTRIP
360
354
  0
DICTIONARY
  5
345
330
1CC
100
AcDbDictionary
280
     1
281
     1
  3
ACAD_XREC_ROUNDTRIP
360
346
  0
DICTIONARY
  5
349
330
1CE
100
AcDbDictionary
280
     1
281
     1
  3
ACAD_XREC_ROUNDTRIP
360
34A
  0
DICTIONARY
  5
363
330
1DB
100
AcDbDictionary
280
     1
281
     1
  3
ACAD_XREC_ROUNDTRIP
360
364
  0
DICTIONARY
  5
351
330
1D2
100
AcDbDictionary
280
     1
281
     1
  3
ACAD_XREC_ROUNDTRIP
360
352
  0
DICTIONARY
  5
335
330
1C4
100
AcDbDictionary
280
     1
281
     1
  3
ACAD_XREC_ROUNDTRIP
360
336
  0
DICTIONARY
  5
337
330
1C5
100
AcDbDictionary
280
     1
281
     1
  3
ACAD_XREC_ROUNDTRIP
360
338
  0
DICTIONARY
  5
339
330
1C6
100
AcDbDictionary
280
     1
281
     1
  3
ACAD_XREC_ROUNDTRIP
360
33A
  0
DICTIONARY
  5
33B
330
1C7
100
AcDbDictionary
280
     1
281
     1
  3
ACAD_XREC_ROUNDTRIP
360
33C
  0
DICTIONARY
  5
343
330
1CB
100
AcDbDictionary
280
     1
281
     1
  3
ACAD_XREC_ROUNDTRIP
360
344
  0
DICTIONARY
  5
35F
330
1D9
100
AcDbDictionary
280
     1
281
     1
  3
ACAD_XREC_ROUNDTRIP
360
360
  0
DICTIONARY
  5
34F
330
1D1
100
AcDbDictionary
280
     1
281
     1
  3
ACAD_XREC_ROUNDTRIP
360
350
  0
DICTIONARY
  5
361
330
1DA
100
AcDbDictionary
280
     1
281
     1
  3
ACAD_XREC_ROUNDTRIP
360
362
  0
DICTIONARY
  5
347
330
1CD
100
AcDbDictionary
280
     1
281
     1
  3
ACAD_XREC_ROUNDTRIP
360
348
  0
DICTIONARY
  5
35D
330
1D8
100
AcDbDictionary
280
     1
281
     1
  3
ACAD_XREC_ROUNDTRIP
360
35E
  0
DICTIONARY
  5
35B
330
1D7
100
AcDbDictionary
280
     1
281
     1
  3
ACAD_XREC_ROUNDTRIP
360
35C
  0
DICTIONARY
  5
355
330
1D4
100
AcDbDictionary
280
     1
281
     1
  3
ACAD_XREC_ROUNDTRIP
360
356
  0
DICTIONARY
  5
357
330
1D5
100
AcDbDictionary
280
     1
281
     1
  3
ACAD_XREC_ROUNDTRIP
360
358
  0
DICTIONARY
  5
34D
330
1D0
100
AcDbDictionary
280
     1
281
     1
  3
ACAD_XREC_ROUNDTRIP
360
34E
  0
DICTIONARY
  5
341
330
1CA
100
AcDbDictionary
280
     1
281
     1
  3
ACAD_XREC_ROUNDTRIP
360
342
  0
DICTIONARY
  5
359
330
1D6
100
AcDbDictionary
280
     1
281
     1
  3
ACAD_XREC_ROUNDTRIP
360
35A
  0
XRECORD
  5
331
102
{ACAD_REACTORS
330
330
102
}
330
330
100
AcDbXrecord
280
     1
102
SHADEPLOT
 70
     0
102
SHADEPLOTRESLEVEL
 70
     2
102
SHADEPLOTCUSTOMDPI
 70
   300
  0
XRECORD
  5
32F
102
{ACAD_REACTORS
330
32E
102
}
330
32E
100
AcDbXrecord
280
     1
102
SHADEPLOT
 70
     0
102
SHADEPLOTRESLEVEL
 70
     2
102
SHADEPLOTCUSTOMDPI
 70
   300
  0
XRECORD
  5
333
102
{ACAD_REACTORS
330
1B4
102
}
330
1B4
100
AcDbXrecord
280
     1
102
MATERIAL
148
0.0
149
0.0
149
0.0
 93
        0
 94
      127
282
     0
 72
     0
 77
     0
171
     0
175
     0
179
     0
273
     0
  0
XRECORD
  5
1B6
102
{ACAD_REACTORS
330
1B4
102
}
330
1B4
100
AcDbXrecord
280
     1
270
     1
271
     1
  0
XRECORD
  5
1B5
102
{ACAD_REACTORS
330
1B4
102
}
330
1B4
100
AcDbXrecord
280
     1
270
     1
271
     1
  0
XRECORD
  5
1B9
102
{ACAD_REACTORS
330
1B4
102
}
330
1B4
100
AcDbXrecord
280
     1
270
     1
271
     1
  0
XRECORD
  5
1B8
102
{ACAD_REACTORS
330
1B4
102
}
330
1B4
100
AcDbXrecord
280
     1
270
     1
271
     1
  0
XRECORD
  5
1BA
102
{ACAD_REACTORS
330
1B4
102
}
330
1B4
100
AcDbXrecord
280
     1
270
     1
271
     1
  0
XRECORD
  5
1B7
102
{ACAD_REACTORS
330
1B4
102
}
330
1B4
100
AcDbXrecord
280
     1
270
     1
271
     1
  0
XRECORD
  5
332
102
{ACAD_REACTORS
330
1AC
102
}
330
1AC
100
AcDbXrecord
280
     1
102
MATERIAL
148
0.0
149
0.0
149
0.0
 93
        0
 94
      127
282
     0
 72
     0
 77
     0
171
     0
175
     0
179
     0
273
     0
  0
XRECORD
  5
1AE
102
{ACAD_REACTORS
330
1AC
102
}
330
1AC
100
AcDbXrecord
280
     1
270
     1
271
     1
  0
XRECORD
  5
1AD
102
{ACAD_REACTORS
330
1AC
102
}
330
1AC
100
AcDbXrecord
280
     1
270
     1
271
     1
  0
XRECORD
  5
1B1
102
{ACAD_REACTORS
330
1AC
102
}
330
1AC
100
AcDbXrecord
280
     1
270
     1
271
     1
  0
XRECORD
  5
1B0
102
{ACAD_REACTORS
330
1AC
102
}
330
1AC
100
AcDbXrecord
280
     1
270
     1
271
     1
  0
XRECORD
  5
1B2
102
{ACAD_REACTORS
330
1AC
102
}
330
1AC
100
AcDbXrecord
280
     1
270
     1
271
     1
  0
XRECORD
  5
1AF
102
{ACAD_REACTORS
330
1AC
102
}
330
1AC
100
AcDbXrecord
280
     1
270
     1
271
     1
  0
XRECORD
  5
334
102
{ACAD_REACTORS
330
1BC
102
}
330
1BC
100
AcDbXrecord
280
     1
102
MATERIAL
148
0.0
149
0.0
149
0.0
 93
        0
 94
      127
282
     0
 72
     0
 77
     0
171
     0
175
     0
179
     0
273
     0
  0
XRECORD
  5
1BE
102
{ACAD_REACTORS
330
1BC
102
}
330
1BC
100
AcDbXrecord
280
     1
270
     1
271
     1
  0
XRECORD
  5
1BD
102
{ACAD_REACTORS
330
1BC
102
}
330
1BC
100
AcDbXrecord
280
     1
270
     1
271
     1
  0
XRECORD
  5
1C1
102
{ACAD_REACTORS
330
1BC
102
}
330
1BC
100
AcDbXrecord
280
     1
270
     1
271
     1
  0
XRECORD
  5
1C0
102
{ACAD_REACTORS
330
1BC
102
}
330
1BC
100
AcDbXrecord
280
     1
270
     1
271
     1
  0
XRECORD
  5
1C2
102
{ACAD_REACTORS
330
1BC
102
}
330
1BC
100
AcDbXrecord
280
     1
270
     1
271
     1
  0
XRECORD
  5
1BF
102
{ACAD_REACTORS
330
1BC
102
}
330
1BC
100
AcDbXrecord
280
     1
270
     1
271
     1
  0
CELLSTYLEMAP
  5
32B
102
{ACAD_REACTORS
330
32A
102
}
330
32A
100
AcDbCellStyleMap
 90
        3
300
CELLSTYLE
  1
TABLEFORMAT_BEGIN
 90
        5
170
     1
 91
        0
 92
    32768
 62
   257
 93
        1
300
CONTENTFORMAT
  1
CONTENTFORMAT_BEGIN
 90
        0
 91
        0
 92
      512
 93
        0
300

 40
0.0
140
1.0
 94
        5
 62
     0
340
17
144
0.25
309
CONTENTFORMAT_END
171
     0
 94
        0
309
TABLEFORMAT_END
  1
CELLSTYLE_BEGIN
 90
        1
 91
        1
300
_TITLE
309
CELLSTYLE_END
300
CELLSTYLE
  1
TABLEFORMAT_BEGIN
 90
        5
170
     1
 91
        0
 92
        0
 62
   257
 93
        1
300
CONTENTFORMAT
  1
CONTENTFORMAT_BEGIN
 90
        0
 91
        0
 92
      512
 93
        0
300

 40
0.0
140
1.0
 94
        5
 62
     0
340
17
144
0.18
309
CONTENTFORMAT_END
171
     0
 94
        0
309
TABLEFORMAT_END
  1
CELLSTYLE_BEGIN
 90
        2
 91
        1
300
_HEADER
309
CELLSTYLE_END
300
CELLSTYLE
  1
TABLEFORMAT_BEGIN
 90
        5
170
     1
 91
        0
 92
        0
 62
   257
 93
        1
300
CONTENTFORMAT
  1
CONTENTFORMAT_BEGIN
 90
        0
 91
        0
 92
      512
 93
        0
300

 40
0.0
140
1.0
 94
        2
 62
     0
340
17
144
0.18
309
CONTENTFORMAT_END
171
     0
 94
        0
309
TABLEFORMAT_END
  1
CELLSTYLE_BEGIN
 90
        3
 91
        2
300
_DATA
309
CELLSTYLE_END
  0
XRECORD
  5
365
102
{ACAD_REACTORS
330
32A
102
}
330
32A
100
AcDbXrecord
280
     1
102
ACAD_ROUNDTRIP_PRE2007_TABLESTYLE
 90
      512
 91
        0
  1

 92
      512
 93
        0
  2

 94
      512
 95
        0
  3

  0
XRECORD
  5
340
102
{ACAD_REACTORS
330
33F
102
}
330
33F
100
AcDbXrecord
280
     1
102
RTVSPropertyOp0
 70
     1
102
RTVSPropertyOp1
 70
     1
102
RTVSPropertyOp2
 70
     1
102
RTVSPropertyOp3
 70
     1
102
RTVSPropertyOp4
 70
     1
102
RTVSPropertyOp5
 70
     1
102
RTVSPropertyOp6
 70
     1
102
RTVSPropertyOp7
 70
     1
102
RTVSPropertyOp8
 70
     1
102
RTVSPropertyOp9
 70
     1
102
RTVSPropertyOp10
 70
     1
102
RTVSPropertyOp11
 70
     1
102
RTVSPropertyOp12
 70
     1
102
RTVSPropertyOp13
 70
     1
102
RTVSPropertyOp14
 70
     1
102
RTVSPropertyOp15
 70
     1
102
RTVSPropertyOp16
 70
     1
102
RTVSPropertyOp17
 70
     1
102
RTVSPropertyOp18
 70
     1
102
RTVSPropertyOp19
 70
     1
102
RTVSPropertyOp20
 70
     1
102
RTVSPropertyOp21
 70
     1
102
RTVSPropertyOp22
 70
     1
102
RTVSPropertyOp23
 70
     1
102
RTVSPropertyOp24
 70
     1
102
RTVSPropertyOp25
 70
     1
102
RTVSPropertyOp26
 70
     1
102
RTVSPropertyOp27
 70
     1
102
RTVSPropertyOp28
 70
     1
102
RTVSPropertyOp29
 70
     1
102
RTVSPropertyOp30
 70
     1
102
RTVSPropertyOp31
 70
     1
102
RTVSPropertyOp32
 70
     1
  0
XRECORD
  5
33E
102
{ACAD_REACTORS
330
33D
102
}
330
33D
100
AcDbXrecord
280
     1
102
RTVSPropertyOp0
 70
     1
102
RTVSPropertyOp1
 70
     1
102
RTVSPropertyOp2
 70
     1
102
RTVSPropertyOp3
 70
     1
102
RTVSPropertyOp4
 70
     1
102
RTVSPropertyOp5
 70
     1
102
RTVSPropertyOp6
 70
     1
102
RTVSPropertyOp7
 70
     1
102
RTVSPropertyOp8
 70
     1
102
RTVSPropertyOp9
 70
     1
102
RTVSPropertyOp10
 70
     1
102
RTVSPropertyOp11
 70
     1
102
RTVSPropertyOp12
 70
     1
102
RTVSPropertyOp13
 70
     1
102
RTVSPropertyOp14
 70
     1
102
RTVSPropertyOp15
 70
     1
102
RTVSPropertyOp16
 70
     1
102
RTVSPropertyOp17
 70
     1
102
RTVSPropertyOp18
 70
     1
102
RTVSPropertyOp19
 70
     1
102
RTVSPropertyOp20
 70
     1
102
RTVSPropertyOp21
 70
     1
102
RTVSPropertyOp22
 70
     1
102
RTVSPropertyOp23
 70
     1
102
RTVSPropertyOp24
 70
     1
102
RTVSPropertyOp25
 70
     1
102
RTVSPropertyOp26
 70
     1
102
RTVSPropertyOp27
 70
     1
102
RTVSPropertyOp28
 70
     1
102
RTVSPropertyOp29
 70
     1
102
RTVSPropertyOp30
 70
     1
102
RTVSPropertyOp31
 70
     1
102
RTVSPropertyOp32
 70
     1
  0
XRECORD
  5
34C
102
{ACAD_REACTORS
330
34B
102
}
330
34B
100
AcDbXrecord
280
     1
102
RTVSPropertyOp0
 70
     1
102
RTVSPropertyOp1
 70
     1
102
RTVSPropertyOp2
 70
     1
102
RTVSPropertyOp3
 70
     1
102
RTVSPropertyOp4
 70
     1
102
RTVSPropertyOp5
 70
     1
102
RTVSPropertyOp6
 70
     1
102
RTVSPropertyOp7
 70
     1
102
RTVSPropertyOp8
 70
     1
102
RTVSPropertyOp9
 70
     1
102
RTVSPropertyOp10
 70
     1
102
RTVSPropertyOp11
 70
     1
102
RTVSPropertyOp12
 70
     1
102
RTVSPropertyOp13
 70
     1
102
RTVSPropertyOp14
 70
     1
102
RTVSPropertyOp15
 70
     1
102
RTVSPropertyOp16
 70
     1
102
RTVSPropertyOp17
 70
     1
102
RTVSPropertyOp18
 70
     1
102
RTVSPropertyOp19
 70
     1
102
RTVSPropertyOp20
 70
     1
102
RTVSPropertyOp21
 70
     1
102
RTVSPropertyOp22
 70
     1
102
RTVSPropertyOp23
 70
     1
102
RTVSPropertyOp24
 70
     1
102
RTVSPropertyOp25
 70
     1
102
RTVSPropertyOp26
 70
     1
102
RTVSPropertyOp27
 70
     1
102
RTVSPropertyOp28
 70
     1
102
RTVSPropertyOp29
 70
     1
102
RTVSPropertyOp30
 70
     1
102
RTVSPropertyOp31
 70
     1
102
RTVSPropertyOp32
 70
     1
  0
XRECORD
  5
354
102
{ACAD_REACTORS
330
353
102
}
330
353
100
AcDbXrecord
280
     1
102
RTVSPropertyOp0
 70
     1
102
RTVSPropertyOp1
 70
     1
102
RTVSPropertyOp2
 70
     1
102
RTVSPropertyOp3
 70
     1
102
RTVSPropertyOp4
 70
     1
102
RTVSPropertyOp5
 70
     1
102
RTVSPropertyOp6
 70
     1
102
RTVSPropertyOp7
 70
     1
102
RTVSPropertyOp8
 70
     1
102
RTVSPropertyOp9
 70
     1
102
RTVSPropertyOp10
 70
     1
102
RTVSPropertyOp11
 70
     1
102
RTVSPropertyOp12
 70
     1
102
RTVSPropertyOp13
 70
     1
102
RTVSPropertyOp14
 70
     1
102
RTVSPropertyOp15
 70
     1
102
RTVSPropertyOp16
 70
     1
102
RTVSPropertyOp17
 70
     1
102
RTVSPropertyOp18
 70
     1
102
RTVSPropertyOp19
 70
     1
102
RTVSPropertyOp20
 70
     1
102
RTVSPropertyOp21
 70
     1
102
RTVSPropertyOp22
 70
     1
102
RTVSPropertyOp23
 70
     1
102
RTVSPropertyOp24
 70
     1
102
RTVSPropertyOp25
 70
     1
102
RTVSPropertyOp26
 70
     1
102
RTVSPropertyOp27
 70
     1
102
RTVSPropertyOp28
 70
     1
102
RTVSPropertyOp29
 70
     1
102
RTVSPropertyOp30
 70
     1
102
RTVSPropertyOp31
 70
     1
102
RTVSPropertyOp32
 70
     1
  0
XRECORD
  5
346
102
{ACAD_REACTORS
330
345
102
}
330
345
100
AcDbXrecord
280
     1
102
RTVSPropertyOp0
 70
     1
102
RTVSPropertyOp1
 70
     1
102
RTVSPropertyOp2
 70
     1
102
RTVSPropertyOp3
 70
     1
102
RTVSPropertyOp4
 70
     1
102
RTVSPropertyOp5
 70
     1
102
RTVSPropertyOp6
 70
     1
102
RTVSPropertyOp7
 70
     1
102
RTVSPropertyOp8
 70
     1
102
RTVSPropertyOp9
 70
     1
102
RTVSPropertyOp10
 70
     1
102
RTVSPropertyOp11
 70
     1
102
RTVSPropertyOp12
 70
     1
102
RTVSPropertyOp13
 70
     1
102
RTVSPropertyOp14
 70
     1
102
RTVSPropertyOp15
 70
     1
102
RTVSPropertyOp16
 70
     1
102
RTVSPropertyOp17
 70
     1
102
RTVSPropertyOp18
 70
     1
102
RTVSPropertyOp19
 70
     1
102
RTVSPropertyOp20
 70
     1
102
RTVSPropertyOp21
 70
     1
102
RTVSPropertyOp22
 70
     1
102
RTVSPropertyOp23
 70
     1
102
RTVSPropertyOp24
 70
     1
102
RTVSPropertyOp25
 70
     1
102
RTVSPropertyOp26
 70
     1
102
RTVSPropertyOp27
 70
     1
102
RTVSPropertyOp28
 70
     1
102
RTVSPropertyOp29
 70
     1
102
RTVSPropertyOp30
 70
     1
102
RTVSPropertyOp31
 70
     1
102
RTVSPropertyOp32
 70
     1
  0
XRECORD
  5
34A
102
{ACAD_REACTORS
330
349
102
}
330
349
100
AcDbXrecord
280
     1
102
RTVSPropertyOp0
 70
     1
102
RTVSPropertyOp1
 70
     1
102
RTVSPropertyOp2
 70
     1
102
RTVSPropertyOp3
 70
     1
102
RTVSPropertyOp4
 70
     1
102
RTVSPropertyOp5
 70
     1
102
RTVSPropertyOp6
 70
     1
102
RTVSPropertyOp7
 70
     1
102
RTVSPropertyOp8
 70
     1
102
RTVSPropertyOp9
 70
     1
102
RTVSPropertyOp10
 70
     1
102
RTVSPropertyOp11
 70
     1
102
RTVSPropertyOp12
 70
     1
102
RTVSPropertyOp13
 70
     1
102
RTVSPropertyOp14
 70
     1
102
RTVSPropertyOp15
 70
     1
102
RTVSPropertyOp16
 70
     1
102
RTVSPropertyOp17
 70
     1
102
RTVSPropertyOp18
 70
     1
102
RTVSPropertyOp19
 70
     1
102
RTVSPropertyOp20
 70
     1
102
RTVSPropertyOp21
 70
     1
102
RTVSPropertyOp22
 70
     1
102
RTVSPropertyOp23
 70
     1
102
RTVSPropertyOp24
 70
     1
102
RTVSPropertyOp25
 70
     1
102
RTVSPropertyOp26
 70
     1
102
RTVSPropertyOp27
 70
     1
102
RTVSPropertyOp28
 70
     1
102
RTVSPropertyOp29
 70
     1
102
RTVSPropertyOp30
 70
     1
102
RTVSPropertyOp31
 70
     1
102
RTVSPropertyOp32
 70
     1
  0
XRECORD
  5
364
102
{ACAD_REACTORS
330
363
102
}
330
363
100
AcDbXrecord
280
     1
102
RTVSPropertyOp0
 70
     0
102
RTVSPropertyOp1
 70
     0
102
RTVSPropertyOp2
 70
     0
102
RTVSPropertyOp3
 70
     0
102
RTVSPropertyOp4
 70
     0
102
RTVSPropertyOp5
 70
     0
102
RTVSPropertyOp6
 70
     0
102
RTVSPropertyOp7
 70
     0
102
RTVSPropertyOp8
 70
     0
102
RTVSPropertyOp9
 70
     0
102
RTVSPropertyOp10
 70
     0
102
RTVSPropertyOp11
 70
     0
102
RTVSPropertyOp12
 70
     0
102
RTVSPropertyOp13
 70
     0
102
RTVSPropertyOp14
 70
     2
102
RTVSPropertyOp15
 70
     0
102
RTVSPropertyOp16
 70
     0
102
RTVSPropertyOp17
 70
     0
102
RTVSPropertyOp18
 70
     0
102
RTVSPropertyOp19
 70
     0
102
RTVSPropertyOp20
 70
     0
102
RTVSPropertyOp21
 70
     0
102
RTVSPropertyOp22
 70
     0
102
RTVSPropertyOp23
 70
     0
102
RTVSPropertyOp24
 70
     0
102
RTVSPropertyOp25
 70
     0
102
RTVSPropertyOp26
 70
     0
102
RTVSPropertyOp27
 70
     0
102
RTVSPropertyOp28
 70
     0
102
RTVSPropertyOp29
 70
     0
102
RTVSPropertyOp30
 70
     0
102
RTVSPropertyOp31
 70
     0
102
RTVSPropertyOp32
 70
     0
  0
XRECORD
  5
352
102
{ACAD_REACTORS
330
351
102
}
330
351
100
AcDbXrecord
280
     1
102
RTVSPropertyOp0
 70
     1
102
RTVSPropertyOp1
 70
     1
102
RTVSPropertyOp2
 70
     1
102
RTVSPropertyOp3
 70
     1
102
RTVSPropertyOp4
 70
     1
102
RTVSPropertyOp5
 70
     1
102
RTVSPropertyOp6
 70
     1
102
RTVSPropertyOp7
 70
     1
102
RTVSPropertyOp8
 70
     1
102
RTVSPropertyOp9
 70
     1
102
RTVSPropertyOp10
 70
     1
102
RTVSPropertyOp11
 70
     1
102
RTVSPropertyOp12
 70
     1
102
RTVSPropertyOp13
 70
     1
102
RTVSPropertyOp14
 70
     1
102
RTVSPropertyOp15
 70
     1
102
RTVSPropertyOp16
 70
     1
102
RTVSPropertyOp17
 70
     1
102
RTVSPropertyOp18
 70
     1
102
RTVSPropertyOp19
 70
     1
102
RTVSPropertyOp20
 70
     1
102
RTVSPropertyOp21
 70
     1
102
RTVSPropertyOp22
 70
     1
102
RTVSPropertyOp23
 70
     1
102
RTVSPropertyOp24
 70
     1
102
RTVSPropertyOp25
 70
     1
102
RTVSPropertyOp26
 70
     1
102
RTVSPropertyOp27
 70
     1
102
RTVSPropertyOp28
 70
     1
102
RTVSPropertyOp29
 70
     1
102
RTVSPropertyOp30
 70
     1
102
RTVSPropertyOp31
 70
     1
102
RTVSPropertyOp32
 70
     1
  0
XRECORD
  5
336
102
{ACAD_REACTORS
330
335
102
}
330
335
100
AcDbXrecord
280
     1
102
RTVSPropertyOp0
 70
     1
102
RTVSPropertyOp1
 70
     1
102
RTVSPropertyOp2
 70
     1
102
RTVSPropertyOp3
 70
     1
102
RTVSPropertyOp4
 70
     1
102
RTVSPropertyOp5
 70
     1
102
RTVSPropertyOp6
 70
     1
102
RTVSPropertyOp7
 70
     1
102
RTVSPropertyOp8
 70
     1
102
RTVSPropertyOp9
 70
     1
102
RTVSPropertyOp10
 70
     1
102
RTVSPropertyOp11
 70
     1
102
RTVSPropertyOp12
 70
     1
102
RTVSPropertyOp13
 70
     1
102
RTVSPropertyOp14
 70
     1
102
RTVSPropertyOp15
 70
     1
102
RTVSPropertyOp16
 70
     1
102
RTVSPropertyOp17
 70
     1
102
RTVSPropertyOp18
 70
     1
102
RTVSPropertyOp19
 70
     1
102
RTVSPropertyOp20
 70
     1
102
RTVSPropertyOp21
 70
     1
102
RTVSPropertyOp22
 70
     1
102
RTVSPropertyOp23
 70
     1
102
RTVSPropertyOp24
 70
     1
102
RTVSPropertyOp25
 70
     1
102
RTVSPropertyOp26
 70
     1
102
RTVSPropertyOp27
 70
     1
102
RTVSPropertyOp28
 70
     1
102
RTVSPropertyOp29
 70
     1
102
RTVSPropertyOp30
 70
     1
102
RTVSPropertyOp31
 70
     1
102
RTVSPropertyOp32
 70
     1
  0
XRECORD
  5
338
102
{ACAD_REACTORS
330
337
102
}
330
337
100
AcDbXrecord
280
     1
102
RTVSPropertyOp0
 70
     1
102
RTVSPropertyOp1
 70
     1
102
RTVSPropertyOp2
 70
     1
102
RTVSPropertyOp3
 70
     1
102
RTVSPropertyOp4
 70
     1
102
RTVSPropertyOp5
 70
     1
102
RTVSPropertyOp6
 70
     1
102
RTVSPropertyOp7
 70
     1
102
RTVSPropertyOp8
 70
     1
102
RTVSPropertyOp9
 70
     1
102
RTVSPropertyOp10
 70
     1
102
RTVSPropertyOp11
 70
     1
102
RTVSPropertyOp12
 70
     1
102
RTVSPropertyOp13
 70
     1
102
RTVSPropertyOp14
 70
     1
102
RTVSPropertyOp15
 70
     1
102
RTVSPropertyOp16
 70
     1
102
RTVSPropertyOp17
 70
     1
102
RTVSPropertyOp18
 70
     1
102
RTVSPropertyOp19
 70
     1
102
RTVSPropertyOp20
 70
     1
102
RTVSPropertyOp21
 70
     1
102
RTVSPropertyOp22
 70
     1
102
RTVSPropertyOp23
 70
     1
102
RTVSPropertyOp24
 70
     1
102
RTVSPropertyOp25
 70
     1
102
RTVSPropertyOp26
 70
     1
102
RTVSPropertyOp27
 70
     1
102
RTVSPropertyOp28
 70
     1
102
RTVSPropertyOp29
 70
     1
102
RTVSPropertyOp30
 70
     1
102
RTVSPropertyOp31
 70
     1
102
RTVSPropertyOp32
 70
     1
  0
XRECORD
  5
33A
102
{ACAD_REACTORS
330
339
102
}
330
339
100
AcDbXrecord
280
     1
102
RTVSPropertyOp0
 70
     1
102
RTVSPropertyOp1
 70
     1
102
RTVSPropertyOp2
 70
     1
102
RTVSPropertyOp3
 70
     1
102
RTVSPropertyOp4
 70
     1
102
RTVSPropertyOp5
 70
     1
102
RTVSPropertyOp6
 70
     1
102
RTVSPropertyOp7
 70
     1
102
RTVSPropertyOp8
 70
     1
102
RTVSPropertyOp9
 70
     1
102
RTVSPropertyOp10
 70
     1
102
RTVSPropertyOp11
 70
     1
102
RTVSPropertyOp12
 70
     1
102
RTVSPropertyOp13
 70
     1
102
RTVSPropertyOp14
 70
     1
102
RTVSPropertyOp15
 70
     1
102
RTVSPropertyOp16
 70
     1
102
RTVSPropertyOp17
 70
     1
102
RTVSPropertyOp18
 70
     1
102
RTVSPropertyOp19
 70
     1
102
RTVSPropertyOp20
 70
     1
102
RTVSPropertyOp21
 70
     1
102
RTVSPropertyOp22
 70
     1
102
RTVSPropertyOp23
 70
     1
102
RTVSPropertyOp24
 70
     1
102
RTVSPropertyOp25
 70
     1
102
RTVSPropertyOp26
 70
     1
102
RTVSPropertyOp27
 70
     1
102
RTVSPropertyOp28
 70
     1
102
RTVSPropertyOp29
 70
     1
102
RTVSPropertyOp30
 70
     1
102
RTVSPropertyOp31
 70
     1
102
RTVSPropertyOp32
 70
     1
  0
XRECORD
  5
33C
102
{ACAD_REACTORS
330
33B
102
}
330
33B
100
AcDbXrecord
280
     1
102
RTVSPropertyOp0
 70
     1
102
RTVSPropertyOp1
 70
     1
102
RTVSPropertyOp2
 70
     1
102
RTVSPropertyOp3
 70
     1
102
RTVSPropertyOp4
 70
     1
102
RTVSPropertyOp5
 70
     1
102
RTVSPropertyOp6
 70
     1
102
RTVSPropertyOp7
 70
     1
102
RTVSPropertyOp8
 70
     1
102
RTVSPropertyOp9
 70
     1
102
RTVSPropertyOp10
 70
     1
102
RTVSPropertyOp11
 70
     1
102
RTVSPropertyOp12
 70
     1
102
RTVSPropertyOp13
 70
     1
102
RTVSPropertyOp14
 70
     1
102
RTVSPropertyOp15
 70
     1
102
RTVSPropertyOp16
 70
     1
102
RTVSPropertyOp17
 70
     1
102
RTVSPropertyOp18
 70
     1
102
RTVSPropertyOp19
 70
     1
102
RTVSPropertyOp20
 70
     1
102
RTVSPropertyOp21
 70
     1
102
RTVSPropertyOp22
 70
     1
102
RTVSPropertyOp23
 70
     1
102
RTVSPropertyOp24
 70
     1
102
RTVSPropertyOp25
 70
     1
102
RTVSPropertyOp26
 70
     1
102
RTVSPropertyOp27
 70
     1
102
RTVSPropertyOp28
 70
     1
102
RTVSPropertyOp29
 70
     1
102
RTVSPropertyOp30
 70
     1
102
RTVSPropertyOp31
 70
     1
102
RTVSPropertyOp32
 70
     1
  0
XRECORD
  5
344
102
{ACAD_REACTORS
330
343
102
}
330
343
100
AcDbXrecord
280
     1
102
RTVSPropertyOp0
 70
     1
102
RTVSPropertyOp1
 70
     1
102
RTVSPropertyOp2
 70
     1
102
RTVSPropertyOp3
 70
     1
102
RTVSPropertyOp4
 70
     1
102
RTVSPropertyOp5
 70
     1
102
RTVSPropertyOp6
 70
     1
102
RTVSPropertyOp7
 70
     1
102
RTVSPropertyOp8
 70
     1
102
RTVSPropertyOp9
 70
     1
102
RTVSPropertyOp10
 70
     1
102
RTVSPropertyOp11
 70
     1
102
RTVSPropertyOp12
 70
     1
102
RTVSPropertyOp13
 70
     1
102
RTVSPropertyOp14
 70
     1
102
RTVSPropertyOp15
 70
     1
102
RTVSPropertyOp16
 70
     1
102
RTVSPropertyOp17
 70
     1
102
RTVSPropertyOp18
 70
     1
102
RTVSPropertyOp19
 70
     1
102
RTVSPropertyOp20
 70
     1
102
RTVSPropertyOp21
 70
     1
102
RTVSPropertyOp22
 70
     1
102
RTVSPropertyOp23
 70
     1
102
RTVSPropertyOp24
 70
     1
102
RTVSPropertyOp25
 70
     1
102
RTVSPropertyOp26
 70
     1
102
RTVSPropertyOp27
 70
     1
102
RTVSPropertyOp28
 70
     1
102
RTVSPropertyOp29
 70
     1
102
RTVSPropertyOp30
 70
     1
102
RTVSPropertyOp31
 70
     1
102
RTVSPropertyOp32
 70
     1
  0
XRECORD
  5
360
102
{ACAD_REACTORS
330
35F
102
}
330
35F
100
AcDbXrecord
280
     1
102
RTVSPropertyOp0
 70
     0
102
RTVSPropertyOp1
 70
     0
102
RTVSPropertyOp2
 70
     0
102
RTVSPropertyOp3
 70
     0
102
RTVSPropertyOp4
 70
     0
102
RTVSPropertyOp5
 70
     0
102
RTVSPropertyOp6
 70
     0
102
RTVSPropertyOp7
 70
     0
102
RTVSPropertyOp8
 70
     0
102
RTVSPropertyOp9
 70
     0
102
RTVSPropertyOp10
 70
     0
102
RTVSPropertyOp11
 70
     0
102
RTVSPropertyOp12
 70
     0
102
RTVSPropertyOp13
 70
     0
102
RTVSPropertyOp14
 70
     2
102
RTVSPropertyOp15
 70
     0
102
RTVSPropertyOp16
 70
     0
102
RTVSPropertyOp17
 70
     0
102
RTVSPropertyOp18
 70
     0
102
RTVSPropertyOp19
 70
     0
102
RTVSPropertyOp20
 70
     0
102
RTVSPropertyOp21
 70
     0
102
RTVSPropertyOp22
 70
     0
102
RTVSPropertyOp23
 70
     0
102
RTVSPropertyOp24
 70
     0
102
RTVSPropertyOp25
 70
     0
102
RTVSPropertyOp26
 70
     0
102
RTVSPropertyOp27
 70
     0
102
RTVSPropertyOp28
 70
     0
102
RTVSPropertyOp29
 70
     0
102
RTVSPropertyOp30
 70
     0
102
RTVSPropertyOp31
 70
     0
102
RTVSPropertyOp32
 70
     0
  0
XRECORD
  5
350
102
{ACAD_REACTORS
330
34F
102
}
330
34F
100
AcDbXrecord
280
     1
102
RTVSPropertyOp0
 70
     1
102
RTVSPropertyOp1
 70
     1
102
RTVSPropertyOp2
 70
     1
102
RTVSPropertyOp3
 70
     1
102
RTVSPropertyOp4
 70
     1
102
RTVSPropertyOp5
 70
     1
102
RTVSPropertyOp6
 70
     1
102
RTVSPropertyOp7
 70
     1
102
RTVSPropertyOp8
 70
     1
102
RTVSPropertyOp9
 70
     1
102
RTVSPropertyOp10
 70
     1
102
RTVSPropertyOp11
 70
     1
102
RTVSPropertyOp12
 70
     1
102
RTVSPropertyOp13
 70
     1
102
RTVSPropertyOp14
 70
     1
102
RTVSPropertyOp15
 70
     1
102
RTVSPropertyOp16
 70
     1
102
RTVSPropertyOp17
 70
     1
102
RTVSPropertyOp18
 70
     1
102
RTVSPropertyOp19
 70
     1
102
RTVSPropertyOp20
 70
     1
102
RTVSPropertyOp21
 70
     1
102
RTVSPropertyOp22
 70
     1
102
RTVSPropertyOp23
 70
     1
102
RTVSPropertyOp24
 70
     1
102
RTVSPropertyOp25
 70
     1
102
RTVSPropertyOp26
 70
     1
102
RTVSPropertyOp27
 70
     1
102
RTVSPropertyOp28
 70
     1
102
RTVSPropertyOp29
 70
     1
102
RTVSPropertyOp30
 70
     1
102
RTVSPropertyOp31
 70
     1
102
RTVSPropertyOp32
 70
     1
  0
XRECORD
  5
362
102
{ACAD_REACTORS
330
361
102
}
330
361
100
AcDbXrecord
280
     1
102
RTVSPropertyOp0
 70
     0
102
RTVSPropertyOp1
 70
     0
102
RTVSPropertyOp2
 70
     0
102
RTVSPropertyOp3
 70
     0
102
RTVSPropertyOp4
 70
     0
102
RTVSPropertyOp5
 70
     0
102
RTVSPropertyOp6
 70
     0
102
RTVSPropertyOp7
 70
     0
102
RTVSPropertyOp8
 70
     0
102
RTVSPropertyOp9
 70
     0
102
RTVSPropertyOp10
 70
     0
102
RTVSPropertyOp11
 70
     0
102
RTVSPropertyOp12
 70
     0
102
RTVSPropertyOp13
 70
     0
102
RTVSPropertyOp14
 70
     2
102
RTVSPropertyOp15
 70
     0
102
RTVSPropertyOp16
 70
     0
102
RTVSPropertyOp17
 70
     0
102
RTVSPropertyOp18
 70
     0
102
RTVSPropertyOp19
 70
     0
102
RTVSPropertyOp20
 70
     0
102
RTVSPropertyOp21
 70
     0
102
RTVSPropertyOp22
 70
     0
102
RTVSPropertyOp23
 70
     0
102
RTVSPropertyOp24
 70
     0
102
RTVSPropertyOp25
 70
     0
102
RTVSPropertyOp26
 70
     0
102
RTVSPropertyOp27
 70
     0
102
RTVSPropertyOp28
 70
     0
102
RTVSPropertyOp29
 70
     0
102
RTVSPropertyOp30
 70
     0
102
RTVSPropertyOp31
 70
     0
102
RTVSPropertyOp32
 70
     0
  0
XRECORD
  5
348
102
{ACAD_REACTORS
330
347
102
}
330
347
100
AcDbXrecord
280
     1
102
RTVSPropertyOp0
 70
     1
102
RTVSPropertyOp1
 70
     1
102
RTVSPropertyOp2
 70
     1
102
RTVSPropertyOp3
 70
     1
102
RTVSPropertyOp4
 70
     1
102
RTVSPropertyOp5
 70
     1
102
RTVSPropertyOp6
 70
     1
102
RTVSPropertyOp7
 70
     1
102
RTVSPropertyOp8
 70
     1
102
RTVSPropertyOp9
 70
     1
102
RTVSPropertyOp10
 70
     1
102
RTVSPropertyOp11
 70
     1
102
RTVSPropertyOp12
 70
     1
102
RTVSPropertyOp13
 70
     1
102
RTVSPropertyOp14
 70
     1
102
RTVSPropertyOp15
 70
     1
102
RTVSPropertyOp16
 70
     1
102
RTVSPropertyOp17
 70
     1
102
RTVSPropertyOp18
 70
     1
102
RTVSPropertyOp19
 70
     1
102
RTVSPropertyOp20
 70
     1
102
RTVSPropertyOp21
 70
     1
102
RTVSPropertyOp22
 70
     1
102
RTVSPropertyOp23
 70
     1
102
RTVSPropertyOp24
 70
     1
102
RTVSPropertyOp25
 70
     1
102
RTVSPropertyOp26
 70
     1
102
RTVSPropertyOp27
 70
     1
102
RTVSPropertyOp28
 70
     1
102
RTVSPropertyOp29
 70
     1
102
RTVSPropertyOp30
 70
     1
102
RTVSPropertyOp31
 70
     1
102
RTVSPropertyOp32
 70
     1
  0
XRECORD
  5
35E
102
{ACAD_REACTORS
330
35D
102
}
330
35D
100
AcDbXrecord
280
     1
102
RTVSPropertyOp0
 70
     1
102
RTVSPropertyOp1
 70
     1
102
RTVSPropertyOp2
 70
     1
102
RTVSPropertyOp3
 70
     1
102
RTVSPropertyOp4
 70
     1
102
RTVSPropertyOp5
 70
     1
102
RTVSPropertyOp6
 70
     1
102
RTVSPropertyOp7
 70
     1
102
RTVSPropertyOp8
 70
     1
102
RTVSPropertyOp9
 70
     1
102
RTVSPropertyOp10
 70
     1
102
RTVSPropertyOp11
 70
     1
102
RTVSPropertyOp12
 70
     1
102
RTVSPropertyOp13
 70
     1
102
RTVSPropertyOp14
 70
     1
102
RTVSPropertyOp15
 70
     1
102
RTVSPropertyOp16
 70
     1
102
RTVSPropertyOp17
 70
     1
102
RTVSPropertyOp18
 70
     1
102
RTVSPropertyOp19
 70
     1
102
RTVSPropertyOp20
 70
     1
102
RTVSPropertyOp21
 70
     1
102
RTVSPropertyOp22
 70
     1
102
RTVSPropertyOp23
 70
     1
102
RTVSPropertyOp24
 70
     1
102
RTVSPropertyOp25
 70
     1
102
RTVSPropertyOp26
 70
     1
102
RTVSPropertyOp27
 70
     1
102
RTVSPropertyOp28
 70
     1
102
RTVSPropertyOp29
 70
     1
102
RTVSPropertyOp30
 70
     1
102
RTVSPropertyOp31
 70
     1
102
RTVSPropertyOp32
 70
     1
  0
XRECORD
  5
35C
102
{ACAD_REACTORS
330
35B
102
}
330
35B
100
AcDbXrecord
280
     1
102
RTVSPropertyOp0
 70
     1
102
RTVSPropertyOp1
 70
     1
102
RTVSPropertyOp2
 70
     1
102
RTVSPropertyOp3
 70
     1
102
RTVSPropertyOp4
 70
     1
102
RTVSPropertyOp5
 70
     1
102
RTVSPropertyOp6
 70
     1
102
RTVSPropertyOp7
 70
     1
102
RTVSPropertyOp8
 70
     1
102
RTVSPropertyOp9
 70
     1
102
RTVSPropertyOp10
 70
     1
102
RTVSPropertyOp11
 70
     1
102
RTVSPropertyOp12
 70
     1
102
RTVSPropertyOp13
 70
     1
102
RTVSPropertyOp14
 70
     1
102
RTVSPropertyOp15
 70
     1
102
RTVSPropertyOp16
 70
     1
102
RTVSPropertyOp17
 70
     1
102
RTVSPropertyOp18
 70
     1
102
RTVSPropertyOp19
 70
     1
102
RTVSPropertyOp20
 70
     1
102
RTVSPropertyOp21
 70
     1
102
RTVSPropertyOp22
 70
     1
102
RTVSPropertyOp23
 70
     1
102
RTVSPropertyOp24
 70
     1
102
RTVSPropertyOp25
 70
     1
102
RTVSPropertyOp26
 70
     1
102
RTVSPropertyOp27
 70
     1
102
RTVSPropertyOp28
 70
     1
102
RTVSPropertyOp29
 70
     1
102
RTVSPropertyOp30
 70
     1
102
RTVSPropertyOp31
 70
     1
102
RTVSPropertyOp32
 70
     1
  0
XRECORD
  5
356
102
{ACAD_REACTORS
330
355
102
}
330
355
100
AcDbXrecord
280
     1
102
RTVSPropertyOp0
 70
     1
102
RTVSPropertyOp1
 70
     1
102
RTVSPropertyOp2
 70
     1
102
RTVSPropertyOp3
 70
     1
102
RTVSPropertyOp4
 70
     1
102
RTVSPropertyOp5
 70
     1
102
RTVSPropertyOp6
 70
     1
102
RTVSPropertyOp7
 70
     1
102
RTVSPropertyOp8
 70
     1
102
RTVSPropertyOp9
 70
     1
102
RTVSPropertyOp10
 70
     1
102
RTVSPropertyOp11
 70
     1
102
RTVSPropertyOp12
 70
     1
102
RTVSPropertyOp13
 70
     1
102
RTVSPropertyOp14
 70
     1
102
RTVSPropertyOp15
 70
     1
102
RTVSPropertyOp16
 70
     1
102
RTVSPropertyOp17
 70
     1
102
RTVSPropertyOp18
 70
     1
102
RTVSPropertyOp19
 70
     1
102
RTVSPropertyOp20
 70
     1
102
RTVSPropertyOp21
 70
     1
102
RTVSPropertyOp22
 70
     1
102
RTVSPropertyOp23
 70
     1
102
RTVSPropertyOp24
 70
     1
102
RTVSPropertyOp25
 70
     1
102
RTVSPropertyOp26
 70
     1
102
RTVSPropertyOp27
 70
     1
102
RTVSPropertyOp28
 70
     1
102
RTVSPropertyOp29
 70
     1
102
RTVSPropertyOp30
 70
     1
102
RTVSPropertyOp31
 70
     1
102
RTVSPropertyOp32
 70
     1
  0
XRECORD
  5
358
102
{ACAD_REACTORS
330
357
102
}
330
357
100
AcDbXrecord
280
     1
102
RTVSPropertyOp0
 70
     1
102
RTVSPropertyOp1
 70
     1
102
RTVSPropertyOp2
 70
     1
102
RTVSPropertyOp3
 70
     1
102
RTVSPropertyOp4
 70
     1
102
RTVSPropertyOp5
 70
     1
102
RTVSPropertyOp6
 70
     1
102
RTVSPropertyOp7
 70
     1
102
RTVSPropertyOp8
 70
     1
102
RTVSPropertyOp9
 70
     1
102
RTVSPropertyOp10
 70
     1
102
RTVSPropertyOp11
 70
     1
102
RTVSPropertyOp12
 70
     1
102
RTVSPropertyOp13
 70
     1
102
RTVSPropertyOp14
 70
     1
102
RTVSPropertyOp15
 70
     1
102
RTVSPropertyOp16
 70
     1
102
RTVSPropertyOp17
 70
     1
102
RTVSPropertyOp18
 70
     1
102
RTVSPropertyOp19
 70
     1
102
RTVSPropertyOp20
 70
     1
102
RTVSPropertyOp21
 70
     1
102
RTVSPropertyOp22
 70
     1
102
RTVSPropertyOp23
 70
     1
102
RTVSPropertyOp24
 70
     1
102
RTVSPropertyOp25
 70
     1
102
RTVSPropertyOp26
 70
     1
102
RTVSPropertyOp27
 70
     1
102
RTVSPropertyOp28
 70
     1
102
RTVSPropertyOp29
 70
     1
102
RTVSPropertyOp30
 70
     1
102
RTVSPropertyOp31
 70
     1
102
RTVSPropertyOp32
 70
     1
  0
XRECORD
  5
34E
102
{ACAD_REACTORS
330
34D
102
}
330
34D
100
AcDbXrecord
280
     1
102
RTVSPropertyOp0
 70
     1
102
RTVSPropertyOp1
 70
     1
102
RTVSPropertyOp2
 70
     1
102
RTVSPropertyOp3
 70
     1
102
RTVSPropertyOp4
 70
     1
102
RTVSPropertyOp5
 70
     1
102
RTVSPropertyOp6
 70
     1
102
RTVSPropertyOp7
 70
     1
102
RTVSPropertyOp8
 70
     1
102
RTVSPropertyOp9
 70
     1
102
RTVSPropertyOp10
 70
     1
102
RTVSPropertyOp11
 70
     1
102
RTVSPropertyOp12
 70
     1
102
RTVSPropertyOp13
 70
     1
102
RTVSPropertyOp14
 70
     1
102
RTVSPropertyOp15
 70
     1
102
RTVSPropertyOp16
 70
     1
102
RTVSPropertyOp17
 70
     1
102
RTVSPropertyOp18
 70
     1
102
RTVSPropertyOp19
 70
     1
102
RTVSPropertyOp20
 70
     1
102
RTVSPropertyOp21
 70
     1
102
RTVSPropertyOp22
 70
     1
102
RTVSPropertyOp23
 70
     1
102
RTVSPropertyOp24
 70
     1
102
RTVSPropertyOp25
 70
     1
102
RTVSPropertyOp26
 70
     1
102
RTVSPropertyOp27
 70
     1
102
RTVSPropertyOp28
 70
     1
102
RTVSPropertyOp29
 70
     1
102
RTVSPropertyOp30
 70
     1
102
RTVSPropertyOp31
 70
     1
102
RTVSPropertyOp32
 70
     1
  0
XRECORD
  5
342
102
{ACAD_REACTORS
330
341
102
}
330
341
100
AcDbXrecord
280
     1
102
RTVSPropertyOp0
 70
     1
102
RTVSPropertyOp1
 70
     1
102
RTVSPropertyOp2
 70
     1
102
RTVSPropertyOp3
 70
     1
102
RTVSPropertyOp4
 70
     1
102
RTVSPropertyOp5
 70
     1
102
RTVSPropertyOp6
 70
     1
102
RTVSPropertyOp7
 70
     1
102
RTVSPropertyOp8
 70
     1
102
RTVSPropertyOp9
 70
     1
102
RTVSPropertyOp10
 70
     1
102
RTVSPropertyOp11
 70
     1
102
RTVSPropertyOp12
 70
     1
102
RTVSPropertyOp13
 70
     1
102
RTVSPropertyOp14
 70
     1
102
RTVSPropertyOp15
 70
     1
102
RTVSPropertyOp16
 70
     1
102
RTVSPropertyOp17
 70
     1
102
RTVSPropertyOp18
 70
     1
102
RTVSPropertyOp19
 70
     1
102
RTVSPropertyOp20
 70
     1
102
RTVSPropertyOp21
 70
     1
102
RTVSPropertyOp22
 70
     1
102
RTVSPropertyOp23
 70
     1
102
RTVSPropertyOp24
 70
     1
102
RTVSPropertyOp25
 70
     1
102
RTVSPropertyOp26
 70
     1
102
RTVSPropertyOp27
 70
     1
102
RTVSPropertyOp28
 70
     1
102
RTVSPropertyOp29
 70
     1
102
RTVSPropertyOp30
 70
     1
102
RTVSPropertyOp31
 70
     1
102
RTVSPropertyOp32
 70
     1
  0
XRECORD
  5
35A
102
{ACAD_REACTORS
330
359
102
}
330
359
100
AcDbXrecord
280
     1
102
RTVSPropertyOp0
 70
     1
102
RTVSPropertyOp1
 70
     1
102
RTVSPropertyOp2
 70
     1
102
RTVSPropertyOp3
 70
     1
102
RTVSPropertyOp4
 70
     1
102
RTVSPropertyOp5
 70
     1
102
RTVSPropertyOp6
 70
     1
102
RTVSPropertyOp7
 70
     1
102
RTVSPropertyOp8
 70
     1
102
RTVSPropertyOp9
 70
     1
102
RTVSPropertyOp10
 70
     1
102
RTVSPropertyOp11
 70
     1
102
RTVSPropertyOp12
 70
     1
102
RTVSPropertyOp13
 70
     1
102
RTVSPropertyOp14
 70
     1
102
RTVSPropertyOp15
 70
     1
102
RTVSPropertyOp16
 70
     1
102
RTVSPropertyOp17
 70
     1
102
RTVSPropertyOp18
 70
     1
102
RTVSPropertyOp19
 70
     1
102
RTVSPropertyOp20
 70
     1
102
RTVSPropertyOp21
 70
     1
102
RTVSPropertyOp22
 70
     1
102
RTVSPropertyOp23
 70
     1
102
RTVSPropertyOp24
 70
     1
102
RTVSPropertyOp25
 70
     1
102
RTVSPropertyOp26
 70
     1
102
RTVSPropertyOp27
 70
     1
102
RTVSPropertyOp28
 70
     1
102
RTVSPropertyOp29
 70
     1
102
RTVSPropertyOp30
 70
     1
102
RTVSPropertyOp31
 70
     1
102
RTVSPropertyOp32
 70
     1
  0
ENDSEC
  0
EOF
