  0
SECTION
  2
HEADER
  9
$ACADVER
  1
AC1018
  9
$ACADMAINTVER
 70
     0
  9
$DWGCODEPAGE
  3
ANSI_1252
  9
$INSBASE
 10
0.0
 20
0.0
 30
0.0
  9
$EXTMIN
 10
1.000E+20
 20
1.000E+20
 30
1.000E+20
  9
$EXTMAX
 10
-1.000E+20
 20
-1.000E+20
 30
-1.000E+20
  9
$LIMMIN
 10
0.0
 20
0.0
  9
$LIMMAX
 10
420.0
 20
297.0
  9
$ORTHOMODE
 70
     0
  9
$REGENMODE
 70
     1
  9
$FILLMODE
 70
     1
  9
$QTEXTMODE
 70
     0
  9
$MIRRTEXT
 70
     1
  9
$LTSCALE
 40
1.0
  9
$ATTMODE
 70
     1
  9
$TEXTSIZE
 40
2.5
  9
$TRACEWID
 40
1.0
  9
$TEXTSTYLE
  7
Standard
  9
$CLAYER
  8
0
  9
$CELTYPE
  6
ByLayer
  9
$CECOLOR
 62
   256
  9
$CELTSCALE
 40
1.0
  9
$DISPSILH
 70
     0
  9
$DIMSCALE
 40
1.0
  9
$DIMASZ
 40
2.5
  9
$DIMEXO
 40
0.625
  9
$DIMDLI
 40
3.75
  9
$DIMRND
 40
0.0
  9
$DIMDLE
 40
0.0
  9
$DIMEXE
 40
1.25
  9
$DIMTP
 40
0.0
  9
$DIMTM
 40
0.0
  9
$DIMTXT
 40
2.5
  9
$DIMCEN
 40
2.5
  9
$DIMTSZ
 40
0.0
  9
$DIMTOL
 70
     0
  9
$DIMLIM
 70
     0
  9
$DIMTIH
 70
     0
  9
$DIMTOH
 70
     0
  9
$DIMSE1
 70
     0
  9
$DIMSE2
 70
     0
  9
$DIMTAD
 70
     1
  9
$DIMZIN
 70
     8
  9
$DIMBLK
  1

  9
$DIMASO
 70
     1
  9
$DIMSHO
 70
     1
  9
$DIMPOST
  1

  9
$DIMAPOST
  1

  9
$DIMALT
 70
     0
  9
$DIMALTD
 70
     3
  9
$DIMALTF
 40
0.039
  9
$DIMLFAC
 40
1.0
  9
$DIMTOFL
 70
     1
  9
$DIMTVP
 40
0.0
  9
$DIMTIX
 70
     0
  9
$DIMSOXD
 70
     0
  9
$DIMSAH
 70
     0
  9
$DIMBLK1
  1

  9
$DIMBLK2
  1

  9
$DIMSTYLE
  2
ISO-25
  9
$DIMCLRD
 70
     0
  9
$DIMCLRE
 70
     0
  9
$DIMCLRT
 70
     0
  9
$DIMTFAC
 40
1.0
  9
$DIMGAP
 40
0.625
  9
$DIMJUST
 70
     0
  9
$DIMSD1
 70
     0
  9
$DIMSD2
 70
     0
  9
$DIMTOLJ
 70
     0
  9
$DIMTZIN
 70
     8
  9
$DIMALTZ
 70
     0
  9
$DIMALTTZ
 70
     0
  9
$DIMUPT
 70
     0
  9
$DIMDEC
 70
     2
  9
$DIMTDEC
 70
     2
  9
$DIMALTU
 70
     2
  9
$DIMALTTD
 70
     3
  9
$DIMTXSTY
  7
Standard
  9
$DIMAUNIT
 70
     0
  9
$DIMADEC
 70
     0
  9
$DIMALTRND
 40
0.0
  9
$DIMAZIN
 70
     0
  9
$DIMDSEP
 70
    44
  9
$DIMATFIT
 70
     3
  9
$DIMFRAC
 70
     0
  9
$DIMLDRBLK
  1

  9
$DIMLUNIT
 70
     2
  9
$DIMLWD
 70
    -2
  9
$DIMLWE
 70
    -2
  9
$DIMTMOVE
 70
     0
  9
$LUNITS
 70
     2
  9
$LUPREC
 70
     4
  9
$SKETCHINC
 40
1.0
  9
$FILLETRAD
 40
10.0
  9
$AUNITS
 70
     0
  9
$AUPREC
 70
     0
  9
$MENU
  1
.
  9
$ELEVATION
 40
0.0
  9
$PELEVATION
 40
0.0
  9
$THICKNESS
 40
0.0
  9
$LIMCHECK
 70
     0
  9
$CHAMFERA
 40
10.0
  9
$CHAMFERB
 40
10.0
  9
$CHAMFERC
 40
20.0
  9
$CHAMFERD
 40
0.0
  9
$SKPOLY
 70
     0
  9
$TDCREATE
 40
2455813.761163565
  9
$TDUCREATE
 40
2455813.677830231
  9
$TDUPDATE
 40
2455813.761163577
  9
$TDUUPDATE
 40
2455813.677830243
  9
$TDINDWG
 40
0.0000000116
  9
$TDUSRTIMER
 40
0.0000000116
  9
$USRTIMER
 70
     1
  9
$ANGBASE
 50
0.0
  9
$ANGDIR
 70
     0
  9
$PDMODE
 70
     0
  9
$PDSIZE
 40
0.0
  9
$PLINEWID
 40
0.0
  9
$SPLFRAME
 70
     0
  9
$SPLINETYPE
 70
     6
  9
$SPLINESEGS
 70
     8
  9
$HANDSEED
  5
198
  9
$SURFTAB1
 70
     6
  9
$SURFTAB2
 70
     6
  9
$SURFTYPE
 70
     6
  9
$SURFU
 70
     6
  9
$SURFV
 70
     6
  9
$UCSBASE
  2

  9
$UCSNAME
  2

  9
$UCSORG
 10
0.0
 20
0.0
 30
0.0
  9
$UCSXDIR
 10
1.0
 20
0.0
 30
0.0
  9
$UCSYDIR
 10
0.0
 20
1.0
 30
0.0
  9
$UCSORTHOREF
  2

  9
$UCSORTHOVIEW
 70
     0
  9
$UCSORGTOP
 10
0.0
 20
0.0
 30
0.0
  9
$UCSORGBOTTOM
 10
0.0
 20
0.0
 30
0.0
  9
$UCSORGLEFT
 10
0.0
 20
0.0
 30
0.0
  9
$UCSORGRIGHT
 10
0.0
 20
0.0
 30
0.0
  9
$UCSORGFRONT
 10
0.0
 20
0.0
 30
0.0
  9
$UCSORGBACK
 10
0.0
 20
0.0
 30
0.0
  9
$PUCSBASE
  2

  9
$PUCSNAME
  2

  9
$PUCSORG
 10
0.0
 20
0.0
 30
0.0
  9
$PUCSXDIR
 10
1.0
 20
0.0
 30
0.0
  9
$PUCSYDIR
 10
0.0
 20
1.0
 30
0.0
  9
$PUCSORTHOREF
  2

  9
$PUCSORTHOVIEW
 70
     0
  9
$PUCSORGTOP
 10
0.0
 20
0.0
 30
0.0
  9
$PUCSORGBOTTOM
 10
0.0
 20
0.0
 30
0.0
  9
$PUCSORGLEFT
 10
0.0
 20
0.0
 30
0.0
  9
$PUCSORGRIGHT
 10
0.0
 20
0.0
 30
0.0
  9
$PUCSORGFRONT
 10
0.0
 20
0.0
 30
0.0
  9
$PUCSORGBACK
 10
0.0
 20
0.0
 30
0.0
  9
$USERI1
 70
     0
  9
$USERI2
 70
     0
  9
$USERI3
 70
     0
  9
$USERI4
 70
     0
  9
$USERI5
 70
     0
  9
$USERR1
 40
0.0
  9
$USERR2
 40
0.0
  9
$USERR3
 40
0.0
  9
$USERR4
 40
0.0
  9
$USERR5
 40
0.0
  9
$WORLDVIEW
 70
     1
  9
$SHADEDGE
 70
     3
  9
$SHADEDIF
 70
    70
  9
$TILEMODE
 70
     1
  9
$MAXACTVP
 70
    64
  9
$PINSBASE
 10
0.0
 20
0.0
 30
0.0
  9
$PLIMCHECK
 70
     0
  9
$PEXTMIN
 10
1.000E+20
 20
1.000E+20
 30
1.000E+20
  9
$PEXTMAX
 10
-1.000E+20
 20
-1.000E+20
 30
-1.000E+20
  9
$PLIMMIN
 10
0.0
 20
0.0
  9
$PLIMMAX
 10
420.0
 20
297.0
  9
$UNITMODE
 70
     0
  9
$VISRETAIN
 70
     1
  9
$PLINEGEN
 70
     0
  9
$PSLTSCALE
 70
     1
  9
$TREEDEPTH
 70
  3020
  9
$CMLSTYLE
  2
Standard
  9
$CMLJUST
 70
     0
  9
$CMLSCALE
 40
20.0
  9
$PROXYGRAPHICS
 70
     1
  9
$MEASUREMENT
 70
     1
  9
$CELWEIGHT
370
    -1
  9
$ENDCAPS
280
     0
  9
$JOINSTYLE
280
     0
  9
$LWDISPLAY
290
     0
  9
$INSUNITS
 70
     4
  9
$HYPERLINKBASE
  1

  9
$STYLESHEET
  1

  9
$XEDIT
290
     1
  9
$CEPSNTYPE
380
     0
  9
$PSTYLEMODE
290
     1
  9
$FINGERPRINTGUID
  2
{F36F6143-F95E-4F8C-AC3C-C33B2510556C}
  9
$VERSIONGUID
  2
{FAEB1C32-E019-11D5-929B-00C0DF256EC4}
  9
$EXTNAMES
290
     1
  9
$PSVPSCALE
 40
0.0
  9
$OLESTARTUP
290
     0
  9
$SORTENTS
280
   127
  9
$INDEXCTL
280
     0
  9
$HIDETEXT
280
     1
  9
$XCLIPFRAME
290
     0
  9
$HALOGAP
280
     0
  9
$OBSCOLOR
 70
   257
  9
$OBSLTYPE
280
     0
  9
$INTERSECTIONDISPLAY
280
     0
  9
$INTERSECTIONCOLOR
 70
   257
  9
$DIMASSOC
280
     2
  9
$PROJECTNAME
  1

  0
ENDSEC
  0
SECTION
  2
CLASSES
  0
CLASS
  1
ACDBDICTIONARYWDFLT
  2
AcDbDictionaryWithDefault
  3
ObjectDBX Classes
 90
        0
 91
        4
280
     0
281
     0
  0
CLASS
  1
VISUALSTYLE
  2
AcDbVisualStyle
  3
ObjectDBX Classes
 90
     4095
 91
        4
280
     0
281
     0
  0
ENDSEC
  0
SECTION
  2
TABLES
  0
TABLE
  2
VPORT
  5
8
330
0
100
AcDbSymbolTable
 70
     1
  0
VPORT
  5
29
330
8
100
AcDbSymbolTableRecord
100
AcDbViewportTableRecord
  2
*Active
 70
     0
 10
0.0
 20
0.0
 11
1.0
 21
1.0
 12
344.187
 22
148.5
 13
0.0
 23
0.0
 14
10.0
 24
10.0
 15
10.0
 25
10.0
 16
0.0
 26
0.0
 36
1.0
 17
0.0
 27
0.0
 37
0.0
 40
297.0
 41
1.973
 42
50.0
 43
0.0
 44
0.0
 50
0.0
 51
0.0
 71
     0
 72
   100
 73
     1
 74
     3
 75
     0
 76
     0
 77
     0
 78
     0
281
     0
 65
     1
110
0.0
120
0.0
130
0.0
111
1.0
121
0.0
131
0.0
112
0.0
122
1.0
132
0.0
 79
     0
146
0.0
  0
ENDTAB
  0
TABLE
  2
LTYPE
  5
5
330
0
100
AcDbSymbolTable
 70
     2
  0
LTYPE
  5
14
330
5
100
AcDbSymbolTableRecord
100
AcDbLinetypeTableRecord
  2
ByBlock
 70
     0
  3

 72
    65
 73
     0
 40
0.0
  0
LTYPE
  5
15
330
5
100
AcDbSymbolTableRecord
100
AcDbLinetypeTableRecord
  2
ByLayer
 70
     0
  3

 72
    65
 73
     0
 40
0.0
  0
LTYPE
  5
16
330
5
100
AcDbSymbolTableRecord
100
AcDbLinetypeTableRecord
  2
Continuous
 70
     0
  3
Solid line
 72
    65
 73
     0
 40
0.0
  0
LTYPE
  5
D2
330
5
100
AcDbSymbolTableRecord
100
AcDbLinetypeTableRecord
  2
HIDDEN2
 70
     0
  3
Hidden (.5x) _ _ _ _ _ _ _ _ _ _ _ _ _ _ _ _ _ 
 72
    65
 73
     2
 40
4.762
 49
3.175
 74
     0
 49
-1.587
 74
     0
  0
ENDTAB
  0
TABLE
  2
LAYER
  5
2
330
0
100
AcDbSymbolTable
 70
     1
  0
LAYER
  5
10
330
2
100
AcDbSymbolTableRecord
100
AcDbLayerTableRecord
  2
0
 70
     0
 62
    72
  6
Continuous
370
     0
390
F
  0
ENDTAB
  0
TABLE
  2
STYLE
  5
3
330
0
100
AcDbSymbolTable
 70
     3
  0
STYLE
  5
11
330
3
100
AcDbSymbolTableRecord
100
AcDbTextStyleTableRecord
  2
Standard
 70
     0
 40
0.0
 41
1.0
 50
0.0
 71
     0
 42
2.5
  3
txt
  4

  0
STYLE
  5
3B
330
3
100
AcDbSymbolTableRecord
100
AcDbTextStyleTableRecord
  2
Default
 70
     0
 40
0.0
 41
1.0
 50
0.0
 71
     0
 42
0.2
  3

  4

1001
ACAD
1000
txt
1071
        0
  0
STYLE
  5
3C
330
3
100
AcDbSymbolTableRecord
100
AcDbTextStyleTableRecord
  2
ISO
 70
     0
 40
0.0
 41
1.0
 50
0.0
 71
     0
 42
0.2
  3

  4

1001
ACAD
1000
txt
1071
        0
  0
ENDTAB
  0
TABLE
  2
VIEW
  5
6
330
0
100
AcDbSymbolTable
 70
     0
  0
ENDTAB
  0
TABLE
  2
UCS
  5
7
330
0
100
AcDbSymbolTable
 70
     0
  0
ENDTAB
  0
TABLE
  2
APPID
  5
9
330
0
100
AcDbSymbolTable
 70
     1
  0
APPID
  5
12
330
9
100
AcDbSymbolTableRecord
100
AcDbRegAppTableRecord
  2
ACAD
 70
     0
  0
ENDTAB
  0
TABLE
  2
DIMSTYLE
  5
A
330
0
100
AcDbSymbolTable
 70
     3
100
AcDbDimStyleTable
  0
DIMSTYLE
105
27
330
A
100
AcDbSymbolTableRecord
100
AcDbDimStyleTableRecord
  2
ISO-25
 70
     0
 41
2.5
 42
0.625
 43
3.75
 44
1.25
 73
     0
 74
     0
 77
     1
 78
     8
140
2.5
141
2.5
143
0.039
147
0.625
171
     3
172
     1
271
     2
272
     2
274
     3
278
    44
283
     0
284
     8
340
11
  0
DIMSTYLE
105
3D
330
A
100
AcDbSymbolTableRecord
100
AcDbDimStyleTableRecord
  2
Default
 70
     0
  3
<>
 41
4.375
 42
1.05
 44
2.1
 73
     0
 74
     0
 77
     1
 78
     8
140
3.5
146
0.4
147
1.75
178
    12
271
     2
272
     3
284
     8
340
3B
341
3E
342
3E
  0
DIMSTYLE
105
45
330
A
100
AcDbSymbolTableRecord
100
AcDbDimStyleTableRecord
  2
ISO
 70
     0
  3
<>
 41
4.375
 42
1.05
 44
2.1
 73
     0
 74
     0
 77
     1
 78
     8
140
3.5
146
0.4
147
1.75
178
    12
271
     2
272
     3
284
     8
340
3C
341
3E
342
3E
  0
ENDTAB
  0
TABLE
  2
BLOCK_RECORD
  5
1
330
0
100
AcDbSymbolTable
 70
     9
  0
BLOCK_RECORD
  5
1F
330
1
100
AcDbSymbolTableRecord
100
AcDbBlockTableRecord
  2
*Model_Space
340
22
  0
BLOCK_RECORD
  5
1B
330
1
100
AcDbSymbolTableRecord
100
AcDbBlockTableRecord
  2
*Paper_Space
340
1E
  0
BLOCK_RECORD
  5
23
330
1
100
AcDbSymbolTableRecord
100
AcDbBlockTableRecord
  2
*Paper_Space0
340
26
  0
BLOCK_RECORD
  5
3E
330
1
100
AcDbSymbolTableRecord
100
AcDbBlockTableRecord
  2
_CLOSED
340
0
  0
BLOCK_RECORD
  5
46
330
1
100
AcDbSymbolTableRecord
100
AcDbBlockTableRecord
  2
a
340
0
102
{BLKREFS
331
78
102
}
  0
BLOCK_RECORD
  5
79
330
1
100
AcDbSymbolTableRecord
100
AcDbBlockTableRecord
  2
f
340
0
102
{BLKREFS
331
A1
102
}
  0
BLOCK_RECORD
  5
A2
330
1
100
AcDbSymbolTableRecord
100
AcDbBlockTableRecord
  2
g
340
0
102
{BLKREFS
331
CE
102
}
  0
BLOCK_RECORD
  5
CF
330
1
100
AcDbSymbolTableRecord
100
AcDbBlockTableRecord
  2
b
340
0
102
{BLKREFS
331
FA
102
}
  0
BLOCK_RECORD
  5
FB
330
1
100
AcDbSymbolTableRecord
100
AcDbBlockTableRecord
  2
c
340
0
102
{BLKREFS
331
13C
102
}
  0
BLOCK_RECORD
  5
13D
330
1
100
AcDbSymbolTableRecord
100
AcDbBlockTableRecord
  2
d
340
0
102
{BLKREFS
331
16C
102
}
  0
BLOCK_RECORD
  5
16D
330
1
100
AcDbSymbolTableRecord
100
AcDbBlockTableRecord
  2
e
340
0
102
{BLKREFS
331
195
102
}
  0
ENDTAB
  0
ENDSEC
  0
SECTION
  2
BLOCKS
  0
BLOCK
  5
20
330
1F
100
AcDbEntity
  8
0
100
AcDbBlockBegin
  2
*Model_Space
 70
     0
 10
0.0
 20
0.0
 30
0.0
  3
*Model_Space
  1

  0
ENDBLK
  5
21
330
1F
100
AcDbEntity
  8
0
100
AcDbBlockEnd
  0
BLOCK
  5
1C
330
1B
100
AcDbEntity
 67
     1
  8
0
100
AcDbBlockBegin
  2
*Paper_Space
 70
     0
 10
0.0
 20
0.0
 30
0.0
  3
*Paper_Space
  1

  0
ENDBLK
  5
1D
330
1B
100
AcDbEntity
 67
     1
  8
0
100
AcDbBlockEnd
  0
BLOCK
  5
24
330
23
100
AcDbEntity
  8
0
100
AcDbBlockBegin
  2
*Paper_Space0
 70
     0
 10
0.0
 20
0.0
 30
0.0
  3
*Paper_Space0
  1

  0
ENDBLK
  5
25
330
23
100
AcDbEntity
  8
0
100
AcDbBlockEnd
  0
BLOCK
  5
3F
330
3E
100
AcDbEntity
  8
0
100
AcDbBlockBegin
  2
_CLOSED
 70
     0
 10
0.0
 20
0.0
 30
0.0
  3
_CLOSED
  1

  0
LINE
  5
41
330
3E
100
AcDbEntity
  8
0
  6
ByBlock
 62
     0
370
    -2
100
AcDbLine
 10
-1.0
 20
0.167
 30
0.0
 11
0.0
 21
0.0
 31
0.0
  0
LINE
  5
42
330
3E
100
AcDbEntity
  8
0
  6
ByBlock
 62
     0
370
    -2
100
AcDbLine
 10
0.0
 20
0.0
 30
0.0
 11
-1.0
 21
-0.167
 31
0.0
  0
LINE
  5
43
330
3E
100
AcDbEntity
  8
0
  6
ByBlock
 62
     0
370
    -2
100
AcDbLine
 10
-1.0
 20
0.167
 30
0.0
 11
-1.0
 21
-0.167
 31
0.0
  0
LINE
  5
44
330
3E
100
AcDbEntity
  8
0
  6
ByBlock
 62
     0
370
    -2
100
AcDbLine
 10
0.0
 20
0.0
 30
0.0
 11
-1.0
 21
0.0
 31
0.0
  0
ENDBLK
  5
40
330
3E
100
AcDbEntity
  8
0
100
AcDbBlockEnd
  0
BLOCK
  5
76
330
46
100
AcDbEntity
  8
0
100
AcDbBlockBegin
  2
a
 70
     0
 10
75.819
 20
-4.517
 30
0.0
  3
a
  1

  0
LINE
  5
47
330
46
100
AcDbEntity
  8
0
  6
Continuous
 62
     0
370
    30
100
AcDbLine
 10
107.44
 20
40.699
 30
0.0
 11
107.44
 21
37.658
 31
0.0
  0
LINE
  5
48
330
46
100
AcDbEntity
  8
0
  6
Continuous
 62
     0
370
    30
100
AcDbLine
 10
107.44
 20
37.658
 30
0.0
 11
107.44
 21
7.74
 31
0.0
  0
LINE
  5
49
330
46
100
AcDbEntity
  8
0
  6
Continuous
 62
     0
370
    30
100
AcDbLine
 10
107.44
 20
7.74
 30
0.0
 11
107.44
 21
4.699
 31
0.0
  0
LINE
  5
4A
330
46
100
AcDbEntity
  8
0
  6
Continuous
 62
     0
370
     0
100
AcDbLine
 10
92.44
 20
7.74
 30
0.0
 11
92.44
 21
37.658
 31
0.0
  0
LINE
  5
4B
330
46
100
AcDbEntity
  8
0
  6
Continuous
 62
     0
370
    30
100
AcDbLine
 10
86.44
 20
13.724
 30
0.0
 11
86.44
 21
31.675
 31
0.0
  0
LINE
  5
4C
330
46
100
AcDbEntity
  8
0
  6
Continuous
 62
     0
370
     0
100
AcDbLine
 10
83.658
 20
40.699
 30
0.0
 11
92.44
 21
38.894
 31
0.0
  0
LINE
  5
4D
330
46
100
AcDbEntity
  8
0
  6
Continuous
 62
     0
370
     0
100
AcDbLine
 10
83.658
 20
4.699
 30
0.0
 11
92.44
 21
6.504
 31
0.0
  0
LINE
  5
4E
330
46
100
AcDbEntity
  8
0
  6
Continuous
 62
     0
370
     0
100
AcDbLine
 10
92.44
 20
37.658
 30
0.0
 11
92.44
 21
38.894
 31
0.0
  0
LINE
  5
4F
330
46
100
AcDbEntity
  8
0
  6
Continuous
 62
     0
370
     0
100
AcDbLine
 10
92.44
 20
7.74
 30
0.0
 11
92.44
 21
6.504
 31
0.0
  0
LINE
  5
50
330
46
100
AcDbEntity
  8
0
  6
Continuous
 62
     0
370
     0
100
AcDbLine
 10
92.44
 20
37.658
 30
0.0
 11
107.44
 21
37.658
 31
0.0
  0
ELLIPSE
  5
51
330
46
100
AcDbEntity
  8
0
  6
Continuous
 62
     0
370
     0
100
AcDbEllipse
 10
92.44
 20
31.675
 30
0.0
 11
5.999999999999998
 21
8.830594342126347E-15
 31
0.0
210
0.0
220
0.0
230
1.0
 40
0.997
 41
1.570796326794895
 42
3.141592653589792
  0
LINE
  5
52
330
46
100
AcDbEntity
  8
0
  6
Continuous
 62
     0
370
     0
100
AcDbLine
 10
92.44
 20
7.74
 30
0.0
 11
107.44
 21
7.74
 31
0.0
  0
ELLIPSE
  5
53
330
46
100
AcDbEntity
  8
0
  6
Continuous
 62
     0
370
     0
100
AcDbEllipse
 10
92.44
 20
13.724
 30
0.0
 11
6.000000000000002
 21
6.358742842210539E-16
 31
0.0
210
0.0
220
0.0
230
-1.0
 40
0.997
 41
1.570796326794897
 42
3.141592653589793
  0
LINE
  5
54
330
46
100
AcDbEntity
  8
0
  6
Continuous
 62
     0
370
    30
100
AcDbLine
 10
83.658
 20
40.699
 30
0.0
 11
107.44
 21
40.699
 31
0.0
  0
ELLIPSE
  5
55
330
46
100
AcDbEntity
  8
0
  6
Continuous
 62
     0
370
    30
100
AcDbEllipse
 10
83.817
 20
34.683
 30
0.0
 11
6.261556380005005
 21
-1.286668684223683
 31
0.0
210
0.0
220
0.0
230
1.0
 40
0.939
 41
1.786321437399879
 42
3.332126556878189
  0
LINE
  5
56
330
46
100
AcDbEntity
  8
0
  6
Continuous
 62
     0
370
    30
100
AcDbLine
 10
83.658
 20
4.699
 30
0.0
 11
107.44
 21
4.699
 31
0.0
  0
ELLIPSE
  5
57
330
46
100
AcDbEntity
  8
0
  6
Continuous
 62
     0
370
    30
100
AcDbEllipse
 10
83.817
 20
10.715
 30
0.0
 11
6.261556380005003
 21
1.286668684223682
 31
0.0
210
0.0
220
0.0
230
-1.0
 40
0.939
 41
1.786321437399879
 42
3.332126556878189
  0
LINE
  5
58
330
46
100
AcDbEntity
  8
0
  6
Continuous
 62
     0
370
     0
100
AcDbLine
 10
85.849
 20
12.694
 30
0.0
 11
85.849
 21
32.704
 31
0.0
  0
LINE
  5
59
330
46
100
AcDbEntity
  8
0
  6
Continuous
 62
     0
370
    30
100
AcDbLine
 10
86.44
 20
12.694
 30
0.0
 11
86.442
 21
12.543
 31
0.0
  0
ARC
  5
5A
330
46
100
AcDbEntity
  8
0
  6
Continuous
 62
     0
370
     0
100
AcDbCircle
 10
101.814
 20
12.693
 30
0.0
 40
15.96446493762677
100
AcDbArc
 50
179.998
 51
181.433
  0
SPLINE
  5
5B
330
46
100
AcDbEntity
  8
0
  6
Continuous
 62
     0
370
     0
100
AcDbSpline
210
0.0
220
0.0
230
1.0
 70
     8
 71
     3
 72
    14
 73
    10
 74
     0
 42
0.0
 43
0.0
 40
0.0
 40
0.0
 40
0.0
 40
0.0
 40
1.555567845186605
 40
2.948878607312051
 40
4.347914220249205
 40
5.760733546111416
 40
7.186200372054736
 40
8.546069345939133
 40
9.761226978496893
 40
9.761226978496893
 40
9.761226978496893
 40
9.761226978496893
 10
86.44215831281642
 20
12.54326688195896
 30
0.0
 10
86.45456389647818
 20
12.04789986996134
 30
0.0
 10
86.59555004799296
 20
11.10789254156647
 30
0.0
 10
87.11800348051722
 20
9.801742592612115
 30
0.0
 10
87.88388214583573
 20
8.674263770178356
 30
0.0
 10
88.87924958952195
 20
7.731087752579668
 30
0.0
 10
90.0378798592079
 20
7.034023226893922
 30
0.0
 10
91.24858058457282
 20
6.62186256786714
 30
0.0
 10
92.05821643808858
 20
6.51681887972498
 30
0.0
 10
92.4402847290039
 20
6.503735009564849
 30
0.0
  0
SPLINE
  5
5C
330
46
100
AcDbEntity
  8
0
  6
Continuous
 62
     0
370
     0
100
AcDbSpline
210
0.0
220
0.0
230
1.0
 70
     8
 71
     3
 72
    14
 73
    10
 74
     0
 42
0.0
 43
0.0
 40
0.0
 40
0.0
 40
0.0
 40
0.0
 40
1.555567845186606
 40
2.948878607312053
 40
4.347914220249208
 40
5.760733546111419
 40
7.186200372054739
 40
8.546069345939138
 40
9.761226978496898
 40
9.761226978496898
 40
9.761226978496898
 40
9.761226978496898
 10
85.85415507119122
 20
12.29406176070029
 30
0.0
 10
85.86777678850892
 20
11.79921016547888
 30
0.0
 10
86.02258397485406
 20
10.8650604113574
 30
0.0
 10
86.59625411916574
 20
9.580616919048055
 30
0.0
 10
87.43721275223612
 20
8.484958180489983
 30
0.0
 10
88.53015721295822
 20
7.583136853888035
 30
0.0
 10
89.80236934256993
 20
6.934210126043936
 30
0.0
 10
91.13175645460915
 20
6.572350644441201
 30
0.0
 10
92.02076184343815
 20
6.500945027098311
 30
0.0
 10
92.44028472900392
 20
6.503735009564835
 30
0.0
  0
LINE
  5
5D
330
46
100
AcDbEntity
  8
0
  6
Continuous
 62
     0
370
    30
100
AcDbLine
 10
86.44
 20
32.704
 30
0.0
 11
86.442
 21
32.855
 31
0.0
  0
ARC
  5
5E
330
46
100
AcDbEntity
  8
0
  6
Continuous
 62
     0
370
     0
100
AcDbCircle
 10
101.814
 20
32.705
 30
0.0
 40
15.96446493762074
100
AcDbArc
 50
178.567
 51
180.002
  0
SPLINE
  5
5F
330
46
100
AcDbEntity
  8
0
  6
Continuous
 62
     0
370
     0
100
AcDbSpline
210
0.0
220
0.0
230
1.0
 70
     8
 71
     3
 72
    14
 73
    10
 74
     0
 42
0.0
 43
0.0
 40
0.0
 40
0.0
 40
0.0
 40
0.0
 40
1.483051279114983
 40
2.93242528251576
 40
4.376502583175522
 40
5.807025663245416
 40
7.224702845591402
 40
8.56425000336666
 40
9.761228120200098
 40
9.761228120200098
 40
9.761228120200098
 40
9.761228120200098
 10
92.4402847290039
 20
38.89439922200253
 30
0.0
 10
91.97398568344147
 20
38.8784308825381
 30
0.0
 10
91.05198672092466
 20
38.73923282303326
 30
0.0
 10
89.74751158049278
 20
38.22396795794799
 30
0.0
 10
88.59431598076023
 20
37.4389867349883
 30
0.0
 10
87.64309391473058
 20
36.4249316344481
 30
0.0
 10
86.95157381633895
 20
35.25689616065215
 30
0.0
 10
86.54946649436934
 20
34.04444852735976
 30
0.0
 10
86.45170415911653
 20
33.23604226951571
 30
0.0
 10
86.44215831281642
 20
32.85486734960841
 30
0.0
  0
SPLINE
  5
60
330
46
100
AcDbEntity
  8
0
  6
Continuous
 62
     0
370
     0
100
AcDbSpline
210
0.0
220
0.0
230
1.0
 70
     8
 71
     3
 72
    14
 73
    10
 74
     0
 42
0.0
 43
0.0
 40
0.0
 40
0.0
 40
0.0
 40
0.0
 40
1.483051279114978
 40
2.932425282515749
 40
4.376502583175505
 40
5.807025663245394
 40
7.224702845591374
 40
8.564250003366627
 40
9.76122812020006
 40
9.76122812020006
 40
9.76122812020006
 40
9.76122812020006
 10
92.4402847290039
 20
38.89439922200256
 30
0.0
 10
91.9282738508903
 20
38.897804283852
 30
0.0
 10
90.91589026805752
 20
38.79691266327687
 30
0.0
 10
89.48353592702662
 20
38.33584503629464
 30
0.0
 10
88.21729123432385
 20
37.59877581607147
 30
0.0
 10
87.17281977347963
 20
36.6242412914346
 30
0.0
 10
86.41350916330319
 20
35.4849365141954
 30
0.0
 10
85.97198279738656
 20
34.28919529837032
 30
0.0
 10
85.86463670779968
 20
33.4848507879655
 30
0.0
 10
85.85415507119122
 20
33.1040724708671
 30
0.0
  0
LINE
  5
61
330
46
100
AcDbEntity
  8
0
  6
Continuous
 62
     0
370
    30
100
AcDbLine
 10
86.44
 20
13.724
 30
0.0
 11
86.44
 21
12.694
 31
0.0
  0
LINE
  5
62
330
46
100
AcDbEntity
  8
0
  6
Continuous
 62
     0
370
    30
100
AcDbLine
 10
86.44
 20
31.675
 30
0.0
 11
86.44
 21
32.704
 31
0.0
  0
LINE
  5
63
330
46
100
AcDbEntity
  8
0
  6
Continuous
 62
     0
370
     0
100
AcDbLine
 10
77.44
 20
10.565
 30
0.0
 11
85.854
 21
12.294
 31
0.0
  0
ELLIPSE
  5
64
330
46
100
AcDbEntity
  8
0
  6
Continuous
 62
     0
370
     0
100
AcDbEllipse
 10
76.445
 20
12.294
 30
0.0
 11
-9.996862299459577
 21
-0.250487855281986
 31
0.0
210
0.0
220
0.0
230
-1.0
 40
0.069
 41
3.143440615009659
 42
3.488018765231186
  0
LINE
  5
65
330
46
100
AcDbEntity
  8
0
  6
Continuous
 62
     0
370
     0
100
AcDbLine
 10
77.44
 20
34.833
 30
0.0
 11
85.854
 21
33.104
 31
0.0
  0
ELLIPSE
  5
66
330
46
100
AcDbEntity
  8
0
  6
Continuous
 62
     0
370
     0
100
AcDbEllipse
 10
76.445
 20
33.104
 30
0.0
 11
9.996862299459575
 21
-0.2504878552819872
 31
0.0
210
0.0
220
0.0
230
-1.0
 40
0.069
 41
5.93675919553819
 42
6.281337345759719
  0
LINE
  5
67
330
46
100
AcDbEntity
  8
0
  6
Continuous
 62
     0
370
     0
100
AcDbLine
 10
85.849
 20
12.694
 30
0.0
 11
86.44
 21
12.694
 31
0.0
  0
LINE
  5
68
330
46
100
AcDbEntity
  8
0
  6
Continuous
 62
     0
370
     0
100
AcDbLine
 10
86.44
 20
32.704
 30
0.0
 11
85.849
 21
32.704
 31
0.0
  0
LINE
  5
69
330
46
100
AcDbEntity
  8
0
  6
Continuous
 62
     0
370
    30
100
AcDbLine
 10
85.44
 20
21.699
 30
0.0
 11
85.44
 21
23.699
 31
0.0
  0
LINE
  5
6A
330
46
100
AcDbEntity
  8
0
  6
Continuous
 62
     0
370
    30
100
AcDbLine
 10
77.44
 20
23.699
 30
0.0
 11
85.44
 21
23.699
 31
0.0
  0
LINE
  5
6B
330
46
100
AcDbEntity
  8
0
  6
Continuous
 62
     0
370
    30
100
AcDbLine
 10
77.44
 20
21.699
 30
0.0
 11
85.44
 21
21.699
 31
0.0
  0
LINE
  5
6C
330
46
100
AcDbEntity
  8
0
  6
Continuous
 62
     0
370
    30
100
AcDbLine
 10
77.44
 20
23.699
 30
0.0
 11
77.44
 21
25.699
 31
0.0
  0
LINE
  5
6D
330
46
100
AcDbEntity
  8
0
  6
Continuous
 62
     0
370
    30
100
AcDbLine
 10
77.44
 20
27.699
 30
0.0
 11
77.44
 21
34.833
 31
0.0
  0
LINE
  5
6E
330
46
100
AcDbEntity
  8
0
  6
Continuous
 62
     0
370
    30
100
AcDbLine
 10
85.44
 20
25.699
 30
0.0
 11
85.44
 21
27.699
 31
0.0
  0
LINE
  5
6F
330
46
100
AcDbEntity
  8
0
  6
Continuous
 62
     0
370
    30
100
AcDbLine
 10
77.44
 20
27.699
 30
0.0
 11
85.44
 21
27.699
 31
0.0
  0
LINE
  5
70
330
46
100
AcDbEntity
  8
0
  6
Continuous
 62
     0
370
    30
100
AcDbLine
 10
77.44
 20
25.699
 30
0.0
 11
85.44
 21
25.699
 31
0.0
  0
LINE
  5
71
330
46
100
AcDbEntity
  8
0
  6
Continuous
 62
     0
370
    30
100
AcDbLine
 10
77.44
 20
10.565
 30
0.0
 11
77.44
 21
17.699
 31
0.0
  0
LINE
  5
72
330
46
100
AcDbEntity
  8
0
  6
Continuous
 62
     0
370
    30
100
AcDbLine
 10
77.44
 20
19.699
 30
0.0
 11
77.44
 21
21.699
 31
0.0
  0
LINE
  5
73
330
46
100
AcDbEntity
  8
0
  6
Continuous
 62
     0
370
    30
100
AcDbLine
 10
85.44
 20
17.699
 30
0.0
 11
85.44
 21
19.699
 31
0.0
  0
LINE
  5
74
330
46
100
AcDbEntity
  8
0
  6
Continuous
 62
     0
370
    30
100
AcDbLine
 10
77.44
 20
19.699
 30
0.0
 11
85.44
 21
19.699
 31
0.0
  0
LINE
  5
75
330
46
100
AcDbEntity
  8
0
  6
Continuous
 62
     0
370
    30
100
AcDbLine
 10
77.44
 20
17.699
 30
0.0
 11
85.44
 21
17.699
 31
0.0
  0
ENDBLK
  5
77
330
46
100
AcDbEntity
  8
0
100
AcDbBlockEnd
  0
BLOCK
  5
9F
330
79
100
AcDbEntity
  8
0
100
AcDbBlockBegin
  2
f
 70
     0
 10
10.589
 20
-3.091
 30
0.0
  3
f
  1

  0
LINE
  5
7A
330
79
100
AcDbEntity
  8
0
  6
Continuous
 62
     0
370
    30
100
AcDbLine
 10
37.108
 20
-1.752
 30
0.0
 11
34.957
 21
33.053
 31
0.0
  0
ELLIPSE
  5
7B
330
79
100
AcDbEntity
  8
0
  6
Continuous
 62
     0
370
    30
100
AcDbEllipse
 10
24.38
 20
38.256
 30
0.0
 11
7.499999999999996
 21
-12.99038105676657
 31
0.0
210
0.0
220
0.0
230
0.9999999999999997
 40
0.577
 41
0.859238999372371
 42
3.853149981012317
  0
LINE
  5
7C
330
79
100
AcDbEntity
  8
0
  6
Continuous
 62
     0
370
    30
100
AcDbLine
 10
13.802
 20
45.267
 30
0.0
 11
11.652
 21
12.945
 31
0.0
  0
ELLIPSE
  5
7D
330
79
100
AcDbEntity
  8
0
  6
Continuous
 62
     0
370
     0
100
AcDbEllipse
 10
34.986
 20
44.38
 30
0.0
 11
-7.499999999999996
 21
12.99038105676657
 31
0.0
210
0.0
220
0.0
230
-0.9999999999999997
 40
0.577
 41
6.283185275689611
 42
8.565538961397008
  0
LINE
  5
7E
330
79
100
AcDbEntity
  8
0
  6
Continuous
 62
     0
370
     0
100
AcDbLine
 10
53.924
 20
7.957
 30
0.0
 11
46.438
 21
25.027
 31
0.0
  0
LINE
  5
7F
330
79
100
AcDbEntity
  8
0
  6
Continuous
 62
     0
370
     0
100
AcDbLine
 10
45.564
 20
39.176
 30
0.0
 11
46.438
 21
25.027
 31
0.0
  0
LINE
  5
80
330
79
100
AcDbEntity
  8
0
  6
Continuous
 62
     0
370
    30
100
AcDbLine
 10
53.924
 20
7.957
 30
0.0
 11
37.108
 21
-1.752
 31
0.0
  0
SPLINE
  5
81
330
79
100
AcDbEntity
  8
0
  6
Continuous
 62
     0
370
    30
100
AcDbSpline
210
0.0
220
0.0
230
1.0
 70
     8
 71
     3
 72
    16
 73
    12
 74
     0
 42
0.0
 43
0.0
 40
0.0
 40
0.0
 40
0.0
 40
0.0
 40
0.2477574384129886
 40
0.7432723152389659
 40
1.42617963182042
 40
2.05024316980839
 40
2.623365439130875
 40
3.160716368687623
 40
3.683942439246093
 40
4.039745042085553
 40
4.217646343505282
 40
4.217646343505282
 40
4.217646343505282
 40
4.217646343505282
 10
53.92433204757892
 20
7.956956464482063
 30
0.0
 10
53.99585345945966
 20
7.998249370884229
 30
0.0
 10
54.20800806667704
 20
8.126301688949898
 30
0.0
 10
54.59973295295862
 20
8.397608825045928
 30
0.0
 10
55.05211041815038
 20
8.796364629488465
 30
0.0
 10
55.44835973353153
 20
9.28652575813297
 30
0.0
 10
55.71600498667144
 20
9.804274996990435
 30
0.0
 10
55.84578349513302
 20
10.33933486265808
 30
0.0
 10
55.8328056030164
 20
10.81656152589509
 30
0.0
 10
55.74490257030252
 20
11.16106001221063
 30
0.0
 10
55.67983630812585
 20
11.32678220401177
 30
0.0
 10
55.65601963254661
 20
11.3810897303226
 30
0.0
  0
LINE
  5
82
330
79
100
AcDbEntity
  8
0
  6
Continuous
 62
     0
370
    30
100
AcDbLine
 10
24.215
 20
26.347
 30
0.0
 11
23.676
 21
18.25
 31
0.0
  0
ELLIPSE
  5
83
330
79
100
AcDbEntity
  8
0
  6
Continuous
 62
     0
370
    30
100
AcDbEllipse
 10
34.986
 20
11.72
 30
0.0
 11
8.0
 21
-4.440892098500626E-16
 31
0.0
210
0.0
220
0.0
230
-1.0
 40
0.577
 41
1.519077129663709
 42
3.141592662229479
  0
LINE
  5
84
330
79
100
AcDbEntity
  8
0
  6
Continuous
 62
     0
370
    30
100
AcDbLine
 10
26.986
 20
16.339
 30
0.0
 11
23.676
 21
18.25
 31
0.0
  0
ELLIPSE
  5
85
330
79
100
AcDbEntity
  8
0
  6
Continuous
 62
     0
370
     0
100
AcDbEllipse
 10
24.733
 20
38.46
 30
0.0
 11
6.250000000000002
 21
-10.82531754730548
 31
0.0
210
0.0
220
0.0
230
0.9999999999999998
 40
0.577
 41
3.141592603002834
 42
6.283185411444767
  0
ELLIPSE
  5
86
330
79
100
AcDbEntity
  8
0
  6
Continuous
 62
     0
370
     0
100
AcDbEllipse
 10
24.38
 20
38.256
 30
0.0
 11
6.500000000000002
 21
-11.2583302491977
 31
0.0
210
0.0
220
0.0
230
0.9999999999999998
 40
0.577
 41
0.0
 42
6.283185307179586
  0
ELLIPSE
  5
87
330
79
100
AcDbEntity
  8
0
  6
Continuous
 62
     0
370
     0
100
AcDbEllipse
 10
24.733
 20
38.46
 30
0.0
 11
-7.499999999999996
 21
12.99038105676657
 31
0.0
210
0.0
220
0.0
230
-0.9999999999999997
 40
0.577
 41
2.834965958391764
 42
3.141592622931454
  0
ELLIPSE
  5
88
330
79
100
AcDbEntity
  8
0
  6
Continuous
 62
     0
370
     0
100
AcDbEllipse
 10
24.38
 20
38.256
 30
0.0
 11
-7.249999999999996
 21
12.55736835487435
 31
0.0
210
0.0
220
0.0
230
-0.9999999999999997
 40
0.577
 41
2.655912576380611
 42
5.198069057593876
  0
LINE
  5
89
330
79
100
AcDbEntity
  8
0
  6
Continuous
 62
     0
370
     0
100
AcDbLine
 10
36.044
 20
-1.138
 30
0.0
 11
34.176
 21
29.105
 31
0.0
  0
LINE
  5
8A
330
79
100
AcDbEntity
  8
0
  6
Continuous
 62
     0
370
     0
100
AcDbLine
 10
15.141
 20
38.151
 30
0.0
 11
13.423
 21
12.33
 31
0.0
  0
LINE
  5
8B
330
79
100
AcDbEntity
  8
0
  6
Continuous
 62
     0
370
     0
100
AcDbLine
 10
14.584
 20
40.416
 30
0.0
 11
12.715
 21
12.331
 31
0.0
  0
LINE
  5
8C
330
79
100
AcDbEntity
  8
0
  6
Continuous
 62
     0
370
    30
100
AcDbLine
 10
36.044
 20
-1.138
 30
0.0
 11
37.108
 21
-1.752
 31
0.0
  0
LINE
  5
8D
330
79
100
AcDbEntity
  8
0
  6
Continuous
 62
     0
370
    30
100
AcDbLine
 10
11.652
 20
12.945
 30
0.0
 11
12.715
 21
12.331
 31
0.0
  0
SPLINE
  5
8E
330
79
100
AcDbEntity
  8
0
  6
Continuous
 62
     0
370
    30
100
AcDbSpline
210
0.0
220
0.0
230
1.0
 70
     8
 71
     3
 72
    10
 73
     6
 74
     0
 42
0.0
 43
0.0
 40
0.0
 40
0.0
 40
0.0
 40
0.0
 40
0.0812580181242516
 40
0.1625160362485032
 40
0.2437740543727548
 40
0.2437740543727548
 40
0.2437740543727548
 40
0.2437740543727548
 10
35.89727053800986
 20
-0.9435116119761089
 30
0.0
 10
35.89894071149639
 20
-0.9705460759767243
 30
0.0
 10
35.91538992399963
 20
-1.023805145878067
 30
0.0
 10
35.9760327271157
 20
-1.09346860841012
 30
0.0
 10
36.0206253057486
 20
-1.124576020743101
 30
0.0
 10
36.04408247506752
 20
-1.138119023763809
 30
0.0
  0
LINE
  5
8F
330
79
100
AcDbEntity
  8
0
  6
Continuous
 62
     0
370
    30
100
AcDbLine
 10
13.423
 20
12.33
 30
0.0
 11
23.676
 21
18.25
 31
0.0
  0
SPLINE
  5
90
330
79
100
AcDbEntity
  8
0
  6
Continuous
 62
     0
370
    30
100
AcDbSpline
210
0.0
220
0.0
230
1.0
 70
     8
 71
     3
 72
    12
 73
     8
 74
     0
 42
0.0
 43
0.0
 40
0.0
 40
0.0
 40
0.0
 40
0.0
 40
0.0787891882159171
 40
0.2363675646477514
 40
0.4955402941617013
 40
0.6534168556385962
 40
0.7323551363770435
 40
0.7323551363770435
 40
0.7323551363770435
 40
0.7323551363770435
 10
13.42342792583942
 20
12.33017025994237
 30
0.0
 10
13.40068344632657
 20
12.31703872857305
 30
0.0
 10
13.32914886292001
 20
12.28336188509967
 30
0.0
 10
13.16621461385759
 20
12.24208647780106
 30
0.0
 10
12.97279820499138
 20
12.24226862499823
 30
0.0
 10
12.80979179069413
 20
12.28379511541926
 30
0.0
 10
12.73814259936385
 20
12.31757163719088
 30
0.0
 10
12.715355080547
 20
12.33072801731396
 30
0.0
  0
SPLINE
  5
91
330
79
100
AcDbEntity
  8
0
  6
Continuous
 62
     0
370
    30
100
AcDbSpline
210
0.0
220
0.0
230
1.0
 70
     8
 71
     3
 72
    11
 73
     7
 74
     0
 42
0.0
 43
0.0
 40
0.0
 40
0.0
 40
0.0
 40
0.0
 40
0.6835918551105205
 40
1.131625414931939
 40
1.424248919132698
 40
1.454491895471685
 40
1.454491895471685
 40
1.454491895471685
 40
1.454491895471685
 10
14.58375378126073
 20
40.41633650841939
 30
0.0
 10
14.60190944109951
 20
40.22101818957549
 30
0.0
 10
14.64115700800647
 20
39.89968759237712
 30
0.0
 10
14.71626281689706
 20
39.50527015223966
 30
0.0
 10
14.76909927267874
 20
39.29813415818256
 30
0.0
 10
14.79419476665711
 20
39.21332431930689
 30
0.0
 10
14.79657248523419
 20
39.20539822549011
 30
0.0
  0
SPLINE
  5
92
330
79
100
AcDbEntity
  8
0
  6
Continuous
 62
     0
370
    30
100
AcDbSpline
210
0.0
220
0.0
230
1.0
 70
     8
 71
     3
 72
    11
 73
     7
 74
     0
 42
0.0
 43
0.0
 40
0.7743953844767392
 40
0.7743953844767392
 40
0.7743953844767392
 40
0.7743953844767392
 40
0.9688875800253619
 40
1.261530456190686
 40
1.709596873028996
 40
2.39313649892672
 40
2.39313649892672
 40
2.39313649892672
 40
2.39313649892672
 10
34.11225271532932
 20
27.9499456027564
 30
0.0
 10
34.10973292781214
 20
27.99089150929428
 30
0.0
 10
34.10629436538725
 20
28.09617021913366
 30
0.0
 10
34.10990879870678
 20
28.3083601137636
 30
0.0
 10
34.13049118307637
 20
28.64753400263169
 30
0.0
 10
34.1575295011649
 20
28.93058980070313
 30
0.0
 10
34.17568377435376
 20
29.10493045296265
 30
0.0
  0
LINE
  5
93
330
79
100
AcDbEntity
  8
0
  6
Continuous
 62
     0
370
    30
100
AcDbLine
 10
32.233
 20
25.47
 30
0.0
 11
34.195
 21
26.603
 31
0.0
  0
LINE
  5
94
330
79
100
AcDbEntity
  8
0
  6
Continuous
 62
     0
370
    30
100
AcDbLine
 10
35.897
 20
-0.944
 30
0.0
 11
34.112
 21
27.951
 31
0.0
  0
SPLINE
  5
95
330
79
100
AcDbEntity
  8
0
  6
Continuous
 62
     0
370
    30
100
AcDbSpline
210
0.0
220
0.0
230
1.0
 70
     8
 71
     3
 72
    18
 73
    14
 74
     0
 42
0.0
 43
0.0
 40
0.0
 40
0.0
 40
0.0
 40
0.0
 40
1.097262219526028
 40
2.742522707449451
 40
4.949574057361289
 40
7.479859429671797
 40
11.41578458929437
 40
14.70059290810774
 40
19.09589054339447
 40
21.83941227029619
 40
26.0250362766892
 40
28.0750948620234
 40
29.12326270545809
 40
29.12326270545809
 40
29.12326270545809
 40
29.12326270545809
 10
14.79656796958409
 20
39.20539687085764
 30
0.0
 10
14.8966319776822
 20
38.87161663078263
 30
0.0
 10
15.16886877685192
 20
38.03534006545911
 30
0.0
 10
15.75619079321757
 20
36.52861591922039
 30
0.0
 10
16.67699697200464
 20
34.61680669330605
 30
0.0
 10
18.17215212293905
 20
32.13123147999914
 30
0.0
 10
20.16707926149576
 20
29.61197536130877
 30
0.0
 10
22.81432576582401
 20
27.16498210125003
 30
0.0
 10
25.32000061046239
 20
25.62158837011157
 30
0.0
 10
28.0017818588031
 20
24.72237309402634
 30
0.0
 10
30.01984831628002
 20
24.64765199233725
 30
0.0
 10
31.47769206264684
 20
25.07804382748546
 30
0.0
 10
32.04717622040232
 20
25.36246826432506
 30
0.0
 10
32.23327239833807
 20
25.46991095510397
 30
0.0
  0
SPLINE
  5
96
330
79
100
AcDbEntity
  8
0
  6
Continuous
 62
     0
370
    30
100
AcDbSpline
210
0.0
220
0.0
230
1.0
 70
     8
 71
     3
 72
    11
 73
     7
 74
     0
 42
0.0
 43
0.0
 40
0.0
 40
0.0
 40
0.0
 40
0.0
 40
1.923583346383814
 40
4.92554349493437
 40
7.904066292502408
 40
9.875994572463224
 40
9.875994572463224
 40
9.875994572463224
 40
9.875994572463224
 10
30.98327236521209
 20
27.63497444543975
 30
0.0
 10
31.27750638575387
 20
27.80485055966247
 30
0.0
 10
31.97423700704786
 20
28.34037568841256
 30
0.0
 10
32.83902025489704
 20
29.61061683481088
 30
0.0
 10
33.33589734219021
 20
31.35233186492235
 30
0.0
 10
33.42566032240182
 20
32.62453106555677
 30
0.0
 10
33.42566032382567
 20
33.15306407141451
 30
0.0
  0
SPLINE
  5
97
330
79
100
AcDbEntity
  8
0
  6
Continuous
 62
     0
370
    30
100
AcDbSpline
210
0.0
220
0.0
230
1.0
 70
     8
 71
     3
 72
    20
 73
    16
 74
     0
 42
0.0
 43
0.0
 40
0.0
 40
0.0
 40
0.0
 40
0.0
 40
1.054460161138836
 40
2.373765272805594
 40
4.359755180580201
 40
6.187077487498332
 40
9.085326364846129
 40
12.37831123101008
 40
15.37835624581572
 40
18.17931459579172
 40
21.92996247754524
 40
24.04135962766427
 40
27.56321750740588
 40
28.89151434356253
 40
29.81071321723276
 40
29.81071321723276
 40
29.81071321723276
 40
29.81071321723276
 10
18.48327197158915
 20
49.28560931279242
 30
0.0
 10
18.64465897474264
 20
49.37878615526387
 30
0.0
 10
19.02342497590533
 20
49.562140806625
 30
0.0
 10
19.780779603236
 20
49.78799307343346
 30
0.0
 10
20.76981326784986
 20
49.86696541406741
 30
0.0
 10
22.18696173121771
 20
49.67510999059428
 30
0.0
 10
24.01388886305659
 20
49.00066199914301
 30
0.0
 10
26.17190100228515
 20
47.58739723756005
 30
0.0
 10
28.2165229272284
 20
45.63565855589698
 30
0.0
 10
30.15325719723486
 20
43.16448819282738
 30
0.0
 10
31.58868811014861
 20
40.62194185009847
 30
0.0
 10
32.72527107747101
 20
37.76683128859132
 30
0.0
 10
33.23854956454124
 20
35.65832794563747
 30
0.0
 10
33.40666017776192
 20
34.01482885193508
 30
0.0
 10
33.4256603237734
 20
33.39963882712529
 30
0.0
 10
33.42566032382564
 20
33.15306410557719
 30
0.0
  0
LINE
  5
98
330
79
100
AcDbEntity
  8
0
  6
Continuous
 62
     0
370
    30
100
AcDbLine
 10
26.986
 20
11.72
 30
0.0
 11
26.986
 21
23.967
 31
0.0
  0
ARC
  5
99
330
79
100
AcDbEntity
  8
0
  6
Continuous
 62
     0
370
    30
100
AcDbCircle
 10
34.997
 20
23.967
 30
0.0
 40
8.010447290305477
100
AcDbArc
 50
172.125
 51
179.993
  0
ARC
  5
9A
330
79
100
AcDbEntity
  8
0
  6
Continuous
 62
     0
370
    30
100
AcDbCircle
 10
51.81
 20
29.433
 30
0.0
 40
3.72814684004941
100
AcDbArc
 50
183.621
 51
203.59
  0
LINE
  5
9B
330
79
100
AcDbEntity
  8
0
  6
Continuous
 62
     0
370
    30
100
AcDbLine
 10
47.322
 20
41.628
 30
0.0
 11
48.089
 21
29.198
 31
0.0
  0
LINE
  5
9C
330
79
100
AcDbEntity
  8
0
  6
Continuous
 62
     0
370
    30
100
AcDbLine
 10
55.656
 20
11.381
 30
0.0
 11
48.394
 21
27.941
 31
0.0
  0
SPLINE
  5
9D
330
79
100
AcDbEntity
  8
0
  6
Continuous
 62
     0
370
    30
100
AcDbSpline
210
0.0
220
0.0
230
1.0
 70
     8
 71
     3
 72
    20
 73
    16
 74
     0
 42
0.0
 43
0.0
 40
0.0
 40
0.0
 40
0.0
 40
0.0
 40
1.656544582529672
 40
4.244726832411282
 40
6.447169771560977
 40
8.766557268698108
 40
11.48204503104316
 40
15.83387232935787
 40
19.07922333496197
 40
21.27491605273531
 40
23.49523840714444
 40
26.06560574275214
 40
28.4763127164799
 40
30.2651554261503
 40
31.30702684216267
 40
31.30702684216267
 40
31.30702684216267
 40
31.30702684216267
 10
27.48632025943169
 20
57.37027301125363
 30
0.0
 10
27.91847668279846
 20
57.61977865607625
 30
0.0
 10
29.0811090923649
 20
58.16764829417772
 30
0.0
 10
30.98516991023803
 20
58.60975805688633
 30
0.0
 10
33.12702106816118
 20
58.61420506683493
 30
0.0
 10
35.26519809008056
 20
58.19490198400561
 30
0.0
 10
37.90596548922349
 20
57.11747992051892
 30
0.0
 10
40.5511995353578
 20
55.23654387593297
 30
0.0
 10
42.73579544574127
 20
52.8939295644723
 30
0.0
 10
44.21566120326031
 20
50.81916299680825
 30
0.0
 10
45.36982476643152
 20
48.78925842314956
 30
0.0
 10
46.31312971333335
 20
46.59123488109043
 30
0.0
 10
46.93115099200858
 20
44.4752640465538
 30
0.0
 10
47.21928301074092
 20
42.83315795423084
 30
0.0
 10
47.30154309739234
 20
41.95116141605041
 30
0.0
 10
47.32152234403745
 20
41.62776498601647
 30
0.0
  0
LINE
  5
9E
330
79
100
AcDbEntity
  8
0
  6
Continuous
 62
     0
370
    30
100
AcDbLine
 10
27.486
 20
57.37
 30
0.0
 11
16.88
 21
51.247
 31
0.0
  0
ENDBLK
  5
A0
330
79
100
AcDbEntity
  8
0
100
AcDbBlockEnd
  0
BLOCK
  5
CC
330
A2
100
AcDbEntity
  8
0
100
AcDbBlockBegin
  2
g
 70
     0
 10
146.185
 20
-6.011
 30
0.0
  3
g
  1

  0
LINE
  5
A3
330
A2
100
AcDbEntity
  8
0
  6
Continuous
 62
     0
370
    30
100
AcDbLine
 10
147.248
 20
9.085
 30
0.0
 11
149.398
 21
43.889
 31
0.0
  0
ELLIPSE
  5
A4
330
A2
100
AcDbEntity
  8
0
  6
Continuous
 62
     0
370
    30
100
AcDbEllipse
 10
159.976
 20
49.093
 30
0.0
 11
-7.499999999999996
 21
-12.99038105676657
 31
0.0
210
0.0
220
0.0
230
-0.9999999999999997
 40
0.577
 41
0.8592389993723715
 42
3.141592685079635
  0
ELLIPSE
  5
A5
330
A2
100
AcDbEntity
  8
0
  6
Continuous
 62
     0
370
     0
100
AcDbEllipse
 10
170.583
 20
42.969
 30
0.0
 11
7.499999999999996
 21
12.99038105676657
 31
0.0
210
0.0
220
0.0
230
0.9999999999999997
 40
0.577
 41
6.283185268571644
 42
8.565538961397008
  0
ELLIPSE
  5
A6
330
A2
100
AcDbEntity
  8
0
  6
Continuous
 62
     0
370
     0
100
AcDbEllipse
 10
174.825
 20
40.52
 30
0.0
 11
4.499999999999995
 21
7.794228634059941
 31
0.0
210
0.0
220
0.0
230
1.0
 40
0.577
 41
5.571627979757062
 42
8.565538961397007
  0
LINE
  5
A7
330
A2
100
AcDbEntity
  8
0
  6
Continuous
 62
     0
370
     0
100
AcDbLine
 10
164.065
 20
-0.624
 30
0.0
 11
159.131
 21
23.617
 31
0.0
  0
LINE
  5
A8
330
A2
100
AcDbEntity
  8
0
  6
Continuous
 62
     0
370
     0
100
AcDbLine
 10
160.005
 20
37.766
 30
0.0
 11
159.131
 21
23.617
 31
0.0
  0
LINE
  5
A9
330
A2
100
AcDbEntity
  8
0
  6
Continuous
 62
     0
370
    30
100
AcDbLine
 10
164.065
 20
-0.624
 30
0.0
 11
147.248
 21
9.085
 31
0.0
  0
SPLINE
  5
AA
330
A2
100
AcDbEntity
  8
0
  6
Continuous
 62
     0
370
    30
100
AcDbSpline
210
0.0
220
0.0
230
1.0
 70
     8
 71
     3
 72
    16
 73
    12
 74
     0
 42
0.0
 43
0.0
 40
0.0
 40
0.0
 40
0.0
 40
0.0
 40
0.4003550199916631
 40
1.201065059974989
 40
2.489143068580601
 40
3.828228318383564
 40
5.176877002428442
 40
6.492674841918704
 40
7.736603813065586
 40
8.497382452274632
 40
8.877771771879154
 40
8.877771771879154
 40
8.877771771879154
 40
8.877771771879154
 10
164.0649082129491
 20
-0.6244912817082544
 30
0.0
 10
164.1804807522309
 20
-0.6912171183735315
 30
0.0
 10
164.5334903485797
 20
-0.8804966019213604
 30
0.0
 10
165.2983244622991
 20
-1.210088705701554
 30
0.0
 10
166.3994978071267
 20
-1.527445857718817
 30
0.0
 10
167.7145122918816
 20
-1.721026009892388
 30
0.0
 10
169.0524609940269
 20
-1.744264301863478
 30
0.0
 10
170.3509492331721
 20
-1.59601463829589
 30
0.0
 10
171.4255425585974
 20
-1.315744685872074
 30
0.0
 10
172.16334706845
 20
-1.009890339600702
 30
0.0
 10
172.4995375949071
 20
-0.8314107732387758
 30
0.0
 10
172.6093465329424
 20
-0.7680125533046889
 30
0.0
  0
SPLINE
  5
AB
330
A2
100
AcDbEntity
  8
0
  6
Continuous
 62
     0
370
    30
100
AcDbSpline
210
0.0
220
0.0
230
1.0
 70
     8
 71
     3
 72
    16
 73
    12
 74
     0
 42
0.0
 43
0.0
 40
0.0
 40
0.0
 40
0.0
 40
0.0
 40
0.1593994682404327
 40
0.4781984047212982
 40
0.9459504412648088
 40
1.420889570517143
 40
1.919411926560286
 40
2.454253232918347
 40
3.033501976323096
 40
3.451688059572779
 40
3.66078110119762
 40
3.66078110119762
 40
3.66078110119762
 40
3.66078110119762
 10
191.3232059920539
 20
12.12735069329187
 30
0.0
 10
191.3398025433688
 20
12.076876078291
 30
0.0
 10
191.3842760429241
 20
11.92370422928431
 30
0.0
 10
191.4385786557677
 20
11.61078922842643
 30
0.0
 10
191.4278525089186
 20
11.18669975859563
 30
0.0
 10
191.3014050299456
 20
10.71865646956587
 30
0.0
 10
191.0647891320336
 20
10.27093168655002
 30
0.0
 10
190.7243863154153
 20
9.85111058386748
 30
0.0
 10
190.3400497165197
 20
9.511899134289653
 30
0.0
 10
190.0087346624014
 20
9.282248486887553
 30
0.0
 10
189.8296984319707
 20
9.174162251139366
 30
0.0
 10
189.7693384700368
 20
9.13931341086856
 30
0.0
  0
ARC
  5
AC
330
A2
100
AcDbEntity
  8
0
  6
Continuous
 62
     0
370
     0
100
AcDbCircle
 10
181.639
 20
34.375
 30
0.0
 40
0.6484570253407339
100
AcDbArc
 50
293.77
 51
304.425
  0
ARC
  5
AD
330
A2
100
AcDbEntity
  8
0
  6
Continuous
 62
     0
370
     0
100
AcDbCircle
 10
167.331
 20
26.192
 30
0.0
 40
0.7154726542372625
100
AcDbArc
 50
295.827
 51
305.903
  0
LINE
  5
AE
330
A2
100
AcDbEntity
  8
0
  6
Continuous
 62
     0
370
     0
100
AcDbLine
 10
181.172
 20
44.726
 30
0.0
 11
181.9
 21
33.782
 31
0.0
  0
LINE
  5
AF
330
A2
100
AcDbEntity
  8
0
  6
Continuous
 62
     0
370
     0
100
AcDbLine
 10
168.479
 20
37.398
 30
0.0
 11
167.751
 21
25.613
 31
0.0
  0
LINE
  5
B0
330
A2
100
AcDbEntity
  8
0
  6
Continuous
 62
     0
370
     0
100
AcDbLine
 10
189.769
 20
9.139
 30
0.0
 11
182.597
 21
30.951
 31
0.0
  0
ELLIPSE
  5
B1
330
A2
100
AcDbEntity
  8
0
  6
Continuous
 62
     0
370
     0
100
AcDbEllipse
 10
189.25
 20
29.876
 30
0.0
 11
5.676249304543981
 21
-8.232872756982461
 31
0.0
210
0.0
220
0.0
230
1.0
 40
0.55
 41
3.882829495158381
 42
4.227407645379908
  0
LINE
  5
B2
330
A2
100
AcDbEntity
  8
0
  6
Continuous
 62
     0
370
     0
100
AcDbLine
 10
172.609
 20
-0.768
 30
0.0
 11
167.882
 21
22.456
 31
0.0
  0
ELLIPSE
  5
B3
330
A2
100
AcDbEntity
  8
0
  6
Continuous
 62
     0
370
     0
100
AcDbEllipse
 10
174.535
 20
21.38
 30
0.0
 11
-4.25894569584477
 21
9.047727977776811
 31
0.0
210
0.0
220
0.0
230
-1.0
 40
0.601
 41
5.102900511513158
 42
5.447478661734687
  0
LINE
  5
B4
330
A2
100
AcDbEntity
  8
0
  6
Continuous
 62
     0
370
    30
100
AcDbLine
 10
176.24
 20
26.004
 30
0.0
 11
176.24
 21
19.835
 31
0.0
  0
LINE
  5
B5
330
A2
100
AcDbEntity
  8
0
  6
Continuous
 62
     0
370
    30
100
AcDbLine
 10
176.24
 20
26.004
 30
0.0
 11
174.825
 21
25.188
 31
0.0
  0
LINE
  5
B6
330
A2
100
AcDbEntity
  8
0
  6
Continuous
 62
     0
370
    30
100
AcDbLine
 10
180.482
 20
3.777
 30
0.0
 11
174.825
 21
25.188
 31
0.0
  0
LINE
  5
B7
330
A2
100
AcDbEntity
  8
0
  6
Continuous
 62
     0
370
    30
100
AcDbLine
 10
181.896
 20
4.594
 30
0.0
 11
176.24
 21
26.004
 31
0.0
  0
LINE
  5
B8
330
A2
100
AcDbEntity
  8
0
  6
Continuous
 62
     0
370
    30
100
AcDbLine
 10
181.896
 20
4.594
 30
0.0
 11
179.973
 21
5.704
 31
0.0
  0
LINE
  5
B9
330
A2
100
AcDbEntity
  8
0
  6
Continuous
 62
     0
370
    30
100
AcDbLine
 10
180.482
 20
3.777
 30
0.0
 11
179.068
 21
2.961
 31
0.0
  0
LINE
  5
BA
330
A2
100
AcDbEntity
  8
0
  6
Continuous
 62
     0
370
    30
100
AcDbLine
 10
177.654
 20
2.144
 30
0.0
 11
172.609
 21
-0.768
 31
0.0
  0
LINE
  5
BB
330
A2
100
AcDbEntity
  8
0
  6
Continuous
 62
     0
370
    30
100
AcDbLine
 10
173.411
 20
24.371
 30
0.0
 11
173.411
 21
18.202
 31
0.0
  0
LINE
  5
BC
330
A2
100
AcDbEntity
  8
0
  6
Continuous
 62
     0
370
    30
100
AcDbLine
 10
173.411
 20
24.371
 30
0.0
 11
171.997
 21
23.555
 31
0.0
  0
LINE
  5
BD
330
A2
100
AcDbEntity
  8
0
  6
Continuous
 62
     0
370
    30
100
AcDbLine
 10
177.654
 20
2.144
 30
0.0
 11
171.997
 21
23.555
 31
0.0
  0
LINE
  5
BE
330
A2
100
AcDbEntity
  8
0
  6
Continuous
 62
     0
370
    30
100
AcDbLine
 10
179.068
 20
2.961
 30
0.0
 11
173.411
 21
24.371
 31
0.0
  0
LINE
  5
BF
330
A2
100
AcDbEntity
  8
0
  6
Continuous
 62
     0
370
    30
100
AcDbLine
 10
179.068
 20
2.961
 30
0.0
 11
177.145
 21
4.071
 31
0.0
  0
LINE
  5
C0
330
A2
100
AcDbEntity
  8
0
  6
Continuous
 62
     0
370
    30
100
AcDbLine
 10
189.769
 20
9.139
 30
0.0
 11
184.725
 21
6.227
 31
0.0
  0
LINE
  5
C1
330
A2
100
AcDbEntity
  8
0
  6
Continuous
 62
     0
370
    30
100
AcDbLine
 10
183.311
 20
5.41
 30
0.0
 11
181.896
 21
4.594
 31
0.0
  0
LINE
  5
C2
330
A2
100
AcDbEntity
  8
0
  6
Continuous
 62
     0
370
    30
100
AcDbLine
 10
179.068
 20
27.637
 30
0.0
 11
179.068
 21
21.468
 31
0.0
  0
LINE
  5
C3
330
A2
100
AcDbEntity
  8
0
  6
Continuous
 62
     0
370
    30
100
AcDbLine
 10
179.068
 20
27.637
 30
0.0
 11
177.654
 21
26.821
 31
0.0
  0
LINE
  5
C4
330
A2
100
AcDbEntity
  8
0
  6
Continuous
 62
     0
370
    30
100
AcDbLine
 10
183.311
 20
5.41
 30
0.0
 11
177.654
 21
26.821
 31
0.0
  0
LINE
  5
C5
330
A2
100
AcDbEntity
  8
0
  6
Continuous
 62
     0
370
    30
100
AcDbLine
 10
184.725
 20
6.227
 30
0.0
 11
179.068
 21
27.637
 31
0.0
  0
LINE
  5
C6
330
A2
100
AcDbEntity
  8
0
  6
Continuous
 62
     0
370
    30
100
AcDbLine
 10
184.725
 20
6.227
 30
0.0
 11
182.802
 21
7.337
 31
0.0
  0
ARC
  5
C7
330
A2
100
AcDbEntity
  8
0
  6
Continuous
 62
     0
370
    30
100
AcDbCircle
 10
189.45
 20
36.3
 30
0.0
 40
5.771117725026029
100
AcDbArc
 50
183.823
 51
198.189
  0
LINE
  5
C8
330
A2
100
AcDbEntity
  8
0
  6
Continuous
 62
     0
370
    30
100
AcDbLine
 10
182.916
 20
47.574
 30
0.0
 11
183.692
 21
35.916
 31
0.0
  0
LINE
  5
C9
330
A2
100
AcDbEntity
  8
0
  6
Continuous
 62
     0
370
    30
100
AcDbLine
 10
191.323
 20
12.127
 30
0.0
 11
183.967
 21
34.499
 31
0.0
  0
SPLINE
  5
CA
330
A2
100
AcDbEntity
  8
0
  6
Continuous
 62
     0
370
    30
100
AcDbSpline
210
0.0
220
0.0
230
1.0
 70
     8
 71
     3
 72
    14
 73
    10
 74
     0
 42
0.0
 43
0.0
 40
0.0
 40
0.0
 40
0.0
 40
0.0
 40
0.8252300514324158
 40
2.498919875781652
 40
4.244726832411255
 40
5.789303731777333
 40
7.480192722635175
 40
8.963310316278935
 40
11.17119388981406
 40
11.17119388981406
 40
11.17119388981406
 40
11.17119388981406
 10
178.0827410198652
 20
55.95961894326047
 30
0.0
 10
178.2981773431068
 20
55.83523671533976
 30
0.0
 10
178.9351878285674
 20
55.43137815498676
 30
0.0
 10
179.9245843459194
 20
54.61387897761654
 30
0.0
 10
180.9030131303986
 20
53.47996568531886
 30
0.0
 10
181.6946450791077
 20
52.2086013866836
 30
0.0
 10
182.2632640068336
 20
50.91023518035547
 30
0.0
 10
182.7135256993846
 20
49.35546315361907
 30
0.0
 10
182.8714322601392
 20
48.24569896721437
 30
0.0
 10
182.9161266334154
 20
47.57386308525975
 30
0.0
  0
LINE
  5
CB
330
A2
100
AcDbEntity
  8
0
  6
Continuous
 62
     0
370
    30
100
AcDbLine
 10
178.083
 20
55.96
 30
0.0
 11
167.476
 21
62.083
 31
0.0
  0
ENDBLK
  5
CD
330
A2
100
AcDbEntity
  8
0
100
AcDbBlockEnd
  0
BLOCK
  5
F8
330
CF
100
AcDbEntity
  8
0
100
AcDbBlockBegin
  2
b
 70
     0
 10
-9.956
 20
-7.189
 30
0.0
  3
b
  1

  0
LINE
  5
D0
330
CF
100
AcDbEntity
  8
0
  6
Continuous
 62
     0
370
    30
100
AcDbLine
 10
107.44
 20
127.65
 30
0.0
 11
107.44
 21
113.756
 31
0.0
  0
LINE
  5
D1
330
CF
100
AcDbEntity
  8
0
  6
Continuous
 62
     0
370
    30
100
AcDbLine
 10
107.44
 20
113.756
 30
0.0
 11
107.44
 21
72.65
 31
0.0
  0
LINE
  5
D3
330
CF
100
AcDbEntity
  8
0
  6
HIDDEN2
 62
     0
370
    30
100
AcDbLine
 10
89.44
 20
125.15
 30
0.0
 11
89.44
 21
100.15
 31
0.0
  0
LINE
  5
D4
330
CF
100
AcDbEntity
  8
0
  6
Continuous
 62
     0
370
     0
100
AcDbLine
 10
92.44
 20
113.756
 30
0.0
 11
92.44
 21
127.65
 31
0.0
  0
LINE
  5
D5
330
CF
100
AcDbEntity
  8
0
  6
Continuous
 62
     0
370
    30
100
AcDbLine
 10
86.44
 20
113.314
 30
0.0
 11
86.44
 21
121.65
 31
0.0
  0
LINE
  5
D6
330
CF
100
AcDbEntity
  8
0
  6
Continuous
 62
     0
370
     0
100
AcDbLine
 10
83.658
 20
72.65
 30
0.0
 11
92.44
 21
97.045
 31
0.0
  0
LINE
  5
D7
330
CF
100
AcDbEntity
  8
0
  6
Continuous
 62
     0
370
     0
100
AcDbLine
 10
92.44
 20
113.756
 30
0.0
 11
92.44
 21
97.045
 31
0.0
  0
LINE
  5
D8
330
CF
100
AcDbEntity
  8
0
  6
Continuous
 62
     0
370
     0
100
AcDbLine
 10
92.44
 20
113.756
 30
0.0
 11
107.44
 21
113.756
 31
0.0
  0
ELLIPSE
  5
D9
330
CF
100
AcDbEntity
  8
0
  6
Continuous
 62
     0
370
     0
100
AcDbEllipse
 10
92.44
 20
113.314
 30
0.0
 11
6.000000000000002
 21
4.703901288706634E-17
 31
0.0
210
0.0
220
0.0
230
1.0
 40
0.074
 41
1.570796326794897
 42
3.141592653589793
  0
LINE
  5
DA
330
CF
100
AcDbEntity
  8
0
  6
Continuous
 62
     0
370
    30
100
AcDbLine
 10
83.658
 20
72.65
 30
0.0
 11
107.44
 21
72.65
 31
0.0
  0
LINE
  5
DB
330
CF
100
AcDbEntity
  8
0
  6
Continuous
 62
     0
370
    30
100
AcDbLine
 10
83.658
 20
72.65
 30
0.0
 11
77.44
 21
72.65
 31
0.0
  0
SPLINE
  5
DC
330
CF
100
AcDbEntity
  8
0
  6
Continuous
 62
     0
370
    30
100
AcDbSpline
210
0.0
220
0.0
230
1.0
 70
     8
 71
     3
 72
     8
 73
     4
 74
     0
 42
0.0
 43
0.0
 40
-0.1604046498360397
 40
-0.1604046498360397
 40
-0.1604046498360397
 40
-0.1604046498360397
 40
-0.0094307409958083
 40
-0.0094307409958083
 40
-0.0094307409958083
 40
-0.0094307409958083
 10
86.44028282165527
 20
99.39482172742149
 30
0.0
 10
86.44028282165527
 20
99.38867607921398
 30
0.0
 10
86.44090741460269
 20
99.38715704545683
 30
0.0
 10
86.44215640546778
 20
99.3902651004698
 30
0.0
  0
SPLINE
  5
DD
330
CF
100
AcDbEntity
  8
0
  6
Continuous
 62
     0
370
     0
100
AcDbSpline
210
0.0
220
0.0
230
1.0
 70
     8
 71
     3
 72
    14
 73
    10
 74
     0
 42
0.0
 43
0.0
 40
0.0
 40
0.0
 40
0.0
 40
0.0
 40
1.555567845186605
 40
2.948878607312051
 40
4.347914220249205
 40
5.760733546111416
 40
7.186200372054736
 40
8.546069345939133
 40
9.761226978496893
 40
9.761226978496893
 40
9.761226978496893
 40
9.761226978496893
 10
86.44215640546778
 20
99.39026510046978
 30
0.0
 10
86.45456198912954
 20
99.42113581183062
 30
0.0
 10
86.59554814064433
 20
99.42505039041063
 30
0.0
 10
87.11800157316858
 20
99.27849435764958
 30
0.0
 10
87.8838802384871
 20
99.00541737963303
 30
0.0
 10
88.87924768217331
 20
98.61188965406743
 30
0.0
 10
90.03787795185927
 20
98.12416411215207
 30
0.0
 10
91.24857867722419
 20
97.5911262045467
 30
0.0
 10
92.05821453073995
 20
97.2220471649203
 30
0.0
 10
92.44028282165527
 20
97.04517915553222
 30
0.0
  0
SPLINE
  5
DE
330
CF
100
AcDbEntity
  8
0
  6
Continuous
 62
     0
370
     0
100
AcDbSpline
210
0.0
220
0.0
230
1.0
 70
     8
 71
     3
 72
    14
 73
    10
 74
     0
 42
0.0
 43
0.0
 40
0.0
 40
0.0
 40
0.0
 40
0.0
 40
1.555567845186606
 40
2.948878607312053
 40
4.347914220249208
 40
5.760733546111419
 40
7.186200372054739
 40
8.546069345939138
 40
9.761226978496898
 40
9.761226978496898
 40
9.761226978496898
 40
9.761226978496898
 10
85.85415316384258
 20
96.02150546078474
 30
0.0
 10
85.86777488116029
 20
96.05934358607567
 30
0.0
 10
86.02258206750541
 20
96.14244096675458
 30
0.0
 10
86.5962522118171
 20
96.28931323392948
 30
0.0
 10
87.43721084488749
 20
96.44638076398093
 30
0.0
 10
88.53015530560957
 20
96.61188654959602
 30
0.0
 10
89.8023674352213
 20
96.77488868812796
 30
0.0
 10
91.13175454726051
 20
96.9218230679254
 30
0.0
 10
92.02075993608952
 20
97.00746411869352
 30
0.0
 10
92.44028282165529
 20
97.04517915553222
 30
0.0
  0
LINE
  5
DF
330
CF
100
AcDbEntity
  8
0
  6
Continuous
 62
     0
370
    30
100
AcDbLine
 10
86.44
 20
113.314
 30
0.0
 11
86.44
 21
99.395
 31
0.0
  0
LINE
  5
E0
330
CF
100
AcDbEntity
  8
0
  6
Continuous
 62
     0
370
    30
100
AcDbLine
 10
77.44
 20
72.65
 30
0.0
 11
85.854
 21
96.022
 31
0.0
  0
ELLIPSE
  5
E1
330
CF
100
AcDbEntity
  8
0
  6
Continuous
 62
     0
370
    30
100
AcDbEllipse
 10
76.445
 20
99.409
 30
0.0
 11
9.408874796628032
 21
-3.387192799558039
 31
0.0
210
0.0
220
0.0
230
-1.0
 40
0.997
 41
5.938607357653151
 42
6.283185507874679
  0
ARC
  5
E2
330
CF
100
AcDbEntity
  8
0
  6
Continuous
 62
     0
370
    30
100
AcDbCircle
 10
76.44
 20
99.395
 30
0.0
 40
10.0
100
AcDbArc
 50
340.286
 51
360.0
  0
ARC
  5
E3
330
CF
100
AcDbEntity
  8
0
  6
HIDDEN2
 62
     0
370
    30
100
AcDbCircle
 10
76.44
 20
99.395
 30
0.0
 40
10.0
100
AcDbArc
 50
340.201
 51
340.286
  0
LINE
  5
E4
330
CF
100
AcDbEntity
  8
0
  6
HIDDEN2
 62
     0
370
    30
100
AcDbLine
 10
92.44
 20
97.045
 30
0.0
 11
92.44
 21
72.65
 31
0.0
  0
LINE
  5
E5
330
CF
100
AcDbEntity
  8
0
  6
HIDDEN2
 62
     0
370
     0
100
AcDbLine
 10
100.44
 20
87.65
 30
0.0
 11
92.44
 21
87.65
 31
0.0
  0
LINE
  5
E6
330
CF
100
AcDbEntity
  8
0
  6
HIDDEN2
 62
     0
370
    30
100
AcDbLine
 10
95.19
 20
90.65
 30
0.0
 11
89.69
 21
90.65
 31
0.0
  0
LINE
  5
E7
330
CF
100
AcDbEntity
  8
0
  6
HIDDEN2
 62
     0
370
    30
100
AcDbLine
 10
85.44
 20
94.872
 30
0.0
 11
85.44
 21
72.65
 31
0.0
  0
LINE
  5
E8
330
CF
100
AcDbEntity
  8
0
  6
HIDDEN2
 62
     0
370
     0
100
AcDbLine
 10
106.94
 20
125.15
 30
0.0
 11
106.94
 21
106.146
 31
0.0
  0
LINE
  5
E9
330
CF
100
AcDbEntity
  8
0
  6
HIDDEN2
 62
     0
370
     0
100
AcDbLine
 10
106.94
 20
106.146
 30
0.0
 11
106.94
 21
72.65
 31
0.0
  0
LINE
  5
EA
330
CF
100
AcDbEntity
  8
0
  6
HIDDEN2
 62
     0
370
    30
100
AcDbLine
 10
106.94
 20
106.146
 30
0.0
 11
92.44
 21
106.146
 31
0.0
  0
SPLINE
  5
EB
330
CF
100
AcDbEntity
  8
0
  6
HIDDEN2
 62
     0
370
    30
100
AcDbSpline
210
0.0
220
0.0
230
1.0
 70
     8
 71
     3
 72
    17
 73
    13
 74
     0
 42
0.0
 43
0.0
 40
0.0
 40
0.0
 40
0.0
 40
0.0
 40
0.6835918551105205
 40
1.131625414931939
 40
1.424248919132698
 40
1.626536047472337
 40
1.910019493130348
 40
2.023801601995797
 40
2.121969918212763
 40
2.23031157501165
 40
2.318923758272119
 40
2.393136499151642
 40
2.393136499151642
 40
2.393136499151642
 40
2.393136499151642
 10
107.4402828216553
 20
108.3685059005238
 30
0.0
 10
107.4402828216553
 20
108.1421287802975
 30
0.0
 10
107.431649778787
 20
107.7676999551454
 30
0.0
 10
107.3930950395098
 20
107.2991923026881
 30
0.0
 10
107.3499727204238
 20
106.9914637210397
 30
0.0
 10
107.300514772509
 20
106.7401187558762
 30
0.0
 10
107.2487616793432
 20
106.5495213238367
 30
0.0
 10
107.188846400545
 20
106.3978884800411
 30
0.0
 10
107.1413881967257
 20
106.3036590554374
 30
0.0
 10
107.0862168273744
 20
106.2231169136181
 30
0.0
 10
107.01865993394
 20
106.1623111213295
 30
0.0
 10
106.9647820816529
 20
106.1457795378902
 30
0.0
 10
106.9402828216553
 20
106.1457795378902
 30
0.0
  0
LINE
  5
EC
330
CF
100
AcDbEntity
  8
0
  6
HIDDEN2
 62
     0
370
    30
100
AcDbLine
 10
106.94
 20
97.65
 30
0.0
 11
92.44
 21
97.65
 31
0.0
  0
ARC
  5
ED
330
CF
100
AcDbEntity
  8
0
  6
HIDDEN2
 62
     0
370
    30
100
AcDbCircle
 10
106.94
 20
98.15
 30
0.0
 40
0.5
100
AcDbArc
 50
270.0
 51
360.0
  0
ARC
  5
EE
330
CF
100
AcDbEntity
  8
0
  6
HIDDEN2
 62
     0
370
    30
100
AcDbCircle
 10
106.94
 20
125.65
 30
0.0
 40
0.5
100
AcDbArc
 50
270.0
 51
360.0
  0
ARC
  5
EF
330
CF
100
AcDbEntity
  8
0
  6
HIDDEN2
 62
     0
370
    30
100
AcDbCircle
 10
106.94
 20
99.65
 30
0.0
 40
0.5
100
AcDbArc
 50
0.0
 51
90.0
  0
LINE
  5
F0
330
CF
100
AcDbEntity
  8
0
  6
HIDDEN2
 62
     0
370
    30
100
AcDbLine
 10
106.94
 20
125.15
 30
0.0
 11
89.44
 21
125.15
 31
0.0
  0
LINE
  5
F1
330
CF
100
AcDbEntity
  8
0
  6
HIDDEN2
 62
     0
370
    30
100
AcDbLine
 10
106.94
 20
100.15
 30
0.0
 11
89.44
 21
100.15
 31
0.0
  0
LINE
  5
F2
330
CF
100
AcDbEntity
  8
0
  6
HIDDEN2
 62
     0
370
    30
100
AcDbLine
 10
95.19
 20
72.65
 30
0.0
 11
95.19
 21
90.65
 31
0.0
  0
LINE
  5
F3
330
CF
100
AcDbEntity
  8
0
  6
HIDDEN2
 62
     0
370
    30
100
AcDbLine
 10
89.69
 20
72.65
 30
0.0
 11
89.69
 21
90.65
 31
0.0
  0
LINE
  5
F4
330
CF
100
AcDbEntity
  8
0
  6
HIDDEN2
 62
     0
370
    30
100
AcDbLine
 10
100.44
 20
72.65
 30
0.0
 11
100.44
 21
87.65
 31
0.0
  0
ARC
  5
F5
330
CF
100
AcDbEntity
  8
0
  6
HIDDEN2
 62
     0
370
    30
100
AcDbCircle
 10
92.44
 20
87.65
 30
0.0
 40
8.0
100
AcDbArc
 50
0.0
 51
90.0
  0
ARC
  5
F6
330
CF
100
AcDbEntity
  8
0
  6
Continuous
 62
     0
370
    30
100
AcDbCircle
 10
92.44
 20
121.65
 30
0.0
 40
6.0
100
AcDbArc
 50
90.0
 51
180.0
  0
LINE
  5
F7
330
CF
100
AcDbEntity
  8
0
  6
Continuous
 62
     0
370
    30
100
AcDbLine
 10
92.44
 20
127.65
 30
0.0
 11
107.44
 21
127.65
 31
0.0
  0
ENDBLK
  5
F9
330
CF
100
AcDbEntity
  8
0
100
AcDbBlockEnd
  0
BLOCK
  5
13A
330
FB
100
AcDbEntity
  8
0
100
AcDbBlockBegin
  2
c
 70
     0
 10
75.001
 20
-85.387
 30
0.0
  3
c
  1

  0
LINE
  5
FC
330
FB
100
AcDbEntity
  8
0
  6
Continuous
 62
     0
370
    30
100
AcDbLine
 10
47.598
 20
72.65
 30
0.0
 11
44.557
 21
113.756
 31
0.0
  0
ARC
  5
FD
330
FB
100
AcDbEntity
  8
0
  6
Continuous
 62
     0
370
    30
100
AcDbCircle
 10
29.598
 20
112.65
 30
0.0
 40
14.99999999999999
100
AcDbArc
 50
4.231
 51
175.769
  0
LINE
  5
FE
330
FB
100
AcDbEntity
  8
0
  6
Continuous
 62
     0
370
    30
100
AcDbLine
 10
14.639
 20
113.756
 30
0.0
 11
11.598
 21
72.65
 31
0.0
  0
ARC
  5
FF
330
FB
100
AcDbEntity
  8
0
  6
HIDDEN2
 62
     0
370
     0
100
AcDbCircle
 10
29.598
 20
112.65
 30
0.0
 40
8.999999999999991
100
AcDbArc
 50
4.231
 51
175.769
  0
LINE
  5
100
330
FB
100
AcDbEntity
  8
0
  6
HIDDEN2
 62
     0
370
     0
100
AcDbLine
 10
44.557
 20
113.756
 30
0.0
 11
38.574
 21
113.314
 31
0.0
  0
LINE
  5
101
330
FB
100
AcDbEntity
  8
0
  6
HIDDEN2
 62
     0
370
     0
100
AcDbLine
 10
14.639
 20
113.756
 30
0.0
 11
20.623
 21
113.314
 31
0.0
  0
LINE
  5
102
330
FB
100
AcDbEntity
  8
0
  6
HIDDEN2
 62
     0
370
    30
100
AcDbLine
 10
45.593
 20
72.65
 30
0.0
 11
45.434
 21
72.65
 31
0.0
  0
LINE
  5
103
330
FB
100
AcDbEntity
  8
0
  6
HIDDEN2
 62
     0
370
    30
100
AcDbLine
 10
46.18
 20
72.65
 30
0.0
 11
46.094
 21
72.65
 31
0.0
  0
LINE
  5
104
330
FB
100
AcDbEntity
  8
0
  6
HIDDEN2
 62
     0
370
    30
100
AcDbLine
 10
13.604
 20
72.65
 30
0.0
 11
13.763
 21
72.65
 31
0.0
  0
LINE
  5
105
330
FB
100
AcDbEntity
  8
0
  6
HIDDEN2
 62
     0
370
    30
100
AcDbLine
 10
13.016
 20
72.65
 30
0.0
 11
13.102
 21
72.65
 31
0.0
  0
LINE
  5
106
330
FB
100
AcDbEntity
  8
0
  6
HIDDEN2
 62
     0
370
     0
100
AcDbLine
 10
19.593
 20
96.008
 30
0.0
 11
39.603
 21
96.008
 31
0.0
  0
LINE
  5
107
330
FB
100
AcDbEntity
  8
0
  6
HIDDEN2
 62
     0
370
     0
100
AcDbLine
 10
19.593
 20
99.395
 30
0.0
 11
39.603
 21
99.395
 31
0.0
  0
ARC
  5
108
330
FB
100
AcDbEntity
  8
0
  6
HIDDEN2
 62
     0
370
     0
100
AcDbCircle
 10
19.493
 20
100.211
 30
0.0
 40
0.8225452290498991
100
AcDbArc
 50
266.474
 51
276.99
  0
ARC
  5
109
330
FB
100
AcDbEntity
  8
0
  6
HIDDEN2
 62
     0
370
     0
100
AcDbCircle
 10
19.593
 20
101.765
 30
0.0
 40
5.757765269669068
100
AcDbArc
 50
266.021
 51
270.004
  0
SPLINE
  5
10A
330
FB
100
AcDbEntity
  8
0
  6
HIDDEN2
 62
     0
370
     0
100
AcDbSpline
210
0.0
220
0.0
230
1.0
 70
     8
 71
     3
 72
    14
 73
    10
 74
     0
 42
0.0
 43
0.0
 40
0.0
 40
0.0
 40
0.0
 40
0.0
 40
1.555567845186605
 40
2.948878607312051
 40
4.347914220249205
 40
5.760733546111416
 40
7.186200372054736
 40
8.546069345939133
 40
9.761226978496893
 40
9.761226978496893
 40
9.761226978496893
 40
9.761226978496893
 10
19.44239815001322
 20
99.39026510046978
 30
0.0
 10
18.94703113882274
 20
99.42113581183062
 30
0.0
 10
18.00702380443628
 20
99.42505039041063
 30
0.0
 10
16.70087382623859
 20
99.27849435764958
 30
0.0
 10
15.57339495839064
 20
99.00541737963303
 30
0.0
 10
14.63021888008141
 20
98.61188965406743
 30
0.0
 10
13.93315428243117
 20
98.12416411215207
 30
0.0
 10
13.52099354718316
 20
97.5911262045467
 30
0.0
 10
13.41594980751772
 20
97.2220471649203
 30
0.0
 10
13.40286591292571
 20
97.04517915553222
 30
0.0
  0
SPLINE
  5
10B
330
FB
100
AcDbEntity
  8
0
  6
HIDDEN2
 62
     0
370
     0
100
AcDbSpline
210
0.0
220
0.0
230
1.0
 70
     8
 71
     3
 72
    14
 73
    10
 74
     0
 42
0.0
 43
0.0
 40
0.0
 40
0.0
 40
0.0
 40
0.0
 40
1.555567845186606
 40
2.948878607312053
 40
4.347914220249208
 40
5.760733546111419
 40
7.186200372054739
 40
8.546069345939138
 40
9.761226978496898
 40
9.761226978496898
 40
9.761226978496898
 40
9.761226978496898
 10
19.19319290720383
 20
96.02150546078474
 30
0.0
 10
18.69834131304095
 20
96.05934358607567
 30
0.0
 10
17.76419155578494
 20
96.14244096675458
 30
0.0
 10
16.47974804481966
 20
96.28931323392948
 30
0.0
 10
15.38408927636776
 20
96.44638076398093
 30
0.0
 10
14.48226790922618
 20
96.61188654959602
 30
0.0
 10
13.83334113289697
 20
96.77488868812796
 30
0.0
 10
13.47148159960758
 20
96.9218230679254
 30
0.0
 10
13.40007594714852
 20
97.00746411869352
 30
0.0
 10
13.40286591292569
 20
97.04517915553222
 30
0.0
  0
ARC
  5
10C
330
FB
100
AcDbEntity
  8
0
  6
HIDDEN2
 62
     0
370
     0
100
AcDbCircle
 10
39.703
 20
100.211
 30
0.0
 40
0.822545228553569
100
AcDbArc
 50
263.01
 51
273.526
  0
ARC
  5
10D
330
FB
100
AcDbEntity
  8
0
  6
HIDDEN2
 62
     0
370
     0
100
AcDbCircle
 10
39.604
 20
101.765
 30
0.0
 40
5.757765249891193
100
AcDbArc
 50
269.996
 51
273.979
  0
SPLINE
  5
10E
330
FB
100
AcDbEntity
  8
0
  6
HIDDEN2
 62
     0
370
     0
100
AcDbSpline
210
0.0
220
0.0
230
1.0
 70
     8
 71
     3
 72
    14
 73
    10
 74
     0
 42
0.0
 43
0.0
 40
0.0
 40
0.0
 40
0.0
 40
0.0
 40
1.483051279114983
 40
2.93242528251576
 40
4.376502583175522
 40
5.807025663245416
 40
7.224702845591402
 40
8.56425000336666
 40
9.761228120200098
 40
9.761228120200098
 40
9.761228120200098
 40
9.761228120200098
 10
45.79353012536334
 20
97.0451777396913
 30
0.0
 10
45.77756181571704
 20
97.26103806221107
 30
0.0
 10
45.63836381482269
 20
97.67989058980302
 30
0.0
 10
45.12309903163217
 20
98.2489492131678
 30
0.0
 10
44.33811788000457
 20
98.72764155426415
 30
0.0
 10
43.32406283711789
 20
99.09537834042294
 30
0.0
 10
42.1560274038418
 20
99.33084460231191
 30
0.0
 10
40.94357979238673
 20
99.4283166127606
 30
0.0
 10
40.13517353819101
 20
99.41401856876189
 30
0.0
 10
39.75399861766265
 20
99.39026421262153
 30
0.0
  0
SPLINE
  5
10F
330
FB
100
AcDbEntity
  8
0
  6
HIDDEN2
 62
     0
370
     0
100
AcDbSpline
210
0.0
220
0.0
230
1.0
 70
     8
 71
     3
 72
    14
 73
    10
 74
     0
 42
0.0
 43
0.0
 40
0.0
 40
0.0
 40
0.0
 40
0.0
 40
1.483051279114978
 40
2.932425282515749
 40
4.376502583175505
 40
5.807025663245394
 40
7.224702845591374
 40
8.564250003366627
 40
9.76122812020006
 40
9.76122812020006
 40
9.76122812020006
 40
9.76122812020006
 10
45.79353012536337
 20
97.04517773969133
 30
0.0
 10
45.7969352075815
 20
96.99914804758353
 30
0.0
 10
45.69604362693273
 20
96.90017339092961
 30
0.0
 10
45.23497605541036
 20
96.73659269868756
 30
0.0
 10
44.49790688315002
 20
96.56760965773776
 30
0.0
 10
43.52337239689037
 20
96.40110653249792
 30
0.0
 10
42.38406764615752
 20
96.2481906812204
 30
0.0
 10
41.18832644402112
 20
96.11982501639477
 30
0.0
 10
40.38398193528351
 20
96.05062019175168
 30
0.0
 10
40.00320361737059
 20
96.02150455115031
 30
0.0
  0
LINE
  5
110
330
FB
100
AcDbEntity
  8
0
  6
HIDDEN2
 62
     0
370
     0
100
AcDbLine
 10
20.623
 20
113.314
 30
0.0
 11
19.593
 21
99.395
 31
0.0
  0
LINE
  5
111
330
FB
100
AcDbEntity
  8
0
  6
HIDDEN2
 62
     0
370
     0
100
AcDbLine
 10
38.574
 20
113.314
 30
0.0
 11
39.603
 21
99.395
 31
0.0
  0
LINE
  5
112
330
FB
100
AcDbEntity
  8
0
  6
HIDDEN2
 62
     0
370
     0
100
AcDbLine
 10
17.464
 20
72.65
 30
0.0
 11
19.193
 21
96.022
 31
0.0
  0
ELLIPSE
  5
113
330
FB
100
AcDbEntity
  8
0
  6
HIDDEN2
 62
     0
370
     0
100
AcDbEllipse
 10
19.193
 20
99.409
 30
0.0
 11
0.694338625287436
 21
9.975865570136456
 31
0.0
210
0.0
220
0.0
230
-1.0
 40
0.025
 41
1.57090505753342
 42
1.915483207754946
  0
LINE
  5
114
330
FB
100
AcDbEntity
  8
0
  6
HIDDEN2
 62
     0
370
     0
100
AcDbLine
 10
41.732
 20
72.65
 30
0.0
 11
40.003
 21
96.022
 31
0.0
  0
ELLIPSE
  5
115
330
FB
100
AcDbEntity
  8
0
  6
HIDDEN2
 62
     0
370
     0
100
AcDbEllipse
 10
40.003
 20
99.409
 30
0.0
 11
0.6943377546832136
 21
-9.975865630732075
 31
0.0
210
0.0
220
0.0
230
-1.0
 40
0.025
 41
1.226109451906837
 42
1.570687602128367
  0
LINE
  5
116
330
FB
100
AcDbEntity
  8
0
  6
HIDDEN2
 62
     0
370
     0
100
AcDbLine
 10
19.593
 20
96.008
 30
0.0
 11
19.593
 21
99.395
 31
0.0
  0
LINE
  5
117
330
FB
100
AcDbEntity
  8
0
  6
HIDDEN2
 62
     0
370
     0
100
AcDbLine
 10
39.603
 20
99.395
 30
0.0
 11
39.603
 21
96.008
 31
0.0
  0
LINE
  5
118
330
FB
100
AcDbEntity
  8
0
  6
Continuous
 62
     0
370
    30
100
AcDbLine
 10
37.598
 20
72.65
 30
0.0
 11
21.598
 21
72.65
 31
0.0
  0
LINE
  5
119
330
FB
100
AcDbEntity
  8
0
  6
Continuous
 62
     0
370
    30
100
AcDbLine
 10
45.593
 20
72.65
 30
0.0
 11
37.598
 21
72.65
 31
0.0
  0
LINE
  5
11A
330
FB
100
AcDbEntity
  8
0
  6
Continuous
 62
     0
370
    30
100
AcDbLine
 10
21.598
 20
72.65
 30
0.0
 11
13.604
 21
72.65
 31
0.0
  0
LINE
  5
11B
330
FB
100
AcDbEntity
  8
0
  6
Continuous
 62
     0
370
     0
100
AcDbLine
 10
37.598
 20
87.65
 30
0.0
 11
21.598
 21
87.65
 31
0.0
  0
LINE
  5
11C
330
FB
100
AcDbEntity
  8
0
  6
Continuous
 62
     0
370
    30
100
AcDbLine
 10
37.598
 20
72.65
 30
0.0
 11
37.598
 21
87.65
 31
0.0
  0
LINE
  5
11D
330
FB
100
AcDbEntity
  8
0
  6
Continuous
 62
     0
370
    30
100
AcDbLine
 10
21.598
 20
72.65
 30
0.0
 11
21.598
 21
87.65
 31
0.0
  0
ARC
  5
11E
330
FB
100
AcDbEntity
  8
0
  6
Continuous
 62
     0
370
    30
100
AcDbCircle
 10
29.599
 20
87.649
 30
0.0
 40
8.000464528296767
100
AcDbArc
 50
90.003
 51
179.997
  0
ARC
  5
11F
330
FB
100
AcDbEntity
  8
0
  6
Continuous
 62
     0
370
    30
100
AcDbCircle
 10
29.598
 20
87.649
 30
0.0
 40
8.00018901978073
100
AcDbArc
 50
0.001
 51
89.999
  0
LINE
  5
120
330
FB
100
AcDbEntity
  8
0
  6
HIDDEN2
 62
     0
370
    30
100
AcDbLine
 10
32.348
 20
90.65
 30
0.0
 11
26.848
 21
90.65
 31
0.0
  0
LINE
  5
121
330
FB
100
AcDbEntity
  8
0
  6
HIDDEN2
 62
     0
370
    30
100
AcDbLine
 10
32.348
 20
72.65
 30
0.0
 11
32.348
 21
90.65
 31
0.0
  0
LINE
  5
122
330
FB
100
AcDbEntity
  8
0
  6
HIDDEN2
 62
     0
370
    30
100
AcDbLine
 10
28.598
 20
94.872
 30
0.0
 11
28.598
 21
72.65
 31
0.0
  0
LINE
  5
123
330
FB
100
AcDbEntity
  8
0
  6
HIDDEN2
 62
     0
370
    30
100
AcDbLine
 10
30.598
 20
94.872
 30
0.0
 11
30.598
 21
72.65
 31
0.0
  0
LINE
  5
124
330
FB
100
AcDbEntity
  8
0
  6
HIDDEN2
 62
     0
370
    30
100
AcDbLine
 10
28.598
 20
94.872
 30
0.0
 11
30.598
 21
94.872
 31
0.0
  0
LINE
  5
125
330
FB
100
AcDbEntity
  8
0
  6
HIDDEN2
 62
     0
370
    30
100
AcDbLine
 10
32.598
 20
94.872
 30
0.0
 11
32.598
 21
72.65
 31
0.0
  0
LINE
  5
126
330
FB
100
AcDbEntity
  8
0
  6
HIDDEN2
 62
     0
370
    30
100
AcDbLine
 10
34.598
 20
94.872
 30
0.0
 11
34.598
 21
72.65
 31
0.0
  0
LINE
  5
127
330
FB
100
AcDbEntity
  8
0
  6
HIDDEN2
 62
     0
370
    30
100
AcDbLine
 10
32.598
 20
94.872
 30
0.0
 11
34.598
 21
94.872
 31
0.0
  0
LINE
  5
128
330
FB
100
AcDbEntity
  8
0
  6
HIDDEN2
 62
     0
370
    30
100
AcDbLine
 10
24.598
 20
94.872
 30
0.0
 11
24.598
 21
72.65
 31
0.0
  0
LINE
  5
129
330
FB
100
AcDbEntity
  8
0
  6
HIDDEN2
 62
     0
370
    30
100
AcDbLine
 10
26.598
 20
94.872
 30
0.0
 11
26.598
 21
72.65
 31
0.0
  0
LINE
  5
12A
330
FB
100
AcDbEntity
  8
0
  6
HIDDEN2
 62
     0
370
    30
100
AcDbLine
 10
24.598
 20
94.872
 30
0.0
 11
26.598
 21
94.872
 31
0.0
  0
CIRCLE
  5
12B
330
FB
100
AcDbEntity
  8
0
  6
Continuous
 62
     0
370
    30
100
AcDbCircle
 10
29.598
 20
112.65
 30
0.0
 40
12.5
  0
CIRCLE
  5
12C
330
FB
100
AcDbEntity
  8
0
  6
Continuous
 62
     0
370
     0
100
AcDbCircle
 10
29.598
 20
112.65
 30
0.0
 40
13.0
  0
ARC
  5
12D
330
FB
100
AcDbEntity
  8
0
  6
Continuous
 62
     0
370
    30
100
AcDbCircle
 10
29.598
 20
112.65
 30
0.0
 40
14.99999999999999
100
AcDbArc
 50
205.696
 51
334.304
  0
ARC
  5
12E
330
FB
100
AcDbEntity
  8
0
  6
Continuous
 62
     0
370
     0
100
AcDbCircle
 10
29.598
 20
112.65
 30
0.0
 40
14.49999999999999
100
AcDbArc
 50
197.173
 51
342.827
  0
LINE
  5
12F
330
FB
100
AcDbEntity
  8
0
  6
Continuous
 62
     0
370
    30
100
AcDbLine
 10
45.593
 20
72.65
 30
0.0
 11
43.115
 21
106.146
 31
0.0
  0
LINE
  5
130
330
FB
100
AcDbEntity
  8
0
  6
Continuous
 62
     0
370
     0
100
AcDbLine
 10
46.094
 20
72.65
 30
0.0
 11
43.452
 21
108.369
 31
0.0
  0
LINE
  5
131
330
FB
100
AcDbEntity
  8
0
  6
Continuous
 62
     0
370
    30
100
AcDbLine
 10
16.082
 20
106.146
 30
0.0
 11
13.604
 21
72.65
 31
0.0
  0
LINE
  5
132
330
FB
100
AcDbEntity
  8
0
  6
Continuous
 62
     0
370
     0
100
AcDbLine
 10
15.745
 20
108.369
 30
0.0
 11
13.102
 21
72.65
 31
0.0
  0
LINE
  5
133
330
FB
100
AcDbEntity
  8
0
  6
Continuous
 62
     0
370
    30
100
AcDbLine
 10
46.094
 20
72.65
 30
0.0
 11
47.598
 21
72.65
 31
0.0
  0
LINE
  5
134
330
FB
100
AcDbEntity
  8
0
  6
Continuous
 62
     0
370
    30
100
AcDbLine
 10
11.598
 20
72.65
 30
0.0
 11
13.102
 21
72.65
 31
0.0
  0
LINE
  5
135
330
FB
100
AcDbEntity
  8
0
  6
Continuous
 62
     0
370
    30
100
AcDbLine
 10
45.593
 20
72.65
 30
0.0
 11
46.094
 21
72.65
 31
0.0
  0
LINE
  5
136
330
FB
100
AcDbEntity
  8
0
  6
Continuous
 62
     0
370
    30
100
AcDbLine
 10
13.604
 20
72.65
 30
0.0
 11
13.102
 21
72.65
 31
0.0
  0
SPLINE
  5
137
330
FB
100
AcDbEntity
  8
0
  6
Continuous
 62
     0
370
    30
100
AcDbSpline
210
0.0
220
0.0
230
1.0
 70
     8
 71
     3
 72
    17
 73
    13
 74
     0
 42
0.0
 43
0.0
 40
0.0
 40
0.0
 40
0.0
 40
0.0
 40
0.6835918551105205
 40
1.131625414931939
 40
1.424248919132698
 40
1.626536047472337
 40
1.910019493130348
 40
2.023801601995797
 40
2.121969918212763
 40
2.23031157501165
 40
2.318923758272119
 40
2.393136499151642
 40
2.393136499151642
 40
2.393136499151642
 40
2.393136499151642
 10
15.74461130378381
 20
108.3685059005238
 30
0.0
 10
15.77028727426641
 20
108.1421287802975
 30
0.0
 10
15.81715865681863
 20
107.7676999551454
 30
0.0
 10
15.88481955229377
 20
107.2991923026881
 30
0.0
 10
15.93309520161409
 20
106.9914637210397
 30
0.0
 10
15.97459034398664
 20
106.7401187558762
 30
0.0
 10
16.00759157220174
 20
106.5495213238367
 30
0.0
 10
16.03479414439824
 20
106.3978884800411
 30
0.0
 10
16.05200486987516
 20
106.3036590554374
 30
0.0
 10
16.06696172036271
 20
106.2231169136181
 30
0.0
 10
16.07841298423042
 20
106.1623111213295
 30
0.0
 10
16.08155052377282
 20
106.1457795378902
 30
0.0
 10
16.08155052484372
 20
106.1457795378902
 30
0.0
  0
SPLINE
  5
138
330
FB
100
AcDbEntity
  8
0
  6
Continuous
 62
     0
370
    30
100
AcDbSpline
210
0.0
220
0.0
230
1.0
 70
     8
 71
     3
 72
    17
 73
    13
 74
     0
 42
0.0
 43
0.0
 40
0.0
 40
0.0
 40
0.0
 40
0.0
 40
0.0742127408795118
 40
0.1628249241400738
 40
0.2711665809418802
 40
0.3693348971584408
 40
0.4831170060232541
 40
0.7666004516837877
 40
0.9688875800253619
 40
1.261530456190686
 40
1.709596873028996
 40
2.39313649892672
 40
2.39313649892672
 40
2.39313649892672
 40
2.39313649892672
 10
43.11484504141474
 20
106.1457783562272
 30
0.0
 10
43.11484504034384
 20
106.1457783562272
 30
0.0
 10
43.11798257662168
 20
106.1623099393922
 30
0.0
 10
43.12943383989769
 20
106.2231157306803
 30
0.0
 10
43.14439069260537
 20
106.3036578711947
 30
0.0
 10
43.16160142216931
 20
106.3978872942868
 30
0.0
 10
43.18880400239424
 20
106.5495201357546
 30
0.0
 10
43.22180524266133
 20
106.7401175644797
 30
0.0
 10
43.26330143568519
 20
106.9914687827976
 30
0.0
 10
43.31157970229277
 20
107.2992145230991
 30
0.0
 10
43.37924010944066
 20
107.7677224458359
 30
0.0
 10
43.42611038382695
 20
108.1421448611176
 30
0.0
 10
43.45178441308018
 20
108.3685046894046
 30
0.0
  0
LINE
  5
139
330
FB
100
AcDbEntity
  8
0
  6
HIDDEN2
 62
     0
370
    30
100
AcDbLine
 10
26.848
 20
72.65
 30
0.0
 11
26.848
 21
90.65
 31
0.0
  0
ENDBLK
  5
13B
330
FB
100
AcDbEntity
  8
0
100
AcDbBlockEnd
  0
BLOCK
  5
16A
330
13D
100
AcDbEntity
  8
0
100
AcDbBlockBegin
  2
d
 70
     0
 10
72.702
 20
-85.387
 30
0.0
  3
d
  1

  0
ARC
  5
13E
330
13D
100
AcDbEntity
  8
0
  6
Continuous
 62
     0
370
    30
100
AcDbCircle
 10
172.537
 20
112.65
 30
0.0
 40
14.99999999999999
100
AcDbArc
 50
4.231
 51
175.769
  0
ARC
  5
13F
330
13D
100
AcDbEntity
  8
0
  6
Continuous
 62
     0
370
     0
100
AcDbCircle
 10
172.537
 20
112.65
 30
0.0
 40
8.999999999999991
100
AcDbArc
 50
4.231
 51
175.769
  0
LINE
  5
140
330
13D
100
AcDbEntity
  8
0
  6
Continuous
 62
     0
370
    30
100
AcDbLine
 10
154.537
 20
72.65
 30
0.0
 11
156.341
 21
97.045
 31
0.0
  0
LINE
  5
141
330
13D
100
AcDbEntity
  8
0
  6
Continuous
 62
     0
370
    30
100
AcDbLine
 10
190.537
 20
72.65
 30
0.0
 11
188.732
 21
97.045
 31
0.0
  0
LINE
  5
142
330
13D
100
AcDbEntity
  8
0
  6
Continuous
 62
     0
370
    30
100
AcDbLine
 10
157.578
 20
113.756
 30
0.0
 11
156.341
 21
97.045
 31
0.0
  0
LINE
  5
143
330
13D
100
AcDbEntity
  8
0
  6
Continuous
 62
     0
370
    30
100
AcDbLine
 10
187.496
 20
113.756
 30
0.0
 11
188.732
 21
97.045
 31
0.0
  0
LINE
  5
144
330
13D
100
AcDbEntity
  8
0
  6
Continuous
 62
     0
370
     0
100
AcDbLine
 10
157.578
 20
113.756
 30
0.0
 11
163.561
 21
113.314
 31
0.0
  0
LINE
  5
145
330
13D
100
AcDbEntity
  8
0
  6
Continuous
 62
     0
370
     0
100
AcDbLine
 10
187.496
 20
113.756
 30
0.0
 11
181.512
 21
113.314
 31
0.0
  0
LINE
  5
146
330
13D
100
AcDbEntity
  8
0
  6
Continuous
 62
     0
370
    30
100
AcDbLine
 10
154.537
 20
72.65
 30
0.0
 11
160.403
 21
72.65
 31
0.0
  0
LINE
  5
147
330
13D
100
AcDbEntity
  8
0
  6
Continuous
 62
     0
370
    30
100
AcDbLine
 10
190.537
 20
72.65
 30
0.0
 11
184.671
 21
72.65
 31
0.0
  0
LINE
  5
148
330
13D
100
AcDbEntity
  8
0
  6
Continuous
 62
     0
370
     0
100
AcDbLine
 10
182.542
 20
96.008
 30
0.0
 11
162.532
 21
96.008
 31
0.0
  0
LINE
  5
149
330
13D
100
AcDbEntity
  8
0
  6
Continuous
 62
     0
370
     0
100
AcDbLine
 10
182.542
 20
99.395
 30
0.0
 11
162.532
 21
99.395
 31
0.0
  0
ARC
  5
14A
330
13D
100
AcDbEntity
  8
0
  6
Continuous
 62
     0
370
     0
100
AcDbCircle
 10
182.642
 20
100.211
 30
0.0
 40
0.8225452286169125
100
AcDbArc
 50
263.01
 51
273.526
  0
ARC
  5
14B
330
13D
100
AcDbEntity
  8
0
  6
Continuous
 62
     0
370
     0
100
AcDbCircle
 10
182.542
 20
101.765
 30
0.0
 40
5.757765249700997
100
AcDbArc
 50
269.996
 51
273.979
  0
SPLINE
  5
14C
330
13D
100
AcDbEntity
  8
0
  6
Continuous
 62
     0
370
     0
100
AcDbSpline
210
0.0
220
0.0
230
1.0
 70
     8
 71
     3
 72
    14
 73
    10
 74
     0
 42
0.0
 43
0.0
 40
0.0
 40
0.0
 40
0.0
 40
0.0
 40
1.555567845186605
 40
2.948878607312051
 40
4.347914220249205
 40
5.760733546111416
 40
7.186200372054736
 40
8.546069345939133
 40
9.761226978496893
 40
9.761226978496893
 40
9.761226978496893
 40
9.761226978496893
 10
182.6925985501256
 20
99.39026510046978
 30
0.0
 10
183.1879655602316
 20
99.42113581183062
 30
0.0
 10
184.1279728822927
 20
99.42505039041063
 30
0.0
 10
185.434122814816
 20
99.27849435764958
 30
0.0
 10
186.5616016157087
 20
99.00541737963303
 30
0.0
 10
187.5047776070002
 20
98.61188965406743
 30
0.0
 10
188.2018421033597
 20
98.12416411215207
 30
0.0
 10
188.6140027327649
 20
97.5911262045467
 30
0.0
 10
188.7190464016497
 20
97.2220471649203
 30
0.0
 10
188.7321302628403
 20
97.04517915553222
 30
0.0
  0
SPLINE
  5
14D
330
13D
100
AcDbEntity
  8
0
  6
Continuous
 62
     0
370
     0
100
AcDbSpline
210
0.0
220
0.0
230
1.0
 70
     8
 71
     3
 72
    14
 73
    10
 74
     0
 42
0.0
 43
0.0
 40
0.0
 40
0.0
 40
0.0
 40
0.0
 40
1.555567845186606
 40
2.948878607312053
 40
4.347914220249208
 40
5.760733546111419
 40
7.186200372054739
 40
8.546069345939138
 40
9.761226978496898
 40
9.761226978496898
 40
9.761226978496898
 40
9.761226978496898
 10
182.9418038443399
 20
96.02150546078474
 30
0.0
 10
183.4366554373119
 20
96.05934358607567
 30
0.0
 10
184.3708051810343
 20
96.1424409667546
 30
0.0
 10
185.6552486418477
 20
96.28931323392948
 30
0.0
 10
186.7509073367807
 20
96.44638076398093
 30
0.0
 10
187.652728608374
 20
96.61188654959602
 30
0.0
 10
188.3016552734829
 20
96.77488868812796
 30
0.0
 10
188.6635146905536
 20
96.9218230679254
 30
0.0
 10
188.7349202652933
 20
97.00746411869352
 30
0.0
 10
188.7321302628403
 20
97.04517915553222
 30
0.0
  0
ARC
  5
14E
330
13D
100
AcDbEntity
  8
0
  6
Continuous
 62
     0
370
     0
100
AcDbCircle
 10
162.432
 20
100.211
 30
0.0
 40
0.8225452296383693
100
AcDbArc
 50
266.474
 51
276.99
  0
ARC
  5
14F
330
13D
100
AcDbEntity
  8
0
  6
Continuous
 62
     0
370
     0
100
AcDbCircle
 10
162.531
 20
101.765
 30
0.0
 40
5.757765269540226
100
AcDbArc
 50
266.021
 51
270.004
  0
SPLINE
  5
150
330
13D
100
AcDbEntity
  8
0
  6
Continuous
 62
     0
370
     0
100
AcDbSpline
210
0.0
220
0.0
230
1.0
 70
     8
 71
     3
 72
    14
 73
    10
 74
     0
 42
0.0
 43
0.0
 40
0.0
 40
0.0
 40
0.0
 40
0.0
 40
1.483051279114983
 40
2.93242528251576
 40
4.376502583175522
 40
5.807025663245416
 40
7.224702845591402
 40
8.56425000336666
 40
9.761228120200098
 40
9.761228120200098
 40
9.761228120200098
 40
9.761228120200098
 10
156.3414660504027
 20
97.0451777396913
 30
0.0
 10
156.3574344008141
 20
97.26103806221107
 30
0.0
 10
156.4966324823122
 20
97.67989058980302
 30
0.0
 10
157.0118973795435
 20
98.2489492131678
 30
0.0
 10
157.7968786319867
 20
98.72764155426415
 30
0.0
 10
158.8109337580318
 20
99.09537834042294
 30
0.0
 10
159.9789692517625
 20
99.33084460231191
 30
0.0
 10
161.191416898371
 20
99.4283166127606
 30
0.0
 10
161.9998231611133
 20
99.41401856876189
 30
0.0
 10
162.3809980824762
 20
99.39026421262156
 30
0.0
  0
SPLINE
  5
151
330
13D
100
AcDbEntity
  8
0
  6
Continuous
 62
     0
370
     0
100
AcDbSpline
210
0.0
220
0.0
230
1.0
 70
     8
 71
     3
 72
    14
 73
    10
 74
     0
 42
0.0
 43
0.0
 40
0.0
 40
0.0
 40
0.0
 40
0.0
 40
1.483051279114978
 40
2.932425282515749
 40
4.376502583175505
 40
5.807025663245394
 40
7.224702845591374
 40
8.564250003366627
 40
9.76122812020006
 40
9.76122812020006
 40
9.76122812020006
 40
9.76122812020006
 10
156.3414660504026
 20
97.04517773969133
 30
0.0
 10
156.3380610129459
 20
96.99914804758353
 30
0.0
 10
156.4389526821001
 20
96.90017339092961
 30
0.0
 10
156.9000203788428
 20
96.73659269868753
 30
0.0
 10
157.6370896618018
 20
96.56760965773776
 30
0.0
 10
158.611624239372
 20
96.40110653249792
 30
0.0
 10
159.7509290564859
 20
96.2481906812204
 30
0.0
 10
160.9466702972218
 20
96.11982501639477
 30
0.0
 10
161.7510148153439
 20
96.05062019175168
 30
0.0
 10
162.1317931341731
 20
96.02150455115031
 30
0.0
  0
LINE
  5
152
330
13D
100
AcDbEntity
  8
0
  6
Continuous
 62
     0
370
     0
100
AcDbLine
 10
181.512
 20
113.314
 30
0.0
 11
182.542
 21
99.395
 31
0.0
  0
LINE
  5
153
330
13D
100
AcDbEntity
  8
0
  6
Continuous
 62
     0
370
     0
100
AcDbLine
 10
163.561
 20
113.314
 30
0.0
 11
162.532
 21
99.395
 31
0.0
  0
LINE
  5
154
330
13D
100
AcDbEntity
  8
0
  6
Continuous
 62
     0
370
     0
100
AcDbLine
 10
184.671
 20
72.65
 30
0.0
 11
182.942
 21
96.022
 31
0.0
  0
ELLIPSE
  5
155
330
13D
100
AcDbEntity
  8
0
  6
Continuous
 62
     0
370
     0
100
AcDbEllipse
 10
182.942
 20
99.409
 30
0.0
 11
0.6943386268010669
 21
-9.975865570031106
 31
0.0
210
0.0
220
0.0
230
1.0
 40
0.025
 41
4.712497705051215
 42
5.057075855272742
  0
LINE
  5
156
330
13D
100
AcDbEntity
  8
0
  6
Continuous
 62
     0
370
     0
100
AcDbLine
 10
160.403
 20
72.65
 30
0.0
 11
162.132
 21
96.022
 31
0.0
  0
ELLIPSE
  5
157
330
13D
100
AcDbEntity
  8
0
  6
Continuous
 62
     0
370
     0
100
AcDbEllipse
 10
162.132
 20
99.409
 30
0.0
 11
0.6943377531695839
 21
9.975865630837426
 31
0.0
210
0.0
220
0.0
230
1.0
 40
0.025
 41
4.36770209942464
 42
4.712280249646171
  0
LINE
  5
158
330
13D
100
AcDbEntity
  8
0
  6
Continuous
 62
     0
370
     0
100
AcDbLine
 10
182.542
 20
96.008
 30
0.0
 11
182.542
 21
99.395
 31
0.0
  0
LINE
  5
159
330
13D
100
AcDbEntity
  8
0
  6
Continuous
 62
     0
370
     0
100
AcDbLine
 10
162.532
 20
99.395
 30
0.0
 11
162.532
 21
96.008
 31
0.0
  0
LINE
  5
15A
330
13D
100
AcDbEntity
  8
0
  6
Continuous
 62
     0
370
    30
100
AcDbLine
 10
173.537
 20
94.872
 30
0.0
 11
171.537
 21
94.872
 31
0.0
  0
LINE
  5
15B
330
13D
100
AcDbEntity
  8
0
  6
Continuous
 62
     0
370
    30
100
AcDbLine
 10
171.537
 20
72.65
 30
0.0
 11
171.537
 21
94.872
 31
0.0
  0
LINE
  5
15C
330
13D
100
AcDbEntity
  8
0
  6
Continuous
 62
     0
370
    30
100
AcDbLine
 10
173.537
 20
72.65
 30
0.0
 11
173.537
 21
94.872
 31
0.0
  0
LINE
  5
15D
330
13D
100
AcDbEntity
  8
0
  6
Continuous
 62
     0
370
    30
100
AcDbLine
 10
173.537
 20
72.65
 30
0.0
 11
171.537
 21
72.65
 31
0.0
  0
LINE
  5
15E
330
13D
100
AcDbEntity
  8
0
  6
Continuous
 62
     0
370
    30
100
AcDbLine
 10
171.537
 20
72.65
 30
0.0
 11
169.537
 21
72.65
 31
0.0
  0
LINE
  5
15F
330
13D
100
AcDbEntity
  8
0
  6
Continuous
 62
     0
370
    30
100
AcDbLine
 10
167.537
 20
72.65
 30
0.0
 11
160.403
 21
72.65
 31
0.0
  0
LINE
  5
160
330
13D
100
AcDbEntity
  8
0
  6
Continuous
 62
     0
370
    30
100
AcDbLine
 10
169.537
 20
94.872
 30
0.0
 11
167.537
 21
94.872
 31
0.0
  0
LINE
  5
161
330
13D
100
AcDbEntity
  8
0
  6
Continuous
 62
     0
370
    30
100
AcDbLine
 10
167.537
 20
72.65
 30
0.0
 11
167.537
 21
94.872
 31
0.0
  0
LINE
  5
162
330
13D
100
AcDbEntity
  8
0
  6
Continuous
 62
     0
370
    30
100
AcDbLine
 10
169.537
 20
72.65
 30
0.0
 11
169.537
 21
94.872
 31
0.0
  0
LINE
  5
163
330
13D
100
AcDbEntity
  8
0
  6
Continuous
 62
     0
370
    30
100
AcDbLine
 10
169.537
 20
72.65
 30
0.0
 11
167.537
 21
72.65
 31
0.0
  0
LINE
  5
164
330
13D
100
AcDbEntity
  8
0
  6
Continuous
 62
     0
370
    30
100
AcDbLine
 10
184.671
 20
72.65
 30
0.0
 11
177.537
 21
72.65
 31
0.0
  0
LINE
  5
165
330
13D
100
AcDbEntity
  8
0
  6
Continuous
 62
     0
370
    30
100
AcDbLine
 10
175.537
 20
72.65
 30
0.0
 11
173.537
 21
72.65
 31
0.0
  0
LINE
  5
166
330
13D
100
AcDbEntity
  8
0
  6
Continuous
 62
     0
370
    30
100
AcDbLine
 10
177.537
 20
94.872
 30
0.0
 11
175.537
 21
94.872
 31
0.0
  0
LINE
  5
167
330
13D
100
AcDbEntity
  8
0
  6
Continuous
 62
     0
370
    30
100
AcDbLine
 10
175.537
 20
72.65
 30
0.0
 11
175.537
 21
94.872
 31
0.0
  0
LINE
  5
168
330
13D
100
AcDbEntity
  8
0
  6
Continuous
 62
     0
370
    30
100
AcDbLine
 10
177.537
 20
72.65
 30
0.0
 11
177.537
 21
94.872
 31
0.0
  0
LINE
  5
169
330
13D
100
AcDbEntity
  8
0
  6
Continuous
 62
     0
370
    30
100
AcDbLine
 10
177.537
 20
72.65
 30
0.0
 11
175.537
 21
72.65
 31
0.0
  0
ENDBLK
  5
16B
330
13D
100
AcDbEntity
  8
0
100
AcDbBlockEnd
  0
BLOCK
  5
193
330
16D
100
AcDbEntity
  8
0
100
AcDbBlockBegin
  2
e
 70
     0
 10
-9.956
 20
66.331
 30
0.0
  3
e
  1

  0
LINE
  5
16E
330
16D
100
AcDbEntity
  8
0
  6
Continuous
 62
     0
370
    30
100
AcDbLine
 10
83.658
 20
148.165
 30
0.0
 11
107.44
 21
148.165
 31
0.0
  0
ELLIPSE
  5
16F
330
16D
100
AcDbEntity
  8
0
  6
Continuous
 62
     0
370
    30
100
AcDbEllipse
 10
83.817
 20
154.182
 30
0.0
 11
6.261556380005005
 21
1.286668684223678
 31
0.0
210
0.0
220
0.0
230
-1.0
 40
0.939
 41
1.786321437399879
 42
3.332126556878189
  0
LINE
  5
170
330
16D
100
AcDbEntity
  8
0
  6
Continuous
 62
     0
370
    30
100
AcDbLine
 10
83.658
 20
184.165
 30
0.0
 11
107.44
 21
184.165
 31
0.0
  0
ELLIPSE
  5
171
330
16D
100
AcDbEntity
  8
0
  6
Continuous
 62
     0
370
    30
100
AcDbEllipse
 10
83.817
 20
178.149
 30
0.0
 11
6.261556380005003
 21
-1.286668684223677
 31
0.0
210
0.0
220
0.0
230
1.0
 40
0.939
 41
1.786321437399879
 42
3.332126556878189
  0
ARC
  5
172
330
16D
100
AcDbEntity
  8
0
  6
Continuous
 62
     0
370
    30
100
AcDbCircle
 10
92.44
 20
166.165
 30
0.0
 40
8.0
100
AcDbArc
 50
270.0
 51
90.0
  0
LINE
  5
173
330
16D
100
AcDbEntity
  8
0
  6
Continuous
 62
     0
370
    30
100
AcDbLine
 10
92.44
 20
150.171
 30
0.0
 11
92.44
 21
158.165
 31
0.0
  0
LINE
  5
174
330
16D
100
AcDbEntity
  8
0
  6
Continuous
 62
     0
370
    30
100
AcDbLine
 10
92.44
 20
174.165
 30
0.0
 11
92.44
 21
182.16
 31
0.0
  0
CIRCLE
  5
175
330
16D
100
AcDbEntity
  8
0
  6
Continuous
 62
     0
370
    30
100
AcDbCircle
 10
92.44
 20
166.165
 30
0.0
 40
2.75
  0
LINE
  5
176
330
16D
100
AcDbEntity
  8
0
  6
Continuous
 62
     0
370
    30
100
AcDbLine
 10
85.44
 20
167.165
 30
0.0
 11
85.44
 21
165.165
 31
0.0
  0
LINE
  5
177
330
16D
100
AcDbEntity
  8
0
  6
Continuous
 62
     0
370
    30
100
AcDbLine
 10
77.44
 20
165.165
 30
0.0
 11
85.44
 21
165.165
 31
0.0
  0
LINE
  5
178
330
16D
100
AcDbEntity
  8
0
  6
Continuous
 62
     0
370
    30
100
AcDbLine
 10
77.44
 20
167.165
 30
0.0
 11
85.44
 21
167.165
 31
0.0
  0
LINE
  5
179
330
16D
100
AcDbEntity
  8
0
  6
Continuous
 62
     0
370
    30
100
AcDbLine
 10
77.44
 20
165.165
 30
0.0
 11
77.44
 21
163.165
 31
0.0
  0
LINE
  5
17A
330
16D
100
AcDbEntity
  8
0
  6
Continuous
 62
     0
370
    30
100
AcDbLine
 10
77.44
 20
161.165
 30
0.0
 11
77.44
 21
154.031
 31
0.0
  0
LINE
  5
17B
330
16D
100
AcDbEntity
  8
0
  6
Continuous
 62
     0
370
    30
100
AcDbLine
 10
85.44
 20
163.165
 30
0.0
 11
85.44
 21
161.165
 31
0.0
  0
LINE
  5
17C
330
16D
100
AcDbEntity
  8
0
  6
Continuous
 62
     0
370
    30
100
AcDbLine
 10
77.44
 20
161.165
 30
0.0
 11
85.44
 21
161.165
 31
0.0
  0
LINE
  5
17D
330
16D
100
AcDbEntity
  8
0
  6
Continuous
 62
     0
370
    30
100
AcDbLine
 10
77.44
 20
163.165
 30
0.0
 11
85.44
 21
163.165
 31
0.0
  0
LINE
  5
17E
330
16D
100
AcDbEntity
  8
0
  6
Continuous
 62
     0
370
    30
100
AcDbLine
 10
77.44
 20
178.299
 30
0.0
 11
77.44
 21
171.165
 31
0.0
  0
LINE
  5
17F
330
16D
100
AcDbEntity
  8
0
  6
Continuous
 62
     0
370
    30
100
AcDbLine
 10
77.44
 20
169.165
 30
0.0
 11
77.44
 21
167.165
 31
0.0
  0
LINE
  5
180
330
16D
100
AcDbEntity
  8
0
  6
Continuous
 62
     0
370
    30
100
AcDbLine
 10
85.44
 20
171.165
 30
0.0
 11
85.44
 21
169.165
 31
0.0
  0
LINE
  5
181
330
16D
100
AcDbEntity
  8
0
  6
Continuous
 62
     0
370
    30
100
AcDbLine
 10
77.44
 20
169.165
 30
0.0
 11
85.44
 21
169.165
 31
0.0
  0
LINE
  5
182
330
16D
100
AcDbEntity
  8
0
  6
Continuous
 62
     0
370
    30
100
AcDbLine
 10
77.44
 20
171.165
 30
0.0
 11
85.44
 21
171.165
 31
0.0
  0
LINE
  5
183
330
16D
100
AcDbEntity
  8
0
  6
Continuous
 62
     0
370
     0
100
AcDbLine
 10
106.94
 20
152.649
 30
0.0
 11
106.94
 21
179.682
 31
0.0
  0
LINE
  5
184
330
16D
100
AcDbEntity
  8
0
  6
Continuous
 62
     0
370
    30
100
AcDbLine
 10
107.44
 20
152.312
 30
0.0
 11
107.44
 21
180.019
 31
0.0
  0
LINE
  5
185
330
16D
100
AcDbEntity
  8
0
  6
Continuous
 62
     0
370
     0
100
AcDbLine
 10
106.94
 20
150.171
 30
0.0
 11
106.94
 21
152.649
 31
0.0
  0
LINE
  5
186
330
16D
100
AcDbEntity
  8
0
  6
Continuous
 62
     0
370
    30
100
AcDbLine
 10
107.44
 20
149.669
 30
0.0
 11
107.44
 21
152.312
 31
0.0
  0
LINE
  5
187
330
16D
100
AcDbEntity
  8
0
  6
Continuous
 62
     0
370
     0
100
AcDbLine
 10
106.94
 20
179.682
 30
0.0
 11
106.94
 21
182.16
 31
0.0
  0
LINE
  5
188
330
16D
100
AcDbEntity
  8
0
  6
Continuous
 62
     0
370
    30
100
AcDbLine
 10
107.44
 20
180.019
 30
0.0
 11
107.44
 21
182.661
 31
0.0
  0
LINE
  5
189
330
16D
100
AcDbEntity
  8
0
  6
Continuous
 62
     0
370
    30
100
AcDbLine
 10
106.94
 20
152.649
 30
0.0
 11
92.44
 21
152.649
 31
0.0
  0
LINE
  5
18A
330
16D
100
AcDbEntity
  8
0
  6
Continuous
 62
     0
370
    30
100
AcDbLine
 10
106.94
 20
179.682
 30
0.0
 11
92.44
 21
179.682
 31
0.0
  0
LINE
  5
18B
330
16D
100
AcDbEntity
  8
0
  6
Continuous
 62
     0
370
    30
100
AcDbLine
 10
107.44
 20
149.669
 30
0.0
 11
107.44
 21
148.165
 31
0.0
  0
LINE
  5
18C
330
16D
100
AcDbEntity
  8
0
  6
Continuous
 62
     0
370
    30
100
AcDbLine
 10
107.44
 20
184.165
 30
0.0
 11
107.44
 21
182.661
 31
0.0
  0
LINE
  5
18D
330
16D
100
AcDbEntity
  8
0
  6
Continuous
 62
     0
370
    30
100
AcDbLine
 10
106.94
 20
150.171
 30
0.0
 11
92.44
 21
150.171
 31
0.0
  0
ELLIPSE
  5
18E
330
16D
100
AcDbEntity
  8
0
  6
Continuous
 62
     0
370
    30
100
AcDbEllipse
 10
106.94
 20
149.669
 30
0.0
 11
-3.069982688500780E-17
 21
0.5013662209607227
 31
0.0
210
0.0
220
0.0
230
-1.0
 40
0.997
 41
0.0000000000000027
 42
1.570796326794904
  0
LINE
  5
18F
330
16D
100
AcDbEntity
  8
0
  6
Continuous
 62
     0
370
    30
100
AcDbLine
 10
106.94
 20
182.16
 30
0.0
 11
92.44
 21
182.16
 31
0.0
  0
ELLIPSE
  5
190
330
16D
100
AcDbEntity
  8
0
  6
Continuous
 62
     0
370
    30
100
AcDbEllipse
 10
106.94
 20
182.661
 30
0.0
 11
-3.069982688500780E-17
 21
0.5013662209607227
 31
0.0
210
0.0
220
0.0
230
1.0
 40
0.997
 41
3.141592653589793
 42
4.712388980384537
  0
SPLINE
  5
191
330
16D
100
AcDbEntity
  8
0
  6
Continuous
 62
     0
370
    30
100
AcDbSpline
210
0.0
220
0.0
230
1.0
 70
     8
 71
     3
 72
    17
 73
    13
 74
     0
 42
0.0
 43
0.0
 40
0.0
 40
0.0
 40
0.0
 40
0.0
 40
0.6835918551105205
 40
1.131625414931939
 40
1.424248919132698
 40
1.626536047472337
 40
1.910019493130348
 40
2.023801601995797
 40
2.121969918212763
 40
2.23031157501165
 40
2.318923758272119
 40
2.393136499151642
 40
2.393136499151642
 40
2.393136499151642
 40
2.393136499151642
 10
107.4402828216553
 20
180.0189100884237
 30
0.0
 10
107.4402828216553
 20
179.9932341278363
 30
0.0
 10
107.431649778787
 20
179.9463627620283
 30
0.0
 10
107.3930950395098
 20
179.8787018887175
 30
0.0
 10
107.3499727204238
 20
179.8304262547334
 30
0.0
 10
107.300514772509
 20
179.7889311255094
 30
0.0
 10
107.2487616793432
 20
179.7559299078877
 30
0.0
 10
107.188846400545
 20
179.7287273449383
 30
0.0
 10
107.1413881967257
 20
179.7115166256548
 30
0.0
 10
107.0862168273744
 20
179.6965597810994
 30
0.0
 10
107.01865993394
 20
179.6851085228426
 30
0.0
 10
106.9647820816529
 20
179.6819709863779
 30
0.0
 10
106.9402828216553
 20
179.6819709863779
 30
0.0
  0
SPLINE
  5
192
330
16D
100
AcDbEntity
  8
0
  6
Continuous
 62
     0
370
    30
100
AcDbSpline
210
0.0
220
0.0
230
1.0
 70
     8
 71
     3
 72
    17
 73
    13
 74
     0
 42
0.0
 43
0.0
 40
0.0
 40
0.0
 40
0.0
 40
0.0
 40
0.0742127408795118
 40
0.1628249241400738
 40
0.2711665809418802
 40
0.3693348971584408
 40
0.4831170060232541
 40
0.7666004516837877
 40
0.9688875800253619
 40
1.261530456190686
 40
1.709596873028996
 40
2.39313649892672
 40
2.39313649892672
 40
2.39313649892672
 40
2.39313649892672
 10
106.9402828216553
 20
152.648676469807
 30
0.0
 10
106.9647820816529
 20
152.648676469807
 30
0.0
 10
107.0186599339399
 20
152.6455389304514
 30
0.0
 10
107.0862168273758
 20
152.6340876615645
 30
0.0
 10
107.1413881967232
 20
152.6191308029246
 30
0.0
 10
107.1888464005584
 20
152.6019200671673
 30
0.0
 10
107.2487616792543
 20
152.5747174776953
 30
0.0
 10
107.3005147733045
 20
152.5417162268347
 30
0.0
 10
107.34997394893
 20
152.500220020662
 30
0.0
 10
107.3930980181703
 20
152.4519417387174
 30
0.0
 10
107.4316505194027
 20
152.3842813094052
 30
0.0
 10
107.4402828216553
 20
152.3374110182751
 30
0.0
 10
107.4402828216553
 20
152.3117369791274
 30
0.0
  0
ENDBLK
  5
194
330
16D
100
AcDbEntity
  8
0
100
AcDbBlockEnd
  0
ENDSEC
  0
SECTION
  2
ENTITIES
  0
INSERT
  5
78
330
1F
100
AcDbEntity
  8
0
  6
Continuous
 62
    72
370
     0
100
AcDbBlockReference
  2
a
 10
75.819
 20
-4.517
 30
0.0
  0
INSERT
  5
A1
330
1F
100
AcDbEntity
  8
0
  6
Continuous
 62
    72
370
     0
100
AcDbBlockReference
  2
f
 10
10.589
 20
-3.091
 30
0.0
  0
INSERT
  5
CE
330
1F
100
AcDbEntity
  8
0
  6
Continuous
 62
    72
370
     0
100
AcDbBlockReference
  2
g
 10
146.185
 20
-6.011
 30
0.0
  0
INSERT
  5
FA
330
1F
100
AcDbEntity
  8
0
  6
Continuous
 62
    72
370
     0
100
AcDbBlockReference
  2
b
 10
-9.956
 20
-7.189
 30
0.0
  0
INSERT
  5
13C
330
1F
100
AcDbEntity
  8
0
  6
Continuous
 62
    72
370
     0
100
AcDbBlockReference
  2
c
 10
75.001
 20
-85.387
 30
0.0
  0
INSERT
  5
16C
330
1F
100
AcDbEntity
  8
0
  6
Continuous
 62
    72
370
     0
100
AcDbBlockReference
  2
d
 10
72.702
 20
-85.387
 30
0.0
  0
INSERT
  5
195
330
1F
100
AcDbEntity
  8
0
  6
Continuous
 62
    72
370
     0
100
AcDbBlockReference
  2
e
 10
-9.956
 20
66.331
 30
0.0
  0
ENDSEC
  0
SECTION
  2
OBJECTS
  0
DICTIONARY
  5
C
330
0
100
AcDbDictionary
281
     1
  3
ACAD_GROUP
350
D
  3
ACAD_LAYOUT
350
1A
  3
ACAD_MLEADERSTYLE
350
197
  3
ACAD_MLINESTYLE
350
17
  3
ACAD_PLOTSETTINGS
350
19
  3
ACAD_PLOTSTYLENAME
350
E
  3
ACAD_TABLESTYLE
350
196
  3
ACAD_VISUALSTYLE
350
2A
  0
DICTIONARY
  5
D
102
{ACAD_REACTORS
330
C
102
}
330
C
100
AcDbDictionary
281
     1
  0
DICTIONARY
  5
1A
102
{ACAD_REACTORS
330
C
102
}
330
C
100
AcDbDictionary
281
     1
  3
Layout1
350
1E
  3
Layout2
350
26
  3
Model
350
22
  0
DICTIONARY
  5
197
102
{ACAD_REACTORS
330
C
102
}
330
C
100
AcDbDictionary
281
     1
  0
DICTIONARY
  5
17
102
{ACAD_REACTORS
330
C
102
}
330
C
100
AcDbDictionary
281
     1
  3
Standard
350
18
  0
DICTIONARY
  5
19
102
{ACAD_REACTORS
330
C
102
}
330
C
100
AcDbDictionary
281
     1
  0
ACDBDICTIONARYWDFLT
  5
E
102
{ACAD_REACTORS
330
C
102
}
330
C
100
AcDbDictionary
281
     1
  3
Normal
350
F
100
AcDbDictionaryWithDefault
340
F
  0
DICTIONARY
  5
196
102
{ACAD_REACTORS
330
C
102
}
330
C
100
AcDbDictionary
281
     1
  0
DICTIONARY
  5
2A
102
{ACAD_REACTORS
330
C
102
}
330
C
100
AcDbDictionary
281
     1
  3
2dWireframe
350
2F
  3
3D Hidden
350
31
  3
3dWireframe
350
30
  3
Basic
350
32
  3
Brighten
350
36
  3
ColorChange
350
3A
  3
Conceptual
350
34
  3
Dim
350
35
  3
Facepattern
350
39
  3
Flat
350
2B
  3
FlatWithEdges
350
2C
  3
Gouraud
350
2D
  3
GouraudWithEdges
350
2E
  3
Linepattern
350
38
  3
Realistic
350
33
  3
Thicken
350
37
  0
LAYOUT
  5
1E
102
{ACAD_REACTORS
330
1A
102
}
330
1A
100
AcDbPlotSettings
  1

  2
none_device
  4

  6

 40
0.0
 41
0.0
 42
0.0
 43
0.0
 44
0.0
 45
0.0
 46
0.0
 47
0.0
 48
0.0
 49
0.0
140
0.0
141
0.0
142
1.0
143
1.0
 70
   688
 72
     0
 73
     0
 74
     5
  7

 75
    16
 76
     0
 77
     2
 78
   300
147
1.0
148
0.0
149
0.0
100
AcDbLayout
  1
Layout1
 70
     1
 71
     1
 10
0.0
 20
0.0
 11
420.0
 21
297.0
 12
0.0
 22
0.0
 32
0.0
 14
1.000E+20
 24
1.000E+20
 34
1.000E+20
 15
-1.000E+20
 25
-1.000E+20
 35
-1.000E+20
146
0.0
 13
0.0
 23
0.0
 33
0.0
 16
1.0
 26
0.0
 36
0.0
 17
0.0
 27
1.0
 37
0.0
 76
     0
330
1B
  0
LAYOUT
  5
26
102
{ACAD_REACTORS
330
1A
102
}
330
1A
100
AcDbPlotSettings
  1

  2
none_device
  4

  6

 40
0.0
 41
0.0
 42
0.0
 43
0.0
 44
0.0
 45
0.0
 46
0.0
 47
0.0
 48
0.0
 49
0.0
140
0.0
141
0.0
142
1.0
143
1.0
 70
   688
 72
     0
 73
     0
 74
     5
  7

 75
    16
 76
     0
 77
     2
 78
   300
147
1.0
148
0.0
149
0.0
100
AcDbLayout
  1
Layout2
 70
     1
 71
     2
 10
0.0
 20
0.0
 11
0.0
 21
0.0
 12
0.0
 22
0.0
 32
0.0
 14
0.0
 24
0.0
 34
0.0
 15
0.0
 25
0.0
 35
0.0
146
0.0
 13
0.0
 23
0.0
 33
0.0
 16
1.0
 26
0.0
 36
0.0
 17
0.0
 27
1.0
 37
0.0
 76
     0
330
23
  0
LAYOUT
  5
22
102
{ACAD_REACTORS
330
1A
102
}
330
1A
100
AcDbPlotSettings
  1

  2
none_device
  4

  6

 40
0.0
 41
0.0
 42
0.0
 43
0.0
 44
0.0
 45
0.0
 46
0.0
 47
0.0
 48
0.0
 49
0.0
140
0.0
141
0.0
142
1.0
143
1.0
 70
  1712
 72
     0
 73
     0
 74
     0
  7

 75
     0
 76
     0
 77
     2
 78
   300
147
1.0
148
0.0
149
0.0
100
AcDbLayout
  1
Model
 70
     1
 71
     0
 10
0.0
 20
0.0
 11
420.0
 21
297.0
 12
0.0
 22
0.0
 32
0.0
 14
1.000E+20
 24
1.000E+20
 34
1.000E+20
 15
-1.000E+20
 25
-1.000E+20
 35
-1.000E+20
146
0.0
 13
0.0
 23
0.0
 33
0.0
 16
1.0
 26
0.0
 36
0.0
 17
0.0
 27
1.0
 37
0.0
 76
     0
330
1F
331
29
  0
MLINESTYLE
  5
18
102
{ACAD_REACTORS
330
17
102
}
330
17
100
AcDbMlineStyle
  2
Standard
 70
     0
  3

 62
   256
 51
90.0
 52
90.0
 71
     2
 49
0.5
 62
   256
  6
BYLAYER
 49
-0.5
 62
   256
  6
BYLAYER
  0
ACDBPLACEHOLDER
  5
F
102
{ACAD_REACTORS
330
E
102
}
330
E
  0
VISUALSTYLE
  5
2F
102
{ACAD_REACTORS
330
2A
102
}
330
2A
100
AcDbVisualStyle
  2
2dWireframe
 70
     4
 71
     0
 72
     2
 73
     0
 90
        0
 40
-0.6
 41
-30.0
 62
     5
 63
     7
421
 16777215
 74
     1
 91
        4
 64
     7
 65
   257
 75
     1
175
     1
 42
1.0
 92
        0
 66
   257
 43
1.0
 76
     1
 77
     6
 78
     2
 67
     7
 79
     5
170
     0
171
     0
290
     0
174
     0
 93
        1
 44
0.0
173
     0
291
     0
 45
0.0
1001
ACAD
1000
AcDbSavedByObjectVersion
1070
     0
  0
VISUALSTYLE
  5
31
102
{ACAD_REACTORS
330
2A
102
}
330
2A
100
AcDbVisualStyle
  2
3D Hidden
 70
     6
 71
     1
 72
     2
 73
     2
 90
        0
 40
-0.6
 41
-30.0
 62
     5
 63
     7
421
 16777215
 74
     2
 91
        2
 64
     7
 65
   257
 75
     2
175
     1
 42
40.0
 92
        0
 66
   257
 43
1.0
 76
     1
 77
     6
 78
     2
 67
     7
 79
     3
170
     0
171
     0
290
     0
174
     0
 93
        1
 44
0.0
173
     0
291
     0
 45
0.0
1001
ACAD
1000
AcDbSavedByObjectVersion
1070
     0
  0
VISUALSTYLE
  5
30
102
{ACAD_REACTORS
330
2A
102
}
330
2A
100
AcDbVisualStyle
  2
3dWireframe
 70
     5
 71
     0
 72
     2
 73
     0
 90
        0
 40
-0.6
 41
-30.0
 62
     5
 63
     7
421
 16777215
 74
     1
 91
        4
 64
     7
 65
   257
 75
     1
175
     1
 42
1.0
 92
        0
 66
   257
 43
1.0
 76
     1
 77
     6
 78
     2
 67
     7
 79
     5
170
     0
171
     0
290
     0
174
     0
 93
        1
 44
0.0
173
     0
291
     0
 45
0.0
1001
ACAD
1000
AcDbSavedByObjectVersion
1070
     0
  0
VISUALSTYLE
  5
32
102
{ACAD_REACTORS
330
2A
102
}
330
2A
100
AcDbVisualStyle
  2
Basic
 70
     7
 71
     1
 72
     0
 73
     1
 90
        0
 40
-0.6
 41
-30.0
 62
     5
 63
     7
421
 16777215
 74
     0
 91
        4
 64
     7
 65
   257
 75
     1
175
     1
 42
1.0
 92
        8
 66
     7
 43
1.0
 76
     1
 77
     6
 78
     2
 67
     7
 79
     5
170
     0
171
     0
290
     0
174
     0
 93
        1
 44
0.0
173
     0
291
     1
 45
0.0
1001
ACAD
1000
AcDbSavedByObjectVersion
1070
     0
  0
VISUALSTYLE
  5
36
102
{ACAD_REACTORS
330
2A
102
}
330
2A
100
AcDbVisualStyle
  2
Brighten
 70
    12
 71
     2
 72
     2
 73
     0
 90
        0
 40
-0.6
 41
-30.0
 62
     5
 63
     7
421
 16777215
 74
     1
 91
        4
 64
     7
 65
   257
 75
     1
175
     1
 42
1.0
 92
        8
 66
     7
 43
1.0
 76
     1
 77
     6
 78
     2
 67
     7
 79
     5
170
     0
171
     0
290
     0
174
     0
 93
        1
 44
50.0
173
     0
291
     1
 45
0.0
1001
ACAD
1000
AcDbSavedByObjectVersion
1070
     0
  0
VISUALSTYLE
  5
3A
102
{ACAD_REACTORS
330
2A
102
}
330
2A
100
AcDbVisualStyle
  2
ColorChange
 70
    16
 71
     2
 72
     2
 73
     3
 90
        0
 40
-0.6
 41
-30.0
 62
     5
 63
     8
421
  8421504
 74
     1
 91
        4
 64
     7
 65
   257
 75
     1
175
     1
 42
1.0
 92
        8
 66
     8
424
  8421504
 43
1.0
 76
     1
 77
     6
 78
     2
 67
     7
 79
     5
170
     0
171
     0
290
     0
174
     0
 93
        1
 44
0.0
173
     0
291
     1
 45
0.0
1001
ACAD
1000
AcDbSavedByObjectVersion
1070
     0
  0
VISUALSTYLE
  5
34
102
{ACAD_REACTORS
330
2A
102
}
330
2A
100
AcDbVisualStyle
  2
Conceptual
 70
     9
 71
     3
 72
     2
 73
     0
 90
        0
 40
-0.6
 41
-30.0
 62
     5
 63
     7
421
 16777215
 74
     2
 91
        2
 64
     7
 65
   257
 75
     1
175
     1
 42
40.0
 92
        8
 66
     7
 43
1.0
 76
     1
 77
     6
 78
     2
 67
     7
 79
     3
170
     0
171
     0
290
     0
174
     0
 93
        1
 44
0.0
173
     0
291
     0
 45
0.0
1001
ACAD
1000
AcDbSavedByObjectVersion
1070
     0
  0
VISUALSTYLE
  5
35
102
{ACAD_REACTORS
330
2A
102
}
330
2A
100
AcDbVisualStyle
  2
Dim
 70
    11
 71
     2
 72
     2
 73
     0
 90
        0
 40
-0.6
 41
-30.0
 62
     5
 63
     7
421
 16777215
 74
     1
 91
        4
 64
     7
 65
   257
 75
     1
175
     1
 42
1.0
 92
        8
 66
     7
 43
1.0
 76
     1
 77
     6
 78
     2
 67
     7
 79
     5
170
     0
171
     0
290
     0
174
     0
 93
        1
 44
-50.0
173
     0
291
     1
 45
0.0
1001
ACAD
1000
AcDbSavedByObjectVersion
1070
     0
  0
VISUALSTYLE
  5
39
102
{ACAD_REACTORS
330
2A
102
}
330
2A
100
AcDbVisualStyle
  2
Facepattern
 70
    15
 71
     2
 72
     2
 73
     0
 90
        0
 40
-0.6
 41
-30.0
 62
     5
 63
     7
421
 16777215
 74
     1
 91
        4
 64
     7
 65
   257
 75
     1
175
     1
 42
1.0
 92
        8
 66
     7
 43
1.0
 76
     1
 77
     6
 78
     2
 67
     7
 79
     5
170
     0
171
     0
290
     0
174
     0
 93
        1
 44
0.0
173
     0
291
     1
 45
0.0
1001
ACAD
1000
AcDbSavedByObjectVersion
1070
     0
  0
VISUALSTYLE
  5
2B
102
{ACAD_REACTORS
330
2A
102
}
330
2A
100
AcDbVisualStyle
  2
Flat
 70
     0
 71
     2
 72
     1
 73
     1
 90
        2
 40
-0.6
 41
30.0
 62
     5
 63
     7
421
 16777215
 74
     0
 91
        4
 64
     7
 65
   257
 75
     1
175
     1
 42
1.0
 92
        8
 66
     7
 43
1.0
 76
     1
 77
     6
 78
     2
 67
     7
 79
     5
170
     0
171
     0
290
     0
174
     0
 93
       13
 44
0.0
173
     0
291
     1
 45
0.0
1001
ACAD
1000
AcDbSavedByObjectVersion
1070
     0
  0
VISUALSTYLE
  5
2C
102
{ACAD_REACTORS
330
2A
102
}
330
2A
100
AcDbVisualStyle
  2
FlatWithEdges
 70
     1
 71
     2
 72
     1
 73
     1
 90
        2
 40
-0.6
 41
30.0
 62
     5
 63
     7
421
 16777215
 74
     1
 91
        4
 64
     7
 65
   257
 75
     1
175
     1
 42
1.0
 92
        0
 66
   257
 43
1.0
 76
     1
 77
     6
 78
     2
 67
     7
 79
     5
170
     0
171
     0
290
     0
174
     0
 93
       13
 44
0.0
173
     0
291
     1
 45
0.0
1001
ACAD
1000
AcDbSavedByObjectVersion
1070
     0
  0
VISUALSTYLE
  5
2D
102
{ACAD_REACTORS
330
2A
102
}
330
2A
100
AcDbVisualStyle
  2
Gouraud
 70
     2
 71
     2
 72
     2
 73
     1
 90
        2
 40
-0.6
 41
30.0
 62
     5
 63
     7
421
 16777215
 74
     0
 91
        4
 64
     7
 65
   257
 75
     1
175
     1
 42
1.0
 92
        0
 66
     7
 43
1.0
 76
     1
 77
     6
 78
     2
 67
     7
 79
     5
170
     0
171
     0
290
     0
174
     0
 93
       13
 44
0.0
173
     0
291
     1
 45
0.0
1001
ACAD
1000
AcDbSavedByObjectVersion
1070
     0
  0
VISUALSTYLE
  5
2E
102
{ACAD_REACTORS
330
2A
102
}
330
2A
100
AcDbVisualStyle
  2
GouraudWithEdges
 70
     3
 71
     2
 72
     2
 73
     1
 90
        2
 40
-0.6
 41
30.0
 62
     5
 63
     7
421
 16777215
 74
     1
 91
        4
 64
     7
 65
   257
 75
     1
175
     1
 42
1.0
 92
        0
 66
   257
 43
1.0
 76
     1
 77
     6
 78
     2
 67
     7
 79
     5
170
     0
171
     0
290
     0
174
     0
 93
       13
 44
0.0
173
     0
291
     1
 45
0.0
1001
ACAD
1000
AcDbSavedByObjectVersion
1070
     0
  0
VISUALSTYLE
  5
38
102
{ACAD_REACTORS
330
2A
102
}
330
2A
100
AcDbVisualStyle
  2
Linepattern
 70
    14
 71
     2
 72
     2
 73
     0
 90
        0
 40
-0.6
 41
-30.0
 62
     5
 63
     7
421
 16777215
 74
     1
 91
        4
 64
     7
 65
   257
 75
     7
175
     7
 42
1.0
 92
        8
 66
     7
 43
1.0
 76
     1
 77
     6
 78
     2
 67
     7
 79
     5
170
     0
171
     0
290
     0
174
     0
 93
        1
 44
0.0
173
     0
291
     1
 45
0.0
1001
ACAD
1000
AcDbSavedByObjectVersion
1070
     0
  0
VISUALSTYLE
  5
33
102
{ACAD_REACTORS
330
2A
102
}
330
2A
100
AcDbVisualStyle
  2
Realistic
 70
     8
 71
     2
 72
     2
 73
     0
 90
        0
 40
-0.6
 41
-30.0
 62
     5
 63
     7
421
 16777215
 74
     1
 91
        0
 64
     7
 65
   257
 75
     1
175
     1
 42
1.0
 92
        8
 66
     8
424
  7895160
 43
1.0
 76
     1
 77
     6
 78
     2
 67
     7
 79
     5
170
     0
171
     0
290
     0
174
     0
 93
       13
 44
0.0
173
     0
291
     0
 45
0.0
1001
ACAD
1000
AcDbSavedByObjectVersion
1070
     0
  0
VISUALSTYLE
  5
37
102
{ACAD_REACTORS
330
2A
102
}
330
2A
100
AcDbVisualStyle
  2
Thicken
 70
    13
 71
     2
 72
     2
 73
     0
 90
        0
 40
-0.6
 41
-30.0
 62
     5
 63
     7
421
 16777215
 74
     1
 91
        4
 64
     7
 65
   257
 75
     1
175
     1
 42
1.0
 92
       12
 66
     7
 43
1.0
 76
     1
 77
     6
 78
     2
 67
     7
 79
     5
170
     0
171
     0
290
     0
174
     0
 93
        1
 44
0.0
173
     0
291
     1
 45
0.0
1001
ACAD
1000
AcDbSavedByObjectVersion
1070
     0
  0
ENDSEC
  0
EOF
