  0
SECTION
  2
HEADER
  9
$ACADVER
  1
AC1027
  9
$ACADMAINTVER
 70
   106
  9
$DWGCODEPAGE
  3
ANSI_1252
  9
$AUTHOR
  1
fzagni
  9
$REVISIONNUMBER
  1
A
  9
$CUSTOMPROPERTYTAG
  1
Responsabile
  9
$CUSTOMPROPERTY
  1

  9
$CUSTOMPROPERTYTAG
  1
Società
  9
$CUSTOMPROPERTY
  1

  9
$CUSTOMPROPERTYTAG
  1
Categoria
  9
$CUSTOMPROPERTY
  1

  9
$CUSTOMPROPERTYTAG
  1
Numero parte
  9
$CUSTOMPROPERTY
  1

  9
$CUSTOMPROPERTYTAG
  1
Descrizione
  9
$CUSTOMPROPERTY
  1

  9
$CUSTOMPROPERTYTAG
  1
Progetto
  9
$CUSTOMPROPERTY
  1

  9
$CUSTOMPROPERTYTAG
  1
Progettista
  9
$CUSTOMPROPERTY
  1
fzagni
  9
$CUSTOMPROPERTYTAG
  1
Ingegnere
  9
$CUSTOMPROPERTY
  1

  9
$CUSTOMPROPERTYTAG
  1
Autorità
  9
$CUSTOMPROPERTY
  1

  9
$CUSTOMPROPERTYTAG
  1
Centro gestione costi
  9
$CUSTOMPROPERTY
  1

  9
$CUSTOMPROPERTYTAG
  1
Costo
  9
$CUSTOMPROPERTY
  1

  9
$CUSTOMPROPERTYTAG
  1
Fornitore
  9
$CUSTOMPROPERTY
  1

  9
$CUSTOMPROPERTYTAG
  1
Stato utente
  9
$CUSTOMPROPERTY
  1

  9
$CUSTOMPROPERTYTAG
  1
Stato progetto
  9
$CUSTOMPROPERTY
  1
In corso
  9
$CUSTOMPROPERTYTAG
  1
Verificato da
  9
$CUSTOMPROPERTY
  1

  9
$CUSTOMPROPERTYTAG
  1
Progett. approvata da
  9
$CUSTOMPROPERTY
  1

  9
$CUSTOMPROPERTYTAG
  1
Prod. approvata da
  9
$CUSTOMPROPERTY
  1

  9
$CUSTOMPROPERTYTAG
  1
Data creazione
  9
$CUSTOMPROPERTY
  1
01/30/2018
  9
$CUSTOMPROPERTYTAG
  1
Numero di magazzino
  9
$CUSTOMPROPERTY
  1

  9
$CUSTOMPROPERTYTAG
  1
Codice Articolo
  9
$CUSTOMPROPERTY
  1

  9
$CUSTOMPROPERTYTAG
  1
PRMT_ClassIntName
  9
$CUSTOMPROPERTY
  1
DR_Albero_RI
  9
$CUSTOMPROPERTYTAG
  1
CLIENTE
  9
$CUSTOMPROPERTY
  1

  9
$CUSTOMPROPERTYTAG
  1
COD_CLIENTE
  9
$CUSTOMPROPERTY
  1

  9
$CUSTOMPROPERTYTAG
  1
CODICE_MATERIALE
  9
$CUSTOMPROPERTY
  1

  9
$CUSTOMPROPERTYTAG
  1
DESCRIZIONE2
  9
$CUSTOMPROPERTY
  1

  9
$CUSTOMPROPERTYTAG
  1
DIM1
  9
$CUSTOMPROPERTY
  1

  9
$CUSTOMPROPERTYTAG
  1
DIM2
  9
$CUSTOMPROPERTY
  1

  9
$CUSTOMPROPERTYTAG
  1
MOD_REV
  9
$CUSTOMPROPERTY
  1

  9
$CUSTOMPROPERTYTAG
  1
PESO
  9
$CUSTOMPROPERTY
  1

  9
$CUSTOMPROPERTYTAG
  1
REV
  9
$CUSTOMPROPERTY
  1
A
  9
$CUSTOMPROPERTYTAG
  1
RIF_ORDINE
  9
$CUSTOMPROPERTY
  1

  9
$CUSTOMPROPERTYTAG
  1
SOVRAMETALLO
  9
$CUSTOMPROPERTY
  1

  9
$CUSTOMPROPERTYTAG
  1
SPECIFICHE_TAGLIO
  9
$CUSTOMPROPERTY
  1

  9
$CUSTOMPROPERTYTAG
  1
TIPO_MAT
  9
$CUSTOMPROPERTY
  1

  9
$CUSTOMPROPERTYTAG
  1
TRATT_TERM
  9
$CUSTOMPROPERTY
  1

  9
$CUSTOMPROPERTYTAG
  1
TRATTAMENTI
  9
$CUSTOMPROPERTY
  1

  9
$CUSTOMPROPERTYTAG
  1
UM
  9
$CUSTOMPROPERTY
  1

  9
$CUSTOMPROPERTYTAG
  1
D_Bollatura
  9
$CUSTOMPROPERTY
  1
 - x
  9
$REQUIREDVERSIONS
160
                 0
  9
$INSBASE
 10
0.0
 20
0.0
 30
0.0
  9
$EXTMIN
 10
0.0
 20
0.0
 30
0.0
  9
$EXTMAX
 10
420.0
 20
297.0
 30
0.0
  9
$LIMMIN
 10
0.0
 20
0.0
  9
$LIMMAX
 10
420.0
 20
297.0
  9
$ORTHOMODE
 70
     0
  9
$REGENMODE
 70
     1
  9
$FILLMODE
 70
     1
  9
$QTEXTMODE
 70
     0
  9
$MIRRTEXT
 70
     0
  9
$LTSCALE
 40
1.0
  9
$ATTMODE
 70
     1
  9
$TEXTSIZE
 40
0.2
  9
$TRACEWID
 40
0.05
  9
$TEXTSTYLE
  7
Standard
  9
$CLAYER
  8
0
  9
$CELTYPE
  6
ByLayer
  9
$CECOLOR
 62
   256
  9
$CELTSCALE
 40
1.0
  9
$DISPSILH
 70
     0
  9
$DIMSCALE
 40
1.0
  9
$DIMASZ
 40
1.799999999999999
  9
$DIMEXO
 40
0.0625
  9
$DIMDLI
 40
0.38
  9
$DIMRND
 40
0.0
  9
$DIMDLE
 40
0.0
  9
$DIMEXE
 40
0.18
  9
$DIMTP
 40
0.0
  9
$DIMTM
 40
0.0
  9
$DIMTXT
 40
0.3000000119209289
  9
$DIMCEN
 40
0.09
  9
$DIMTSZ
 40
0.0
  9
$DIMTOL
 70
     0
  9
$DIMLIM
 70
     0
  9
$DIMTIH
 70
     1
  9
$DIMTOH
 70
     1
  9
$DIMSE1
 70
     0
  9
$DIMSE2
 70
     0
  9
$DIMTAD
 70
     0
  9
$DIMZIN
 70
     0
  9
$DIMBLK
  1

  9
$DIMASO
 70
     1
  9
$DIMSHO
 70
     1
  9
$DIMPOST
  1

  9
$DIMAPOST
  1

  9
$DIMALT
 70
     0
  9
$DIMALTD
 70
     2
  9
$DIMALTF
 40
25.4
  9
$DIMLFAC
 40
1.0
  9
$DIMTOFL
 70
     0
  9
$DIMTVP
 40
0.0
  9
$DIMTIX
 70
     0
  9
$DIMSOXD
 70
     0
  9
$DIMSAH
 70
     0
  9
$DIMBLK1
  1

  9
$DIMBLK2
  1

  9
$DIMSTYLE
  2
Standard
  9
$DIMCLRD
 70
     0
  9
$DIMCLRE
 70
     0
  9
$DIMCLRT
 70
     0
  9
$DIMTFAC
 40
1.0
  9
$DIMGAP
 40
0.09
  9
$DIMJUST
 70
     0
  9
$DIMSD1
 70
     0
  9
$DIMSD2
 70
     0
  9
$DIMTOLJ
 70
     1
  9
$DIMTZIN
 70
     0
  9
$DIMALTZ
 70
     0
  9
$DIMALTTZ
 70
     0
  9
$DIMUPT
 70
     0
  9
$DIMDEC
 70
     4
  9
$DIMTDEC
 70
     4
  9
$DIMALTU
 70
     2
  9
$DIMALTTD
 70
     2
  9
$DIMTXSTY
  7
Standard
  9
$DIMAUNIT
 70
     0
  9
$DIMADEC
 70
     0
  9
$DIMALTRND
 40
0.0
  9
$DIMAZIN
 70
     0
  9
$DIMDSEP
 70
    46
  9
$DIMATFIT
 70
     3
  9
$DIMFRAC
 70
     0
  9
$DIMLDRBLK
  1

  9
$DIMLUNIT
 70
     2
  9
$DIMLWD
 70
    -2
  9
$DIMLWE
 70
    -2
  9
$DIMTMOVE
 70
     0
  9
$DIMFXL
 40
1.0
  9
$DIMFXLON
 70
     0
  9
$DIMJOGANG
 40
0.7853981633974483
  9
$DIMTFILL
 70
     0
  9
$DIMTFILLCLR
 70
     0
  9
$DIMARCSYM
 70
     0
  9
$DIMLTYPE
  6

  9
$DIMLTEX1
  6

  9
$DIMLTEX2
  6

  9
$DIMTXTDIRECTION
 70
     0
  9
$LUNITS
 70
     2
  9
$LUPREC
 70
     4
  9
$SKETCHINC
 40
0.1
  9
$FILLETRAD
 40
0.0
  9
$AUNITS
 70
     0
  9
$AUPREC
 70
     0
  9
$MENU
  1
.
  9
$ELEVATION
 40
0.0
  9
$PELEVATION
 40
0.0
  9
$THICKNESS
 40
0.0
  9
$LIMCHECK
 70
     0
  9
$CHAMFERA
 40
0.0
  9
$CHAMFERB
 40
0.0
  9
$CHAMFERC
 40
0.0
  9
$CHAMFERD
 40
0.0
  9
$SKPOLY
 70
     0
  9
$TDCREATE
 40
2458149.626709271
  9
$TDUCREATE
 40
2458149.585042604
  9
$TDUPDATE
 40
2458149.626709271
  9
$TDUUPDATE
 40
2458149.585042604
  9
$TDINDWG
 40
0.0000083912
  9
$TDUSRTIMER
 40
0.0000083912
  9
$USRTIMER
 70
     1
  9
$ANGBASE
 50
0.0
  9
$ANGDIR
 70
     0
  9
$PDMODE
 70
     0
  9
$PDSIZE
 40
0.0
  9
$PLINEWID
 40
0.0
  9
$SPLFRAME
 70
     0
  9
$SPLINETYPE
 70
     6
  9
$SPLINESEGS
 70
     8
  9
$HANDSEED
  5
362
  9
$SURFTAB1
 70
     6
  9
$SURFTAB2
 70
     6
  9
$SURFTYPE
 70
     6
  9
$SURFU
 70
     6
  9
$SURFV
 70
     6
  9
$UCSBASE
  2

  9
$UCSNAME
  2

  9
$UCSORG
 10
0.0
 20
0.0
 30
0.0
  9
$UCSXDIR
 10
1.0
 20
0.0
 30
0.0
  9
$UCSYDIR
 10
0.0
 20
1.0
 30
0.0
  9
$UCSORTHOREF
  2

  9
$UCSORTHOVIEW
 70
     0
  9
$UCSORGTOP
 10
0.0
 20
0.0
 30
0.0
  9
$UCSORGBOTTOM
 10
0.0
 20
0.0
 30
0.0
  9
$UCSORGLEFT
 10
0.0
 20
0.0
 30
0.0
  9
$UCSORGRIGHT
 10
0.0
 20
0.0
 30
0.0
  9
$UCSORGFRONT
 10
0.0
 20
0.0
 30
0.0
  9
$UCSORGBACK
 10
0.0
 20
0.0
 30
0.0
  9
$PUCSBASE
  2

  9
$PUCSNAME
  2

  9
$PUCSORG
 10
0.0
 20
0.0
 30
0.0
  9
$PUCSXDIR
 10
1.0
 20
0.0
 30
0.0
  9
$PUCSYDIR
 10
0.0
 20
1.0
 30
0.0
  9
$PUCSORTHOREF
  2

  9
$PUCSORTHOVIEW
 70
     0
  9
$PUCSORGTOP
 10
0.0
 20
0.0
 30
0.0
  9
$PUCSORGBOTTOM
 10
0.0
 20
0.0
 30
0.0
  9
$PUCSORGLEFT
 10
0.0
 20
0.0
 30
0.0
  9
$PUCSORGRIGHT
 10
0.0
 20
0.0
 30
0.0
  9
$PUCSORGFRONT
 10
0.0
 20
0.0
 30
0.0
  9
$PUCSORGBACK
 10
0.0
 20
0.0
 30
0.0
  9
$USERI1
 70
     0
  9
$USERI2
 70
     0
  9
$USERI3
 70
     0
  9
$USERI4
 70
     0
  9
$USERI5
 70
     0
  9
$USERR1
 40
0.0
  9
$USERR2
 40
0.0
  9
$USERR3
 40
0.0
  9
$USERR4
 40
0.0
  9
$USERR5
 40
0.0
  9
$WORLDVIEW
 70
     1
  9
$SHADEDGE
 70
     3
  9
$SHADEDIF
 70
    70
  9
$TILEMODE
 70
     1
  9
$MAXACTVP
 70
    64
  9
$PINSBASE
 10
0.0
 20
0.0
 30
0.0
  9
$PLIMCHECK
 70
     0
  9
$PEXTMIN
 10
0.0
 20
0.0
 30
0.0
  9
$PEXTMAX
 10
420.0
 20
297.0
 30
0.0
  9
$PLIMMIN
 10
0.0
 20
0.0
  9
$PLIMMAX
 10
420.0
 20
297.0
  9
$UNITMODE
 70
     0
  9
$VISRETAIN
 70
     1
  9
$PLINEGEN
 70
     0
  9
$PSLTSCALE
 70
     1
  9
$TREEDEPTH
 70
  3020
  9
$CMLSTYLE
  2
Standard
  9
$CMLJUST
 70
     0
  9
$CMLSCALE
 40
1.0
  9
$PROXYGRAPHICS
 70
     1
  9
$MEASUREMENT
 70
     1
  9
$CELWEIGHT
370
    -1
  9
$ENDCAPS
280
     0
  9
$JOINSTYLE
280
     0
  9
$LWDISPLAY
290
     0
  9
$INSUNITS
 70
     4
  9
$HYPERLINKBASE
  1

  9
$STYLESHEET
  1

  9
$XEDIT
290
     1
  9
$CEPSNTYPE
380
     0
  9
$PSTYLEMODE
290
     1
  9
$FINGERPRINTGUID
  2
{B52E2553-3C2B-48D8-9123-751554EF9D62}
  9
$VERSIONGUID
  2
{1ED2C945-1B24-40A2-9D40-3A43B03449CE}
  9
$EXTNAMES
290
     1
  9
$PSVPSCALE
 40
0.0
  9
$OLESTARTUP
290
     0
  9
$SORTENTS
280
   127
  9
$INDEXCTL
280
     0
  9
$HIDETEXT
280
     1
  9
$XCLIPFRAME
280
     2
  9
$HALOGAP
280
     0
  9
$OBSCOLOR
 70
   257
  9
$OBSLTYPE
280
     0
  9
$INTERSECTIONDISPLAY
280
     0
  9
$INTERSECTIONCOLOR
 70
   257
  9
$DIMASSOC
280
     1
  9
$PROJECTNAME
  1

  9
$CAMERADISPLAY
290
     0
  9
$LENSLENGTH
 40
50.0
  9
$CAMERAHEIGHT
 40
0.0
  9
$STEPSPERSEC
 40
2.0
  9
$STEPSIZE
 40
6.0
  9
$3DDWFPREC
 40
2.0
  9
$PSOLWIDTH
 40
0.25
  9
$PSOLHEIGHT
 40
4.0
  9
$LOFTANG1
 40
1.570796326794896
  9
$LOFTANG2
 40
1.570796326794896
  9
$LOFTMAG1
 40
0.0
  9
$LOFTMAG2
 40
0.0
  9
$LOFTPARAM
 70
     7
  9
$LOFTNORMALS
280
     1
  9
$LATITUDE
 40
37.795
  9
$LONGITUDE
 40
-122.394
  9
$NORTHDIRECTION
 40
0.0
  9
$TIMEZONE
 70
 -8000
  9
$LIGHTGLYPHDISPLAY
280
     1
  9
$TILEMODELIGHTSYNCH
280
     1
  9
$CMATERIAL
347
11
  9
$SOLIDHIST
280
     0
  9
$SHOWHIST
280
     1
  9
$DWFFRAME
280
     2
  9
$DGNFRAME
280
     0
  9
$REALWORLDSCALE
290
     1
  9
$INTERFERECOLOR
 62
     1
  9
$INTERFEREOBJVS
345
33
  9
$INTERFEREVPVS
346
30
  9
$CSHADOW
280
     0
  9
$SHADOWPLANELOCATION
 40
0.0
  0
ENDSEC
  0
SECTION
  2
CLASSES
  0
CLASS
  1
ACDBDICTIONARYWDFLT
  2
AcDbDictionaryWithDefault
  3
ObjectDBX Classes
 90
        0
 91
        1
280
     0
281
     0
  0
CLASS
  1
MATERIAL
  2
AcDbMaterial
  3
ObjectDBX Classes
 90
     1153
 91
        3
280
     0
281
     0
  0
CLASS
  1
VISUALSTYLE
  2
AcDbVisualStyle
  3
ObjectDBX Classes
 90
     4095
 91
       24
280
     0
281
     0
  0
CLASS
  1
SCALE
  2
AcDbScale
  3
ObjectDBX Classes
 90
     1153
 91
       17
280
     0
281
     0
  0
CLASS
  1
TABLESTYLE
  2
AcDbTableStyle
  3
ObjectDBX Classes
 90
     4095
 91
        1
280
     0
281
     0
  0
CLASS
  1
MLEADERSTYLE
  2
AcDbMLeaderStyle
  3
ACDB_MLEADERSTYLE_CLASS
 90
     4095
 91
        1
280
     0
281
     0
  0
CLASS
  1
ACDBSECTIONVIEWSTYLE
  2
AcDbSectionViewStyle
  3
ObjectDBX Classes
 90
     1025
 91
        1
280
     0
281
     0
  0
CLASS
  1
ACDBDETAILVIEWSTYLE
  2
AcDbDetailViewStyle
  3
ObjectDBX Classes
 90
     1025
 91
        1
280
     0
281
     0
  0
CLASS
  1
DICTIONARYVAR
  2
AcDbDictionaryVar
  3
ObjectDBX Classes
 90
        0
 91
        5
280
     0
281
     0
  0
CLASS
  1
CELLSTYLEMAP
  2
AcDbCellStyleMap
  3
ObjectDBX Classes
 90
     1152
 91
        1
280
     0
281
     0
  0
ENDSEC
  0
SECTION
  2
TABLES
  0
TABLE
  2
VPORT
  5
8
330
0
100
AcDbSymbolTable
 70
     1
  0
VPORT
  5
57
330
8
100
AcDbSymbolTableRecord
100
AcDbViewportTableRecord
  2
*Active
 70
     0
 10
0.0
 20
0.0
 11
1.0
 21
1.0
 12
210.0
 22
148.5
 13
0.0
 23
0.0
 14
1.0
 24
1.0
 15
0.0
 25
0.0
 16
0.0
 26
0.0
 36
1.0
 17
0.0
 27
0.0
 37
0.0
 40
297.0
 41
1.414141414141414
 42
50.0
 43
0.0
 44
0.0
 50
0.0
 51
0.0
 71
     0
 72
   100
 73
     1
 74
     1
 75
     0
 76
     0
 77
     0
 78
     0
281
     0
 65
     1
110
0.0
120
0.0
130
0.0
111
1.0
121
0.0
131
0.0
112
0.0
122
1.0
132
0.0
 79
     0
146
0.0
 60
     3
 61
     5
292
     1
282
     1
141
0.0
142
0.0
 63
   250
421
  3355443
  0
ENDTAB
  0
TABLE
  2
LTYPE
  5
5
330
0
100
AcDbSymbolTable
 70
    59
  0
LTYPE
  5
5B
330
5
100
AcDbSymbolTableRecord
100
AcDbLinetypeTableRecord
  2
ByBlock
 70
     0
  3

 72
    65
 73
     0
 40
0.0
  0
LTYPE
  5
5C
330
5
100
AcDbSymbolTableRecord
100
AcDbLinetypeTableRecord
  2
ByLayer
 70
     0
  3

 72
    65
 73
     0
 40
0.0
  0
LTYPE
  5
5D
330
5
100
AcDbSymbolTableRecord
100
AcDbLinetypeTableRecord
  2
Continuous
 70
     0
  3
Solid line
 72
    65
 73
     0
 40
0.0
  0
LTYPE
  5
78
330
5
100
AcDbSymbolTableRecord
100
AcDbLinetypeTableRecord
  2
Section_View_Lines
 70
     0
  3
Section View Lines
 72
    65
 73
     4
 40
0.8406
 49
0.6614
 74
     0
 49
-0.0827
 74
     0
 49
0.0138
 74
     0
 49
-0.0827
 74
     0
  0
LTYPE
  5
79
330
5
100
AcDbSymbolTableRecord
100
AcDbLinetypeTableRecord
  2
CHAIN
 70
     0
  3
Chain ____ _ ____ _ ____ _ ____ _ ____ _ ____
 72
    65
 73
     4
 40
0.3543
 49
0.2362
 74
     0
 49
-0.0295
 74
     0
 49
0.0591
 74
     0
 49
-0.0295
 74
     0
  0
LTYPE
  5
7A
330
5
100
AcDbSymbolTableRecord
100
AcDbLinetypeTableRecord
  2
DASH_DOT
 70
     0
  3
Dash dot _._._._._._._._._._._._._._._.
 72
    65
 73
     4
 40
0.182
 49
0.1181
 74
     0
 49
-0.0295
 74
     0
 49
0.0049
 74
     0
 49
-0.0295
 74
     0
  0
LTYPE
  5
7B
330
5
100
AcDbSymbolTableRecord
100
AcDbLinetypeTableRecord
  2
DASH_DOUBLE_DOT
 70
     0
  3
Dash Double Dot __ __ . __ __ . __ __ . __ _
 72
    65
 73
     6
 40
0.2164
 49
0.1181
 74
     0
 49
-0.0295
 74
     0
 49
0.0049
 74
     0
 49
-0.0295
 74
     0
 49
0.0049
 74
     0
 49
-0.0295
 74
     0
  0
LTYPE
  5
7C
330
5
100
AcDbSymbolTableRecord
100
AcDbLinetypeTableRecord
  2
DASH_TRIPLE_DOT
 70
     0
  3
Dash Triple-Dot _ . . . _ . . . _ . . . _
 72
    65
 73
     8
 40
0.2508
 49
0.1181
 74
     0
 49
-0.0295
 74
     0
 49
0.0049
 74
     0
 49
-0.0295
 74
     0
 49
0.0049
 74
     0
 49
-0.0295
 74
     0
 49
0.0049
 74
     0
 49
-0.0295
 74
     0
  0
LTYPE
  5
7D
330
5
100
AcDbSymbolTableRecord
100
AcDbLinetypeTableRecord
  2
DASHED
 70
     0
  3
Dashed __ __ __ __ __ __ __ __ __ __ __ __ __ _
 72
    65
 73
     2
 40
0.2068
 49
0.1655
 74
     0
 49
-0.0413
 74
     0
  0
LTYPE
  5
7E
330
5
100
AcDbSymbolTableRecord
100
AcDbLinetypeTableRecord
  2
DASHED_SPACE
 70
     0
  3
Dashed Space __ __ __ __ __ __ __ __ __ __ __ _
 72
    65
 73
     2
 40
0.2067
 49
0.1654
 74
     0
 49
-0.0413
 74
     0
  0
LTYPE
  5
7F
330
5
100
AcDbSymbolTableRecord
100
AcDbLinetypeTableRecord
  2
DOTTED
 70
     0
  3
Dotted . . . . . . . . . . . . . . . . . . . . 
 72
    65
 73
     2
 40
0.0481
 49
0.0068
 74
     0
 49
-0.0413
 74
     0
  0
LTYPE
  5
80
330
5
100
AcDbSymbolTableRecord
100
AcDbLinetypeTableRecord
  2
DOUBLE_DASH_CHAIN
 70
     0
  3
Double Dash Chain ___ _ _ ___ _ _ ___ _ _ ___ _
 72
    65
 73
     6
 40
1.240299999999999
 49
0.6614
 74
     0
 49
-0.0827
 74
     0
 49
0.1654
 74
     0
 49
-0.0827
 74
     0
 49
0.1654
 74
     0
 49
-0.0827
 74
     0
  0
LTYPE
  5
81
330
5
100
AcDbSymbolTableRecord
100
AcDbLinetypeTableRecord
  2
DOUBLE_DASH_DOT
 70
     0
  3
Double Dash Dot __ __ . __ __ . __ __ . __ _
 72
    65
 73
     6
 40
0.3296
 49
0.1181
 74
     0
 49
-0.0295
 74
     0
 49
0.1181
 74
     0
 49
-0.0295
 74
     0
 49
0.0049
 74
     0
 49
-0.0295
 74
     0
  0
LTYPE
  5
82
330
5
100
AcDbSymbolTableRecord
100
AcDbLinetypeTableRecord
  2
DOUBLE_DASH_DOUBLE_DOT
 70
     0
  3
Double Dash Double Dot _ _ . . _ _ . . _ _
 72
    65
 73
     8
 40
0.364
 49
0.1181
 74
     0
 49
-0.0295
 74
     0
 49
0.1181
 74
     0
 49
-0.0295
 74
     0
 49
0.0049
 74
     0
 49
-0.0295
 74
     0
 49
0.0049
 74
     0
 49
-0.0295
 74
     0
  0
LTYPE
  5
83
330
5
100
AcDbSymbolTableRecord
100
AcDbLinetypeTableRecord
  2
DOUBLE_DASH_TRIPLE_DOT
 70
     0
  3
Double Dash Triple Dot __ __ . . . __ __ . . .
 72
    65
 73
    10
 40
0.3984
 49
0.1181
 74
     0
 49
-0.0295
 74
     0
 49
0.1181
 74
     0
 49
-0.0295
 74
     0
 49
0.0049
 74
     0
 49
-0.0295
 74
     0
 49
0.0049
 74
     0
 49
-0.0295
 74
     0
 49
0.0049
 74
     0
 49
-0.0295
 74
     0
  0
LTYPE
  5
84
330
5
100
AcDbSymbolTableRecord
100
AcDbLinetypeTableRecord
  2
LONG_DASH_DOTTED
 70
     0
  3
Long Dash Dotted ____ . ____ . ____ . ____ . _
 72
    65
 73
     4
 40
0.3001
 49
0.2362
 74
     0
 49
-0.0295
 74
     0
 49
0.0049
 74
     0
 49
-0.0295
 74
     0
  0
LTYPE
  5
85
330
5
100
AcDbSymbolTableRecord
100
AcDbLinetypeTableRecord
  2
LONG_DASH_DOUBLE_DOT
 70
     0
  3
Long Dash Double Dot ____ . . ____ . . ____ . .
 72
    65
 73
     6
 40
0.3345
 49
0.2362
 74
     0
 49
-0.0295
 74
     0
 49
0.0049
 74
     0
 49
-0.0295
 74
     0
 49
0.0049
 74
     0
 49
-0.0295
 74
     0
  0
LTYPE
  5
86
330
5
100
AcDbSymbolTableRecord
100
AcDbLinetypeTableRecord
  2
LONG_DASH_TRIPLE_DOT
 70
     0
  3
Long Dash Triple Dot ____ ... ____ ... ____
 72
    65
 73
     8
 40
0.3689
 49
0.2362
 74
     0
 49
-0.0295
 74
     0
 49
0.0049
 74
     0
 49
-0.0295
 74
     0
 49
0.0049
 74
     0
 49
-0.0295
 74
     0
 49
0.0049
 74
     0
 49
-0.0295
 74
     0
  0
LTYPE
  5
87
330
5
100
AcDbSymbolTableRecord
100
AcDbLinetypeTableRecord
  2
BORDER
 70
     0
  3
Border __ __ . __ __ . __ __ . __ __ . __ __ .
 72
    65
 73
     6
 40
44.45
 49
12.7
 74
     0
 49
-6.349999999999999
 74
     0
 49
12.7
 74
     0
 49
-6.349999999999999
 74
     0
 49
0.0
 74
     0
 49
-6.349999999999999
 74
     0
  0
LTYPE
  5
88
330
5
100
AcDbSymbolTableRecord
100
AcDbLinetypeTableRecord
  2
BORDER2
 70
     0
  3
Border (.5x) __.__.__.__.__.__.__.__.__.__.__.
 72
    65
 73
     6
 40
22.225
 49
6.349999999999999
 74
     0
 49
-3.174999999999999
 74
     0
 49
6.349999999999999
 74
     0
 49
-3.174999999999999
 74
     0
 49
0.0
 74
     0
 49
-3.174999999999999
 74
     0
  0
LTYPE
  5
89
330
5
100
AcDbSymbolTableRecord
100
AcDbLinetypeTableRecord
  2
BORDERX2
 70
     0
  3
Border (2x) ____  ____  .  ____  ____  .  ___
 72
    65
 73
     6
 40
88.9
 49
25.4
 74
     0
 49
-12.7
 74
     0
 49
25.4
 74
     0
 49
-12.7
 74
     0
 49
0.0
 74
     0
 49
-12.7
 74
     0
  0
LTYPE
  5
8A
330
5
100
AcDbSymbolTableRecord
100
AcDbLinetypeTableRecord
  2
CENTER
 70
     0
  3
Center ____ _ ____ _ ____ _ ____ _ ____ _ ____
 72
    65
 73
     4
 40
50.8
 49
31.75
 74
     0
 49
-6.349999999999999
 74
     0
 49
6.349999999999999
 74
     0
 49
-6.349999999999999
 74
     0
  0
LTYPE
  5
8B
330
5
100
AcDbSymbolTableRecord
100
AcDbLinetypeTableRecord
  2
CENTER2
 70
     0
  3
Center (.5x) ___ _ ___ _ ___ _ ___ _ ___ _ ___
 72
    65
 73
     4
 40
28.575
 49
19.05
 74
     0
 49
-3.174999999999999
 74
     0
 49
3.174999999999999
 74
     0
 49
-3.174999999999999
 74
     0
  0
LTYPE
  5
8C
330
5
100
AcDbSymbolTableRecord
100
AcDbLinetypeTableRecord
  2
CENTERX2
 70
     0
  3
Center (2x) ________  __  ________  __  _____
 72
    65
 73
     4
 40
101.6
 49
63.5
 74
     0
 49
-12.7
 74
     0
 49
12.7
 74
     0
 49
-12.7
 74
     0
  0
LTYPE
  5
8D
330
5
100
AcDbSymbolTableRecord
100
AcDbLinetypeTableRecord
  2
DASHDOT2
 70
     0
  3
Dash dot (.5x) _._._._._._._._._._._._._._._.
 72
    65
 73
     4
 40
12.7
 49
6.349999999999999
 74
     0
 49
-3.174999999999999
 74
     0
 49
0.0
 74
     0
 49
-3.174999999999999
 74
     0
  0
LTYPE
  5
8E
330
5
100
AcDbSymbolTableRecord
100
AcDbLinetypeTableRecord
  2
DASHDOTX2
 70
     0
  3
Dash dot (2x) ____  .  ____  .  ____  .  ___
 72
    65
 73
     4
 40
50.8
 49
25.4
 74
     0
 49
-12.7
 74
     0
 49
0.0
 74
     0
 49
-12.7
 74
     0
  0
LTYPE
  5
8F
330
5
100
AcDbSymbolTableRecord
100
AcDbLinetypeTableRecord
  2
DASHED2
 70
     0
  3
Dashed (.5x) _ _ _ _ _ _ _ _ _ _ _ _ _ _ _ _ _
 72
    65
 73
     2
 40
9.524999999999998
 49
6.349999999999999
 74
     0
 49
-3.174999999999999
 74
     0
  0
LTYPE
  5
90
330
5
100
AcDbSymbolTableRecord
100
AcDbLinetypeTableRecord
  2
DASHEDX2
 70
     0
  3
Dashed (2x) ____  ____  ____  ____  ____  ___
 72
    65
 73
     2
 40
38.1
 49
25.4
 74
     0
 49
-12.7
 74
     0
  0
LTYPE
  5
91
330
5
100
AcDbSymbolTableRecord
100
AcDbLinetypeTableRecord
  2
DIVIDE
 70
     0
  3
Divide ____ . . ____ . . ____ . . ____ . . ____
 72
    65
 73
     6
 40
31.75
 49
12.7
 74
     0
 49
-6.349999999999999
 74
     0
 49
0.0
 74
     0
 49
-6.349999999999999
 74
     0
 49
0.0
 74
     0
 49
-6.349999999999999
 74
     0
  0
LTYPE
  5
92
330
5
100
AcDbSymbolTableRecord
100
AcDbLinetypeTableRecord
  2
DIVIDE2
 70
     0
  3
Divide (.5x) __..__..__..__..__..__..__..__.._
 72
    65
 73
     6
 40
15.875
 49
6.349999999999999
 74
     0
 49
-3.174999999999999
 74
     0
 49
0.0
 74
     0
 49
-3.174999999999999
 74
     0
 49
0.0
 74
     0
 49
-3.174999999999999
 74
     0
  0
LTYPE
  5
93
330
5
100
AcDbSymbolTableRecord
100
AcDbLinetypeTableRecord
  2
DIVIDEX2
 70
     0
  3
Divide (2x) ________  .  .  ________  .  .  _
 72
    65
 73
     6
 40
63.49999999999999
 49
25.4
 74
     0
 49
-12.7
 74
     0
 49
0.0
 74
     0
 49
-12.7
 74
     0
 49
0.0
 74
     0
 49
-12.7
 74
     0
  0
LTYPE
  5
94
330
5
100
AcDbSymbolTableRecord
100
AcDbLinetypeTableRecord
  2
DOT
 70
     0
  3
Dot . . . . . . . . . . . . . . . . . . . . . .
 72
    65
 73
     2
 40
6.349999999999999
 49
0.0
 74
     0
 49
-6.349999999999999
 74
     0
  0
LTYPE
  5
95
330
5
100
AcDbSymbolTableRecord
100
AcDbLinetypeTableRecord
  2
DOT2
 70
     0
  3
Dot (.5x) .....................................
 72
    65
 73
     2
 40
3.174999999999999
 49
0.0
 74
     0
 49
-3.174999999999999
 74
     0
  0
LTYPE
  5
96
330
5
100
AcDbSymbolTableRecord
100
AcDbLinetypeTableRecord
  2
DOTX2
 70
     0
  3
Dot (2x) .  .  .  .  .  .  .  .  .  .  .  .  . 
 72
    65
 73
     2
 40
12.7
 49
0.0
 74
     0
 49
-12.7
 74
     0
  0
LTYPE
  5
97
330
5
100
AcDbSymbolTableRecord
100
AcDbLinetypeTableRecord
  2
HIDDEN
 70
     0
  3
Hidden __ __ __ __ __ __ __ __ __ __ __ __ __ _
 72
    65
 73
     2
 40
9.524999999999998
 49
6.349999999999999
 74
     0
 49
-3.174999999999999
 74
     0
  0
LTYPE
  5
98
330
5
100
AcDbSymbolTableRecord
100
AcDbLinetypeTableRecord
  2
HIDDEN2
 70
     0
  3
Hidden (.5x) _ _ _ _ _ _ _ _ _ _ _ _ _ _ _ _ _
 72
    65
 73
     2
 40
4.762499999999999
 49
3.174999999999999
 74
     0
 49
-1.587499999999999
 74
     0
  0
LTYPE
  5
99
330
5
100
AcDbSymbolTableRecord
100
AcDbLinetypeTableRecord
  2
HIDDENX2
 70
     0
  3
Hidden (2x) ____ ____ ____ ____ ____ ____ ____
 72
    65
 73
     2
 40
19.05
 49
12.7
 74
     0
 49
-6.349999999999999
 74
     0
  0
LTYPE
  5
9A
330
5
100
AcDbSymbolTableRecord
100
AcDbLinetypeTableRecord
  2
PHANTOM
 70
     0
  3
Phantom ______  __  __  ______  __  __  ______
 72
    65
 73
     6
 40
63.5
 49
31.75
 74
     0
 49
-6.349999999999999
 74
     0
 49
6.349999999999999
 74
     0
 49
-6.349999999999999
 74
     0
 49
6.349999999999999
 74
     0
 49
-6.349999999999999
 74
     0
  0
LTYPE
  5
9B
330
5
100
AcDbSymbolTableRecord
100
AcDbLinetypeTableRecord
  2
PHANTOM2
 70
     0
  3
Phantom (.5x) ___ _ _ ___ _ _ ___ _ _ ___ _ _
 72
    65
 73
     6
 40
31.75
 49
15.875
 74
     0
 49
-3.174999999999999
 74
     0
 49
3.174999999999999
 74
     0
 49
-3.174999999999999
 74
     0
 49
3.174999999999999
 74
     0
 49
-3.174999999999999
 74
     0
  0
LTYPE
  5
9C
330
5
100
AcDbSymbolTableRecord
100
AcDbLinetypeTableRecord
  2
PHANTOMX2
 70
     0
  3
Phantom (2x) ____________    ____    ____   _
 72
    65
 73
     6
 40
127.0
 49
63.5
 74
     0
 49
-12.7
 74
     0
 49
12.7
 74
     0
 49
-12.7
 74
     0
 49
12.7
 74
     0
 49
-12.7
 74
     0
  0
LTYPE
  5
9D
330
5
100
AcDbSymbolTableRecord
100
AcDbLinetypeTableRecord
  2
ACAD_ISO02W100
 70
     0
  3
ISO dash __ __ __ __ __ __ __ __ __ __ __ __ __
 72
    65
 73
     2
 40
15.0
 49
12.0
 74
     0
 49
-3.0
 74
     0
  0
LTYPE
  5
9E
330
5
100
AcDbSymbolTableRecord
100
AcDbLinetypeTableRecord
  2
ACAD_ISO03W100
 70
     0
  3
ISO dash space __    __    __    __    __    __
 72
    65
 73
     2
 40
30.0
 49
12.0
 74
     0
 49
-18.0
 74
     0
  0
LTYPE
  5
9F
330
5
100
AcDbSymbolTableRecord
100
AcDbLinetypeTableRecord
  2
ACAD_ISO04W100
 70
     0
  3
ISO long-dash dot ____ . ____ . ____ . ____ . _
 72
    65
 73
     4
 40
30.0
 49
24.0
 74
     0
 49
-3.0
 74
     0
 49
0.0
 74
     0
 49
-3.0
 74
     0
  0
LTYPE
  5
A0
330
5
100
AcDbSymbolTableRecord
100
AcDbLinetypeTableRecord
  2
ACAD_ISO05W100
 70
     0
  3
ISO long-dash double-dot ____ .. ____ .. ____ .
 72
    65
 73
     6
 40
33.0
 49
24.0
 74
     0
 49
-3.0
 74
     0
 49
0.0
 74
     0
 49
-3.0
 74
     0
 49
0.0
 74
     0
 49
-3.0
 74
     0
  0
LTYPE
  5
A1
330
5
100
AcDbSymbolTableRecord
100
AcDbLinetypeTableRecord
  2
ACAD_ISO06W100
 70
     0
  3
ISO long-dash triple-dot ____ ... ____ ... ____
 72
    65
 73
     8
 40
36.0
 49
24.0
 74
     0
 49
-3.0
 74
     0
 49
0.0
 74
     0
 49
-3.0
 74
     0
 49
0.0
 74
     0
 49
-3.0
 74
     0
 49
0.0
 74
     0
 49
-3.0
 74
     0
  0
LTYPE
  5
A2
330
5
100
AcDbSymbolTableRecord
100
AcDbLinetypeTableRecord
  2
ACAD_ISO07W100
 70
     0
  3
ISO dot . . . . . . . . . . . . . . . . . . . .
 72
    65
 73
     2
 40
3.0
 49
0.0
 74
     0
 49
-3.0
 74
     0
  0
LTYPE
  5
A3
330
5
100
AcDbSymbolTableRecord
100
AcDbLinetypeTableRecord
  2
ACAD_ISO08W100
 70
     0
  3
ISO long-dash short-dash ____ __ ____ __ ____ _
 72
    65
 73
     4
 40
36.0
 49
24.0
 74
     0
 49
-3.0
 74
     0
 49
6.0
 74
     0
 49
-3.0
 74
     0
  0
LTYPE
  5
A4
330
5
100
AcDbSymbolTableRecord
100
AcDbLinetypeTableRecord
  2
ACAD_ISO09W100
 70
     0
  3
ISO long-dash double-short-dash ____ __ __ ____
 72
    65
 73
     6
 40
45.0
 49
24.0
 74
     0
 49
-3.0
 74
     0
 49
6.0
 74
     0
 49
-3.0
 74
     0
 49
6.0
 74
     0
 49
-3.0
 74
     0
  0
LTYPE
  5
A5
330
5
100
AcDbSymbolTableRecord
100
AcDbLinetypeTableRecord
  2
ACAD_ISO10W100
 70
     0
  3
ISO dash dot __ . __ . __ . __ . __ . __ . __ .
 72
    65
 73
     4
 40
18.0
 49
12.0
 74
     0
 49
-3.0
 74
     0
 49
0.0
 74
     0
 49
-3.0
 74
     0
  0
LTYPE
  5
A6
330
5
100
AcDbSymbolTableRecord
100
AcDbLinetypeTableRecord
  2
ACAD_ISO11W100
 70
     0
  3
ISO double-dash dot __ __ . __ __ . __ __ . __ 
 72
    65
 73
     6
 40
33.0
 49
12.0
 74
     0
 49
-3.0
 74
     0
 49
12.0
 74
     0
 49
-3.0
 74
     0
 49
0.0
 74
     0
 49
-3.0
 74
     0
  0
LTYPE
  5
A7
330
5
100
AcDbSymbolTableRecord
100
AcDbLinetypeTableRecord
  2
ACAD_ISO12W100
 70
     0
  3
ISO dash double-dot __ . . __ . . __ . . __ . .
 72
    65
 73
     6
 40
21.0
 49
12.0
 74
     0
 49
-3.0
 74
     0
 49
0.0
 74
     0
 49
-3.0
 74
     0
 49
0.0
 74
     0
 49
-3.0
 74
     0
  0
LTYPE
  5
A8
330
5
100
AcDbSymbolTableRecord
100
AcDbLinetypeTableRecord
  2
ACAD_ISO13W100
 70
     0
  3
ISO double-dash double-dot __ __ . . __ __ . . 
 72
    65
 73
     8
 40
36.0
 49
12.0
 74
     0
 49
-3.0
 74
     0
 49
12.0
 74
     0
 49
-3.0
 74
     0
 49
0.0
 74
     0
 49
-3.0
 74
     0
 49
0.0
 74
     0
 49
-3.0
 74
     0
  0
LTYPE
  5
A9
330
5
100
AcDbSymbolTableRecord
100
AcDbLinetypeTableRecord
  2
ACAD_ISO14W100
 70
     0
  3
ISO dash triple-dot __ . . . __ . . . __ . . . 
 72
    65
 73
     8
 40
24.0
 49
12.0
 74
     0
 49
-3.0
 74
     0
 49
0.0
 74
     0
 49
-3.0
 74
     0
 49
0.0
 74
     0
 49
-3.0
 74
     0
 49
0.0
 74
     0
 49
-3.0
 74
     0
  0
LTYPE
  5
AA
330
5
100
AcDbSymbolTableRecord
100
AcDbLinetypeTableRecord
  2
ACAD_ISO15W100
 70
     0
  3
ISO double-dash triple-dot __ __ . . . __ __ . 
 72
    65
 73
    10
 40
39.0
 49
12.0
 74
     0
 49
-3.0
 74
     0
 49
12.0
 74
     0
 49
-3.0
 74
     0
 49
0.0
 74
     0
 49
-3.0
 74
     0
 49
0.0
 74
     0
 49
-3.0
 74
     0
 49
0.0
 74
     0
 49
-3.0
 74
     0
  0
LTYPE
  5
AD
330
5
100
AcDbSymbolTableRecord
100
AcDbLinetypeTableRecord
  2
FENCELINE1
 70
     0
  3
Fenceline circle ----0-----0----0-----0----0---
 72
    65
 73
     4
 40
36.83
 49
6.349999999999999
 74
     0
 49
-2.54
 74
     4
 75
   133
340
AC
 46
2.54
 50
0.0
 44
-2.54
 45
0.0
 49
-2.54
 74
     0
 49
25.4
 74
     0
  0
LTYPE
  5
AE
330
5
100
AcDbSymbolTableRecord
100
AcDbLinetypeTableRecord
  2
FENCELINE2
 70
     0
  3
Fenceline square ----[]-----[]----[]-----[]----
 72
    65
 73
     4
 40
36.83
 49
6.349999999999999
 74
     0
 49
-2.54
 74
     4
 75
   132
340
AC
 46
2.54
 50
0.0
 44
-2.54
 45
0.0
 49
-2.54
 74
     0
 49
25.4
 74
     0
  0
LTYPE
  5
AF
330
5
100
AcDbSymbolTableRecord
100
AcDbLinetypeTableRecord
  2
TRACKS
 70
     0
  3
Tracks -|-|-|-|-|-|-|-|-|-|-|-|-|-|-|-|-|-|-|-|
 72
    65
 73
     2
 40
7.62
 49
3.81
 74
     4
 75
   130
340
AC
 46
6.349999999999999
 50
0.0
 44
0.0
 45
0.0
 49
3.81
 74
     0
  0
LTYPE
  5
B0
330
5
100
AcDbSymbolTableRecord
100
AcDbLinetypeTableRecord
  2
BATTING
 70
     0
  3
Batting SSSSSSSSSSSSSSSSSSSSSSSSSSSSSSSSSSSSSSS
 72
    65
 73
     4
 40
10.16254
 49
0.00254
 74
     0
 49
-2.54
 74
     4
 75
   134
340
AC
 46
2.54
 50
0.0
 44
-2.54
 45
0.0
 49
-5.08
 74
     4
 75
   134
340
AC
 46
2.54
 50
180.0
 44
2.54
 45
0.0
 49
-2.54
 74
     0
  0
LTYPE
  5
B1
330
5
100
AcDbSymbolTableRecord
100
AcDbLinetypeTableRecord
  2
HOT_WATER_SUPPLY
 70
     0
  3
Hot water supply ---- HW ---- HW ---- HW ----
 72
    65
 73
     3
 40
22.86
 49
12.7
 74
     0
 49
-5.08
 74
     2
 75
     0
340
55
 46
2.54
 50
0.0
 44
-2.54
 45
-1.27
  9
HW
 49
-5.08
 74
     0
  0
LTYPE
  5
B2
330
5
100
AcDbSymbolTableRecord
100
AcDbLinetypeTableRecord
  2
GAS_LINE
 70
     0
  3
Gas line ----GAS----GAS----GAS----GAS----GAS---
 72
    65
 73
     3
 40
24.13
 49
12.7
 74
     0
 49
-5.08
 74
     2
 75
     0
340
55
 46
2.54
 50
0.0
 44
-2.54
 45
-1.27
  9
GAS
 49
-6.349999999999999
 74
     0
  0
LTYPE
  5
B3
330
5
100
AcDbSymbolTableRecord
100
AcDbLinetypeTableRecord
  2
ZIGZAG
 70
     0
  3
Zig zag /\/\/\/\/\/\/\/\/\/\/\/\/\/\/\/\/\/\/\/
 72
    65
 73
     4
 40
20.32254
 49
0.00254
 74
     0
 49
-5.08
 74
     4
 75
   131
340
AC
 46
5.08
 50
0.0
 44
-5.08
 45
0.0
 49
-10.16
 74
     4
 75
   131
340
AC
 46
5.08
 50
180.0
 44
5.08
 45
0.0
 49
-5.08
 74
     0
  0
ENDTAB
  0
TABLE
  2
LAYER
  5
2
330
0
100
AcDbSymbolTable
 70
    36
  0
LAYER
  5
54
330
2
100
AcDbSymbolTableRecord
100
AcDbLayerTableRecord
  2
0
 70
     0
 62
     7
  6
Continuous
370
    25
390
F
347
21
348
0
  0
LAYER
  5
B7
330
2
100
AcDbSymbolTableRecord
100
AcDbLayerTableRecord
  2
CAMPITURE
 70
     0
 62
     1
420
 16711680
  6
Continuous
370
    15
390
F
347
21
348
0
  0
LAYER
  5
BC
330
2
100
AcDbSymbolTableRecord
100
AcDbLayerTableRecord
  2
GEOMETRIA SCHIZZO
 70
     0
 62
   131
420
  8454143
  6
Continuous
370
    20
390
F
347
21
348
0
  0
LAYER
  5
D3
330
2
100
AcDbSymbolTableRecord
100
AcDbLayerTableRecord
  2
TESTO NORMALE
 70
     0
 62
     7
  6
Continuous
370
    30
390
F
347
21
348
0
  0
LAYER
  5
D5
330
2
100
AcDbSymbolTableRecord
100
AcDbLayerTableRecord
  2
VISIBILE
 70
     0
 62
     7
  6
Continuous
370
    30
390
F
347
21
348
0
  0
ENDTAB
  0
TABLE
  2
STYLE
  5
3
330
0
100
AcDbSymbolTable
 70
    17
  0
STYLE
  5
55
330
3
100
AcDbSymbolTableRecord
100
AcDbTextStyleTableRecord
  2
Standard
 70
     0
 40
0.0
 41
1.0
 50
0.0
 71
     0
 42
0.2
  3
calibri.ttf
  4

1001
ACAD
1000
Calibri
1071
      256
  0
STYLE
  5
5A
330
3
100
AcDbSymbolTableRecord
100
AcDbTextStyleTableRecord
  2
Annotative
 70
     0
 40
0.0
 41
1.0
 50
0.0
 71
     0
 42
0.2
  3
txt
  4

1001
AcadAnnotative
1000
AnnotativeData
1002
{
1070
     1
1070
     1
1002
}
  0
STYLE
  5
AC
330
3
100
AcDbSymbolTableRecord
100
AcDbTextStyleTableRecord
  2

 70
     1
 40
0.0
 41
1.0
 50
0.0
 71
     0
 42
0.2
  3
ltypeshp.shx
  4

  0
STYLE
  5
D7
330
3
100
AcDbSymbolTableRecord
100
AcDbTextStyleTableRecord
  2
QUOTE
 70
     0
 40
0.0
 41
0.8000000119209289
 50
0.0
 71
     0
 42
0.2
  3
calibrii.ttf
  4

1001
ACAD
1000
Calibri
1071
 16777472
  0
STYLE
  5
D8
330
3
100
AcDbSymbolTableRecord
100
AcDbTextStyleTableRecord
  2
SS-CART
 70
     0
 40
0.0
 41
0.899999976158142
 50
0.0
 71
     0
 42
0.2
  3
calibri.ttf
  4

1001
ACAD
1000
Calibri
1071
      256
  0
STYLE
  5
D9
330
3
100
AcDbSymbolTableRecord
100
AcDbTextStyleTableRecord
  2
Standard_87
 70
     0
 40
0.0
 41
1.0
 50
0.0
 71
     0
 42
0.2
  3
monotxt.shx
  4

  0
STYLE
  5
DA
330
3
100
AcDbSymbolTableRecord
100
AcDbTextStyleTableRecord
  2
Stile_Cart
 70
     0
 40
0.0
 41
0.8000000119209289
 50
0.0
 71
     0
 42
0.2
  3
calibri.ttf
  4

1001
ACAD
1000
Calibri
1071
      256
  0
STYLE
  5
DB
330
3
100
AcDbSymbolTableRecord
100
AcDbTextStyleTableRecord
  2
STYLE1_82
 70
     0
 40
0.0
 41
1.0
 50
0.0
 71
     0
 42
0.2
  3
calibri.ttf
  4

1001
ACAD
1000
Calibri
1071
      256
  0
STYLE
  5
DC
330
3
100
AcDbSymbolTableRecord
100
AcDbTextStyleTableRecord
  2
TESTO ETICHETTA MISURE
 70
     0
 40
0.0
 41
1.0
 50
0.0
 71
     0
 42
0.2
  3
calibri.ttf
  4

1001
ACAD
1000
Calibri
1071
      256
  0
STYLE
  5
DD
330
3
100
AcDbSymbolTableRecord
100
AcDbTextStyleTableRecord
  2
TESTO EVIDENZIATO
 70
     0
 40
0.0
 41
0.8000000119209289
 50
0.0
 71
     0
 42
0.2
  3
calibri.ttf
  4

1001
ACAD
1000
Calibri
1071
      256
  0
STYLE
  5
DE
330
3
100
AcDbSymbolTableRecord
100
AcDbTextStyleTableRecord
  2
TESTO NORMALE
 70
     0
 40
0.0
 41
0.8000000119209289
 50
0.0
 71
     0
 42
0.2
  3
calibri.ttf
  4

1001
ACAD
1000
Calibri
1071
      256
  0
STYLE
  5
DF
330
3
100
AcDbSymbolTableRecord
100
AcDbTextStyleTableRecord
  2
TESTO PALLINATURA
 70
     0
 40
0.0
 41
0.8000000119209289
 50
0.0
 71
     0
 42
0.2
  3
calibri.ttf
  4

1001
ACAD
1000
Calibri
1071
      256
  0
STYLE
  5
E0
330
3
100
AcDbSymbolTableRecord
100
AcDbTextStyleTableRecord
  2
TESTO RUGOSITA
 70
     0
 40
0.0
 41
0.8000000119209289
 50
0.0
 71
     0
 42
0.2
  3
calibri.ttf
  4

1001
ACAD
1000
Calibri
1071
      256
  0
STYLE
  5
E1
330
3
100
AcDbSymbolTableRecord
100
AcDbTextStyleTableRecord
  2
TESTO TITOLO TABELLE
 70
     0
 40
0.0
 41
0.8000000119209289
 50
0.0
 71
     0
 42
0.2
  3
calibri.ttf
  4

1001
ACAD
1000
Calibri
1071
      256
  0
STYLE
  5
E2
330
3
100
AcDbSymbolTableRecord
100
AcDbTextStyleTableRecord
  2
TESTO TOLL GEOMETRICHE
 70
     0
 40
0.0
 41
0.8000000119209289
 50
0.0
 71
     0
 42
0.2
  3
calibri.ttf
  4

1001
ACAD
1000
Calibri
1071
      256
  0
STYLE
  5
E3
330
3
100
AcDbSymbolTableRecord
100
AcDbTextStyleTableRecord
  2
TESTO TOLLERANZE
 70
     0
 40
0.0
 41
0.8000000119209289
 50
0.0
 71
     0
 42
0.2
  3
calibri.ttf
  4

1001
ACAD
1000
Calibri
1071
      256
  0
STYLE
  5
13C
330
3
100
AcDbSymbolTableRecord
100
AcDbTextStyleTableRecord
  2
Stile testo39
 70
     0
 40
0.0
 41
1.0
 50
0.0
 71
     0
 42
0.2
  3
sanss___.ttf
  4

1001
ACAD
1000
SansSerif
1071
      256
  0
ENDTAB
  0
TABLE
  2
VIEW
  5
6
330
0
100
AcDbSymbolTable
 70
     0
  0
ENDTAB
  0
TABLE
  2
UCS
  5
7
330
0
100
AcDbSymbolTable
 70
     0
  0
ENDTAB
  0
TABLE
  2
APPID
  5
9
330
0
100
AcDbSymbolTable
 70
     3
  0
APPID
  5
56
330
9
100
AcDbSymbolTableRecord
100
AcDbRegAppTableRecord
  2
ACAD
 70
     0
  0
APPID
  5
5E
330
9
100
AcDbSymbolTableRecord
100
AcDbRegAppTableRecord
  2
AcadAnnotative
 70
     0
  0
APPID
  5
140
330
9
100
AcDbSymbolTableRecord
100
AcDbRegAppTableRecord
  2
AcadAnnoPO
 70
     0
  0
ENDTAB
  0
TABLE
  2
DIMSTYLE
  5
A
330
0
100
AcDbSymbolTable
 70
     9
100
AcDbDimStyleTable
 71
     0
  0
DIMSTYLE
105
58
330
A
100
AcDbSymbolTableRecord
100
AcDbDimStyleTableRecord
  2
Standard
 70
     0
340
55
  0
DIMSTYLE
105
59
330
A
100
AcDbSymbolTableRecord
100
AcDbDimStyleTableRecord
  2
Annotative
 70
     0
340
55
1001
AcadAnnotative
1000
AnnotativeData
1002
{
1070
     1
1070
     1
1002
}
  0
DIMSTYLE
105
F3
330
A
100
AcDbSymbolTableRecord
100
AcDbDimStyleTableRecord
  2
ACADTOP
 70
     0
 41
2.5
 42
1.499999999999999
 43
10.0
 44
1.499999999999999
 45
0.00000001
 46
10.0
 73
     0
 74
     0
 77
     1
 78
     8
 79
     2
140
3.5
143
0.03937
146
0.5714285969734192
147
0.5
171
     3
172
     1
176
   256
177
   256
178
     7
179
     1
271
     2
272
     3
274
     3
284
     8
285
     8
340
D7
341
E4
371
    -1
372
    -1
  0
DIMSTYLE
105
F4
330
A
100
AcDbSymbolTableRecord
100
AcDbDimStyleTableRecord
  2
ACADTOP$7
 70
     0
 41
2.0
 42
1.499999999999999
 43
10.0
 44
1.499999999999999
 45
0.00000001
 46
10.0
 73
     0
 74
     0
 77
     1
 78
     8
 79
     2
140
3.5
143
0.03937
146
0.5714285969734192
147
0.5
171
     3
172
     1
176
   256
177
   256
178
     7
179
     1
271
     2
272
     3
274
     3
284
     8
285
     8
340
D7
341
E4
371
    -1
372
    -1
  0
DIMSTYLE
105
F5
330
A
100
AcDbSymbolTableRecord
100
AcDbDimStyleTableRecord
  2
ACADTOP Motion
 70
     0
 41
2.5
 42
1.499999999999999
 43
10.0
 44
1.499999999999999
 45
0.00000001
 46
10.0
 73
     0
 74
     0
 77
     1
 78
     8
 79
     2
140
3.5
143
0.03937
146
0.5714285969734192
147
0.5
171
     3
172
     1
176
   256
177
   256
178
     7
179
     1
271
     2
272
     3
274
     3
284
     8
285
     8
340
D7
341
E4
371
    -1
372
    -1
  0
DIMSTYLE
105
F6
330
A
100
AcDbSymbolTableRecord
100
AcDbDimStyleTableRecord
  2
ACADTOP Motion$7
 70
     0
 41
2.0
 42
1.499999999999999
 43
10.0
 44
1.499999999999999
 45
0.00000001
 46
10.0
 73
     0
 74
     0
 77
     1
 78
     8
 79
     2
140
3.5
143
0.03937
146
0.5714285969734192
147
0.5
171
     3
172
     1
176
   256
177
   256
178
     7
179
     1
271
     2
272
     3
274
     3
284
     8
285
     8
340
D7
341
E4
371
    -1
372
    -1
  0
DIMSTYLE
105
F7
330
A
100
AcDbSymbolTableRecord
100
AcDbDimStyleTableRecord
  2
PALLINATURA
 70
     0
 41
1.5
340
55
  0
DIMSTYLE
105
F8
330
A
100
AcDbSymbolTableRecord
100
AcDbDimStyleTableRecord
  2
PALLINATURA GRANDE
 70
     0
 41
3.0
340
55
  0
DIMSTYLE
105
F9
330
A
100
AcDbSymbolTableRecord
100
AcDbDimStyleTableRecord
  2
RIFERIMENTO
 70
     0
 41
2.0
340
55
  0
ENDTAB
  0
TABLE
  2
BLOCK_RECORD
  5
1
330
0
100
AcDbSymbolTable
 70
    19
  0
BLOCK_RECORD
  5
70
330
1
100
AcDbSymbolTableRecord
100
AcDbBlockTableRecord
  2
*Model_Space
340
73
 70
     0
280
     1
281
     0
  0
BLOCK_RECORD
  5
6C
330
1
100
AcDbSymbolTableRecord
100
AcDbBlockTableRecord
  2
*Paper_Space
340
6F
 70
     0
280
     1
281
     0
  0
BLOCK_RECORD
  5
74
330
1
100
AcDbSymbolTableRecord
100
AcDbBlockTableRecord
  2
*Paper_Space0
340
77
 70
     0
280
     1
281
     0
  0
BLOCK_RECORD
  5
E4
330
1
100
AcDbSymbolTableRecord
100
AcDbBlockTableRecord
  2
Filled-1
340
0
 70
     0
280
     1
281
     0
  0
BLOCK_RECORD
  5
FA
330
1
100
AcDbSymbolTableRecord
100
AcDbBlockTableRecord
  2
DIBOND
340
0
 70
     0
280
     1
281
     0
  0
BLOCK_RECORD
  5
141
330
1
100
AcDbSymbolTableRecord
100
AcDbBlockTableRecord
  2
FONOSPHERA
340
0
 70
     0
280
     1
281
     0
  0
BLOCK_RECORD
  5
167
330
1
100
AcDbSymbolTableRecord
100
AcDbBlockTableRecord
  2
METACRIL
340
0
 70
     0
280
     1
281
     0
  0
BLOCK_RECORD
  5
17D
330
1
100
AcDbSymbolTableRecord
100
AcDbBlockTableRecord
  2
POLICARB_ALVEOL
340
0
 70
     0
280
     1
281
     0
  0
BLOCK_RECORD
  5
198
330
1
100
AcDbSymbolTableRecord
100
AcDbBlockTableRecord
  2
POLICARB_TRASP
340
0
 70
     0
280
     1
281
     0
  0
BLOCK_RECORD
  5
1AF
330
1
100
AcDbSymbolTableRecord
100
AcDbBlockTableRecord
  2
POLIETILENE
340
0
 70
     0
280
     1
281
     0
  0
BLOCK_RECORD
  5
1C7
330
1
100
AcDbSymbolTableRecord
100
AcDbBlockTableRecord
  2
PVC
340
0
 70
     0
280
     1
281
     0
  0
BLOCK_RECORD
  5
1DE
330
1
100
AcDbSymbolTableRecord
100
AcDbBlockTableRecord
  2
RETE_11X100
340
0
 70
     0
280
     1
281
     0
  0
BLOCK_RECORD
  5
1FD
330
1
100
AcDbSymbolTableRecord
100
AcDbBlockTableRecord
  2
RETE_25X25
340
0
 70
     0
280
     1
281
     0
  0
BLOCK_RECORD
  5
224
330
1
100
AcDbSymbolTableRecord
100
AcDbBlockTableRecord
  2
RETE_25X100
340
0
 70
     0
280
     1
281
     0
  0
BLOCK_RECORD
  5
243
330
1
100
AcDbSymbolTableRecord
100
AcDbBlockTableRecord
  2
RETE_25X100INOX
340
0
 70
     0
280
     1
281
     0
  0
BLOCK_RECORD
  5
262
330
1
100
AcDbSymbolTableRecord
100
AcDbBlockTableRecord
  2
RETE_30X30
340
0
 70
     0
280
     1
281
     0
  0
BLOCK_RECORD
  5
281
330
1
100
AcDbSymbolTableRecord
100
AcDbBlockTableRecord
  2
RETE_40X40
340
0
 70
     0
280
     1
281
     0
  0
BLOCK_RECORD
  5
29E
330
1
100
AcDbSymbolTableRecord
100
AcDbBlockTableRecord
  2
RETE_RT
340
0
 70
     0
280
     1
281
     0
  0
BLOCK_RECORD
  5
2C0
330
1
100
AcDbSymbolTableRecord
100
AcDbBlockTableRecord
  2
RETE_TEC
340
0
 70
     0
280
     1
281
     0
  0
BLOCK_RECORD
  5
2E1
330
1
100
AcDbSymbolTableRecord
100
AcDbBlockTableRecord
  2
STRATIFIC
340
0
 70
     0
280
     1
281
     0
  0
BLOCK_RECORD
  5
302
330
1
100
AcDbSymbolTableRecord
100
AcDbBlockTableRecord
  2
__
340
0
 70
     0
280
     1
281
     0
  0
ENDTAB
  0
ENDSEC
  0
SECTION
  2
BLOCKS
  0
BLOCK
  5
71
330
70
100
AcDbEntity
  8
0
100
AcDbBlockBegin
  2
*Model_Space
 70
     0
 10
0.0
 20
0.0
 30
0.0
  3
*Model_Space
  1

  0
ENDBLK
  5
72
330
70
100
AcDbEntity
  8
0
100
AcDbBlockEnd
  0
BLOCK
  5
6D
330
6C
100
AcDbEntity
 67
     1
  8
0
100
AcDbBlockBegin
  2
*Paper_Space
 70
     0
 10
0.0
 20
0.0
 30
0.0
  3
*Paper_Space
  1

  0
ENDBLK
  5
6E
330
6C
100
AcDbEntity
 67
     1
  8
0
100
AcDbBlockEnd
  0
BLOCK
  5
75
330
74
100
AcDbEntity
 67
     1
  8
0
100
AcDbBlockBegin
  2
*Paper_Space0
 70
     0
 10
0.0
 20
0.0
 30
0.0
  3
*Paper_Space0
  1

  0
ENDBLK
  5
76
330
74
100
AcDbEntity
 67
     1
  8
0
100
AcDbBlockEnd
  0
BLOCK
  5
E5
330
E4
100
AcDbEntity
  8
0
100
AcDbBlockBegin
  2
Filled-1
 70
     0
 10
0.0
 20
0.0
 30
0.0
  3
Filled-1
  1

  0
LINE
  5
E7
330
E4
100
AcDbEntity
  8
0
 62
     0
100
AcDbLine
 10
-1.0
 20
0.0
 30
0.0
 11
0.0
 21
0.0
 31
0.0
  0
POLYLINE
  5
E9
330
E4
100
AcDbEntity
  8
0
 62
     0
100
AcDb2dPolyline
 66
     1
 10
0.0
 20
0.0
 30
0.0
 70
   128
  0
VERTEX
  5
EA
330
E9
100
AcDbEntity
  8
0
 62
     0
100
AcDbVertex
100
AcDb2dVertex
 10
-1.0
 20
-0.25
 30
0.0
  0
VERTEX
  5
EB
330
E9
100
AcDbEntity
  8
0
 62
     0
100
AcDbVertex
100
AcDb2dVertex
 10
0.0
 20
0.0
 30
0.0
  0
VERTEX
  5
ED
330
E9
100
AcDbEntity
  8
0
 62
     0
100
AcDbVertex
100
AcDb2dVertex
 10
-1.0
 20
0.25
 30
0.0
  0
VERTEX
  5
EE
330
E9
100
AcDbEntity
  8
0
 62
     0
100
AcDbVertex
100
AcDb2dVertex
 10
-1.0
 20
-0.25
 30
0.0
  0
SEQEND
  5
EC
330
E9
100
AcDbEntity
  8
0
 62
     0
  0
SOLID
  5
EF
330
E4
100
AcDbEntity
  8
0
 62
     0
100
AcDbTrace
 10
-1.0
 20
-0.25
 30
0.0
 11
0.0
 21
0.0
 31
0.0
 12
-1.0
 22
0.25
 32
0.0
 13
-1.0
 23
-0.25
 33
0.0
  0
LINE
  5
F0
330
E4
100
AcDbEntity
  8
0
 62
     0
100
AcDbLine
 10
-1.0
 20
-0.25
 30
0.0
 11
0.0
 21
0.0
 31
0.0
  0
LINE
  5
F1
330
E4
100
AcDbEntity
  8
0
 62
     0
100
AcDbLine
 10
0.0
 20
0.0
 30
0.0
 11
-1.0
 21
0.25
 31
0.0
  0
LINE
  5
F2
330
E4
100
AcDbEntity
  8
0
 62
     0
100
AcDbLine
 10
-1.0
 20
0.25
 30
0.0
 11
-1.0
 21
-0.25
 31
0.0
  0
ENDBLK
  5
E6
330
E4
100
AcDbEntity
  8
0
100
AcDbBlockEnd
  0
BLOCK
  5
FB
330
FA
100
AcDbEntity
  8
0
100
AcDbBlockBegin
  2
DIBOND
 70
     2
 10
0.0
 20
0.0
 30
0.0
  3
DIBOND
  1

  0
LINE
  5
FD
330
FA
100
AcDbEntity
  8
0
  6
Continuous
 62
     1
420
 16711680
100
AcDbLine
 10
10.0
 20
8.0
 30
0.0
 11
10.0
 21
0.0
 31
0.0
  0
LINE
  5
FE
330
FA
100
AcDbEntity
  8
0
  6
Continuous
 62
     3
420
    65280
100
AcDbLine
 10
0.0
 20
8.0
 30
0.0
 11
130.250436452013
 21
8.0
 31
0.0
  0
LINE
  5
FF
330
FA
100
AcDbEntity
  8
0
  6
Continuous
 62
     3
420
    65280
100
AcDbLine
 10
0.0
 20
8.0
 30
0.0
 11
0.0
 21
0.0
 31
0.0
  0
LINE
  5
100
330
FA
100
AcDbEntity
  8
0
  6
Continuous
 62
     3
420
    65280
100
AcDbLine
 10
130.250436452013
 20
8.0
 30
0.0
 11
130.250436452013
 21
0.0
 31
0.0
  0
LINE
  5
101
330
FA
100
AcDbEntity
  8
0
  6
Continuous
 62
     3
420
    65280
100
AcDbLine
 10
0.0
 20
0.0
 30
0.0
 11
130.250436452013
 21
0.0
 31
0.0
  0
LINE
  5
102
330
FA
100
AcDbEntity
  8
0
  6
Continuous
 62
     3
420
    65280
100
AcDbLine
 10
2.367236819489562
 20
5.545561418522837
 30
0.0
 11
2.898736819489556
 21
5.545561418522852
 31
0.0
  0
LINE
  5
103
330
FA
100
AcDbEntity
  8
0
  6
Continuous
 62
     3
420
    65280
100
AcDbLine
 10
3.406736819489566
 20
5.545561418522852
 30
0.0
 11
4.168736819489566
 21
5.545561418522852
 31
0.0
  0
LINE
  5
104
330
FA
100
AcDbEntity
  8
0
  6
Continuous
 62
     3
420
    65280
100
AcDbLine
 10
4.803736819489557
 20
5.545561418522852
 30
0.0
 11
5.692736819489567
 21
5.545561418522852
 31
0.0
  0
LINE
  5
105
330
FA
100
AcDbEntity
  8
0
  6
Continuous
 62
     3
420
    65280
100
AcDbLine
 10
6.07373681948954
 20
5.545561418522852
 30
0.0
 11
7.216736819489568
 21
5.545561418522852
 31
0.0
  0
LINE
  5
106
330
FA
100
AcDbEntity
  8
0
  6
Continuous
 62
     3
420
    65280
100
AcDbLine
 10
2.367236819489562
 20
4.021561418522836
 30
0.0
 11
2.454236819489551
 21
4.02156141852285
 31
0.0
  0
LINE
  5
107
330
FA
100
AcDbEntity
  8
0
  6
Continuous
 62
     3
420
    65280
100
AcDbLine
 10
2.835236819489552
 20
4.02156141852285
 30
0.0
 11
3.978236819489552
 21
4.02156141852285
 31
0.0
  0
LINE
  5
108
330
FA
100
AcDbEntity
  8
0
  6
Continuous
 62
     3
420
    65280
100
AcDbLine
 10
4.486236819489562
 20
4.02156141852285
 30
0.0
 11
5.248236819489563
 21
4.02156141852285
 31
0.0
  0
LINE
  5
109
330
FA
100
AcDbEntity
  8
0
  6
Continuous
 62
     3
420
    65280
100
AcDbLine
 10
5.883236819489553
 20
4.02156141852285
 30
0.0
 11
6.772236819489564
 21
4.02156141852285
 31
0.0
  0
LINE
  5
10A
330
FA
100
AcDbEntity
  8
0
  6
Continuous
 62
     3
420
    65280
100
AcDbLine
 10
7.153236819489564
 20
4.02156141852285
 30
0.0
 11
7.367236819489563
 21
4.02156141852285
 31
0.0
  0
LINE
  5
10B
330
FA
100
AcDbEntity
  8
0
  6
Continuous
 62
     3
420
    65280
100
AcDbLine
 10
2.644736819489565
 20
2.497561418522849
 30
0.0
 11
3.533736819489547
 21
2.497561418522849
 31
0.0
  0
LINE
  5
10C
330
FA
100
AcDbEntity
  8
0
  6
Continuous
 62
     3
420
    65280
100
AcDbLine
 10
3.914736819489548
 20
2.497561418522849
 30
0.0
 11
5.057736819489548
 21
2.497561418522849
 31
0.0
  0
LINE
  5
10D
330
FA
100
AcDbEntity
  8
0
  6
Continuous
 62
     3
420
    65280
100
AcDbLine
 10
5.565736819489558
 20
2.497561418522849
 30
0.0
 11
6.327736819489558
 21
2.497561418522849
 31
0.0
  0
LINE
  5
10E
330
FA
100
AcDbEntity
  8
0
  6
Continuous
 62
     3
420
    65280
100
AcDbLine
 10
6.962736819489549
 20
2.497561418522849
 30
0.0
 11
7.367236819489563
 21
2.497561418522835
 31
0.0
  0
LINE
  5
10F
330
FA
100
AcDbEntity
  8
0
  6
Continuous
 62
     3
420
    65280
100
AcDbLine
 10
2.898736819489528
 20
5.609061418522856
 30
0.0
 11
3.406736819489509
 21
5.609061418522856
 31
0.0
  0
LINE
  5
110
330
FA
100
AcDbEntity
  8
0
  6
Continuous
 62
     3
420
    65280
100
AcDbLine
 10
4.16873681948951
 20
5.609061418522856
 30
0.0
 11
4.8037368194895
 21
5.609061418522856
 31
0.0
  0
LINE
  5
111
330
FA
100
AcDbEntity
  8
0
  6
Continuous
 62
     3
420
    65280
100
AcDbLine
 10
7.216736819489511
 20
5.609061418522856
 30
0.0
 11
7.367236819489563
 21
5.609061418522856
 31
0.0
  0
LINE
  5
112
330
FA
100
AcDbEntity
  8
0
  6
Continuous
 62
     3
420
    65280
100
AcDbLine
 10
3.978236819489524
 20
4.08506141852284
 30
0.0
 11
4.486236819489505
 21
4.08506141852284
 31
0.0
  0
LINE
  5
113
330
FA
100
AcDbEntity
  8
0
  6
Continuous
 62
     3
420
    65280
100
AcDbLine
 10
5.248236819489505
 20
4.08506141852284
 30
0.0
 11
5.883236819489496
 21
4.08506141852284
 31
0.0
  0
LINE
  5
114
330
FA
100
AcDbEntity
  8
0
  6
Continuous
 62
     3
420
    65280
100
AcDbLine
 10
2.367236819489534
 20
2.56106141852284
 30
0.0
 11
2.644736819489509
 21
2.56106141852284
 31
0.0
  0
LINE
  5
115
330
FA
100
AcDbEntity
  8
0
  6
Continuous
 62
     3
420
    65280
100
AcDbLine
 10
5.05773681948952
 20
2.56106141852284
 30
0.0
 11
5.565736819489501
 21
2.56106141852284
 31
0.0
  0
LINE
  5
116
330
FA
100
AcDbEntity
  8
0
  6
Continuous
 62
     3
420
    65280
100
AcDbLine
 10
6.327736819489501
 20
2.56106141852284
 30
0.0
 11
6.962736819489493
 21
2.56106141852284
 31
0.0
  0
LINE
  5
117
330
FA
100
AcDbEntity
  8
0
  6
Continuous
 62
     3
420
    65280
100
AcDbLine
 10
5.69273681948951
 20
5.450311418522858
 30
0.0
 11
6.073736819489511
 21
5.450311418522858
 31
0.0
  0
LINE
  5
118
330
FA
100
AcDbEntity
  8
0
  6
Continuous
 62
     3
420
    65280
100
AcDbLine
 10
2.454236819489523
 20
3.926311418522843
 30
0.0
 11
2.835236819489495
 21
3.926311418522843
 31
0.0
  0
LINE
  5
119
330
FA
100
AcDbEntity
  8
0
  6
Continuous
 62
     3
420
    65280
100
AcDbLine
 10
6.772236819489507
 20
3.926311418522843
 30
0.0
 11
7.153236819489507
 21
3.926311418522843
 31
0.0
  0
LINE
  5
11A
330
FA
100
AcDbEntity
  8
0
  6
Continuous
 62
     3
420
    65280
100
AcDbLine
 10
3.533736819489519
 20
2.402311418522842
 30
0.0
 11
3.914736819489519
 21
2.402311418522842
 31
0.0
  0
LINE
  5
11B
330
FA
100
AcDbEntity
  8
0
  6
Continuous
 62
     3
420
    65280
100
AcDbLine
 10
3.406736819489537
 20
5.545561418522852
 30
0.0
 11
3.406736819489509
 21
6.521561418522836
 31
0.0
  0
LINE
  5
11C
330
FA
100
AcDbEntity
  8
0
  6
Continuous
 62
     3
420
    65280
100
AcDbLine
 10
4.486236819489533
 20
4.02156141852285
 30
0.0
 11
4.486236819489505
 21
5.48206141852286
 31
0.0
  0
LINE
  5
11D
330
FA
100
AcDbEntity
  8
0
  6
Continuous
 62
     3
420
    65280
100
AcDbLine
 10
5.565736819489529
 20
2.497561418522849
 30
0.0
 11
5.565736819489529
 21
3.95806141852286
 31
0.0
  0
LINE
  5
11E
330
FA
100
AcDbEntity
  8
0
  6
Continuous
 62
     3
420
    65280
100
AcDbLine
 10
4.16873681948951
 20
5.545561418522852
 30
0.0
 11
4.168736819489481
 21
6.521561418522836
 31
0.0
  0
LINE
  5
11F
330
FA
100
AcDbEntity
  8
0
  6
Continuous
 62
     3
420
    65280
100
AcDbLine
 10
5.248236819489534
 20
4.02156141852285
 30
0.0
 11
5.248236819489505
 21
5.450311418522858
 31
0.0
  0
LINE
  5
120
330
FA
100
AcDbEntity
  8
0
  6
Continuous
 62
     3
420
    65280
100
AcDbLine
 10
6.327736819489531
 20
2.497561418522849
 30
0.0
 11
6.327736819489531
 21
3.926311418522857
 31
0.0
  0
LINE
  5
121
330
FA
100
AcDbEntity
  8
0
  6
Continuous
 62
     3
420
    65280
100
AcDbLine
 10
7.407236819489526
 20
1.481561418522872
 30
0.0
 11
7.407236819489526
 21
2.402311418522856
 31
0.0
  0
LINE
  5
122
330
FA
100
AcDbEntity
  8
0
  6
Continuous
 62
     3
420
    65280
100
AcDbLine
 10
2.644736819489509
 20
2.497561418522835
 30
0.0
 11
2.644736819489509
 21
3.831061418522836
 31
0.0
  0
LINE
  5
123
330
FA
100
AcDbEntity
  8
0
  6
Continuous
 62
     3
420
    65280
100
AcDbLine
 10
4.803736819489529
 20
5.545561418522852
 30
0.0
 11
4.803736819489557
 21
6.521561418522851
 31
0.0
  0
LINE
  5
124
330
FA
100
AcDbEntity
  8
0
  6
Continuous
 62
     3
420
    65280
100
AcDbLine
 10
5.883236819489525
 20
4.02156141852285
 30
0.0
 11
5.883236819489525
 21
5.355061418522852
 31
0.0
  0
LINE
  5
125
330
FA
100
AcDbEntity
  8
0
  6
Continuous
 62
     3
420
    65280
100
AcDbLine
 10
6.962736819489521
 20
2.497561418522849
 30
0.0
 11
6.962736819489521
 21
3.83106141852285
 31
0.0
  0
LINE
  5
126
330
FA
100
AcDbEntity
  8
0
  6
Continuous
 62
     3
420
    65280
100
AcDbLine
 10
2.454236819489523
 20
3.926311418522843
 30
0.0
 11
2.454236819489523
 21
5.386811418522853
 31
0.0
  0
LINE
  5
127
330
FA
100
AcDbEntity
  8
0
  6
Continuous
 62
     3
420
    65280
100
AcDbLine
 10
3.533736819489519
 20
2.402311418522842
 30
0.0
 11
3.533736819489519
 21
3.862811418522852
 31
0.0
  0
LINE
  5
128
330
FA
100
AcDbEntity
  8
0
  6
Continuous
 62
     3
420
    65280
100
AcDbLine
 10
4.613236819489515
 20
1.521561418522836
 30
0.0
 11
4.613236819489515
 21
2.338811418522851
 31
0.0
  0
LINE
  5
129
330
FA
100
AcDbEntity
  8
0
  6
Continuous
 62
     3
420
    65280
100
AcDbLine
 10
5.69273681948951
 20
5.450311418522858
 30
0.0
 11
5.69273681948951
 21
6.521561418522836
 31
0.0
  0
LINE
  5
12A
330
FA
100
AcDbEntity
  8
0
  6
Continuous
 62
     3
420
    65280
100
AcDbLine
 10
6.772236819489535
 20
3.926311418522843
 30
0.0
 11
6.772236819489507
 21
5.386811418522853
 31
0.0
  0
LINE
  5
12B
330
FA
100
AcDbEntity
  8
0
  6
Continuous
 62
     3
420
    65280
100
AcDbLine
 10
2.835236819489523
 20
3.926311418522843
 30
0.0
 11
2.835236819489523
 21
5.386811418522853
 31
0.0
  0
LINE
  5
12C
330
FA
100
AcDbEntity
  8
0
  6
Continuous
 62
     3
420
    65280
100
AcDbLine
 10
3.914736819489548
 20
2.402311418522842
 30
0.0
 11
3.914736819489519
 21
3.862811418522852
 31
0.0
  0
LINE
  5
12D
330
FA
100
AcDbEntity
  8
0
  6
Continuous
 62
     3
420
    65280
100
AcDbLine
 10
4.994236819489515
 20
1.521561418522836
 30
0.0
 11
4.994236819489515
 21
2.338811418522851
 31
0.0
  0
LINE
  5
12E
330
FA
100
AcDbEntity
  8
0
  6
Continuous
 62
     3
420
    65280
100
AcDbLine
 10
6.07373681948954
 20
5.450311418522858
 30
0.0
 11
6.073736819489568
 21
6.521561418522836
 31
0.0
  0
LINE
  5
12F
330
FA
100
AcDbEntity
  8
0
  6
Continuous
 62
     3
420
    65280
100
AcDbLine
 10
7.153236819489535
 20
3.926311418522843
 30
0.0
 11
7.153236819489535
 21
5.386811418522853
 31
0.0
  0
LINE
  5
130
330
FA
100
AcDbEntity
  8
0
  6
Continuous
 62
     3
420
    65280
100
AcDbLine
 10
2.898736819489528
 20
5.545561418522852
 30
0.0
 11
2.898736819489528
 21
6.521561418522836
 31
0.0
  0
LINE
  5
131
330
FA
100
AcDbEntity
  8
0
  6
Continuous
 62
     3
420
    65280
100
AcDbLine
 10
3.978236819489524
 20
4.021561418522836
 30
0.0
 11
3.978236819489524
 21
5.418561418522841
 31
0.0
  0
LINE
  5
132
330
FA
100
AcDbEntity
  8
0
  6
Continuous
 62
     3
420
    65280
100
AcDbLine
 10
5.05773681948952
 20
2.497561418522835
 30
0.0
 11
5.05773681948952
 21
3.894561418522841
 31
0.0
  0
LINE
  5
133
330
FA
100
AcDbEntity
  8
0
  6
Continuous
 62
     3
420
    65280
100
AcDbLine
 10
7.216736819489511
 20
5.545561418522852
 30
0.0
 11
7.216736819489511
 21
6.521561418522836
 31
0.0
  0
LINE
  5
134
330
FA
100
AcDbEntity
  8
0
  6
Continuous
 62
     7
100
AcDbLine
 10
1.867236819489562
 20
1.021561418522821
 30
0.0
 11
7.867236819489562
 21
1.021561418522821
 31
0.0
  0
LINE
  5
135
330
FA
100
AcDbEntity
  8
0
  6
Continuous
 62
     7
100
AcDbLine
 10
7.867236819489562
 20
1.021561418522821
 30
0.0
 11
7.867236819489562
 21
7.021561418522822
 31
0.0
  0
LINE
  5
136
330
FA
100
AcDbEntity
  8
0
  6
Continuous
 62
     7
100
AcDbLine
 10
7.867236819489562
 20
7.021561418522822
 30
0.0
 11
1.867236819489562
 21
7.021561418522822
 31
0.0
  0
LINE
  5
137
330
FA
100
AcDbEntity
  8
0
  6
Continuous
 62
     7
100
AcDbLine
 10
1.867236819489562
 20
7.021561418522822
 30
0.0
 11
1.867236819489562
 21
1.021561418522821
 31
0.0
  0
LINE
  5
138
330
FA
100
AcDbEntity
  8
0
  6
Continuous
 62
     3
420
    65280
100
AcDbLine
 10
6.137236819489516
 20
1.52156141852285
 30
0.0
 11
6.137236819489516
 21
2.370561418522839
 31
0.0
  0
LINE
  5
139
330
FA
100
AcDbEntity
  8
0
  6
Continuous
 62
     3
420
    65280
100
AcDbLine
 10
3.724236819489533
 20
1.521561418522836
 30
0.0
 11
3.724236819489505
 21
2.307061418522849
 31
0.0
  0
LINE
  5
13A
330
FA
100
AcDbEntity
  8
0
  6
Continuous
 62
     3
420
    65280
100
AcDbLine
 10
3.089236819489514
 20
1.521561418522836
 30
0.0
 11
3.089236819489514
 21
2.402311418522856
 31
0.0
  0
LINE
  5
13B
330
FA
100
AcDbEntity
  8
0
  6
Continuous
 62
     3
420
    65280
100
AcDbLine
 10
6.645236819489525
 20
1.52156141852285
 30
0.0
 11
6.645236819489525
 21
2.434061418522858
 31
0.0
  0
ATTDEF
  5
13D
102
{ACAD_XDICTIONARY
360
331
102
}
330
FA
100
AcDbEntity
  8
0
 62
     1
420
 16711680
100
AcDbText
 10
12.0
 20
2.250000029802322
 30
0.0
 40
3.499999940395355
  1

  7
Stile testo39
 11
12.0
 21
4.0
 31
0.0
100
AcDbAttributeDefinition
280
     0
  3
NOME_TAMPONAMENTO
  2
NOME_TAMPONAMENTO
 70
     0
 74
     2
280
     0
  0
ENDBLK
  5
FC
330
FA
100
AcDbEntity
  8
0
100
AcDbBlockEnd
  0
BLOCK
  5
142
330
141
100
AcDbEntity
  8
0
100
AcDbBlockBegin
  2
FONOSPHERA
 70
     2
 10
0.0
 20
0.0
 30
0.0
  3
FONOSPHERA
  1

  0
LINE
  5
144
330
141
100
AcDbEntity
  8
0
  6
Continuous
 62
     1
420
 16711680
100
AcDbLine
 10
10.0
 20
8.0
 30
0.0
 11
10.0
 21
0.0
 31
0.0
  0
LINE
  5
145
330
141
100
AcDbEntity
  8
0
  6
Continuous
 62
     3
420
    65280
100
AcDbLine
 10
0.0
 20
8.0
 30
0.0
 11
130.250436452013
 21
8.0
 31
0.0
  0
LINE
  5
146
330
141
100
AcDbEntity
  8
0
  6
Continuous
 62
     3
420
    65280
100
AcDbLine
 10
0.0
 20
8.0
 30
0.0
 11
0.0
 21
0.0
 31
0.0
  0
LINE
  5
147
330
141
100
AcDbEntity
  8
0
  6
Continuous
 62
     3
420
    65280
100
AcDbLine
 10
130.250436452013
 20
8.0
 30
0.0
 11
130.250436452013
 21
0.0
 31
0.0
  0
LINE
  5
148
330
141
100
AcDbEntity
  8
0
  6
Continuous
 62
     3
420
    65280
100
AcDbLine
 10
0.0
 20
0.0
 30
0.0
 11
130.250436452013
 21
0.0
 31
0.0
  0
LINE
  5
149
330
141
100
AcDbEntity
  8
0
  6
Continuous
 62
     7
100
AcDbLine
 10
1.867236819489562
 20
1.021561418522821
 30
0.0
 11
7.867236819489562
 21
1.021561418522821
 31
0.0
  0
LINE
  5
14A
330
141
100
AcDbEntity
  8
0
  6
Continuous
 62
     7
100
AcDbLine
 10
7.867236819489562
 20
1.021561418522821
 30
0.0
 11
7.867236819489562
 21
7.021561418522822
 31
0.0
  0
LINE
  5
14B
330
141
100
AcDbEntity
  8
0
  6
Continuous
 62
     7
100
AcDbLine
 10
7.867236819489562
 20
7.021561418522822
 30
0.0
 11
1.867236819489562
 21
7.021561418522822
 31
0.0
  0
LINE
  5
14C
330
141
100
AcDbEntity
  8
0
  6
Continuous
 62
     7
100
AcDbLine
 10
1.867236819489562
 20
7.021561418522822
 30
0.0
 11
1.867236819489562
 21
1.021561418522821
 31
0.0
  0
CIRCLE
  5
14D
330
141
100
AcDbEntity
  8
0
  6
Continuous
 62
     3
420
    65280
100
AcDbCircle
 10
4.867236819489562
 20
4.021561418522821
 30
0.0
 40
0.5
  0
CIRCLE
  5
14E
330
141
100
AcDbEntity
  8
0
  6
Continuous
 62
     3
420
    65280
100
AcDbCircle
 10
3.867236819489562
 20
4.021561418522821
 30
0.0
 40
0.5
  0
CIRCLE
  5
14F
330
141
100
AcDbEntity
  8
0
  6
Continuous
 62
     3
420
    65280
100
AcDbCircle
 10
2.867236819489562
 20
4.021561418522821
 30
0.0
 40
0.5
  0
CIRCLE
  5
150
330
141
100
AcDbEntity
  8
0
  6
Continuous
 62
     3
420
    65280
100
AcDbCircle
 10
5.867236819489562
 20
4.021561418522821
 30
0.0
 40
0.5
  0
CIRCLE
  5
151
330
141
100
AcDbEntity
  8
0
  6
Continuous
 62
     3
420
    65280
100
AcDbCircle
 10
6.867236819489562
 20
4.021561418522821
 30
0.0
 40
0.5
  0
CIRCLE
  5
152
330
141
100
AcDbEntity
  8
0
  6
Continuous
 62
     3
420
    65280
100
AcDbCircle
 10
4.867236819489562
 20
5.021561418522821
 30
0.0
 40
0.5
  0
CIRCLE
  5
153
330
141
100
AcDbEntity
  8
0
  6
Continuous
 62
     3
420
    65280
100
AcDbCircle
 10
3.867236819489562
 20
5.021561418522821
 30
0.0
 40
0.5
  0
CIRCLE
  5
154
330
141
100
AcDbEntity
  8
0
  6
Continuous
 62
     3
420
    65280
100
AcDbCircle
 10
2.867236819489562
 20
5.021561418522821
 30
0.0
 40
0.5
  0
CIRCLE
  5
155
330
141
100
AcDbEntity
  8
0
  6
Continuous
 62
     3
420
    65280
100
AcDbCircle
 10
5.867236819489562
 20
5.021561418522821
 30
0.0
 40
0.5
  0
CIRCLE
  5
156
330
141
100
AcDbEntity
  8
0
  6
Continuous
 62
     3
420
    65280
100
AcDbCircle
 10
6.867236819489562
 20
5.021561418522821
 30
0.0
 40
0.5
  0
CIRCLE
  5
157
330
141
100
AcDbEntity
  8
0
  6
Continuous
 62
     3
420
    65280
100
AcDbCircle
 10
4.867236819489562
 20
6.021561418522822
 30
0.0
 40
0.5
  0
CIRCLE
  5
158
330
141
100
AcDbEntity
  8
0
  6
Continuous
 62
     3
420
    65280
100
AcDbCircle
 10
3.867236819489562
 20
6.021561418522822
 30
0.0
 40
0.5
  0
CIRCLE
  5
159
330
141
100
AcDbEntity
  8
0
  6
Continuous
 62
     3
420
    65280
100
AcDbCircle
 10
2.867236819489562
 20
6.021561418522822
 30
0.0
 40
0.5
  0
CIRCLE
  5
15A
330
141
100
AcDbEntity
  8
0
  6
Continuous
 62
     3
420
    65280
100
AcDbCircle
 10
5.867236819489562
 20
6.021561418522822
 30
0.0
 40
0.5
  0
CIRCLE
  5
15B
330
141
100
AcDbEntity
  8
0
  6
Continuous
 62
     3
420
    65280
100
AcDbCircle
 10
6.867236819489562
 20
6.021561418522822
 30
0.0
 40
0.5
  0
CIRCLE
  5
15C
330
141
100
AcDbEntity
  8
0
  6
Continuous
 62
     3
420
    65280
100
AcDbCircle
 10
4.867236819489562
 20
3.021561418522822
 30
0.0
 40
0.5
  0
CIRCLE
  5
15D
330
141
100
AcDbEntity
  8
0
  6
Continuous
 62
     3
420
    65280
100
AcDbCircle
 10
3.867236819489562
 20
3.021561418522822
 30
0.0
 40
0.5
  0
CIRCLE
  5
15E
330
141
100
AcDbEntity
  8
0
  6
Continuous
 62
     3
420
    65280
100
AcDbCircle
 10
2.867236819489562
 20
3.021561418522822
 30
0.0
 40
0.5
  0
CIRCLE
  5
15F
330
141
100
AcDbEntity
  8
0
  6
Continuous
 62
     3
420
    65280
100
AcDbCircle
 10
5.867236819489562
 20
3.021561418522822
 30
0.0
 40
0.5
  0
CIRCLE
  5
160
330
141
100
AcDbEntity
  8
0
  6
Continuous
 62
     3
420
    65280
100
AcDbCircle
 10
6.867236819489562
 20
3.021561418522822
 30
0.0
 40
0.5
  0
CIRCLE
  5
161
330
141
100
AcDbEntity
  8
0
  6
Continuous
 62
     3
420
    65280
100
AcDbCircle
 10
4.867236819489562
 20
2.021561418522821
 30
0.0
 40
0.5
  0
CIRCLE
  5
162
330
141
100
AcDbEntity
  8
0
  6
Continuous
 62
     3
420
    65280
100
AcDbCircle
 10
3.867236819489562
 20
2.021561418522821
 30
0.0
 40
0.5
  0
CIRCLE
  5
163
330
141
100
AcDbEntity
  8
0
  6
Continuous
 62
     3
420
    65280
100
AcDbCircle
 10
2.867236819489562
 20
2.021561418522821
 30
0.0
 40
0.5
  0
CIRCLE
  5
164
330
141
100
AcDbEntity
  8
0
  6
Continuous
 62
     3
420
    65280
100
AcDbCircle
 10
5.867236819489562
 20
2.021561418522821
 30
0.0
 40
0.5
  0
CIRCLE
  5
165
330
141
100
AcDbEntity
  8
0
  6
Continuous
 62
     3
420
    65280
100
AcDbCircle
 10
6.867236819489562
 20
2.021561418522821
 30
0.0
 40
0.5
  0
ATTDEF
  5
166
102
{ACAD_XDICTIONARY
360
334
102
}
330
141
100
AcDbEntity
  8
0
 62
     1
420
 16711680
100
AcDbText
 10
12.0
 20
2.250000029802322
 30
0.0
 40
3.499999940395355
  1

  7
Stile testo39
 11
12.0
 21
4.0
 31
0.0
100
AcDbAttributeDefinition
280
     0
  3
NOME_TAMPONAMENTO
  2
NOME_TAMPONAMENTO
 70
     0
 74
     2
280
     0
  0
ENDBLK
  5
143
330
141
100
AcDbEntity
  8
0
100
AcDbBlockEnd
  0
BLOCK
  5
168
330
167
100
AcDbEntity
  8
0
100
AcDbBlockBegin
  2
METACRIL
 70
     2
 10
0.0
 20
0.0
 30
0.0
  3
METACRIL
  1

  0
LINE
  5
16A
330
167
100
AcDbEntity
  8
0
  6
Continuous
 62
     1
420
 16711680
100
AcDbLine
 10
10.0
 20
8.0
 30
0.0
 11
10.0
 21
0.0
 31
0.0
  0
LINE
  5
16B
330
167
100
AcDbEntity
  8
0
  6
Continuous
 62
     3
420
    65280
100
AcDbLine
 10
0.0
 20
8.0
 30
0.0
 11
130.250436452013
 21
8.0
 31
0.0
  0
LINE
  5
16C
330
167
100
AcDbEntity
  8
0
  6
Continuous
 62
     3
420
    65280
100
AcDbLine
 10
0.0
 20
8.0
 30
0.0
 11
0.0
 21
0.0
 31
0.0
  0
LINE
  5
16D
330
167
100
AcDbEntity
  8
0
  6
Continuous
 62
     3
420
    65280
100
AcDbLine
 10
130.250436452013
 20
8.0
 30
0.0
 11
130.250436452013
 21
0.0
 31
0.0
  0
LINE
  5
16E
330
167
100
AcDbEntity
  8
0
  6
Continuous
 62
     3
420
    65280
100
AcDbLine
 10
0.0
 20
0.0
 30
0.0
 11
130.250436452013
 21
0.0
 31
0.0
  0
LINE
  5
16F
330
167
100
AcDbEntity
  8
0
  6
Continuous
 62
     7
100
AcDbLine
 10
1.867236819489562
 20
1.021561418522821
 30
0.0
 11
7.86723681948957
 21
1.021561418522821
 31
0.0
  0
LINE
  5
170
330
167
100
AcDbEntity
  8
0
  6
Continuous
 62
     7
100
AcDbLine
 10
7.86723681948957
 20
1.021561418522821
 30
0.0
 11
7.86723681948957
 21
7.021561418522822
 31
0.0
  0
LINE
  5
171
330
167
100
AcDbEntity
  8
0
  6
Continuous
 62
     7
100
AcDbLine
 10
7.86723681948957
 20
7.021561418522822
 30
0.0
 11
1.867236819489562
 21
7.021561418522822
 31
0.0
  0
LINE
  5
172
330
167
100
AcDbEntity
  8
0
  6
Continuous
 62
     7
100
AcDbLine
 10
1.867236819489562
 20
7.021561418522822
 30
0.0
 11
1.867236819489562
 21
1.021561418522821
 31
0.0
  0
LINE
  5
173
330
167
100
AcDbEntity
  8
0
  6
Continuous
 62
     3
420
    65280
100
AcDbLine
 10
3.815345051510867
 20
2.969669650544119
 30
0.0
 11
5.919128587468271
 21
5.073453186501524
 31
0.0
  0
LINE
  5
174
330
167
100
AcDbEntity
  8
0
  6
Continuous
 62
     3
420
    65280
100
AcDbLine
 10
3.24965962656163
 20
2.828248294306803
 30
0.0
 11
4.434204346976521
 21
4.012793014721694
 31
0.0
  0
LINE
  5
175
330
167
100
AcDbEntity
  8
0
  6
Continuous
 62
     3
420
    65280
100
AcDbLine
 10
5.300269292002618
 20
4.030329822323949
 30
0.0
 11
6.484814012417508
 21
5.21487454273884
 31
0.0
  0
LINE
  5
176
330
167
100
AcDbEntity
  8
0
  6
Continuous
 62
     3
420
    65280
100
AcDbLine
 10
2.915345051510862
 20
4.528515377356114
 30
0.0
 11
5.019128587468266
 21
6.63229891331352
 31
0.0
  0
LINE
  5
177
330
167
100
AcDbEntity
  8
0
  6
Continuous
 62
     3
420
    65280
100
AcDbLine
 10
2.349659626561631
 20
4.387094021118798
 30
0.0
 11
3.534204346976515
 21
5.571638741533689
 31
0.0
  0
LINE
  5
178
330
167
100
AcDbEntity
  8
0
  6
Continuous
 62
     3
420
    65280
100
AcDbLine
 10
4.400269292002612
 20
5.589175549135944
 30
0.0
 11
5.584814012417504
 21
6.773720269550835
 31
0.0
  0
LINE
  5
179
330
167
100
AcDbEntity
  8
0
  6
Continuous
 62
     3
420
    65280
100
AcDbLine
 10
5.088137257646657
 20
1.696877444408329
 30
0.0
 11
7.191920793604063
 21
3.800660980365734
 31
0.0
  0
LINE
  5
17A
330
167
100
AcDbEntity
  8
0
  6
Continuous
 62
     3
420
    65280
100
AcDbLine
 10
4.52245183269742
 20
1.555456088171013
 30
0.0
 11
5.706996553112312
 21
2.740000808585904
 31
0.0
  0
LINE
  5
17B
330
167
100
AcDbEntity
  8
0
  6
Continuous
 62
     3
420
    65280
100
AcDbLine
 10
6.573061498138407
 20
2.757537616188159
 30
0.0
 11
7.757606218553299
 21
3.94208233660305
 31
0.0
  0
ATTDEF
  5
17C
102
{ACAD_XDICTIONARY
360
337
102
}
330
167
100
AcDbEntity
  8
0
 62
     1
420
 16711680
100
AcDbText
 10
12.0
 20
2.250000029802322
 30
0.0
 40
3.499999940395355
  1

  7
Stile testo39
 11
12.0
 21
4.0
 31
0.0
100
AcDbAttributeDefinition
280
     0
  3
NOME_TAMPONAMENTO
  2
NOME_TAMPONAMENTO
 70
     0
 74
     2
280
     0
  0
ENDBLK
  5
169
330
167
100
AcDbEntity
  8
0
100
AcDbBlockEnd
  0
BLOCK
  5
17E
330
17D
100
AcDbEntity
  8
0
100
AcDbBlockBegin
  2
POLICARB_ALVEOL
 70
     2
 10
0.0
 20
0.0
 30
0.0
  3
POLICARB_ALVEOL
  1

  0
LINE
  5
180
330
17D
100
AcDbEntity
  8
0
  6
Continuous
 62
     1
420
 16711680
100
AcDbLine
 10
10.0
 20
8.0
 30
0.0
 11
10.0
 21
0.0
 31
0.0
  0
LINE
  5
181
330
17D
100
AcDbEntity
  8
0
  6
Continuous
 62
     3
420
    65280
100
AcDbLine
 10
0.0
 20
8.0
 30
0.0
 11
130.250436452013
 21
8.0
 31
0.0
  0
LINE
  5
182
330
17D
100
AcDbEntity
  8
0
  6
Continuous
 62
     3
420
    65280
100
AcDbLine
 10
0.0
 20
8.0
 30
0.0
 11
0.0
 21
0.0
 31
0.0
  0
LINE
  5
183
330
17D
100
AcDbEntity
  8
0
  6
Continuous
 62
     3
420
    65280
100
AcDbLine
 10
130.250436452013
 20
8.0
 30
0.0
 11
130.250436452013
 21
0.0
 31
0.0
  0
LINE
  5
184
330
17D
100
AcDbEntity
  8
0
  6
Continuous
 62
     3
420
    65280
100
AcDbLine
 10
0.0
 20
0.0
 30
0.0
 11
130.250436452013
 21
0.0
 31
0.0
  0
LINE
  5
185
330
17D
100
AcDbEntity
  8
0
  6
Continuous
 62
     7
100
AcDbLine
 10
1.867236819489562
 20
1.021561418522821
 30
0.0
 11
7.867236819489562
 21
1.021561418522821
 31
0.0
  0
LINE
  5
186
330
17D
100
AcDbEntity
  8
0
  6
Continuous
 62
     7
100
AcDbLine
 10
7.867236819489562
 20
1.021561418522821
 30
0.0
 11
7.867236819489562
 21
7.021561418522822
 31
0.0
  0
LINE
  5
187
330
17D
100
AcDbEntity
  8
0
  6
Continuous
 62
     7
100
AcDbLine
 10
7.867236819489562
 20
7.021561418522822
 30
0.0
 11
1.867236819489562
 21
7.021561418522822
 31
0.0
  0
LINE
  5
188
330
17D
100
AcDbEntity
  8
0
  6
Continuous
 62
     7
100
AcDbLine
 10
1.867236819489562
 20
7.021561418522822
 30
0.0
 11
1.867236819489562
 21
1.021561418522821
 31
0.0
  0
LINE
  5
189
330
17D
100
AcDbEntity
  8
0
  6
Continuous
 62
     3
420
    65280
100
AcDbLine
 10
3.283236819497119
 20
4.021561418522821
 30
0.0
 11
3.283236819497119
 21
1.271561418521344
 31
0.0
  0
LINE
  5
18A
330
17D
100
AcDbEntity
  8
0
  6
Continuous
 62
     3
420
    65280
100
AcDbLine
 10
3.811236819497139
 20
4.021561418522821
 30
0.0
 11
3.811236819497139
 21
1.271561418521344
 31
0.0
  0
LINE
  5
18B
330
17D
100
AcDbEntity
  8
0
  6
Continuous
 62
     3
420
    65280
100
AcDbLine
 10
4.339236819497159
 20
4.021561418522821
 30
0.0
 11
4.339236819497159
 21
1.271561418521344
 31
0.0
  0
LINE
  5
18C
330
17D
100
AcDbEntity
  8
0
  6
Continuous
 62
     3
420
    65280
100
AcDbLine
 10
4.867236819497122
 20
4.021561418522821
 30
0.0
 11
4.867236819497122
 21
1.271561418521344
 31
0.0
  0
LINE
  5
18D
330
17D
100
AcDbEntity
  8
0
  6
Continuous
 62
     3
420
    65280
100
AcDbLine
 10
5.395236819497143
 20
4.021561418522821
 30
0.0
 11
5.395236819497143
 21
1.271561418521344
 31
0.0
  0
LINE
  5
18E
330
17D
100
AcDbEntity
  8
0
  6
Continuous
 62
     3
420
    65280
100
AcDbLine
 10
5.923236819497162
 20
4.021561418522821
 30
0.0
 11
5.923236819497162
 21
1.271561418521344
 31
0.0
  0
LINE
  5
18F
330
17D
100
AcDbEntity
  8
0
  6
Continuous
 62
     3
420
    65280
100
AcDbLine
 10
6.451236819497125
 20
4.021561418522821
 30
0.0
 11
6.451236819497125
 21
1.271561418521344
 31
0.0
  0
LINE
  5
190
330
17D
100
AcDbEntity
  8
0
  6
Continuous
 62
     3
420
    65280
100
AcDbLine
 10
3.283236819497119
 20
4.021561418522821
 30
0.0
 11
3.283236819497119
 21
6.771561418524299
 31
0.0
  0
LINE
  5
191
330
17D
100
AcDbEntity
  8
0
  6
Continuous
 62
     3
420
    65280
100
AcDbLine
 10
3.811236819497139
 20
4.021561418522821
 30
0.0
 11
3.811236819497139
 21
6.771561418524299
 31
0.0
  0
LINE
  5
192
330
17D
100
AcDbEntity
  8
0
  6
Continuous
 62
     3
420
    65280
100
AcDbLine
 10
4.339236819497159
 20
4.021561418522821
 30
0.0
 11
4.339236819497159
 21
6.771561418524299
 31
0.0
  0
LINE
  5
193
330
17D
100
AcDbEntity
  8
0
  6
Continuous
 62
     3
420
    65280
100
AcDbLine
 10
4.867236819497122
 20
4.021561418522821
 30
0.0
 11
4.867236819497122
 21
6.771561418524299
 31
0.0
  0
LINE
  5
194
330
17D
100
AcDbEntity
  8
0
  6
Continuous
 62
     3
420
    65280
100
AcDbLine
 10
5.395236819497143
 20
4.021561418522821
 30
0.0
 11
5.395236819497143
 21
6.771561418524299
 31
0.0
  0
LINE
  5
195
330
17D
100
AcDbEntity
  8
0
  6
Continuous
 62
     3
420
    65280
100
AcDbLine
 10
5.923236819497162
 20
4.021561418522821
 30
0.0
 11
5.923236819497162
 21
6.771561418524299
 31
0.0
  0
LINE
  5
196
330
17D
100
AcDbEntity
  8
0
  6
Continuous
 62
     3
420
    65280
100
AcDbLine
 10
6.451236819497125
 20
4.021561418522821
 30
0.0
 11
6.451236819497125
 21
6.771561418524299
 31
0.0
  0
ATTDEF
  5
197
102
{ACAD_XDICTIONARY
360
33A
102
}
330
17D
100
AcDbEntity
  8
0
 62
     1
420
 16711680
100
AcDbText
 10
12.0
 20
2.250000029802322
 30
0.0
 40
3.499999940395355
  1

  7
Stile testo39
 11
12.0
 21
4.0
 31
0.0
100
AcDbAttributeDefinition
280
     0
  3
NOME_TAMPONAMENTO
  2
NOME_TAMPONAMENTO
 70
     0
 74
     2
280
     0
  0
ENDBLK
  5
17F
330
17D
100
AcDbEntity
  8
0
100
AcDbBlockEnd
  0
BLOCK
  5
199
330
198
100
AcDbEntity
  8
0
100
AcDbBlockBegin
  2
POLICARB_TRASP
 70
     2
 10
0.0
 20
0.0
 30
0.0
  3
POLICARB_TRASP
  1

  0
LINE
  5
19B
330
198
100
AcDbEntity
  8
0
  6
Continuous
 62
     1
420
 16711680
100
AcDbLine
 10
10.0
 20
8.0
 30
0.0
 11
10.0
 21
0.0
 31
0.0
  0
LINE
  5
19C
330
198
100
AcDbEntity
  8
0
  6
Continuous
 62
     3
420
    65280
100
AcDbLine
 10
0.0
 20
8.0
 30
0.0
 11
130.250436452013
 21
8.0
 31
0.0
  0
LINE
  5
19D
330
198
100
AcDbEntity
  8
0
  6
Continuous
 62
     3
420
    65280
100
AcDbLine
 10
0.0
 20
8.0
 30
0.0
 11
0.0
 21
0.0
 31
0.0
  0
LINE
  5
19E
330
198
100
AcDbEntity
  8
0
  6
Continuous
 62
     3
420
    65280
100
AcDbLine
 10
130.250436452013
 20
8.0
 30
0.0
 11
130.250436452013
 21
0.0
 31
0.0
  0
LINE
  5
19F
330
198
100
AcDbEntity
  8
0
  6
Continuous
 62
     3
420
    65280
100
AcDbLine
 10
0.0
 20
0.0
 30
0.0
 11
130.250436452013
 21
0.0
 31
0.0
  0
LINE
  5
1A0
330
198
100
AcDbEntity
  8
0
  6
Continuous
 62
     7
100
AcDbLine
 10
1.867236819489562
 20
1.021561418522821
 30
0.0
 11
7.867236819489562
 21
1.021561418522821
 31
0.0
  0
LINE
  5
1A1
330
198
100
AcDbEntity
  8
0
  6
Continuous
 62
     7
100
AcDbLine
 10
7.867236819489562
 20
1.021561418522821
 30
0.0
 11
7.867236819489562
 21
7.021561418522822
 31
0.0
  0
LINE
  5
1A2
330
198
100
AcDbEntity
  8
0
  6
Continuous
 62
     7
100
AcDbLine
 10
7.867236819489562
 20
7.021561418522822
 30
0.0
 11
1.867236819489562
 21
7.021561418522822
 31
0.0
  0
LINE
  5
1A3
330
198
100
AcDbEntity
  8
0
  6
Continuous
 62
     7
100
AcDbLine
 10
1.867236819489562
 20
7.021561418522822
 30
0.0
 11
1.867236819489562
 21
1.021561418522821
 31
0.0
  0
SPLINE
  5
1A4
330
198
100
AcDbEntity
  8
0
 62
     3
420
    65280
370
    25
100
AcDbSpline
210
0.0
220
0.0
230
1.0
 70
  1064
 71
     3
 72
    10
 73
     6
 74
     4
 42
0.000000001
 43
0.0000000001
 44
0.0000000001
 40
0.0
 40
0.0
 40
0.0
 40
0.0
 40
0.1394169802823584
 40
0.1794408531368916
 40
0.3137048426099892
 40
0.3137048426099892
 40
0.3137048426099892
 40
0.3137048426099892
 10
5.40150959370851
 20
5.186312025281864
 30
0.0
 10
4.8702842682906
 20
4.554523693501312
 30
0.0
 10
4.186554600585447
 20
3.741361358274766
 30
0.0
 10
5.587837593043002
 20
4.312206059539075
 30
0.0
 10
4.928009383682672
 20
3.525669313312291
 30
0.0
 10
4.419705669514257
 20
2.919754707411158
 30
0.0
 11
5.40150959370851
 21
5.186312025281864
 31
0.0
 11
4.704424692296727
 21
3.978925558847494
 31
0.0
 11
5.091025616879764
 21
4.082514964382638
 31
0.0
 11
4.419705669514257
 21
2.919754707411158
 31
0.0
  0
SPLINE
  5
1A5
330
198
100
AcDbEntity
  8
0
 62
     3
420
    65280
100
AcDbSpline
210
0.0
220
0.0
230
1.0
 70
  1064
 71
     3
 72
    10
 73
     6
 74
     4
 42
0.000000001
 43
0.0000000001
 44
0.0000000001
 40
0.0
 40
0.0
 40
0.0
 40
0.0
 40
0.13941698028236
 40
0.1794408531368931
 40
0.3137048426099893
 40
0.3137048426099893
 40
0.3137048426099893
 40
0.3137048426099893
 10
6.201509593708522
 20
5.186312025281864
 30
0.0
 10
5.670284268290595
 20
4.55452369350131
 30
0.0
 10
4.986554600585423
 20
3.741361358274764
 30
0.0
 10
6.387837593042974
 20
4.312206059539073
 30
0.0
 10
5.728009383682667
 20
3.52566931331229
 30
0.0
 10
5.219705669514269
 20
2.919754707411158
 30
0.0
 11
6.201509593708522
 21
5.186312025281864
 31
0.0
 11
5.504424692296709
 21
3.978925558847492
 31
0.0
 11
5.891025616879744
 21
4.082514964382638
 31
0.0
 11
5.219705669514269
 21
2.919754707411158
 31
0.0
  0
SPLINE
  5
1A6
330
198
100
AcDbEntity
  8
0
 62
     3
420
    65280
100
AcDbSpline
210
0.0
220
0.0
230
1.0
 70
  1064
 71
     3
 72
    10
 73
     6
 74
     4
 42
0.000000001
 43
0.0000000001
 44
0.0000000001
 40
0.0
 40
0.0
 40
0.0
 40
0.0
 40
0.1394169802823577
 40
0.1794408531368907
 40
0.3137048426099886
 40
0.3137048426099886
 40
0.3137048426099886
 40
0.3137048426099886
 10
6.501509593708505
 20
3.586312025281856
 30
0.0
 10
5.970284268290598
 20
2.954523693501309
 30
0.0
 10
5.286554600585446
 20
2.141361358274769
 30
0.0
 10
6.687837593042997
 20
2.712206059539075
 30
0.0
 10
6.028009383682668
 20
1.925669313312291
 30
0.0
 10
5.519705669514252
 20
1.319754707411156
 30
0.0
 11
6.501509593708505
 21
3.586312025281856
 31
0.0
 11
5.804424692296722
 21
2.378925558847494
 31
0.0
 11
6.191025616879758
 21
2.482514964382639
 31
0.0
 11
5.519705669514252
 21
1.319754707411156
 31
0.0
  0
SPLINE
  5
1A7
330
198
100
AcDbEntity
  8
0
 62
     3
420
    65280
100
AcDbSpline
210
0.0
220
0.0
230
1.0
 70
  1064
 71
     3
 72
    10
 73
     6
 74
     4
 42
0.000000001
 43
0.0000000001
 44
0.0000000001
 40
0.0
 40
0.0
 40
0.0
 40
0.0
 40
0.1394169802823562
 40
0.1794408531368893
 40
0.3137048426099888
 40
0.3137048426099888
 40
0.3137048426099888
 40
0.3137048426099888
 10
7.301509593708487
 20
3.586312025281856
 30
0.0
 10
6.770284268290595
 20
2.95452369350131
 30
0.0
 10
6.08655460058546
 20
2.141361358274771
 30
0.0
 10
7.487837593043014
 20
2.712206059539081
 30
0.0
 10
6.828009383682665
 20
1.925669313312294
 30
0.0
 10
6.319705669514235
 20
1.319754707411156
 30
0.0
 11
7.301509593708487
 21
3.586312025281856
 31
0.0
 11
6.604424692296731
 21
2.378925558847495
 31
0.0
 11
6.991025616879768
 21
2.482514964382641
 31
0.0
 11
6.319705669514235
 21
1.319754707411156
 31
0.0
  0
SPLINE
  5
1A8
330
198
100
AcDbEntity
  8
0
 62
     3
420
    65280
100
AcDbSpline
210
0.0
220
0.0
230
1.0
 70
  1064
 71
     3
 72
    10
 73
     6
 74
     4
 42
0.000000001
 43
0.0000000001
 44
0.0000000001
 40
0.0
 40
0.0
 40
0.0
 40
0.0
 40
0.1394169802823565
 40
0.1794408531368897
 40
0.3137048426099889
 40
0.3137048426099889
 40
0.3137048426099889
 40
0.3137048426099889
 10
3.07247248603727
 20
6.815349132953087
 30
0.0
 10
2.541247160619377
 20
6.18356080117254
 30
0.0
 10
1.857517492914244
 20
5.370398465945998
 30
0.0
 10
3.258800485371796
 20
5.941243167210311
 30
0.0
 10
2.598972276011448
 20
5.154706420983524
 30
0.0
 10
2.090668561843017
 20
4.548791815082388
 30
0.0
 11
3.07247248603727
 21
6.815349132953087
 31
0.0
 11
2.375387584625515
 21
5.607962666518723
 31
0.0
 11
2.761988509208552
 21
5.71155207205387
 31
0.0
 11
2.090668561843017
 21
4.548791815082388
 31
0.0
  0
SPLINE
  5
1A9
330
198
100
AcDbEntity
  8
0
 62
     3
420
    65280
100
AcDbSpline
210
0.0
220
0.0
230
1.0
 70
  1064
 71
     3
 72
    10
 73
     6
 74
     4
 42
0.000000001
 43
0.0000000001
 44
0.0000000001
 40
0.0
 40
0.0
 40
0.0
 40
0.0
 40
0.1394169802823583
 40
0.1794408531368913
 40
0.3137048426099885
 40
0.3137048426099885
 40
0.3137048426099885
 40
0.3137048426099885
 10
3.872472486037281
 20
6.815349132953087
 30
0.0
 10
3.341247160619371
 20
6.183560801172535
 30
0.0
 10
2.65751749291422
 20
5.37039846594599
 30
0.0
 10
4.058800485371766
 20
5.941243167210304
 30
0.0
 10
3.39897227601144
 20
5.15470642098352
 30
0.0
 10
2.890668561843028
 20
4.548791815082388
 30
0.0
 11
3.872472486037281
 21
6.815349132953087
 31
0.0
 11
3.175387584625497
 21
5.607962666518718
 31
0.0
 11
3.561988509208531
 21
5.711552072053866
 31
0.0
 11
2.890668561843028
 21
4.548791815082388
 31
0.0
  0
SPLINE
  5
1AA
330
198
100
AcDbEntity
  8
0
 62
     3
420
    65280
100
AcDbSpline
210
0.0
220
0.0
230
1.0
 70
  1064
 71
     3
 72
    10
 73
     6
 74
     4
 42
0.000000001
 43
0.0000000001
 44
0.0000000001
 40
0.0
 40
0.0
 40
0.0
 40
0.0
 40
0.1394169802823576
 40
0.1794408531368906
 40
0.3137048426099885
 40
0.3137048426099885
 40
0.3137048426099885
 40
0.3137048426099885
 10
3.001509593708505
 20
3.586312025281856
 30
0.0
 10
2.470284268290595
 20
2.954523693501309
 30
0.0
 10
1.786554600585443
 20
2.14136135827477
 30
0.0
 10
3.187837593042992
 20
2.71220605953908
 30
0.0
 10
2.528009383682665
 20
1.925669313312292
 30
0.0
 10
2.019705669514252
 20
1.319754707411156
 30
0.0
 11
3.001509593708505
 21
3.586312025281856
 31
0.0
 11
2.304424692296719
 21
2.378925558847496
 31
0.0
 11
2.691025616879754
 21
2.482514964382641
 31
0.0
 11
2.019705669514252
 21
1.319754707411156
 31
0.0
  0
SPLINE
  5
1AB
330
198
100
AcDbEntity
  8
0
 62
     3
420
    65280
100
AcDbSpline
210
0.0
220
0.0
230
1.0
 70
  1064
 71
     3
 72
    10
 73
     6
 74
     4
 42
0.000000001
 43
0.0000000001
 44
0.0000000001
 40
0.0
 40
0.0
 40
0.0
 40
0.0
 40
0.1394169802823561
 40
0.1794408531368891
 40
0.3137048426099886
 40
0.3137048426099886
 40
0.3137048426099886
 40
0.3137048426099886
 10
3.801509593708487
 20
3.586312025281856
 30
0.0
 10
3.270284268290595
 20
2.95452369350131
 30
0.0
 10
2.586554600585464
 20
2.141361358274771
 30
0.0
 10
3.987837593043013
 20
2.712206059539083
 30
0.0
 10
3.328009383682666
 20
1.925669313312295
 30
0.0
 10
2.819705669514235
 20
1.319754707411156
 30
0.0
 11
3.801509593708487
 21
3.586312025281856
 31
0.0
 11
3.104424692296733
 21
2.378925558847496
 31
0.0
 11
3.491025616879768
 21
2.482514964382642
 31
0.0
 11
2.819705669514235
 21
1.319754707411156
 31
0.0
  0
SPLINE
  5
1AC
330
198
100
AcDbEntity
  8
0
 62
     3
420
    65280
100
AcDbSpline
210
0.0
220
0.0
230
1.0
 70
  1064
 71
     3
 72
    10
 73
     6
 74
     4
 42
0.000000001
 43
0.0000000001
 44
0.0000000001
 40
0.0
 40
0.0
 40
0.0
 40
0.0
 40
0.1394169802823574
 40
0.1794408531368902
 40
0.3137048426099882
 40
0.3137048426099882
 40
0.3137048426099882
 40
0.3137048426099882
 10
6.914817715412851
 20
6.826128725555733
 30
0.0
 10
6.383592389994942
 20
6.194340393775188
 30
0.0
 10
5.69986272228979
 20
5.381178058548651
 30
0.0
 10
7.101145714747336
 20
5.95202275981296
 30
0.0
 10
6.441317505387011
 20
5.165486013586172
 30
0.0
 10
5.933013791218598
 20
4.559571407685034
 30
0.0
 11
6.914817715412851
 21
6.826128725555733
 31
0.0
 11
6.217732814001065
 21
5.618742259121376
 31
0.0
 11
6.604333738584098
 21
5.722331664656522
 31
0.0
 11
5.933013791218598
 21
4.559571407685034
 31
0.0
  0
SPLINE
  5
1AD
330
198
100
AcDbEntity
  8
0
 62
     3
420
    65280
100
AcDbSpline
210
0.0
220
0.0
230
1.0
 70
  1064
 71
     3
 72
    10
 73
     6
 74
     4
 42
0.000000001
 43
0.0000000001
 44
0.0000000001
 40
0.0
 40
0.0
 40
0.0
 40
0.0
 40
0.1394169802823558
 40
0.1794408531368888
 40
0.3137048426099884
 40
0.3137048426099884
 40
0.3137048426099884
 40
0.3137048426099884
 10
7.714817715412834
 20
6.826128725555733
 30
0.0
 10
7.183592389994943
 20
6.194340393775192
 30
0.0
 10
6.499862722289813
 20
5.381178058548656
 30
0.0
 10
7.901145714747363
 20
5.952022759812956
 30
0.0
 10
7.241317505387013
 20
5.165486013586171
 30
0.0
 10
6.733013791218582
 20
4.559571407685034
 30
0.0
 11
7.714817715412834
 21
6.826128725555733
 31
0.0
 11
7.01773281400108
 21
5.618742259121376
 31
0.0
 11
7.404333738584116
 21
5.72233166465652
 31
0.0
 11
6.733013791218582
 21
4.559571407685034
 31
0.0
  0
ATTDEF
  5
1AE
102
{ACAD_XDICTIONARY
360
33D
102
}
330
198
100
AcDbEntity
  8
0
 62
     1
420
 16711680
100
AcDbText
 10
12.0
 20
2.250000029802322
 30
0.0
 40
3.499999940395355
  1

  7
Stile testo39
 11
12.0
 21
4.0
 31
0.0
100
AcDbAttributeDefinition
280
     0
  3
NOME_TAMPONAMENTO
  2
NOME_TAMPONAMENTO
 70
     0
 74
     2
280
     0
  0
ENDBLK
  5
19A
330
198
100
AcDbEntity
  8
0
100
AcDbBlockEnd
  0
BLOCK
  5
1B0
330
1AF
100
AcDbEntity
  8
0
100
AcDbBlockBegin
  2
POLIETILENE
 70
     2
 10
0.0
 20
0.0
 30
0.0
  3
POLIETILENE
  1

  0
LINE
  5
1B2
330
1AF
100
AcDbEntity
  8
0
  6
Continuous
 62
     1
420
 16711680
100
AcDbLine
 10
10.0
 20
8.0
 30
0.0
 11
10.0
 21
0.0
 31
0.0
  0
LINE
  5
1B3
330
1AF
100
AcDbEntity
  8
0
  6
Continuous
 62
     3
420
    65280
100
AcDbLine
 10
0.0
 20
8.0
 30
0.0
 11
130.250436452013
 21
8.0
 31
0.0
  0
LINE
  5
1B4
330
1AF
100
AcDbEntity
  8
0
  6
Continuous
 62
     3
420
    65280
100
AcDbLine
 10
0.0
 20
8.0
 30
0.0
 11
0.0
 21
0.0
 31
0.0
  0
LINE
  5
1B5
330
1AF
100
AcDbEntity
  8
0
  6
Continuous
 62
     3
420
    65280
100
AcDbLine
 10
130.250436452013
 20
8.0
 30
0.0
 11
130.250436452013
 21
0.0
 31
0.0
  0
LINE
  5
1B6
330
1AF
100
AcDbEntity
  8
0
  6
Continuous
 62
     3
420
    65280
100
AcDbLine
 10
0.0
 20
0.0
 30
0.0
 11
130.250436452013
 21
0.0
 31
0.0
  0
LINE
  5
1B7
330
1AF
100
AcDbEntity
  8
0
  6
Continuous
 62
     7
100
AcDbLine
 10
1.867236819489562
 20
1.021561418522821
 30
0.0
 11
7.867236819489562
 21
1.021561418522821
 31
0.0
  0
LINE
  5
1B8
330
1AF
100
AcDbEntity
  8
0
  6
Continuous
 62
     7
100
AcDbLine
 10
7.867236819489562
 20
1.021561418522821
 30
0.0
 11
7.867236819489562
 21
7.021561418522822
 31
0.0
  0
LINE
  5
1B9
330
1AF
100
AcDbEntity
  8
0
  6
Continuous
 62
     7
100
AcDbLine
 10
7.867236819489562
 20
7.021561418522822
 30
0.0
 11
1.867236819489562
 21
7.021561418522822
 31
0.0
  0
LINE
  5
1BA
330
1AF
100
AcDbEntity
  8
0
  6
Continuous
 62
     7
100
AcDbLine
 10
1.867236819489562
 20
7.021561418522822
 30
0.0
 11
1.867236819489562
 21
1.021561418522821
 31
0.0
  0
LINE
  5
1BB
330
1AF
100
AcDbEntity
  8
0
  6
Continuous
 62
     4
420
    65535
100
AcDbLine
 10
2.367236819489534
 20
5.609061418522828
 30
0.0
 11
7.367236819489506
 21
5.609061418522828
 31
0.0
  0
LINE
  5
1BC
330
1AF
100
AcDbEntity
  8
0
  6
Continuous
 62
     4
420
    65535
100
AcDbLine
 10
2.367236819489562
 20
4.021561418522821
 30
0.0
 11
7.367236819489534
 21
4.021561418522821
 31
0.0
  0
LINE
  5
1BD
330
1AF
100
AcDbEntity
  8
0
  6
Continuous
 62
     4
420
    65535
100
AcDbLine
 10
2.367236819489562
 20
2.434061418522816
 30
0.0
 11
7.367236819489534
 21
2.434061418522816
 31
0.0
  0
LINE
  5
1BE
330
1AF
100
AcDbEntity
  8
0
  6
Continuous
 62
     4
420
    65535
100
AcDbLine
 10
2.367236819489562
 20
5.489299078342612
 30
0.0
 11
2.963213759466953
 21
6.521561418522821
 31
0.0
  0
LINE
  5
1BF
330
1AF
100
AcDbEntity
  8
0
  6
Continuous
 62
     4
420
    65535
100
AcDbLine
 10
2.36723681948959
 20
2.314299078342656
 30
0.0
 11
4.796300864144001
 21
6.521561418522821
 31
0.0
  0
LINE
  5
1C0
330
1AF
100
AcDbEntity
  8
0
  6
Continuous
 62
     4
420
    65535
100
AcDbLine
 10
3.742636622872936
 20
1.52156141852285
 30
0.0
 11
6.629387968821021
 21
6.521561418522821
 31
0.0
  0
LINE
  5
1C1
330
1AF
100
AcDbEntity
  8
0
  6
Continuous
 62
     4
420
    65535
100
AcDbLine
 10
5.575723727549927
 20
1.52156141852285
 30
0.0
 11
7.367236819489506
 21
4.624553116186945
 31
0.0
  0
LINE
  5
1C2
330
1AF
100
AcDbEntity
  8
0
  6
Continuous
 62
     4
420
    65535
100
AcDbLine
 10
2.963213759466924
 20
1.521561418522822
 30
0.0
 11
2.367236819489704
 21
2.553823758702804
 31
0.0
  0
LINE
  5
1C3
330
1AF
100
AcDbEntity
  8
0
  6
Continuous
 62
     4
420
    65535
100
AcDbLine
 10
4.796300864144001
 20
1.521561418522822
 30
0.0
 11
2.367236819489676
 21
5.728823758702873
 31
0.0
  0
LINE
  5
1C4
330
1AF
100
AcDbEntity
  8
0
  6
Continuous
 62
     4
420
    65535
100
AcDbLine
 10
6.629387968821078
 20
1.521561418522822
 30
0.0
 11
3.742636622872936
 21
6.521561418522821
 31
0.0
  0
LINE
  5
1C5
330
1AF
100
AcDbEntity
  8
0
  6
Continuous
 62
     4
420
    65535
100
AcDbLine
 10
7.367236819489619
 20
3.418569720858528
 30
0.0
 11
5.575723727549927
 21
6.521561418522821
 31
0.0
  0
ATTDEF
  5
1C6
102
{ACAD_XDICTIONARY
360
340
102
}
330
1AF
100
AcDbEntity
  8
0
 62
     1
420
 16711680
100
AcDbText
 10
12.0
 20
2.250000029802322
 30
0.0
 40
3.499999940395355
  1

  7
Stile testo39
 11
12.0
 21
4.0
 31
0.0
100
AcDbAttributeDefinition
280
     0
  3
NOME_TAMPONAMENTO
  2
NOME_TAMPONAMENTO
 70
     0
 74
     2
280
     0
  0
ENDBLK
  5
1B1
330
1AF
100
AcDbEntity
  8
0
100
AcDbBlockEnd
  0
BLOCK
  5
1C8
330
1C7
100
AcDbEntity
  8
0
100
AcDbBlockBegin
  2
PVC
 70
     2
 10
0.0
 20
0.0
 30
0.0
  3
PVC
  1

  0
HATCH
  5
1CE
330
1C7
100
AcDbEntity
  8
CAMPITURE
100
AcDbHatch
 10
0.0
 20
0.0
 30
0.0
210
0.0
220
0.0
230
1.0
  2
AR-SAND
 70
     0
 71
     0
 91
        1
 92
        1
 93
        4
 72
     1
 10
1.867236819489562
 20
1.021561418522821
 11
7.867236819489562
 21
1.021561418522821
 72
     1
 10
7.867236819489562
 20
1.021561418522821
 11
7.867236819489562
 21
7.021561418522822
 72
     1
 10
7.867236819489562
 20
7.021561418522822
 11
1.867236819489562
 21
7.021561418522822
 72
     1
 10
1.867236819489562
 20
7.021561418522822
 11
1.867236819489562
 21
1.021561418522821
 97
        0
 75
     0
 76
     2
 52
45.0
 41
0.8104658583280153
 77
     1
 78
     4
 53
82.50000000000001
 43
0.0
 44
0.0
 45
-1.140336147776162
 46
1.068134936576352
 79
     6
 49
0.0
 49
-1.231908104658583
 49
0.0
 49
-1.377791959157625
 49
0.0
 49
-1.317007019783024
 53
52.5
 43
0.0
 44
0.0
 45
-0.6030980463576575
 46
2.631566213607958
 79
     6
 49
0.0
 49
-0.6645820038289728
 49
0.0
 49
-1.110338225909381
 49
0.0
 49
-0.4254945756222081
 53
12.5
 43
-0.704895662343016
 44
-0.704895662343016
 45
1.781427681283138
 46
1.787913928911062
 79
     6
 49
0.0
 49
-0.4052329291640077
 49
0.0
 49
-1.458838544990427
 49
0.0
 49
-1.904594767070836
 53
2.499999999999997
 43
-0.704895662343016
 44
-0.704895662343016
 45
1.219785288902715
 46
2.225752278604517
 79
     6
 49
0.0
 49
-0.2026164645820038
 49
0.0
 49
-0.9563497128270581
 49
0.0
 49
-1.09412890874282
 98
        1
 10
0.0
 20
0.0
  0
HATCH
  5
1CF
330
1C7
100
AcDbEntity
  8
CAMPITURE
100
AcDbHatch
 10
0.0
 20
0.0
 30
0.0
210
0.0
220
0.0
230
1.0
  2
AR-SAND
 70
     0
 71
     0
 91
        1
 92
        1
 93
        4
 72
     1
 10
1.867236819489562
 20
1.021561418522821
 11
7.867236819489562
 21
1.021561418522821
 72
     1
 10
7.867236819489562
 20
1.021561418522821
 11
7.867236819489562
 21
7.021561418522822
 72
     1
 10
7.867236819489562
 20
7.021561418522822
 11
1.867236819489562
 21
7.021561418522822
 72
     1
 10
1.867236819489562
 20
7.021561418522822
 11
1.867236819489562
 21
1.021561418522821
 97
        0
 75
     0
 76
     2
 52
135.0
 41
0.8104658583280153
 77
     1
 78
     4
 53
172.5
 43
0.0
 44
0.0
 45
-1.068134936576352
 46
-1.140336147776162
 79
     6
 49
0.0
 49
-1.231908104658583
 49
0.0
 49
-1.377791959157626
 49
0.0
 49
-1.317007019783025
 53
142.5
 43
0.0
 44
0.0
 45
-2.631566213607958
 46
-0.6030980463576575
 79
     6
 49
0.0
 49
-0.6645820038289728
 49
0.0
 49
-1.110338225909381
 49
0.0
 49
-0.4254945756222081
 53
102.5
 43
0.704895662343016
 44
-0.704895662343016
 45
-1.787913928911062
 46
1.781427681283138
 79
     6
 49
0.0
 49
-0.4052329291640077
 49
0.0
 49
-1.458838544990427
 49
0.0
 49
-1.904594767070836
 53
92.49999999999998
 43
0.704895662343016
 44
-0.704895662343016
 45
-2.225752278604517
 46
1.219785288902715
 79
     6
 49
0.0
 49
-0.2026164645820038
 49
0.0
 49
-0.9563497128270581
 49
0.0
 49
-1.09412890874282
 98
        1
 10
0.0
 20
0.0
  0
LINE
  5
1D0
330
1C7
100
AcDbEntity
  8
0
  6
Continuous
 62
     1
420
 16711680
100
AcDbLine
 10
10.0
 20
8.0
 30
0.0
 11
10.0
 21
0.0
 31
0.0
  0
LINE
  5
1D1
330
1C7
100
AcDbEntity
  8
0
  6
Continuous
 62
     3
420
    65280
100
AcDbLine
 10
0.0
 20
8.0
 30
0.0
 11
130.250436452013
 21
8.0
 31
0.0
  0
LINE
  5
1D2
330
1C7
100
AcDbEntity
  8
0
  6
Continuous
 62
     3
420
    65280
100
AcDbLine
 10
0.0
 20
8.0
 30
0.0
 11
0.0
 21
0.0
 31
0.0
  0
LINE
  5
1D3
330
1C7
100
AcDbEntity
  8
0
  6
Continuous
 62
     3
420
    65280
100
AcDbLine
 10
130.250436452013
 20
8.0
 30
0.0
 11
130.250436452013
 21
0.0
 31
0.0
  0
LINE
  5
1D4
330
1C7
100
AcDbEntity
  8
0
  6
Continuous
 62
     3
420
    65280
100
AcDbLine
 10
0.0
 20
0.0
 30
0.0
 11
130.250436452013
 21
0.0
 31
0.0
  0
LINE
  5
1D5
330
1C7
100
AcDbEntity
  8
0
  6
Continuous
 62
     7
100
AcDbLine
 10
1.867236819489562
 20
1.021561418522821
 30
0.0
 11
7.867236819489562
 21
1.021561418522821
 31
0.0
  0
LINE
  5
1D6
330
1C7
100
AcDbEntity
  8
0
  6
Continuous
 62
     7
100
AcDbLine
 10
7.867236819489562
 20
1.021561418522821
 30
0.0
 11
7.867236819489562
 21
7.021561418522822
 31
0.0
  0
LINE
  5
1D7
330
1C7
100
AcDbEntity
  8
0
  6
Continuous
 62
     7
100
AcDbLine
 10
7.867236819489562
 20
7.021561418522822
 30
0.0
 11
1.867236819489562
 21
7.021561418522822
 31
0.0
  0
LINE
  5
1D8
330
1C7
100
AcDbEntity
  8
0
  6
Continuous
 62
     7
100
AcDbLine
 10
1.867236819489562
 20
7.021561418522822
 30
0.0
 11
1.867236819489562
 21
1.021561418522821
 31
0.0
  0
LINE
  5
1D9
330
1C7
100
AcDbEntity
  8
GEOMETRIA SCHIZZO
100
AcDbLine
 10
1.867236819489562
 20
7.021561418522822
 30
0.0
 11
7.867236819489562
 21
7.021561418522822
 31
0.0
  0
LINE
  5
1DA
330
1C7
100
AcDbEntity
  8
GEOMETRIA SCHIZZO
100
AcDbLine
 10
7.867236819489562
 20
7.021561418522822
 30
0.0
 11
7.867236819489562
 21
1.021561418522821
 31
0.0
  0
LINE
  5
1DB
330
1C7
100
AcDbEntity
  8
GEOMETRIA SCHIZZO
100
AcDbLine
 10
7.867236819489562
 20
1.021561418522821
 30
0.0
 11
1.867236819489562
 21
1.021561418522821
 31
0.0
  0
LINE
  5
1DC
330
1C7
100
AcDbEntity
  8
GEOMETRIA SCHIZZO
100
AcDbLine
 10
1.867236819489562
 20
1.021561418522821
 30
0.0
 11
1.867236819489562
 21
7.021561418522822
 31
0.0
  0
ATTDEF
  5
1DD
102
{ACAD_XDICTIONARY
360
343
102
}
330
1C7
100
AcDbEntity
  8
0
 62
     1
420
 16711680
100
AcDbText
 10
11.66872428140939
 20
2.778120719111464
 30
0.0
 40
3.499999940395355
  1
rjhiljyt
  7
Stile testo39
100
AcDbAttributeDefinition
280
     0
  3
NOME_TAMPONAMENTO
  2
NOME_TAMPONAMENTO_001
 70
     0
280
     0
  0
ENDBLK
  5
1C9
330
1C7
100
AcDbEntity
  8
0
100
AcDbBlockEnd
  0
BLOCK
  5
1DF
330
1DE
100
AcDbEntity
  8
0
100
AcDbBlockBegin
  2
RETE_11X100
 70
     2
 10
0.0
 20
0.0
 30
0.0
  3
RETE_11X100
  1

  0
LINE
  5
1E1
330
1DE
100
AcDbEntity
  8
0
  6
Continuous
 62
     1
420
 16711680
100
AcDbLine
 10
10.0
 20
8.0
 30
0.0
 11
10.0
 21
0.0
 31
0.0
  0
LINE
  5
1E2
330
1DE
100
AcDbEntity
  8
0
  6
Continuous
 62
     3
420
    65280
100
AcDbLine
 10
0.0
 20
8.0
 30
0.0
 11
130.250436452013
 21
8.0
 31
0.0
  0
LINE
  5
1E3
330
1DE
100
AcDbEntity
  8
0
  6
Continuous
 62
     3
420
    65280
100
AcDbLine
 10
0.0
 20
8.0
 30
0.0
 11
0.0
 21
0.0
 31
0.0
  0
LINE
  5
1E4
330
1DE
100
AcDbEntity
  8
0
  6
Continuous
 62
     3
420
    65280
100
AcDbLine
 10
130.250436452013
 20
8.0
 30
0.0
 11
130.250436452013
 21
0.0
 31
0.0
  0
LINE
  5
1E5
330
1DE
100
AcDbEntity
  8
0
  6
Continuous
 62
     7
100
AcDbLine
 10
1.867236819489562
 20
1.021561418522821
 30
0.0
 11
7.867236819489562
 21
1.021561418522821
 31
0.0
  0
LINE
  5
1E6
330
1DE
100
AcDbEntity
  8
0
  6
Continuous
 62
     7
100
AcDbLine
 10
7.867236819489562
 20
1.021561418522821
 30
0.0
 11
7.867236819489562
 21
7.021561418522822
 31
0.0
  0
LINE
  5
1E7
330
1DE
100
AcDbEntity
  8
0
  6
Continuous
 62
     7
100
AcDbLine
 10
7.867236819489562
 20
7.021561418522822
 30
0.0
 11
1.867236819489562
 21
7.021561418522822
 31
0.0
  0
LINE
  5
1E8
330
1DE
100
AcDbEntity
  8
0
  6
Continuous
 62
     7
100
AcDbLine
 10
1.867236819489562
 20
7.021561418522822
 30
0.0
 11
1.867236819489562
 21
1.021561418522821
 31
0.0
  0
LINE
  5
1E9
330
1DE
100
AcDbEntity
  8
0
  6
Continuous
 62
     3
420
    65280
100
AcDbLine
 10
2.933236819492094
 20
1.621561418522844
 30
0.0
 11
6.801236819497149
 21
1.621561418522844
 31
0.0
  0
LINE
  5
1EA
330
1DE
100
AcDbEntity
  8
0
  6
Continuous
 62
     3
420
    65280
100
AcDbLine
 10
2.933236819492094
 20
4.021561418522821
 30
0.0
 11
6.801236819497149
 21
4.021561418522821
 31
0.0
  0
LINE
  5
1EB
330
1DE
100
AcDbEntity
  8
0
  6
Continuous
 62
     3
420
    65280
100
AcDbLine
 10
3.283236819497119
 20
4.021561418522821
 30
0.0
 11
3.283236819497119
 21
1.271561418521344
 31
0.0
  0
LINE
  5
1EC
330
1DE
100
AcDbEntity
  8
0
  6
Continuous
 62
     3
420
    65280
100
AcDbLine
 10
3.811236819497139
 20
4.021561418522821
 30
0.0
 11
3.811236819497139
 21
1.271561418521344
 31
0.0
  0
LINE
  5
1ED
330
1DE
100
AcDbEntity
  8
0
  6
Continuous
 62
     3
420
    65280
100
AcDbLine
 10
4.339236819497159
 20
4.021561418522821
 30
0.0
 11
4.339236819497159
 21
1.271561418521344
 31
0.0
  0
LINE
  5
1EE
330
1DE
100
AcDbEntity
  8
0
  6
Continuous
 62
     3
420
    65280
100
AcDbLine
 10
4.867236819497122
 20
4.021561418522821
 30
0.0
 11
4.867236819497122
 21
1.271561418521344
 31
0.0
  0
LINE
  5
1EF
330
1DE
100
AcDbEntity
  8
0
  6
Continuous
 62
     3
420
    65280
100
AcDbLine
 10
5.395236819497143
 20
4.021561418522821
 30
0.0
 11
5.395236819497143
 21
1.271561418521344
 31
0.0
  0
LINE
  5
1F0
330
1DE
100
AcDbEntity
  8
0
  6
Continuous
 62
     3
420
    65280
100
AcDbLine
 10
5.923236819497162
 20
4.021561418522821
 30
0.0
 11
5.923236819497162
 21
1.271561418521344
 31
0.0
  0
LINE
  5
1F1
330
1DE
100
AcDbEntity
  8
0
  6
Continuous
 62
     3
420
    65280
100
AcDbLine
 10
6.451236819497125
 20
4.021561418522821
 30
0.0
 11
6.451236819497125
 21
1.271561418521344
 31
0.0
  0
LINE
  5
1F2
330
1DE
100
AcDbEntity
  8
0
  6
Continuous
 62
     3
420
    65280
100
AcDbLine
 10
2.933236819492094
 20
6.4215614185228
 30
0.0
 11
6.801236819497149
 21
6.4215614185228
 31
0.0
  0
LINE
  5
1F3
330
1DE
100
AcDbEntity
  8
0
  6
Continuous
 62
     3
420
    65280
100
AcDbLine
 10
2.933236819492094
 20
4.021561418522821
 30
0.0
 11
6.801236819497149
 21
4.021561418522821
 31
0.0
  0
LINE
  5
1F4
330
1DE
100
AcDbEntity
  8
0
  6
Continuous
 62
     3
420
    65280
100
AcDbLine
 10
3.283236819497119
 20
4.021561418522821
 30
0.0
 11
3.283236819497119
 21
6.771561418524299
 31
0.0
  0
LINE
  5
1F5
330
1DE
100
AcDbEntity
  8
0
  6
Continuous
 62
     3
420
    65280
100
AcDbLine
 10
3.811236819497139
 20
4.021561418522821
 30
0.0
 11
3.811236819497139
 21
6.771561418524299
 31
0.0
  0
LINE
  5
1F6
330
1DE
100
AcDbEntity
  8
0
  6
Continuous
 62
     3
420
    65280
100
AcDbLine
 10
4.339236819497159
 20
4.021561418522821
 30
0.0
 11
4.339236819497159
 21
6.771561418524299
 31
0.0
  0
LINE
  5
1F7
330
1DE
100
AcDbEntity
  8
0
  6
Continuous
 62
     3
420
    65280
100
AcDbLine
 10
4.867236819497122
 20
4.021561418522821
 30
0.0
 11
4.867236819497122
 21
6.771561418524299
 31
0.0
  0
LINE
  5
1F8
330
1DE
100
AcDbEntity
  8
0
  6
Continuous
 62
     3
420
    65280
100
AcDbLine
 10
5.395236819497143
 20
4.021561418522821
 30
0.0
 11
5.395236819497143
 21
6.771561418524299
 31
0.0
  0
LINE
  5
1F9
330
1DE
100
AcDbEntity
  8
0
  6
Continuous
 62
     3
420
    65280
100
AcDbLine
 10
5.923236819497162
 20
4.021561418522821
 30
0.0
 11
5.923236819497162
 21
6.771561418524299
 31
0.0
  0
LINE
  5
1FA
330
1DE
100
AcDbEntity
  8
0
  6
Continuous
 62
     3
420
    65280
100
AcDbLine
 10
6.451236819497125
 20
4.021561418522821
 30
0.0
 11
6.451236819497125
 21
6.771561418524299
 31
0.0
  0
LINE
  5
1FB
330
1DE
100
AcDbEntity
  8
0
  6
Continuous
 62
     3
420
    65280
100
AcDbLine
 10
0.0
 20
0.0
 30
0.0
 11
130.250436452013
 21
0.0
 31
0.0
  0
ATTDEF
  5
1FC
102
{ACAD_XDICTIONARY
360
346
102
}
330
1DE
100
AcDbEntity
  8
0
 62
     1
420
 16711680
100
AcDbText
 10
11.99830177266988
 20
2.414165003805976
 30
0.0
 40
3.499999940395355
  1

  7
Stile testo39
 11
11.99830177266988
 21
4.164164974003654
 31
0.0
100
AcDbAttributeDefinition
280
     0
  3
NOME_TAMPONAMENTO
  2
NOME_TAMPONAMENTO
 70
     0
 74
     2
280
     0
  0
ENDBLK
  5
1E0
330
1DE
100
AcDbEntity
  8
0
100
AcDbBlockEnd
  0
BLOCK
  5
1FE
330
1FD
100
AcDbEntity
  8
0
100
AcDbBlockBegin
  2
RETE_25X25
 70
     2
 10
0.0
 20
0.0
 30
0.0
  3
RETE_25X25
  1

  0
LINE
  5
200
330
1FD
100
AcDbEntity
  8
0
  6
Continuous
 62
     1
420
 16711680
100
AcDbLine
 10
10.0
 20
8.0
 30
0.0
 11
10.0
 21
0.0
 31
0.0
  0
LINE
  5
201
330
1FD
100
AcDbEntity
  8
0
  6
Continuous
 62
     3
420
    65280
100
AcDbLine
 10
0.0
 20
8.0
 30
0.0
 11
130.250436452013
 21
8.0
 31
0.0
  0
LINE
  5
202
330
1FD
100
AcDbEntity
  8
0
  6
Continuous
 62
     3
420
    65280
100
AcDbLine
 10
0.0
 20
8.0
 30
0.0
 11
0.0
 21
0.0
 31
0.0
  0
LINE
  5
203
330
1FD
100
AcDbEntity
  8
0
  6
Continuous
 62
     3
420
    65280
100
AcDbLine
 10
130.250436452013
 20
8.0
 30
0.0
 11
130.250436452013
 21
0.0
 31
0.0
  0
LINE
  5
204
330
1FD
100
AcDbEntity
  8
0
  6
Continuous
 62
     3
420
    65280
100
AcDbLine
 10
0.0
 20
0.0
 30
0.0
 11
130.250436452013
 21
0.0
 31
0.0
  0
LINE
  5
205
330
1FD
100
AcDbEntity
  8
0
  6
Continuous
 62
     7
100
AcDbLine
 10
1.867236819489562
 20
1.021561418522821
 30
0.0
 11
7.867236819489562
 21
1.021561418522821
 31
0.0
  0
LINE
  5
206
330
1FD
100
AcDbEntity
  8
0
  6
Continuous
 62
     7
100
AcDbLine
 10
7.867236819489562
 20
1.021561418522821
 30
0.0
 11
7.867236819489562
 21
7.021561418522822
 31
0.0
  0
LINE
  5
207
330
1FD
100
AcDbEntity
  8
0
  6
Continuous
 62
     7
100
AcDbLine
 10
7.867236819489562
 20
7.021561418522822
 30
0.0
 11
1.867236819489562
 21
7.021561418522822
 31
0.0
  0
LINE
  5
208
330
1FD
100
AcDbEntity
  8
0
  6
Continuous
 62
     7
100
AcDbLine
 10
1.867236819489562
 20
7.021561418522822
 30
0.0
 11
1.867236819489562
 21
1.021561418522821
 31
0.0
  0
LINE
  5
209
330
1FD
100
AcDbEntity
  8
0
  6
Continuous
 62
     3
420
    65280
100
AcDbLine
 10
2.933236819492094
 20
4.021561418522821
 30
0.0
 11
6.801236819497149
 21
4.021561418522821
 31
0.0
  0
LINE
  5
20A
330
1FD
100
AcDbEntity
  8
0
  6
Continuous
 62
     3
420
    65280
100
AcDbLine
 10
3.283236819497119
 20
4.021561418522821
 30
0.0
 11
3.283236819497119
 21
1.271561418521344
 31
0.0
  0
LINE
  5
20B
330
1FD
100
AcDbEntity
  8
0
  6
Continuous
 62
     3
420
    65280
100
AcDbLine
 10
3.811236819497139
 20
4.021561418522821
 30
0.0
 11
3.811236819497139
 21
1.271561418521344
 31
0.0
  0
LINE
  5
20C
330
1FD
100
AcDbEntity
  8
0
  6
Continuous
 62
     3
420
    65280
100
AcDbLine
 10
4.339236819497159
 20
4.021561418522821
 30
0.0
 11
4.339236819497159
 21
1.271561418521344
 31
0.0
  0
LINE
  5
20D
330
1FD
100
AcDbEntity
  8
0
  6
Continuous
 62
     3
420
    65280
100
AcDbLine
 10
4.867236819497122
 20
4.021561418522821
 30
0.0
 11
4.867236819497122
 21
1.271561418521344
 31
0.0
  0
LINE
  5
20E
330
1FD
100
AcDbEntity
  8
0
  6
Continuous
 62
     3
420
    65280
100
AcDbLine
 10
5.395236819497143
 20
4.021561418522821
 30
0.0
 11
5.395236819497143
 21
1.271561418521344
 31
0.0
  0
LINE
  5
20F
330
1FD
100
AcDbEntity
  8
0
  6
Continuous
 62
     3
420
    65280
100
AcDbLine
 10
5.923236819497162
 20
4.021561418522821
 30
0.0
 11
5.923236819497162
 21
1.271561418521344
 31
0.0
  0
LINE
  5
210
330
1FD
100
AcDbEntity
  8
0
  6
Continuous
 62
     3
420
    65280
100
AcDbLine
 10
6.451236819497125
 20
4.021561418522821
 30
0.0
 11
6.451236819497125
 21
1.271561418521344
 31
0.0
  0
LINE
  5
211
330
1FD
100
AcDbEntity
  8
0
  6
Continuous
 62
     3
420
    65280
100
AcDbLine
 10
2.933236819492094
 20
4.021561418522821
 30
0.0
 11
6.801236819497149
 21
4.021561418522821
 31
0.0
  0
LINE
  5
212
330
1FD
100
AcDbEntity
  8
0
  6
Continuous
 62
     3
420
    65280
100
AcDbLine
 10
3.283236819497119
 20
4.021561418522821
 30
0.0
 11
3.283236819497119
 21
6.771561418524299
 31
0.0
  0
LINE
  5
213
330
1FD
100
AcDbEntity
  8
0
  6
Continuous
 62
     3
420
    65280
100
AcDbLine
 10
3.811236819497139
 20
4.021561418522821
 30
0.0
 11
3.811236819497139
 21
6.771561418524299
 31
0.0
  0
LINE
  5
214
330
1FD
100
AcDbEntity
  8
0
  6
Continuous
 62
     3
420
    65280
100
AcDbLine
 10
4.339236819497159
 20
4.021561418522821
 30
0.0
 11
4.339236819497159
 21
6.771561418524299
 31
0.0
  0
LINE
  5
215
330
1FD
100
AcDbEntity
  8
0
  6
Continuous
 62
     3
420
    65280
100
AcDbLine
 10
4.867236819497122
 20
4.021561418522821
 30
0.0
 11
4.867236819497122
 21
6.771561418524299
 31
0.0
  0
LINE
  5
216
330
1FD
100
AcDbEntity
  8
0
  6
Continuous
 62
     3
420
    65280
100
AcDbLine
 10
5.395236819497143
 20
4.021561418522821
 30
0.0
 11
5.395236819497143
 21
6.771561418524299
 31
0.0
  0
LINE
  5
217
330
1FD
100
AcDbEntity
  8
0
  6
Continuous
 62
     3
420
    65280
100
AcDbLine
 10
5.923236819497162
 20
4.021561418522821
 30
0.0
 11
5.923236819497162
 21
6.771561418524299
 31
0.0
  0
LINE
  5
218
330
1FD
100
AcDbEntity
  8
0
  6
Continuous
 62
     3
420
    65280
100
AcDbLine
 10
6.451236819497125
 20
4.021561418522821
 30
0.0
 11
6.451236819497125
 21
6.771561418524299
 31
0.0
  0
LINE
  5
219
330
1FD
100
AcDbEntity
  8
0
  6
Continuous
 62
     3
420
    65280
100
AcDbLine
 10
2.933236819492094
 20
4.549561418522813
 30
0.0
 11
6.801236819497149
 21
4.549561418522813
 31
0.0
  0
LINE
  5
21A
330
1FD
100
AcDbEntity
  8
0
  6
Continuous
 62
     3
420
    65280
100
AcDbLine
 10
2.933236819492094
 20
5.077561418522805
 30
0.0
 11
6.801236819497149
 21
5.077561418522805
 31
0.0
  0
LINE
  5
21B
330
1FD
100
AcDbEntity
  8
0
  6
Continuous
 62
     3
420
    65280
100
AcDbLine
 10
2.933236819492094
 20
5.605561418522796
 30
0.0
 11
6.801236819497149
 21
5.605561418522796
 31
0.0
  0
LINE
  5
21C
330
1FD
100
AcDbEntity
  8
0
  6
Continuous
 62
     3
420
    65280
100
AcDbLine
 10
2.933236819492094
 20
6.133561418522788
 30
0.0
 11
6.801236819497149
 21
6.133561418522788
 31
0.0
  0
LINE
  5
21D
330
1FD
100
AcDbEntity
  8
0
  6
Continuous
 62
     3
420
    65280
100
AcDbLine
 10
2.933236819492094
 20
3.49356141852283
 30
0.0
 11
6.801236819497149
 21
3.49356141852283
 31
0.0
  0
LINE
  5
21E
330
1FD
100
AcDbEntity
  8
0
  6
Continuous
 62
     3
420
    65280
100
AcDbLine
 10
2.933236819492094
 20
2.965561418522839
 30
0.0
 11
6.801236819497149
 21
2.965561418522839
 31
0.0
  0
LINE
  5
21F
330
1FD
100
AcDbEntity
  8
0
  6
Continuous
 62
     3
420
    65280
100
AcDbLine
 10
2.933236819492094
 20
2.437561418522847
 30
0.0
 11
6.801236819497149
 21
2.437561418522847
 31
0.0
  0
LINE
  5
220
330
1FD
100
AcDbEntity
  8
0
  6
Continuous
 62
     3
420
    65280
100
AcDbLine
 10
2.933236819492094
 20
1.909561418522855
 30
0.0
 11
6.801236819497149
 21
1.909561418522855
 31
0.0
  0
LINE
  5
221
330
1FD
100
AcDbEntity
  8
0
  6
Continuous
 62
     3
420
    65280
100
AcDbLine
 10
2.933236819492094
 20
6.661561418522779
 30
0.0
 11
6.801236819497149
 21
6.661561418522779
 31
0.0
  0
LINE
  5
222
330
1FD
100
AcDbEntity
  8
0
  6
Continuous
 62
     3
420
    65280
100
AcDbLine
 10
2.933236819492094
 20
1.381561418522863
 30
0.0
 11
6.801236819497149
 21
1.381561418522863
 31
0.0
  0
ATTDEF
  5
223
102
{ACAD_XDICTIONARY
360
349
102
}
330
1FD
100
AcDbEntity
  8
0
 62
     1
420
 16711680
100
AcDbText
 10
12.0
 20
2.250000029802322
 30
0.0
 40
3.499999940395355
  1

  7
Stile testo39
 11
12.0
 21
4.0
 31
0.0
100
AcDbAttributeDefinition
280
     0
  3
NOME_TAMPONAMENTO
  2
NOME_TAMPONAMENTO
 70
     0
 74
     2
280
     0
  0
ENDBLK
  5
1FF
330
1FD
100
AcDbEntity
  8
0
100
AcDbBlockEnd
  0
BLOCK
  5
225
330
224
100
AcDbEntity
  8
0
100
AcDbBlockBegin
  2
RETE_25X100
 70
     2
 10
0.0
 20
0.0
 30
0.0
  3
RETE_25X100
  1

  0
LINE
  5
227
330
224
100
AcDbEntity
  8
0
  6
Continuous
 62
     1
420
 16711680
100
AcDbLine
 10
10.0
 20
8.0
 30
0.0
 11
10.0
 21
0.0
 31
0.0
  0
LINE
  5
228
330
224
100
AcDbEntity
  8
0
  6
Continuous
 62
     3
420
    65280
100
AcDbLine
 10
0.0
 20
8.0
 30
0.0
 11
130.250436452013
 21
8.0
 31
0.0
  0
LINE
  5
229
330
224
100
AcDbEntity
  8
0
  6
Continuous
 62
     3
420
    65280
100
AcDbLine
 10
0.0
 20
8.0
 30
0.0
 11
0.0
 21
0.0
 31
0.0
  0
LINE
  5
22A
330
224
100
AcDbEntity
  8
0
  6
Continuous
 62
     3
420
    65280
100
AcDbLine
 10
130.250436452013
 20
8.0
 30
0.0
 11
130.250436452013
 21
0.0
 31
0.0
  0
LINE
  5
22B
330
224
100
AcDbEntity
  8
0
  6
Continuous
 62
     7
100
AcDbLine
 10
1.867236819489562
 20
1.021561418522821
 30
0.0
 11
7.867236819489562
 21
1.021561418522821
 31
0.0
  0
LINE
  5
22C
330
224
100
AcDbEntity
  8
0
  6
Continuous
 62
     7
100
AcDbLine
 10
7.867236819489562
 20
1.021561418522821
 30
0.0
 11
7.867236819489562
 21
7.021561418522822
 31
0.0
  0
LINE
  5
22D
330
224
100
AcDbEntity
  8
0
  6
Continuous
 62
     7
100
AcDbLine
 10
7.867236819489562
 20
7.021561418522822
 30
0.0
 11
1.867236819489562
 21
7.021561418522822
 31
0.0
  0
LINE
  5
22E
330
224
100
AcDbEntity
  8
0
  6
Continuous
 62
     7
100
AcDbLine
 10
1.867236819489562
 20
7.021561418522822
 30
0.0
 11
1.867236819489562
 21
1.021561418522821
 31
0.0
  0
LINE
  5
22F
330
224
100
AcDbEntity
  8
0
  6
Continuous
 62
     3
420
    65280
100
AcDbLine
 10
2.933236819492094
 20
1.621561418522844
 30
0.0
 11
6.801236819497149
 21
1.621561418522844
 31
0.0
  0
LINE
  5
230
330
224
100
AcDbEntity
  8
0
  6
Continuous
 62
     3
420
    65280
100
AcDbLine
 10
2.933236819492094
 20
4.021561418522821
 30
0.0
 11
6.801236819497149
 21
4.021561418522821
 31
0.0
  0
LINE
  5
231
330
224
100
AcDbEntity
  8
0
  6
Continuous
 62
     3
420
    65280
100
AcDbLine
 10
3.283236819497119
 20
4.021561418522821
 30
0.0
 11
3.283236819497119
 21
1.271561418521344
 31
0.0
  0
LINE
  5
232
330
224
100
AcDbEntity
  8
0
  6
Continuous
 62
     3
420
    65280
100
AcDbLine
 10
3.811236819497139
 20
4.021561418522821
 30
0.0
 11
3.811236819497139
 21
1.271561418521344
 31
0.0
  0
LINE
  5
233
330
224
100
AcDbEntity
  8
0
  6
Continuous
 62
     3
420
    65280
100
AcDbLine
 10
4.339236819497159
 20
4.021561418522821
 30
0.0
 11
4.339236819497159
 21
1.271561418521344
 31
0.0
  0
LINE
  5
234
330
224
100
AcDbEntity
  8
0
  6
Continuous
 62
     3
420
    65280
100
AcDbLine
 10
4.867236819497122
 20
4.021561418522821
 30
0.0
 11
4.867236819497122
 21
1.271561418521344
 31
0.0
  0
LINE
  5
235
330
224
100
AcDbEntity
  8
0
  6
Continuous
 62
     3
420
    65280
100
AcDbLine
 10
5.395236819497143
 20
4.021561418522821
 30
0.0
 11
5.395236819497143
 21
1.271561418521344
 31
0.0
  0
LINE
  5
236
330
224
100
AcDbEntity
  8
0
  6
Continuous
 62
     3
420
    65280
100
AcDbLine
 10
5.923236819497162
 20
4.021561418522821
 30
0.0
 11
5.923236819497162
 21
1.271561418521344
 31
0.0
  0
LINE
  5
237
330
224
100
AcDbEntity
  8
0
  6
Continuous
 62
     3
420
    65280
100
AcDbLine
 10
6.451236819497125
 20
4.021561418522821
 30
0.0
 11
6.451236819497125
 21
1.271561418521344
 31
0.0
  0
LINE
  5
238
330
224
100
AcDbEntity
  8
0
  6
Continuous
 62
     3
420
    65280
100
AcDbLine
 10
2.933236819492094
 20
6.4215614185228
 30
0.0
 11
6.801236819497149
 21
6.4215614185228
 31
0.0
  0
LINE
  5
239
330
224
100
AcDbEntity
  8
0
  6
Continuous
 62
     3
420
    65280
100
AcDbLine
 10
2.933236819492094
 20
4.021561418522821
 30
0.0
 11
6.801236819497149
 21
4.021561418522821
 31
0.0
  0
LINE
  5
23A
330
224
100
AcDbEntity
  8
0
  6
Continuous
 62
     3
420
    65280
100
AcDbLine
 10
3.283236819497119
 20
4.021561418522821
 30
0.0
 11
3.283236819497119
 21
6.771561418524299
 31
0.0
  0
LINE
  5
23B
330
224
100
AcDbEntity
  8
0
  6
Continuous
 62
     3
420
    65280
100
AcDbLine
 10
3.811236819497139
 20
4.021561418522821
 30
0.0
 11
3.811236819497139
 21
6.771561418524299
 31
0.0
  0
LINE
  5
23C
330
224
100
AcDbEntity
  8
0
  6
Continuous
 62
     3
420
    65280
100
AcDbLine
 10
4.339236819497159
 20
4.021561418522821
 30
0.0
 11
4.339236819497159
 21
6.771561418524299
 31
0.0
  0
LINE
  5
23D
330
224
100
AcDbEntity
  8
0
  6
Continuous
 62
     3
420
    65280
100
AcDbLine
 10
4.867236819497122
 20
4.021561418522821
 30
0.0
 11
4.867236819497122
 21
6.771561418524299
 31
0.0
  0
LINE
  5
23E
330
224
100
AcDbEntity
  8
0
  6
Continuous
 62
     3
420
    65280
100
AcDbLine
 10
5.395236819497143
 20
4.021561418522821
 30
0.0
 11
5.395236819497143
 21
6.771561418524299
 31
0.0
  0
LINE
  5
23F
330
224
100
AcDbEntity
  8
0
  6
Continuous
 62
     3
420
    65280
100
AcDbLine
 10
5.923236819497162
 20
4.021561418522821
 30
0.0
 11
5.923236819497162
 21
6.771561418524299
 31
0.0
  0
LINE
  5
240
330
224
100
AcDbEntity
  8
0
  6
Continuous
 62
     3
420
    65280
100
AcDbLine
 10
6.451236819497125
 20
4.021561418522821
 30
0.0
 11
6.451236819497125
 21
6.771561418524299
 31
0.0
  0
LINE
  5
241
330
224
100
AcDbEntity
  8
0
  6
Continuous
 62
     3
420
    65280
100
AcDbLine
 10
0.0
 20
0.0
 30
0.0
 11
130.250436452013
 21
0.0
 31
0.0
  0
ATTDEF
  5
242
102
{ACAD_XDICTIONARY
360
34C
102
}
330
224
100
AcDbEntity
  8
0
 62
     1
420
 16711680
100
AcDbText
 10
11.99830177266988
 20
2.414165003805976
 30
0.0
 40
3.499999940395355
  1

  7
Stile testo39
 11
11.99830177266988
 21
4.164164974003654
 31
0.0
100
AcDbAttributeDefinition
280
     0
  3
NOME_TAMPONAMENTO
  2
NOME_TAMPONAMENTO
 70
     0
 74
     2
280
     0
  0
ENDBLK
  5
226
330
224
100
AcDbEntity
  8
0
100
AcDbBlockEnd
  0
BLOCK
  5
244
330
243
100
AcDbEntity
  8
0
100
AcDbBlockBegin
  2
RETE_25X100INOX
 70
     2
 10
0.0
 20
0.0
 30
0.0
  3
RETE_25X100INOX
  1

  0
LINE
  5
246
330
243
100
AcDbEntity
  8
0
  6
Continuous
 62
     1
420
 16711680
100
AcDbLine
 10
10.0
 20
8.0
 30
0.0
 11
10.0
 21
0.0
 31
0.0
  0
LINE
  5
247
330
243
100
AcDbEntity
  8
0
  6
Continuous
 62
     3
420
    65280
100
AcDbLine
 10
0.0
 20
8.0
 30
0.0
 11
130.250436452013
 21
8.0
 31
0.0
  0
LINE
  5
248
330
243
100
AcDbEntity
  8
0
  6
Continuous
 62
     3
420
    65280
100
AcDbLine
 10
0.0
 20
8.0
 30
0.0
 11
0.0
 21
0.0
 31
0.0
  0
LINE
  5
249
330
243
100
AcDbEntity
  8
0
  6
Continuous
 62
     3
420
    65280
100
AcDbLine
 10
130.250436452013
 20
8.0
 30
0.0
 11
130.250436452013
 21
0.0
 31
0.0
  0
LINE
  5
24A
330
243
100
AcDbEntity
  8
0
  6
Continuous
 62
     7
100
AcDbLine
 10
1.867236819489562
 20
1.021561418522821
 30
0.0
 11
7.867236819489562
 21
1.021561418522821
 31
0.0
  0
LINE
  5
24B
330
243
100
AcDbEntity
  8
0
  6
Continuous
 62
     7
100
AcDbLine
 10
7.867236819489562
 20
1.021561418522821
 30
0.0
 11
7.867236819489562
 21
7.021561418522822
 31
0.0
  0
LINE
  5
24C
330
243
100
AcDbEntity
  8
0
  6
Continuous
 62
     7
100
AcDbLine
 10
7.867236819489562
 20
7.021561418522822
 30
0.0
 11
1.867236819489562
 21
7.021561418522822
 31
0.0
  0
LINE
  5
24D
330
243
100
AcDbEntity
  8
0
  6
Continuous
 62
     7
100
AcDbLine
 10
1.867236819489562
 20
7.021561418522822
 30
0.0
 11
1.867236819489562
 21
1.021561418522821
 31
0.0
  0
LINE
  5
24E
330
243
100
AcDbEntity
  8
0
  6
Continuous
 62
     3
420
    65280
100
AcDbLine
 10
2.933236819492094
 20
1.621561418522844
 30
0.0
 11
6.801236819497149
 21
1.621561418522844
 31
0.0
  0
LINE
  5
24F
330
243
100
AcDbEntity
  8
0
  6
Continuous
 62
     3
420
    65280
100
AcDbLine
 10
2.933236819492094
 20
4.021561418522821
 30
0.0
 11
6.801236819497149
 21
4.021561418522821
 31
0.0
  0
LINE
  5
250
330
243
100
AcDbEntity
  8
0
  6
Continuous
 62
     3
420
    65280
100
AcDbLine
 10
3.283236819497119
 20
4.021561418522821
 30
0.0
 11
3.283236819497119
 21
1.271561418521344
 31
0.0
  0
LINE
  5
251
330
243
100
AcDbEntity
  8
0
  6
Continuous
 62
     3
420
    65280
100
AcDbLine
 10
3.811236819497139
 20
4.021561418522821
 30
0.0
 11
3.811236819497139
 21
1.271561418521344
 31
0.0
  0
LINE
  5
252
330
243
100
AcDbEntity
  8
0
  6
Continuous
 62
     3
420
    65280
100
AcDbLine
 10
4.339236819497159
 20
4.021561418522821
 30
0.0
 11
4.339236819497159
 21
1.271561418521344
 31
0.0
  0
LINE
  5
253
330
243
100
AcDbEntity
  8
0
  6
Continuous
 62
     3
420
    65280
100
AcDbLine
 10
4.867236819497122
 20
4.021561418522821
 30
0.0
 11
4.867236819497122
 21
1.271561418521344
 31
0.0
  0
LINE
  5
254
330
243
100
AcDbEntity
  8
0
  6
Continuous
 62
     3
420
    65280
100
AcDbLine
 10
5.395236819497143
 20
4.021561418522821
 30
0.0
 11
5.395236819497143
 21
1.271561418521344
 31
0.0
  0
LINE
  5
255
330
243
100
AcDbEntity
  8
0
  6
Continuous
 62
     3
420
    65280
100
AcDbLine
 10
5.923236819497162
 20
4.021561418522821
 30
0.0
 11
5.923236819497162
 21
1.271561418521344
 31
0.0
  0
LINE
  5
256
330
243
100
AcDbEntity
  8
0
  6
Continuous
 62
     3
420
    65280
100
AcDbLine
 10
6.451236819497125
 20
4.021561418522821
 30
0.0
 11
6.451236819497125
 21
1.271561418521344
 31
0.0
  0
LINE
  5
257
330
243
100
AcDbEntity
  8
0
  6
Continuous
 62
     3
420
    65280
100
AcDbLine
 10
2.933236819492094
 20
6.4215614185228
 30
0.0
 11
6.801236819497149
 21
6.4215614185228
 31
0.0
  0
LINE
  5
258
330
243
100
AcDbEntity
  8
0
  6
Continuous
 62
     3
420
    65280
100
AcDbLine
 10
2.933236819492094
 20
4.021561418522821
 30
0.0
 11
6.801236819497149
 21
4.021561418522821
 31
0.0
  0
LINE
  5
259
330
243
100
AcDbEntity
  8
0
  6
Continuous
 62
     3
420
    65280
100
AcDbLine
 10
3.283236819497119
 20
4.021561418522821
 30
0.0
 11
3.283236819497119
 21
6.771561418524299
 31
0.0
  0
LINE
  5
25A
330
243
100
AcDbEntity
  8
0
  6
Continuous
 62
     3
420
    65280
100
AcDbLine
 10
3.811236819497139
 20
4.021561418522821
 30
0.0
 11
3.811236819497139
 21
6.771561418524299
 31
0.0
  0
LINE
  5
25B
330
243
100
AcDbEntity
  8
0
  6
Continuous
 62
     3
420
    65280
100
AcDbLine
 10
4.339236819497159
 20
4.021561418522821
 30
0.0
 11
4.339236819497159
 21
6.771561418524299
 31
0.0
  0
LINE
  5
25C
330
243
100
AcDbEntity
  8
0
  6
Continuous
 62
     3
420
    65280
100
AcDbLine
 10
4.867236819497122
 20
4.021561418522821
 30
0.0
 11
4.867236819497122
 21
6.771561418524299
 31
0.0
  0
LINE
  5
25D
330
243
100
AcDbEntity
  8
0
  6
Continuous
 62
     3
420
    65280
100
AcDbLine
 10
5.395236819497143
 20
4.021561418522821
 30
0.0
 11
5.395236819497143
 21
6.771561418524299
 31
0.0
  0
LINE
  5
25E
330
243
100
AcDbEntity
  8
0
  6
Continuous
 62
     3
420
    65280
100
AcDbLine
 10
5.923236819497162
 20
4.021561418522821
 30
0.0
 11
5.923236819497162
 21
6.771561418524299
 31
0.0
  0
LINE
  5
25F
330
243
100
AcDbEntity
  8
0
  6
Continuous
 62
     3
420
    65280
100
AcDbLine
 10
6.451236819497125
 20
4.021561418522821
 30
0.0
 11
6.451236819497125
 21
6.771561418524299
 31
0.0
  0
LINE
  5
260
330
243
100
AcDbEntity
  8
0
  6
Continuous
 62
     3
420
    65280
100
AcDbLine
 10
0.0
 20
0.0
 30
0.0
 11
130.250436452013
 21
0.0
 31
0.0
  0
ATTDEF
  5
261
102
{ACAD_XDICTIONARY
360
34F
102
}
330
243
100
AcDbEntity
  8
0
 62
     1
420
 16711680
100
AcDbText
 10
11.99830177266988
 20
2.414165003805976
 30
0.0
 40
3.499999940395355
  1

  7
Stile testo39
 11
11.99830177266988
 21
4.164164974003654
 31
0.0
100
AcDbAttributeDefinition
280
     0
  3
NOME_TAMPONAMENTO
  2
NOME_TAMPONAMENTO
 70
     0
 74
     2
280
     0
  0
ENDBLK
  5
245
330
243
100
AcDbEntity
  8
0
100
AcDbBlockEnd
  0
BLOCK
  5
263
330
262
100
AcDbEntity
  8
0
100
AcDbBlockBegin
  2
RETE_30X30
 70
     2
 10
0.0
 20
0.0
 30
0.0
  3
RETE_30X30
  1

  0
LINE
  5
265
330
262
100
AcDbEntity
  8
0
  6
Continuous
 62
     1
420
 16711680
100
AcDbLine
 10
10.0
 20
8.0
 30
0.0
 11
10.0
 21
0.0
 31
0.0
  0
LINE
  5
266
330
262
100
AcDbEntity
  8
0
  6
Continuous
 62
     3
420
    65280
100
AcDbLine
 10
0.0
 20
8.0
 30
0.0
 11
130.250436452013
 21
8.0
 31
0.0
  0
LINE
  5
267
330
262
100
AcDbEntity
  8
0
  6
Continuous
 62
     3
420
    65280
100
AcDbLine
 10
0.0
 20
8.0
 30
0.0
 11
0.0
 21
0.0
 31
0.0
  0
LINE
  5
268
330
262
100
AcDbEntity
  8
0
  6
Continuous
 62
     3
420
    65280
100
AcDbLine
 10
130.250436452013
 20
8.0
 30
0.0
 11
130.250436452013
 21
0.0
 31
0.0
  0
LINE
  5
269
330
262
100
AcDbEntity
  8
0
  6
Continuous
 62
     3
420
    65280
100
AcDbLine
 10
0.0
 20
0.0
 30
0.0
 11
130.250436452013
 21
0.0
 31
0.0
  0
LINE
  5
26A
330
262
100
AcDbEntity
  8
0
  6
Continuous
 62
     7
100
AcDbLine
 10
1.867236819489562
 20
1.021561418522821
 30
0.0
 11
7.867236819489562
 21
1.021561418522821
 31
0.0
  0
LINE
  5
26B
330
262
100
AcDbEntity
  8
0
  6
Continuous
 62
     7
100
AcDbLine
 10
7.867236819489562
 20
1.021561418522821
 30
0.0
 11
7.867236819489562
 21
7.021561418522822
 31
0.0
  0
LINE
  5
26C
330
262
100
AcDbEntity
  8
0
  6
Continuous
 62
     7
100
AcDbLine
 10
7.867236819489562
 20
7.021561418522822
 30
0.0
 11
1.867236819489562
 21
7.021561418522822
 31
0.0
  0
LINE
  5
26D
330
262
100
AcDbEntity
  8
0
  6
Continuous
 62
     7
100
AcDbLine
 10
1.867236819489562
 20
7.021561418522822
 30
0.0
 11
1.867236819489562
 21
1.021561418522821
 31
0.0
  0
LINE
  5
26E
330
262
100
AcDbEntity
  8
0
  6
Continuous
 62
     3
420
    65280
100
AcDbLine
 10
2.933236819492094
 20
4.021561418522821
 30
0.0
 11
6.801236819497149
 21
4.021561418522821
 31
0.0
  0
LINE
  5
26F
330
262
100
AcDbEntity
  8
0
  6
Continuous
 62
     3
420
    65280
100
AcDbLine
 10
4.867236819497122
 20
4.021561418522821
 30
0.0
 11
4.867236819497122
 21
1.271561418521344
 31
0.0
  0
LINE
  5
270
330
262
100
AcDbEntity
  8
0
  6
Continuous
 62
     3
420
    65280
100
AcDbLine
 10
2.933236819492094
 20
4.021561418522821
 30
0.0
 11
6.801236819497149
 21
4.021561418522821
 31
0.0
  0
LINE
  5
271
330
262
100
AcDbEntity
  8
0
  6
Continuous
 62
     3
420
    65280
100
AcDbLine
 10
4.867236819497122
 20
4.021561418522821
 30
0.0
 11
4.867236819497122
 21
6.771561418524299
 31
0.0
  0
LINE
  5
272
330
262
100
AcDbEntity
  8
0
  6
Continuous
 62
     3
420
    65280
100
AcDbLine
 10
2.933236819492094
 20
4.821561418522833
 30
0.0
 11
6.801236819497149
 21
4.821561418522833
 31
0.0
  0
LINE
  5
273
330
262
100
AcDbEntity
  8
0
  6
Continuous
 62
     3
420
    65280
100
AcDbLine
 10
2.933236819492094
 20
5.621561418522844
 30
0.0
 11
6.801236819497149
 21
5.621561418522844
 31
0.0
  0
LINE
  5
274
330
262
100
AcDbEntity
  8
0
  6
Continuous
 62
     3
420
    65280
100
AcDbLine
 10
2.933236819492094
 20
6.421561418522856
 30
0.0
 11
6.801236819497149
 21
6.421561418522856
 31
0.0
  0
LINE
  5
275
330
262
100
AcDbEntity
  8
0
  6
Continuous
 62
     3
420
    65280
100
AcDbLine
 10
2.933236819492094
 20
3.22156141852281
 30
0.0
 11
6.801236819497149
 21
3.22156141852281
 31
0.0
  0
LINE
  5
276
330
262
100
AcDbEntity
  8
0
  6
Continuous
 62
     3
420
    65280
100
AcDbLine
 10
2.933236819492094
 20
2.421561418522799
 30
0.0
 11
6.801236819497149
 21
2.421561418522799
 31
0.0
  0
LINE
  5
277
330
262
100
AcDbEntity
  8
0
  6
Continuous
 62
     3
420
    65280
100
AcDbLine
 10
2.933236819492094
 20
1.621561418522787
 30
0.0
 11
6.801236819497149
 21
1.621561418522787
 31
0.0
  0
LINE
  5
278
330
262
100
AcDbEntity
  8
0
  6
Continuous
 62
     3
420
    65280
100
AcDbLine
 10
4.067236819497125
 20
4.021561418522821
 30
0.0
 11
4.067236819497125
 21
1.271561418521344
 31
0.0
  0
LINE
  5
279
330
262
100
AcDbEntity
  8
0
  6
Continuous
 62
     3
420
    65280
100
AcDbLine
 10
3.267236819497128
 20
4.021561418522821
 30
0.0
 11
3.267236819497128
 21
1.271561418521344
 31
0.0
  0
LINE
  5
27A
330
262
100
AcDbEntity
  8
0
  6
Continuous
 62
     3
420
    65280
100
AcDbLine
 10
4.067236819497125
 20
4.021561418522821
 30
0.0
 11
4.067236819497125
 21
6.771561418524299
 31
0.0
  0
LINE
  5
27B
330
262
100
AcDbEntity
  8
0
  6
Continuous
 62
     3
420
    65280
100
AcDbLine
 10
3.267236819497128
 20
4.021561418522821
 30
0.0
 11
3.267236819497128
 21
6.771561418524299
 31
0.0
  0
LINE
  5
27C
330
262
100
AcDbEntity
  8
0
  6
Continuous
 62
     3
420
    65280
100
AcDbLine
 10
5.667236819497119
 20
4.021561418522821
 30
0.0
 11
5.667236819497119
 21
6.771561418524299
 31
0.0
  0
LINE
  5
27D
330
262
100
AcDbEntity
  8
0
  6
Continuous
 62
     3
420
    65280
100
AcDbLine
 10
6.467236819497117
 20
4.021561418522821
 30
0.0
 11
6.467236819497117
 21
6.771561418524299
 31
0.0
  0
LINE
  5
27E
330
262
100
AcDbEntity
  8
0
  6
Continuous
 62
     3
420
    65280
100
AcDbLine
 10
5.667236819497119
 20
4.021561418522821
 30
0.0
 11
5.667236819497119
 21
1.271561418521344
 31
0.0
  0
LINE
  5
27F
330
262
100
AcDbEntity
  8
0
  6
Continuous
 62
     3
420
    65280
100
AcDbLine
 10
6.467236819497117
 20
4.021561418522821
 30
0.0
 11
6.467236819497117
 21
1.271561418521344
 31
0.0
  0
ATTDEF
  5
280
102
{ACAD_XDICTIONARY
360
352
102
}
330
262
100
AcDbEntity
  8
0
 62
     1
420
 16711680
100
AcDbText
 10
12.0
 20
2.250000029802322
 30
0.0
 40
3.499999940395355
  1

  7
Stile testo39
 11
12.0
 21
4.0
 31
0.0
100
AcDbAttributeDefinition
280
     0
  3
NOME_TAMPONAMENTO
  2
NOME_TAMPONAMENTO
 70
     0
 74
     2
280
     0
  0
ENDBLK
  5
264
330
262
100
AcDbEntity
  8
0
100
AcDbBlockEnd
  0
BLOCK
  5
282
330
281
100
AcDbEntity
  8
0
100
AcDbBlockBegin
  2
RETE_40X40
 70
     2
 10
0.0
 20
0.0
 30
0.0
  3
RETE_40X40
  1

  0
LINE
  5
284
330
281
100
AcDbEntity
  8
0
  6
Continuous
 62
     1
420
 16711680
100
AcDbLine
 10
10.0
 20
8.0
 30
0.0
 11
10.0
 21
0.0
 31
0.0
  0
LINE
  5
285
330
281
100
AcDbEntity
  8
0
  6
Continuous
 62
     3
420
    65280
100
AcDbLine
 10
0.0
 20
8.0
 30
0.0
 11
130.250436452013
 21
8.0
 31
0.0
  0
LINE
  5
286
330
281
100
AcDbEntity
  8
0
  6
Continuous
 62
     3
420
    65280
100
AcDbLine
 10
0.0
 20
8.0
 30
0.0
 11
0.0
 21
0.0
 31
0.0
  0
LINE
  5
287
330
281
100
AcDbEntity
  8
0
  6
Continuous
 62
     3
420
    65280
100
AcDbLine
 10
130.250436452013
 20
8.0
 30
0.0
 11
130.250436452013
 21
0.0
 31
0.0
  0
LINE
  5
288
330
281
100
AcDbEntity
  8
0
  6
Continuous
 62
     3
420
    65280
100
AcDbLine
 10
0.0
 20
0.0
 30
0.0
 11
130.250436452013
 21
0.0
 31
0.0
  0
LINE
  5
289
330
281
100
AcDbEntity
  8
0
  6
Continuous
 62
     7
100
AcDbLine
 10
1.867236819489562
 20
1.021561418522821
 30
0.0
 11
7.867236819489562
 21
1.021561418522821
 31
0.0
  0
LINE
  5
28A
330
281
100
AcDbEntity
  8
0
  6
Continuous
 62
     7
100
AcDbLine
 10
7.867236819489562
 20
1.021561418522821
 30
0.0
 11
7.867236819489562
 21
7.021561418522822
 31
0.0
  0
LINE
  5
28B
330
281
100
AcDbEntity
  8
0
  6
Continuous
 62
     7
100
AcDbLine
 10
7.867236819489562
 20
7.021561418522822
 30
0.0
 11
1.867236819489562
 21
7.021561418522822
 31
0.0
  0
LINE
  5
28C
330
281
100
AcDbEntity
  8
0
  6
Continuous
 62
     7
100
AcDbLine
 10
1.867236819489562
 20
7.021561418522822
 30
0.0
 11
1.867236819489562
 21
1.021561418522821
 31
0.0
  0
LINE
  5
28D
330
281
100
AcDbEntity
  8
0
  6
Continuous
 62
     3
420
    65280
100
AcDbLine
 10
2.633236819492094
 20
4.021561418522821
 30
0.0
 11
7.101236819497148
 21
4.021561418522821
 31
0.0
  0
LINE
  5
28E
330
281
100
AcDbEntity
  8
0
  6
Continuous
 62
     3
420
    65280
100
AcDbLine
 10
4.867236819497122
 20
4.021561418522821
 30
0.0
 11
4.867236819497122
 21
1.271561418521344
 31
0.0
  0
LINE
  5
28F
330
281
100
AcDbEntity
  8
0
  6
Continuous
 62
     3
420
    65280
100
AcDbLine
 10
2.633236819492094
 20
4.021561418522821
 30
0.0
 11
7.101236819497148
 21
4.021561418522821
 31
0.0
  0
LINE
  5
290
330
281
100
AcDbEntity
  8
0
  6
Continuous
 62
     3
420
    65280
100
AcDbLine
 10
4.867236819497122
 20
4.021561418522821
 30
0.0
 11
4.867236819497122
 21
6.771561418524299
 31
0.0
  0
LINE
  5
291
330
281
100
AcDbEntity
  8
0
  6
Continuous
 62
     3
420
    65280
100
AcDbLine
 10
2.633236819492094
 20
5.021561418522821
 30
0.0
 11
7.101236819497148
 21
5.021561418522821
 31
0.0
  0
LINE
  5
292
330
281
100
AcDbEntity
  8
0
  6
Continuous
 62
     3
420
    65280
100
AcDbLine
 10
2.633236819492094
 20
6.021561418522822
 30
0.0
 11
7.101236819497148
 21
6.021561418522822
 31
0.0
  0
LINE
  5
293
330
281
100
AcDbEntity
  8
0
  6
Continuous
 62
     3
420
    65280
100
AcDbLine
 10
2.633236819492094
 20
3.021561418522822
 30
0.0
 11
7.101236819497148
 21
3.021561418522822
 31
0.0
  0
LINE
  5
294
330
281
100
AcDbEntity
  8
0
  6
Continuous
 62
     3
420
    65280
100
AcDbLine
 10
2.633236819492094
 20
2.021561418522821
 30
0.0
 11
7.101236819497148
 21
2.021561418522821
 31
0.0
  0
LINE
  5
295
330
281
100
AcDbEntity
  8
0
  6
Continuous
 62
     3
420
    65280
100
AcDbLine
 10
3.867236819497122
 20
4.021561418522821
 30
0.0
 11
3.867236819497122
 21
6.771561418524299
 31
0.0
  0
LINE
  5
296
330
281
100
AcDbEntity
  8
0
  6
Continuous
 62
     3
420
    65280
100
AcDbLine
 10
3.867236819497122
 20
4.021561418522821
 30
0.0
 11
3.867236819497122
 21
1.271561418521344
 31
0.0
  0
LINE
  5
297
330
281
100
AcDbEntity
  8
0
  6
Continuous
 62
     3
420
    65280
100
AcDbLine
 10
5.867236819497122
 20
4.021561418522821
 30
0.0
 11
5.867236819497122
 21
6.771561418524299
 31
0.0
  0
LINE
  5
298
330
281
100
AcDbEntity
  8
0
  6
Continuous
 62
     3
420
    65280
100
AcDbLine
 10
5.867236819497122
 20
4.021561418522821
 30
0.0
 11
5.867236819497122
 21
1.271561418521344
 31
0.0
  0
LINE
  5
299
330
281
100
AcDbEntity
  8
0
  6
Continuous
 62
     3
420
    65280
100
AcDbLine
 10
6.867236819497123
 20
4.021561418522821
 30
0.0
 11
6.867236819497123
 21
6.771561418524299
 31
0.0
  0
LINE
  5
29A
330
281
100
AcDbEntity
  8
0
  6
Continuous
 62
     3
420
    65280
100
AcDbLine
 10
6.867236819497123
 20
4.021561418522821
 30
0.0
 11
6.867236819497123
 21
1.271561418521344
 31
0.0
  0
LINE
  5
29B
330
281
100
AcDbEntity
  8
0
  6
Continuous
 62
     3
420
    65280
100
AcDbLine
 10
2.867236819497122
 20
4.021561418522821
 30
0.0
 11
2.867236819497122
 21
6.771561418524299
 31
0.0
  0
LINE
  5
29C
330
281
100
AcDbEntity
  8
0
  6
Continuous
 62
     3
420
    65280
100
AcDbLine
 10
2.867236819497122
 20
4.021561418522821
 30
0.0
 11
2.867236819497122
 21
1.271561418521344
 31
0.0
  0
ATTDEF
  5
29D
102
{ACAD_XDICTIONARY
360
355
102
}
330
281
100
AcDbEntity
  8
0
 62
     1
420
 16711680
100
AcDbText
 10
12.0
 20
2.250000029802322
 30
0.0
 40
3.499999940395355
  1

  7
Stile testo39
 11
12.0
 21
4.0
 31
0.0
100
AcDbAttributeDefinition
280
     0
  3
NOME_TAMPONAMENTO
  2
NOME_TAMPONAMENTO
 70
     0
 74
     2
280
     0
  0
ENDBLK
  5
283
330
281
100
AcDbEntity
  8
0
100
AcDbBlockEnd
  0
BLOCK
  5
29F
330
29E
100
AcDbEntity
  8
0
100
AcDbBlockBegin
  2
RETE_RT
 70
     2
 10
0.0
 20
0.0
 30
0.0
  3
RETE_RT
  1

  0
LINE
  5
2A1
330
29E
100
AcDbEntity
  8
0
  6
Continuous
 62
     1
420
 16711680
100
AcDbLine
 10
10.0
 20
8.0
 30
0.0
 11
10.0
 21
0.0
 31
0.0
  0
LINE
  5
2A2
330
29E
100
AcDbEntity
  8
0
  6
Continuous
 62
     3
420
    65280
100
AcDbLine
 10
0.0
 20
8.0
 30
0.0
 11
130.250436452013
 21
8.0
 31
0.0
  0
LINE
  5
2A3
330
29E
100
AcDbEntity
  8
0
  6
Continuous
 62
     3
420
    65280
100
AcDbLine
 10
0.0
 20
8.0
 30
0.0
 11
0.0
 21
0.0
 31
0.0
  0
LINE
  5
2A4
330
29E
100
AcDbEntity
  8
0
  6
Continuous
 62
     3
420
    65280
100
AcDbLine
 10
130.250436452013
 20
8.0
 30
0.0
 11
130.250436452013
 21
0.0
 31
0.0
  0
LINE
  5
2A5
330
29E
100
AcDbEntity
  8
0
  6
Continuous
 62
     3
420
    65280
100
AcDbLine
 10
0.0
 20
0.0
 30
0.0
 11
130.250436452013
 21
0.0
 31
0.0
  0
LINE
  5
2A6
330
29E
100
AcDbEntity
  8
0
  6
Continuous
 62
     7
100
AcDbLine
 10
1.867236819489562
 20
1.021561418522821
 30
0.0
 11
7.867236819489562
 21
1.021561418522821
 31
0.0
  0
LINE
  5
2A7
330
29E
100
AcDbEntity
  8
0
  6
Continuous
 62
     7
100
AcDbLine
 10
7.867236819489562
 20
1.021561418522821
 30
0.0
 11
7.867236819489562
 21
7.021561418522822
 31
0.0
  0
LINE
  5
2A8
330
29E
100
AcDbEntity
  8
0
  6
Continuous
 62
     7
100
AcDbLine
 10
7.867236819489562
 20
7.021561418522822
 30
0.0
 11
1.867236819489562
 21
7.021561418522822
 31
0.0
  0
LINE
  5
2A9
330
29E
100
AcDbEntity
  8
0
  6
Continuous
 62
     7
100
AcDbLine
 10
1.867236819489562
 20
7.021561418522822
 30
0.0
 11
1.867236819489562
 21
1.021561418522821
 31
0.0
  0
LINE
  5
2AA
330
29E
100
AcDbEntity
  8
0
  6
Continuous
 62
     3
420
    65280
100
AcDbLine
 10
2.933236819492094
 20
4.03389105574341
 30
0.0
 11
6.801236819497149
 21
4.03389105574341
 31
0.0
  0
LINE
  5
2AB
330
29E
100
AcDbEntity
  8
0
  6
Continuous
 62
     3
420
    65280
100
AcDbLine
 10
3.583236819497119
 20
4.021561418522821
 30
0.0
 11
3.583236819497119
 21
1.271561418521344
 31
0.0
  0
LINE
  5
2AC
330
29E
100
AcDbEntity
  8
0
  6
Continuous
 62
     3
420
    65280
100
AcDbLine
 10
4.011236819497139
 20
4.021561418522821
 30
0.0
 11
4.011236819497139
 21
1.271561418521344
 31
0.0
  0
LINE
  5
2AD
330
29E
100
AcDbEntity
  8
0
  6
Continuous
 62
     3
420
    65280
100
AcDbLine
 10
4.439236819497159
 20
4.021561418522821
 30
0.0
 11
4.439236819497159
 21
1.271561418521344
 31
0.0
  0
LINE
  5
2AE
330
29E
100
AcDbEntity
  8
0
  6
Continuous
 62
     3
420
    65280
100
AcDbLine
 10
4.867236819497122
 20
4.021561418522821
 30
0.0
 11
4.867236819497122
 21
1.271561418521344
 31
0.0
  0
LINE
  5
2AF
330
29E
100
AcDbEntity
  8
0
  6
Continuous
 62
     3
420
    65280
100
AcDbLine
 10
5.295236819497143
 20
4.021561418522821
 30
0.0
 11
5.295236819497143
 21
1.271561418521344
 31
0.0
  0
LINE
  5
2B0
330
29E
100
AcDbEntity
  8
0
  6
Continuous
 62
     3
420
    65280
100
AcDbLine
 10
5.723236819497163
 20
4.021561418522821
 30
0.0
 11
5.723236819497163
 21
1.271561418521344
 31
0.0
  0
LINE
  5
2B1
330
29E
100
AcDbEntity
  8
0
  6
Continuous
 62
     3
420
    65280
100
AcDbLine
 10
6.151236819497127
 20
4.021561418522821
 30
0.0
 11
6.151236819497127
 21
1.271561418521344
 31
0.0
  0
LINE
  5
2B2
330
29E
100
AcDbEntity
  8
0
  6
Continuous
 62
     3
420
    65280
100
AcDbLine
 10
3.583236819497119
 20
4.021561418522821
 30
0.0
 11
3.583236819497119
 21
6.771561418524299
 31
0.0
  0
LINE
  5
2B3
330
29E
100
AcDbEntity
  8
0
  6
Continuous
 62
     3
420
    65280
100
AcDbLine
 10
4.011236819497139
 20
4.021561418522821
 30
0.0
 11
4.011236819497139
 21
6.771561418524299
 31
0.0
  0
LINE
  5
2B4
330
29E
100
AcDbEntity
  8
0
  6
Continuous
 62
     3
420
    65280
100
AcDbLine
 10
4.439236819497159
 20
4.021561418522821
 30
0.0
 11
4.439236819497159
 21
6.771561418524299
 31
0.0
  0
LINE
  5
2B5
330
29E
100
AcDbEntity
  8
0
  6
Continuous
 62
     3
420
    65280
100
AcDbLine
 10
4.867236819497122
 20
4.021561418522821
 30
0.0
 11
4.867236819497122
 21
6.771561418524299
 31
0.0
  0
LINE
  5
2B6
330
29E
100
AcDbEntity
  8
0
  6
Continuous
 62
     3
420
    65280
100
AcDbLine
 10
5.295236819497143
 20
4.021561418522821
 30
0.0
 11
5.295236819497143
 21
6.771561418524299
 31
0.0
  0
LINE
  5
2B7
330
29E
100
AcDbEntity
  8
0
  6
Continuous
 62
     3
420
    65280
100
AcDbLine
 10
5.723236819497163
 20
4.021561418522821
 30
0.0
 11
5.723236819497163
 21
6.771561418524299
 31
0.0
  0
LINE
  5
2B8
330
29E
100
AcDbEntity
  8
0
  6
Continuous
 62
     3
420
    65280
100
AcDbLine
 10
6.151236819497127
 20
4.021561418522821
 30
0.0
 11
6.151236819497127
 21
6.771561418524299
 31
0.0
  0
LINE
  5
2B9
330
29E
100
AcDbEntity
  8
0
  6
Continuous
 62
     3
420
    65280
100
AcDbLine
 10
2.933236819492094
 20
5.787561418522831
 30
0.0
 11
6.801236819497149
 21
5.787561418522831
 31
0.0
  0
LINE
  5
2BA
330
29E
100
AcDbEntity
  8
0
  6
Continuous
 62
     3
420
    65280
100
AcDbLine
 10
2.933236819492094
 20
2.255561418522812
 30
0.0
 11
6.801236819497149
 21
2.255561418522812
 31
0.0
  0
LINE
  5
2BB
330
29E
100
AcDbEntity
  8
0
  6
Continuous
 62
     3
420
    65280
100
AcDbLine
 10
6.579236819497147
 20
4.021561418522821
 30
0.0
 11
6.579236819497147
 21
1.271561418521344
 31
0.0
  0
LINE
  5
2BC
330
29E
100
AcDbEntity
  8
0
  6
Continuous
 62
     3
420
    65280
100
AcDbLine
 10
6.579236819497147
 20
4.021561418522821
 30
0.0
 11
6.579236819497147
 21
6.771561418524299
 31
0.0
  0
LINE
  5
2BD
330
29E
100
AcDbEntity
  8
0
  6
Continuous
 62
     3
420
    65280
100
AcDbLine
 10
3.1552368194971
 20
4.021561418522821
 30
0.0
 11
3.1552368194971
 21
1.271561418521344
 31
0.0
  0
LINE
  5
2BE
330
29E
100
AcDbEntity
  8
0
  6
Continuous
 62
     3
420
    65280
100
AcDbLine
 10
3.1552368194971
 20
4.021561418522821
 30
0.0
 11
3.1552368194971
 21
6.771561418524299
 31
0.0
  0
ATTDEF
  5
2BF
102
{ACAD_XDICTIONARY
360
358
102
}
330
29E
100
AcDbEntity
  8
0
 62
     1
420
 16711680
100
AcDbText
 10
12.0
 20
2.250000029802322
 30
0.0
 40
3.499999940395355
  1

  7
Stile testo39
 11
12.0
 21
4.0
 31
0.0
100
AcDbAttributeDefinition
280
     0
  3
NOME_TAMPONAMENTO
  2
NOME_TAMPONAMENTO
 70
     0
 74
     2
280
     0
  0
ENDBLK
  5
2A0
330
29E
100
AcDbEntity
  8
0
100
AcDbBlockEnd
  0
BLOCK
  5
2C1
330
2C0
100
AcDbEntity
  8
0
100
AcDbBlockBegin
  2
RETE_TEC
 70
     2
 10
0.0
 20
0.0
 30
0.0
  3
RETE_TEC
  1

  0
LINE
  5
2C3
330
2C0
100
AcDbEntity
  8
0
  6
Continuous
 62
     1
420
 16711680
100
AcDbLine
 10
10.0
 20
8.0
 30
0.0
 11
10.0
 21
0.0
 31
0.0
  0
LINE
  5
2C4
330
2C0
100
AcDbEntity
  8
0
  6
Continuous
 62
     3
420
    65280
100
AcDbLine
 10
0.0
 20
8.0
 30
0.0
 11
130.250436452013
 21
8.0
 31
0.0
  0
LINE
  5
2C5
330
2C0
100
AcDbEntity
  8
0
  6
Continuous
 62
     3
420
    65280
100
AcDbLine
 10
0.0
 20
8.0
 30
0.0
 11
0.0
 21
0.0
 31
0.0
  0
LINE
  5
2C6
330
2C0
100
AcDbEntity
  8
0
  6
Continuous
 62
     3
420
    65280
100
AcDbLine
 10
130.250436452013
 20
8.0
 30
0.0
 11
130.250436452013
 21
0.0
 31
0.0
  0
LINE
  5
2C7
330
2C0
100
AcDbEntity
  8
0
  6
Continuous
 62
     3
420
    65280
100
AcDbLine
 10
0.0
 20
0.0
 30
0.0
 11
130.250436452013
 21
0.0
 31
0.0
  0
LINE
  5
2C8
330
2C0
100
AcDbEntity
  8
0
  6
Continuous
 62
     7
100
AcDbLine
 10
1.867236819489562
 20
1.021561418522821
 30
0.0
 11
7.867236819489562
 21
1.021561418522821
 31
0.0
  0
LINE
  5
2C9
330
2C0
100
AcDbEntity
  8
0
  6
Continuous
 62
     7
100
AcDbLine
 10
7.867236819489562
 20
1.021561418522821
 30
0.0
 11
7.867236819489562
 21
7.021561418522822
 31
0.0
  0
LINE
  5
2CA
330
2C0
100
AcDbEntity
  8
0
  6
Continuous
 62
     7
100
AcDbLine
 10
7.867236819489562
 20
7.021561418522822
 30
0.0
 11
1.867236819489562
 21
7.021561418522822
 31
0.0
  0
LINE
  5
2CB
330
2C0
100
AcDbEntity
  8
0
  6
Continuous
 62
     7
100
AcDbLine
 10
1.867236819489562
 20
7.021561418522822
 30
0.0
 11
1.867236819489562
 21
1.021561418522821
 31
0.0
  0
LINE
  5
2CC
330
2C0
100
AcDbEntity
  8
0
  6
Continuous
 62
     3
420
    65280
100
AcDbLine
 10
2.933236819492094
 20
3.757561418522826
 30
0.0
 11
6.801236819497149
 21
3.757561418522826
 31
0.0
  0
LINE
  5
2CD
330
2C0
100
AcDbEntity
  8
0
  6
Continuous
 62
     3
420
    65280
100
AcDbLine
 10
3.283236819497119
 20
4.021561418522821
 30
0.0
 11
3.283236819497119
 21
1.271561418521344
 31
0.0
  0
LINE
  5
2CE
330
2C0
100
AcDbEntity
  8
0
  6
Continuous
 62
     3
420
    65280
100
AcDbLine
 10
3.811236819497139
 20
4.021561418522821
 30
0.0
 11
3.811236819497139
 21
1.271561418521344
 31
0.0
  0
LINE
  5
2CF
330
2C0
100
AcDbEntity
  8
0
  6
Continuous
 62
     3
420
    65280
100
AcDbLine
 10
4.339236819497159
 20
4.021561418522821
 30
0.0
 11
4.339236819497159
 21
1.271561418521344
 31
0.0
  0
LINE
  5
2D0
330
2C0
100
AcDbEntity
  8
0
  6
Continuous
 62
     3
420
    65280
100
AcDbLine
 10
4.867236819497122
 20
4.021561418522821
 30
0.0
 11
4.867236819497122
 21
1.271561418521344
 31
0.0
  0
LINE
  5
2D1
330
2C0
100
AcDbEntity
  8
0
  6
Continuous
 62
     3
420
    65280
100
AcDbLine
 10
5.395236819497143
 20
4.021561418522821
 30
0.0
 11
5.395236819497143
 21
1.271561418521344
 31
0.0
  0
LINE
  5
2D2
330
2C0
100
AcDbEntity
  8
0
  6
Continuous
 62
     3
420
    65280
100
AcDbLine
 10
5.923236819497162
 20
4.021561418522821
 30
0.0
 11
5.923236819497162
 21
1.271561418521344
 31
0.0
  0
LINE
  5
2D3
330
2C0
100
AcDbEntity
  8
0
  6
Continuous
 62
     3
420
    65280
100
AcDbLine
 10
6.451236819497125
 20
4.021561418522821
 30
0.0
 11
6.451236819497125
 21
1.271561418521344
 31
0.0
  0
LINE
  5
2D4
330
2C0
100
AcDbEntity
  8
0
  6
Continuous
 62
     3
420
    65280
100
AcDbLine
 10
2.933236819492094
 20
4.285561418522817
 30
0.0
 11
6.801236819497149
 21
4.285561418522817
 31
0.0
  0
LINE
  5
2D5
330
2C0
100
AcDbEntity
  8
0
  6
Continuous
 62
     3
420
    65280
100
AcDbLine
 10
3.283236819497119
 20
4.021561418522821
 30
0.0
 11
3.283236819497119
 21
6.771561418524299
 31
0.0
  0
LINE
  5
2D6
330
2C0
100
AcDbEntity
  8
0
  6
Continuous
 62
     3
420
    65280
100
AcDbLine
 10
3.811236819497139
 20
4.021561418522821
 30
0.0
 11
3.811236819497139
 21
6.771561418524299
 31
0.0
  0
LINE
  5
2D7
330
2C0
100
AcDbEntity
  8
0
  6
Continuous
 62
     3
420
    65280
100
AcDbLine
 10
4.339236819497159
 20
4.021561418522821
 30
0.0
 11
4.339236819497159
 21
6.771561418524299
 31
0.0
  0
LINE
  5
2D8
330
2C0
100
AcDbEntity
  8
0
  6
Continuous
 62
     3
420
    65280
100
AcDbLine
 10
4.867236819497122
 20
4.021561418522821
 30
0.0
 11
4.867236819497122
 21
6.771561418524299
 31
0.0
  0
LINE
  5
2D9
330
2C0
100
AcDbEntity
  8
0
  6
Continuous
 62
     3
420
    65280
100
AcDbLine
 10
5.395236819497143
 20
4.021561418522821
 30
0.0
 11
5.395236819497143
 21
6.771561418524299
 31
0.0
  0
LINE
  5
2DA
330
2C0
100
AcDbEntity
  8
0
  6
Continuous
 62
     3
420
    65280
100
AcDbLine
 10
5.923236819497162
 20
4.021561418522821
 30
0.0
 11
5.923236819497162
 21
6.771561418524299
 31
0.0
  0
LINE
  5
2DB
330
2C0
100
AcDbEntity
  8
0
  6
Continuous
 62
     3
420
    65280
100
AcDbLine
 10
6.451236819497125
 20
4.021561418522821
 30
0.0
 11
6.451236819497125
 21
6.771561418524299
 31
0.0
  0
LINE
  5
2DC
330
2C0
100
AcDbEntity
  8
0
  6
Continuous
 62
     3
420
    65280
100
AcDbLine
 10
2.933236819492094
 20
6.157561418522831
 30
0.0
 11
6.801236819497149
 21
6.157561418522831
 31
0.0
  0
LINE
  5
2DD
330
2C0
100
AcDbEntity
  8
0
  6
Continuous
 62
     3
420
    65280
100
AcDbLine
 10
2.933236819492094
 20
6.685561418522824
 30
0.0
 11
6.801236819497149
 21
6.685561418522824
 31
0.0
  0
LINE
  5
2DE
330
2C0
100
AcDbEntity
  8
0
  6
Continuous
 62
     3
420
    65280
100
AcDbLine
 10
2.933236819492094
 20
1.35756141852282
 30
0.0
 11
6.801236819497149
 21
1.35756141852282
 31
0.0
  0
LINE
  5
2DF
330
2C0
100
AcDbEntity
  8
0
  6
Continuous
 62
     3
420
    65280
100
AcDbLine
 10
2.933236819492094
 20
1.885561418522812
 30
0.0
 11
6.801236819497149
 21
1.885561418522812
 31
0.0
  0
ATTDEF
  5
2E0
102
{ACAD_XDICTIONARY
360
35B
102
}
330
2C0
100
AcDbEntity
  8
0
 62
     1
420
 16711680
100
AcDbText
 10
12.0
 20
2.250000029802322
 30
0.0
 40
3.499999940395355
  1

  7
Stile testo39
 11
12.0
 21
4.0
 31
0.0
100
AcDbAttributeDefinition
280
     0
  3
NOME_TAMPONAMENTO
  2
NOME_TAMPONAMENTO
 70
     0
 74
     2
280
     0
  0
ENDBLK
  5
2C2
330
2C0
100
AcDbEntity
  8
0
100
AcDbBlockEnd
  0
BLOCK
  5
2E2
330
2E1
100
AcDbEntity
  8
0
100
AcDbBlockBegin
  2
STRATIFIC
 70
     2
 10
0.0
 20
0.0
 30
0.0
  3
STRATIFIC
  1

  0
LINE
  5
2E4
330
2E1
100
AcDbEntity
  8
0
  6
Continuous
 62
     1
420
 16711680
100
AcDbLine
 10
10.0
 20
8.0
 30
0.0
 11
10.0
 21
0.0
 31
0.0
  0
LINE
  5
2E5
330
2E1
100
AcDbEntity
  8
0
  6
Continuous
 62
     3
420
    65280
100
AcDbLine
 10
0.0
 20
8.0
 30
0.0
 11
130.250436452013
 21
8.0
 31
0.0
  0
LINE
  5
2E6
330
2E1
100
AcDbEntity
  8
0
  6
Continuous
 62
     3
420
    65280
100
AcDbLine
 10
0.0
 20
8.0
 30
0.0
 11
0.0
 21
0.0
 31
0.0
  0
LINE
  5
2E7
330
2E1
100
AcDbEntity
  8
0
  6
Continuous
 62
     3
420
    65280
100
AcDbLine
 10
130.250436452013
 20
8.0
 30
0.0
 11
130.250436452013
 21
0.0
 31
0.0
  0
LINE
  5
2E8
330
2E1
100
AcDbEntity
  8
0
  6
Continuous
 62
     3
420
    65280
100
AcDbLine
 10
0.0
 20
0.0
 30
0.0
 11
130.250436452013
 21
0.0
 31
0.0
  0
LINE
  5
2E9
330
2E1
100
AcDbEntity
  8
0
  6
Continuous
 62
     7
100
AcDbLine
 10
1.867236819489562
 20
1.021561418522821
 30
0.0
 11
7.867236819489562
 21
1.021561418522821
 31
0.0
  0
LINE
  5
2EA
330
2E1
100
AcDbEntity
  8
0
  6
Continuous
 62
     7
100
AcDbLine
 10
7.867236819489562
 20
1.021561418522821
 30
0.0
 11
7.867236819489562
 21
7.021561418522822
 31
0.0
  0
LINE
  5
2EB
330
2E1
100
AcDbEntity
  8
0
  6
Continuous
 62
     7
100
AcDbLine
 10
7.867236819489562
 20
7.021561418522822
 30
0.0
 11
1.867236819489562
 21
7.021561418522822
 31
0.0
  0
LINE
  5
2EC
330
2E1
100
AcDbEntity
  8
0
  6
Continuous
 62
     7
100
AcDbLine
 10
1.867236819489562
 20
7.021561418522822
 30
0.0
 11
1.867236819489562
 21
1.021561418522821
 31
0.0
  0
LINE
  5
2ED
330
2E1
100
AcDbEntity
  8
0
  6
Continuous
 62
     4
420
    65535
100
AcDbLine
 10
3.673096194489562
 20
6.703983293522822
 30
0.0
 11
4.169189944489562
 21
6.703983293522822
 31
0.0
  0
LINE
  5
2EE
330
2E1
100
AcDbEntity
  8
0
  6
Continuous
 62
     4
420
    65535
100
AcDbLine
 10
7.007471194489562
 20
6.703983293522822
 30
0.0
 11
7.503564944489563
 21
6.703983293522822
 31
0.0
  0
LINE
  5
2EF
330
2E1
100
AcDbEntity
  8
0
  6
Continuous
 62
     4
420
    65535
100
AcDbLine
 10
2.230908694489562
 20
6.057889543522821
 30
0.0
 11
2.727002444489562
 21
6.057889543522821
 31
0.0
  0
LINE
  5
2F0
330
2E1
100
AcDbEntity
  8
0
  6
Continuous
 62
     4
420
    65535
100
AcDbLine
 10
5.565283694489563
 20
6.057889543522821
 30
0.0
 11
6.061377444489562
 21
6.057889543522821
 31
0.0
  0
LINE
  5
2F1
330
2E1
100
AcDbEntity
  8
0
  6
Continuous
 62
     4
420
    65535
100
AcDbLine
 10
3.673096194489562
 20
5.561795793522822
 30
0.0
 11
4.169189944489562
 21
5.561795793522822
 31
0.0
  0
LINE
  5
2F2
330
2E1
100
AcDbEntity
  8
0
  6
Continuous
 62
     4
420
    65535
100
AcDbLine
 10
7.007471194489562
 20
5.561795793522822
 30
0.0
 11
7.503564944489563
 21
5.561795793522822
 31
0.0
  0
LINE
  5
2F3
330
2E1
100
AcDbEntity
  8
0
  6
Continuous
 62
     4
420
    65535
100
AcDbLine
 10
2.230908694489562
 20
4.765702043522821
 30
0.0
 11
2.727002444489562
 21
4.765702043522821
 31
0.0
  0
LINE
  5
2F4
330
2E1
100
AcDbEntity
  8
0
  6
Continuous
 62
     4
420
    65535
100
AcDbLine
 10
5.565283694489563
 20
4.765702043522821
 30
0.0
 11
6.061377444489562
 21
4.765702043522821
 31
0.0
  0
LINE
  5
2F5
330
2E1
100
AcDbEntity
  8
0
  6
Continuous
 62
     4
420
    65535
100
AcDbLine
 10
3.673096194489562
 20
4.269608293522821
 30
0.0
 11
4.169189944489562
 21
4.269608293522821
 31
0.0
  0
LINE
  5
2F6
330
2E1
100
AcDbEntity
  8
0
  6
Continuous
 62
     4
420
    65535
100
AcDbLine
 10
7.007471194489562
 20
4.269608293522821
 30
0.0
 11
7.503564944489563
 21
4.269608293522821
 31
0.0
  0
LINE
  5
2F7
330
2E1
100
AcDbEntity
  8
0
  6
Continuous
 62
     4
420
    65535
100
AcDbLine
 10
2.230908694489562
 20
3.773514543522822
 30
0.0
 11
2.727002444489562
 21
3.773514543522822
 31
0.0
  0
LINE
  5
2F8
330
2E1
100
AcDbEntity
  8
0
  6
Continuous
 62
     4
420
    65535
100
AcDbLine
 10
5.565283694489563
 20
3.773514543522822
 30
0.0
 11
6.061377444489562
 21
3.773514543522822
 31
0.0
  0
LINE
  5
2F9
330
2E1
100
AcDbEntity
  8
0
  6
Continuous
 62
     4
420
    65535
100
AcDbLine
 10
3.673096194489562
 20
3.277420793522822
 30
0.0
 11
4.169189944489562
 21
3.277420793522822
 31
0.0
  0
LINE
  5
2FA
330
2E1
100
AcDbEntity
  8
0
  6
Continuous
 62
     4
420
    65535
100
AcDbLine
 10
7.007471194489562
 20
3.277420793522822
 30
0.0
 11
7.503564944489563
 21
3.277420793522822
 31
0.0
  0
LINE
  5
2FB
330
2E1
100
AcDbEntity
  8
0
  6
Continuous
 62
     4
420
    65535
100
AcDbLine
 10
2.230908694489562
 20
2.481327043522822
 30
0.0
 11
2.727002444489562
 21
2.481327043522822
 31
0.0
  0
LINE
  5
2FC
330
2E1
100
AcDbEntity
  8
0
  6
Continuous
 62
     4
420
    65535
100
AcDbLine
 10
5.565283694489563
 20
2.481327043522822
 30
0.0
 11
6.061377444489562
 21
2.481327043522822
 31
0.0
  0
LINE
  5
2FD
330
2E1
100
AcDbEntity
  8
0
  6
Continuous
 62
     4
420
    65535
100
AcDbLine
 10
3.673096194489562
 20
1.985233293522822
 30
0.0
 11
4.169189944489562
 21
1.985233293522822
 31
0.0
  0
LINE
  5
2FE
330
2E1
100
AcDbEntity
  8
0
  6
Continuous
 62
     4
420
    65535
100
AcDbLine
 10
7.007471194489562
 20
1.985233293522822
 30
0.0
 11
7.503564944489563
 21
1.985233293522822
 31
0.0
  0
LINE
  5
2FF
330
2E1
100
AcDbEntity
  8
0
  6
Continuous
 62
     4
420
    65535
100
AcDbLine
 10
2.230908694489562
 20
1.339139543522822
 30
0.0
 11
2.727002444489562
 21
1.339139543522822
 31
0.0
  0
LINE
  5
300
330
2E1
100
AcDbEntity
  8
0
  6
Continuous
 62
     4
420
    65535
100
AcDbLine
 10
5.565283694489563
 20
1.339139543522822
 30
0.0
 11
6.061377444489562
 21
1.339139543522822
 31
0.0
  0
ATTDEF
  5
301
102
{ACAD_XDICTIONARY
360
35E
102
}
330
2E1
100
AcDbEntity
  8
0
 62
     1
420
 16711680
100
AcDbText
 10
11.99830177266988
 20
2.414165003805976
 30
0.0
 40
3.499999940395355
  1

  7
Stile testo39
 11
11.99830177266988
 21
4.164164974003654
 31
0.0
100
AcDbAttributeDefinition
280
     0
  3
NOME_TAMPONAMENTO
  2
NOME_TAMPONAMENTO
 70
     0
 74
     2
280
     0
  0
ENDBLK
  5
2E3
330
2E1
100
AcDbEntity
  8
0
100
AcDbBlockEnd
  0
BLOCK
  5
303
330
302
100
AcDbEntity
  8
0
100
AcDbBlockBegin
  2
__
 70
     0
 10
0.0
 20
0.0
 30
0.0
  3
__
  1

  0
HATCH
  5
306
330
302
100
AcDbEntity
  8
CAMPITURE
100
AcDbHatch
 10
0.0
 20
0.0
 30
0.0
210
0.0
220
0.0
230
1.0
  2
SOLID
 70
     1
 71
     0
 91
        1
 92
        1
 93
        1
 72
     2
 10
0.0
 20
0.0
 40
0.7500000000000001
 50
0.0
 51
360.0
 73
     1
 97
        0
 75
     0
 76
     1
 98
        1
 10
0.0
 20
0.0
450
        0
451
        0
460
0.0
461
0.0
452
        0
462
0.0
453
        0
470

  0
CIRCLE
  5
307
330
302
100
AcDbEntity
  8
GEOMETRIA SCHIZZO
100
AcDbCircle
 10
0.0
 20
0.0
 30
0.0
 40
0.7500000000000001
  0
MTEXT
  5
308
330
302
100
AcDbEntity
  8
TESTO NORMALE
 62
   250
420
  4144959
100
AcDbMText
 10
0.0
 20
-0.234741985797875
 30
0.0
 40
5.0
 41
15.63962578773498
 46
0.0
 71
     2
 72
     1
  1
=    =
  7
TESTO EVIDENZIATO
 73
     1
 44
1.0
  0
ENDBLK
  5
304
330
302
100
AcDbEntity
  8
0
100
AcDbBlockEnd
  0
ENDSEC
  0
SECTION
  2
ENTITIES
  0
LINE
  5
30A
330
70
100
AcDbEntity
  8
VISIBILE
100
AcDbLine
 10
220.0
 20
154.5
 30
0.0
 11
220.0
 21
142.5
 31
0.0
  0
ARC
  5
30B
330
70
100
AcDbEntity
  8
VISIBILE
100
AcDbCircle
 10
217.0
 20
154.5
 30
0.0
 40
3.0
100
AcDbArc
 50
0.0
 51
90.0
  0
ARC
  5
30C
330
70
100
AcDbEntity
  8
VISIBILE
100
AcDbCircle
 10
217.0
 20
142.5
 30
0.0
 40
3.0
100
AcDbArc
 50
270.0
 51
0.0
  0
LINE
  5
30D
330
70
100
AcDbEntity
  8
VISIBILE
100
AcDbLine
 10
65.0
 20
140.5
 30
0.0
 11
65.0
 21
156.5
 31
0.0
  0
ARC
  5
30E
330
70
100
AcDbEntity
  8
VISIBILE
100
AcDbCircle
 10
47.5
 20
148.5
 30
0.0
 40
7.5
100
AcDbArc
 50
90.0
 51
270.0
  0
ARC
  5
30F
330
70
100
AcDbEntity
  8
VISIBILE
100
AcDbCircle
 10
66.0
 20
156.5
 30
0.0
 40
1.0
100
AcDbArc
 50
90.0
 51
180.0
  0
ARC
  5
310
330
70
100
AcDbEntity
  8
VISIBILE
100
AcDbCircle
 10
66.0
 20
140.5
 30
0.0
 40
1.0
100
AcDbArc
 50
180.0
 51
270.0
  0
LINE
  5
311
330
70
100
AcDbEntity
  8
VISIBILE
100
AcDbLine
 10
65.0
 20
141.0
 30
0.0
 11
47.5
 21
141.0
 31
0.0
  0
LINE
  5
312
330
70
100
AcDbEntity
  8
VISIBILE
100
AcDbLine
 10
65.0
 20
156.0
 30
0.0
 11
47.5
 21
156.0
 31
0.0
  0
CIRCLE
  5
313
330
70
100
AcDbEntity
  8
VISIBILE
100
AcDbCircle
 10
47.5
 20
148.5
 30
0.0
 40
4.0
  0
LINE
  5
314
330
70
100
AcDbEntity
  8
VISIBILE
100
AcDbLine
 10
217.0
 20
139.5
 30
0.0
 11
65.99999999999997
 21
139.5
 31
0.0
  0
LINE
  5
315
330
70
100
AcDbEntity
  8
VISIBILE
100
AcDbLine
 10
217.0
 20
157.5
 30
0.0
 11
65.99999999999997
 21
157.5
 31
0.0
  0
SPLINE
  5
316
330
70
100
AcDbEntity
  8
VISIBILE
100
AcDbSpline
210
0.0
220
0.0
230
1.0
 70
     8
 71
     3
 72
    18
 73
    14
 74
     0
 42
0.000000001
 43
0.0000000001
 40
1.198261817544214
 40
1.198261817544214
 40
1.198261817544214
 40
1.198261817544214
 40
1.222559444211011
 40
1.222559444211011
 40
1.246857070877807
 40
1.246857070877807
 40
1.278684277367909
 40
1.278684277367909
 40
1.310511483858011
 40
1.310511483858011
 40
1.382304218741579
 40
1.382304218741579
 40
1.399767709137796
 40
1.399767709137796
 40
1.399767709137796
 40
1.399767709137796
 10
356.0
 20
151.6224989991992
 30
0.0
 10
355.9190079111107
 20
151.6224989991992
 30
0.0
 10
355.8317790746469
 20
151.6141359989109
 30
0.0
 10
355.6665250835941
 20
151.5791217018004
 30
0.0
 10
355.5884813615788
 20
151.552418861203
 30
0.0
 10
355.4365877948022
 20
151.48084781107
 30
0.0
 10
355.3559944934607
 20
151.4257411931631
 30
0.0
 10
355.223757000108
 20
151.2953814574092
 30
0.0
 10
355.1718227711466
 20
151.220083651009
 30
0.0
 10
355.0486003429178
 20
150.9780796061486
 30
0.0
 10
355.0148276092174
 20
150.7905466036327
 30
0.0
 10
355.0012009403796
 20
150.5380011681162
 30
0.0
 10
355.0
 20
150.4876704571754
 30
0.0
 10
355.0
 20
150.4364916731037
 30
0.0
  0
SPLINE
  5
317
330
70
100
AcDbEntity
  8
VISIBILE
100
AcDbSpline
210
0.0
220
0.0
230
1.0
 70
     8
 71
     3
 72
    18
 73
    14
 74
     0
 42
0.000000001
 43
0.0000000001
 40
0.1979147142544886
 40
0.1979147142544886
 40
0.1979147142544886
 40
0.1979147142544886
 40
0.2153782046507052
 40
0.2153782046507052
 40
0.2871709395342736
 40
0.2871709395342736
 40
0.3189981460243759
 40
0.3189981460243759
 40
0.3508253525144782
 40
0.3508253525144782
 40
0.3751229791812744
 40
0.3751229791812744
 40
0.3994206058480706
 40
0.3994206058480706
 40
0.3994206058480706
 40
0.3994206058480706
 10
355.0
 20
146.5635083268963
 30
0.0
 10
355.0
 20
146.5123295428245
 30
0.0
 10
355.0012009403796
 20
146.4619988318837
 30
0.0
 10
355.0148276092174
 20
146.2094533963673
 30
0.0
 10
355.0486003429178
 20
146.0219203938514
 30
0.0
 10
355.1718227711466
 20
145.7799163489909
 30
0.0
 10
355.223757000108
 20
145.7046185425907
 30
0.0
 10
355.3559944934607
 20
145.5742588068368
 30
0.0
 10
355.4365877948021
 20
145.5191521889299
 30
0.0
 10
355.5884813615788
 20
145.447581138797
 30
0.0
 10
355.6665250835941
 20
145.4208782981995
 30
0.0
 10
355.8317790746469
 20
145.385864001089
 30
0.0
 10
355.9190079111107
 20
145.3775010008008
 30
0.0
 10
356.0
 20
145.3775010008008
 30
0.0
  0
ARC
  5
318
330
70
100
AcDbEntity
  8
VISIBILE
100
AcDbCircle
 10
372.5
 20
148.5
 30
0.0
 40
7.5
100
AcDbArc
 50
270.0
 51
90.0
  0
LINE
  5
319
330
70
100
AcDbEntity
  8
VISIBILE
100
AcDbLine
 10
355.0
 20
151.6224989991992
 30
0.0
 11
356.0
 21
151.6224989991992
 31
0.0
  0
LINE
  5
31A
330
70
100
AcDbEntity
  8
VISIBILE
100
AcDbLine
 10
356.0
 20
145.3775010008008
 30
0.0
 11
355.0
 21
145.3775010008008
 31
0.0
  0
LINE
  5
31B
330
70
100
AcDbEntity
  8
VISIBILE
100
AcDbLine
 10
355.0
 20
141.0
 30
0.0
 11
355.0
 21
145.3775010008008
 31
0.0
  0
LINE
  5
31C
330
70
100
AcDbEntity
  8
VISIBILE
100
AcDbLine
 10
355.0
 20
141.0
 30
0.0
 11
372.5
 21
141.0
 31
0.0
  0
LINE
  5
31D
330
70
100
AcDbEntity
  8
VISIBILE
100
AcDbLine
 10
355.0
 20
156.0
 30
0.0
 11
372.5
 21
156.0
 31
0.0
  0
LINE
  5
31E
330
70
100
AcDbEntity
  8
VISIBILE
100
AcDbLine
 10
355.0
 20
151.6224989991992
 30
0.0
 11
355.0
 21
156.0
 31
0.0
  0
CIRCLE
  5
31F
330
70
100
AcDbEntity
  8
VISIBILE
100
AcDbCircle
 10
372.5
 20
148.5
 30
0.0
 40
4.0
  0
LINE
  5
320
330
70
100
AcDbEntity
  8
VISIBILE
100
AcDbLine
 10
355.0
 20
146.5635083268963
 30
0.0
 11
355.0
 21
150.4364916731037
 31
0.0
  0
LINE
  5
321
330
70
100
AcDbEntity
  8
VISIBILE
100
AcDbLine
 10
220.0
 20
152.5
 30
0.0
 11
355.0
 21
152.5
 31
0.0
  0
LINE
  5
322
330
70
100
AcDbEntity
  8
VISIBILE
100
AcDbLine
 10
220.0
 20
144.5
 30
0.0
 11
355.0
 21
144.5
 31
0.0
  0
ENDSEC
  0
SECTION
  2
OBJECTS
  0
DICTIONARY
  5
C
330
0
100
AcDbDictionary
281
     1
  3
ACAD_CIP_PREVIOUS_PRODUCT_INFO
350
323
  3
ACAD_COLOR
350
63
  3
ACAD_DETAILVIEWSTYLE
350
6A
  3
ACAD_GROUP
350
D
  3
ACAD_LAYOUT
350
62
  3
ACAD_MATERIAL
350
10
  3
ACAD_MLEADERSTYLE
350
66
  3
ACAD_MLINESTYLE
350
5F
  3
ACAD_PLOTSETTINGS
350
61
  3
ACAD_PLOTSTYLENAME
350
E
  3
ACAD_SCALELIST
350
42
  3
ACAD_SECTIONVIEWSTYLE
350
68
  3
ACAD_TABLESTYLE
350
64
  3
ACAD_VISUALSTYLE
350
29
  3
ACDB_RECOMPOSE_DATA
350
361
  3
AcDbVariableDictionary
350
324
  0
DICTIONARY
  5
331
330
13D
100
AcDbDictionary
280
     1
281
     1
  3
ACAD_MLATT
360
333
  3
ACAD_XREC_ROUNDTRIP
360
332
  0
DICTIONARY
  5
334
330
166
100
AcDbDictionary
280
     1
281
     1
  3
ACAD_MLATT
360
336
  3
ACAD_XREC_ROUNDTRIP
360
335
  0
DICTIONARY
  5
337
330
17C
100
AcDbDictionary
280
     1
281
     1
  3
ACAD_MLATT
360
339
  3
ACAD_XREC_ROUNDTRIP
360
338
  0
DICTIONARY
  5
33A
330
197
100
AcDbDictionary
280
     1
281
     1
  3
ACAD_MLATT
360
33C
  3
ACAD_XREC_ROUNDTRIP
360
33B
  0
DICTIONARY
  5
33D
330
1AE
100
AcDbDictionary
280
     1
281
     1
  3
ACAD_MLATT
360
33F
  3
ACAD_XREC_ROUNDTRIP
360
33E
  0
DICTIONARY
  5
340
330
1C6
100
AcDbDictionary
280
     1
281
     1
  3
ACAD_MLATT
360
342
  3
ACAD_XREC_ROUNDTRIP
360
341
  0
DICTIONARY
  5
343
330
1DD
100
AcDbDictionary
280
     1
281
     1
  3
ACAD_MLATT
360
345
  3
ACAD_XREC_ROUNDTRIP
360
344
  0
DICTIONARY
  5
346
330
1FC
100
AcDbDictionary
280
     1
281
     1
  3
ACAD_MLATT
360
348
  3
ACAD_XREC_ROUNDTRIP
360
347
  0
DICTIONARY
  5
349
330
223
100
AcDbDictionary
280
     1
281
     1
  3
ACAD_MLATT
360
34B
  3
ACAD_XREC_ROUNDTRIP
360
34A
  0
DICTIONARY
  5
34C
330
242
100
AcDbDictionary
280
     1
281
     1
  3
ACAD_MLATT
360
34E
  3
ACAD_XREC_ROUNDTRIP
360
34D
  0
DICTIONARY
  5
34F
330
261
100
AcDbDictionary
280
     1
281
     1
  3
ACAD_MLATT
360
351
  3
ACAD_XREC_ROUNDTRIP
360
350
  0
DICTIONARY
  5
352
330
280
100
AcDbDictionary
280
     1
281
     1
  3
ACAD_MLATT
360
354
  3
ACAD_XREC_ROUNDTRIP
360
353
  0
DICTIONARY
  5
355
330
29D
100
AcDbDictionary
280
     1
281
     1
  3
ACAD_MLATT
360
357
  3
ACAD_XREC_ROUNDTRIP
360
356
  0
DICTIONARY
  5
358
330
2BF
100
AcDbDictionary
280
     1
281
     1
  3
ACAD_MLATT
360
35A
  3
ACAD_XREC_ROUNDTRIP
360
359
  0
DICTIONARY
  5
35B
330
2E0
100
AcDbDictionary
280
     1
281
     1
  3
ACAD_MLATT
360
35D
  3
ACAD_XREC_ROUNDTRIP
360
35C
  0
DICTIONARY
  5
35E
330
301
100
AcDbDictionary
280
     1
281
     1
  3
ACAD_MLATT
360
360
  3
ACAD_XREC_ROUNDTRIP
360
35F
  0
XRECORD
  5
323
102
{ACAD_REACTORS
330
C
102
}
330
C
100
AcDbXrecord
280
     1
300
INVNTOR
300
2016
300
PDSP_F_S
  0
DICTIONARY
  5
63
102
{ACAD_REACTORS
330
C
102
}
330
C
100
AcDbDictionary
281
     1
  0
DICTIONARY
  5
6A
102
{ACAD_REACTORS
330
C
102
}
330
C
100
AcDbDictionary
281
     1
  3
Imperial24
350
6B
  0
DICTIONARY
  5
D
102
{ACAD_REACTORS
330
C
102
}
330
C
100
AcDbDictionary
281
     1
  0
DICTIONARY
  5
62
102
{ACAD_REACTORS
330
C
102
}
330
C
100
AcDbDictionary
281
     1
  3
Layout1
350
6F
  3
Layout2
350
77
  3
Model
350
73
  0
DICTIONARY
  5
10
102
{ACAD_REACTORS
330
C
102
}
330
C
100
AcDbDictionary
281
     1
  3
ByBlock
350
19
  3
ByLayer
350
11
  3
Global
350
21
  0
DICTIONARY
  5
66
102
{ACAD_REACTORS
330
C
102
}
330
C
100
AcDbDictionary
281
     1
  3
Standard
350
67
  0
DICTIONARY
  5
5F
102
{ACAD_REACTORS
330
C
102
}
330
C
100
AcDbDictionary
281
     1
  3
Standard
350
60
  0
DICTIONARY
  5
61
102
{ACAD_REACTORS
330
C
102
}
330
C
100
AcDbDictionary
281
     1
  0
ACDBDICTIONARYWDFLT
  5
E
102
{ACAD_REACTORS
330
C
102
}
330
C
100
AcDbDictionary
281
     1
  3
Normal
350
F
100
AcDbDictionaryWithDefault
340
F
  0
DICTIONARY
  5
42
102
{ACAD_REACTORS
330
C
102
}
330
C
100
AcDbDictionary
281
     1
  3
A0
350
43
  3
A1
350
44
  3
A2
350
45
  3
A3
350
46
  3
A4
350
47
  3
A5
350
48
  3
A6
350
49
  3
A7
350
4A
  3
A8
350
4B
  3
A9
350
4C
  3
B0
350
4D
  3
B1
350
4E
  3
B2
350
4F
  3
B3
350
50
  3
B4
350
51
  3
B5
350
52
  3
B6
350
53
  0
DICTIONARY
  5
68
102
{ACAD_REACTORS
330
C
102
}
330
C
100
AcDbDictionary
281
     1
  3
Imperial24
350
69
  0
DICTIONARY
  5
64
102
{ACAD_REACTORS
330
C
102
}
330
C
100
AcDbDictionary
281
     1
  3
Standard
350
65
  0
DICTIONARY
  5
29
102
{ACAD_REACTORS
330
C
102
}
330
C
100
AcDbDictionary
281
     1
  3
2dWireframe
350
2F
  3
Basic
350
2E
  3
Brighten
350
35
  3
ColorChange
350
39
  3
Conceptual
350
32
  3
Dim
350
34
  3
EdgeColorOff
350
41
  3
Facepattern
350
38
  3
Flat
350
2A
  3
FlatWithEdges
350
2B
  3
Gouraud
350
2C
  3
GouraudWithEdges
350
2D
  3
Hidden
350
31
  3
JitterOff
350
3F
  3
Linepattern
350
37
  3
OverhangOff
350
40
  3
Realistic
350
33
  3
Shaded
350
3E
  3
Shaded with edges
350
3D
  3
Shades of Gray
350
3A
  3
Sketchy
350
3B
  3
Thicken
350
36
  3
Wireframe
350
30
  3
X-Ray
350
3C
  0
XRECORD
  5
361
102
{ACAD_REACTORS
330
C
102
}
330
C
100
AcDbXrecord
280
     1
 90
        1
330
65
330
69
330
6B
330
13D
330
166
330
17C
330
197
330
1AE
330
1C6
330
1DD
330
1FC
330
223
330
242
330
261
330
280
330
29D
330
2BF
330
2E0
330
301
  0
DICTIONARY
  5
324
102
{ACAD_REACTORS
330
C
102
}
330
C
100
AcDbDictionary
281
     1
  3
CANNOSCALE
350
329
  3
CMLEADERSTYLE
350
326
  3
CTABLESTYLE
350
325
  3
CVIEWDETAILSTYLE
350
327
  3
CVIEWSECTIONSTYLE
350
328
  0
XRECORD
  5
333
102
{ACAD_REACTORS
330
331
102
}
330
331
100
AcDbXrecord
280
     1
 70
     4
 70
     0
 70
     0
 40
1.0
  2
NOME_TAMPONAMENTO
  1
Embedded Object
 10
12.0
 20
4.0
 30
0.0
 40
3.499999940395355
 41
0.0
 46
0.0
 71
     4
 72
     5
  1

  7
Stile testo39
 73
     1
 44
1.0
  0
XRECORD
  5
332
102
{ACAD_REACTORS
330
331
102
}
330
331
100
AcDbXrecord
280
     1
102
ACAD_MATT_HEIGHT
140
3.499999940395355
  0
XRECORD
  5
336
102
{ACAD_REACTORS
330
334
102
}
330
334
100
AcDbXrecord
280
     1
 70
     4
 70
     0
 70
     0
 40
1.0
  2
NOME_TAMPONAMENTO
  1
Embedded Object
 10
12.0
 20
4.0
 30
0.0
 40
3.499999940395355
 41
0.0
 46
0.0
 71
     4
 72
     5
  1

  7
Stile testo39
 73
     1
 44
1.0
  0
XRECORD
  5
335
102
{ACAD_REACTORS
330
334
102
}
330
334
100
AcDbXrecord
280
     1
102
ACAD_MATT_HEIGHT
140
3.499999940395355
  0
XRECORD
  5
339
102
{ACAD_REACTORS
330
337
102
}
330
337
100
AcDbXrecord
280
     1
 70
     4
 70
     0
 70
     0
 40
1.0
  2
NOME_TAMPONAMENTO
  1
Embedded Object
 10
12.0
 20
4.0
 30
0.0
 40
3.499999940395355
 41
0.0
 46
0.0
 71
     4
 72
     5
  1

  7
Stile testo39
 73
     1
 44
1.0
  0
XRECORD
  5
338
102
{ACAD_REACTORS
330
337
102
}
330
337
100
AcDbXrecord
280
     1
102
ACAD_MATT_HEIGHT
140
3.499999940395355
  0
XRECORD
  5
33C
102
{ACAD_REACTORS
330
33A
102
}
330
33A
100
AcDbXrecord
280
     1
 70
     4
 70
     0
 70
     0
 40
1.0
  2
NOME_TAMPONAMENTO
  1
Embedded Object
 10
12.0
 20
4.0
 30
0.0
 40
3.499999940395355
 41
0.0
 46
0.0
 71
     4
 72
     5
  1

  7
Stile testo39
 73
     1
 44
1.0
  0
XRECORD
  5
33B
102
{ACAD_REACTORS
330
33A
102
}
330
33A
100
AcDbXrecord
280
     1
102
ACAD_MATT_HEIGHT
140
3.499999940395355
  0
XRECORD
  5
33F
102
{ACAD_REACTORS
330
33D
102
}
330
33D
100
AcDbXrecord
280
     1
 70
     4
 70
     0
 70
     0
 40
1.0
  2
NOME_TAMPONAMENTO
  1
Embedded Object
 10
12.0
 20
4.0
 30
0.0
 40
3.499999940395355
 41
0.0
 46
0.0
 71
     4
 72
     5
  1

  7
Stile testo39
 73
     1
 44
1.0
  0
XRECORD
  5
33E
102
{ACAD_REACTORS
330
33D
102
}
330
33D
100
AcDbXrecord
280
     1
102
ACAD_MATT_HEIGHT
140
3.499999940395355
  0
XRECORD
  5
342
102
{ACAD_REACTORS
330
340
102
}
330
340
100
AcDbXrecord
280
     1
 70
     4
 70
     0
 70
     0
 40
1.0
  2
NOME_TAMPONAMENTO
  1
Embedded Object
 10
12.0
 20
4.0
 30
0.0
 40
3.499999940395355
 41
0.0
 46
0.0
 71
     4
 72
     5
  1

  7
Stile testo39
 73
     1
 44
1.0
  0
XRECORD
  5
341
102
{ACAD_REACTORS
330
340
102
}
330
340
100
AcDbXrecord
280
     1
102
ACAD_MATT_HEIGHT
140
3.499999940395355
  0
XRECORD
  5
345
102
{ACAD_REACTORS
330
343
102
}
330
343
100
AcDbXrecord
280
     1
 70
     4
 70
     0
 70
     0
 40
1.0
  2
NOME_TAMPONAMENTO
  1
Embedded Object
 10
12.0
 20
4.0
 30
0.0
 40
3.499999940395355
 41
0.0
 46
0.0
 71
     4
 72
     5
  1
rjhiljyt
  7
Stile testo39
 73
     1
 44
1.0
  0
XRECORD
  5
344
102
{ACAD_REACTORS
330
343
102
}
330
343
100
AcDbXrecord
280
     1
102
ACAD_MATT_HEIGHT
140
3.499999940395355
  0
XRECORD
  5
348
102
{ACAD_REACTORS
330
346
102
}
330
346
100
AcDbXrecord
280
     1
 70
     4
 70
     0
 70
     0
 40
1.0
  2
NOME_TAMPONAMENTO
  1
Embedded Object
 10
11.99830177266988
 20
4.164164974003654
 30
0.0
 40
3.499999940395355
 41
0.0
 46
0.0
 71
     4
 72
     5
  1

  7
Stile testo39
 73
     1
 44
1.0
  0
XRECORD
  5
347
102
{ACAD_REACTORS
330
346
102
}
330
346
100
AcDbXrecord
280
     1
102
ACAD_MATT_HEIGHT
140
3.499999940395355
  0
XRECORD
  5
34B
102
{ACAD_REACTORS
330
349
102
}
330
349
100
AcDbXrecord
280
     1
 70
     4
 70
     0
 70
     0
 40
1.0
  2
NOME_TAMPONAMENTO
  1
Embedded Object
 10
12.0
 20
4.0
 30
0.0
 40
3.499999940395355
 41
0.0
 46
0.0
 71
     4
 72
     5
  1

  7
Stile testo39
 73
     1
 44
1.0
  0
XRECORD
  5
34A
102
{ACAD_REACTORS
330
349
102
}
330
349
100
AcDbXrecord
280
     1
102
ACAD_MATT_HEIGHT
140
3.499999940395355
  0
XRECORD
  5
34E
102
{ACAD_REACTORS
330
34C
102
}
330
34C
100
AcDbXrecord
280
     1
 70
     4
 70
     0
 70
     0
 40
1.0
  2
NOME_TAMPONAMENTO
  1
Embedded Object
 10
11.99830177266988
 20
4.164164974003654
 30
0.0
 40
3.499999940395355
 41
0.0
 46
0.0
 71
     4
 72
     5
  1

  7
Stile testo39
 73
     1
 44
1.0
  0
XRECORD
  5
34D
102
{ACAD_REACTORS
330
34C
102
}
330
34C
100
AcDbXrecord
280
     1
102
ACAD_MATT_HEIGHT
140
3.499999940395355
  0
XRECORD
  5
351
102
{ACAD_REACTORS
330
34F
102
}
330
34F
100
AcDbXrecord
280
     1
 70
     4
 70
     0
 70
     0
 40
1.0
  2
NOME_TAMPONAMENTO
  1
Embedded Object
 10
11.99830177266988
 20
4.164164974003654
 30
0.0
 40
3.499999940395355
 41
0.0
 46
0.0
 71
     4
 72
     5
  1

  7
Stile testo39
 73
     1
 44
1.0
  0
XRECORD
  5
350
102
{ACAD_REACTORS
330
34F
102
}
330
34F
100
AcDbXrecord
280
     1
102
ACAD_MATT_HEIGHT
140
3.499999940395355
  0
XRECORD
  5
354
102
{ACAD_REACTORS
330
352
102
}
330
352
100
AcDbXrecord
280
     1
 70
     4
 70
     0
 70
     0
 40
1.0
  2
NOME_TAMPONAMENTO
  1
Embedded Object
 10
12.0
 20
4.0
 30
0.0
 40
3.499999940395355
 41
0.0
 46
0.0
 71
     4
 72
     5
  1

  7
Stile testo39
 73
     1
 44
1.0
  0
XRECORD
  5
353
102
{ACAD_REACTORS
330
352
102
}
330
352
100
AcDbXrecord
280
     1
102
ACAD_MATT_HEIGHT
140
3.499999940395355
  0
XRECORD
  5
357
102
{ACAD_REACTORS
330
355
102
}
330
355
100
AcDbXrecord
280
     1
 70
     4
 70
     0
 70
     0
 40
1.0
  2
NOME_TAMPONAMENTO
  1
Embedded Object
 10
12.0
 20
4.0
 30
0.0
 40
3.499999940395355
 41
0.0
 46
0.0
 71
     4
 72
     5
  1

  7
Stile testo39
 73
     1
 44
1.0
  0
XRECORD
  5
356
102
{ACAD_REACTORS
330
355
102
}
330
355
100
AcDbXrecord
280
     1
102
ACAD_MATT_HEIGHT
140
3.499999940395355
  0
XRECORD
  5
35A
102
{ACAD_REACTORS
330
358
102
}
330
358
100
AcDbXrecord
280
     1
 70
     4
 70
     0
 70
     0
 40
1.0
  2
NOME_TAMPONAMENTO
  1
Embedded Object
 10
12.0
 20
4.0
 30
0.0
 40
3.499999940395355
 41
0.0
 46
0.0
 71
     4
 72
     5
  1

  7
Stile testo39
 73
     1
 44
1.0
  0
XRECORD
  5
359
102
{ACAD_REACTORS
330
358
102
}
330
358
100
AcDbXrecord
280
     1
102
ACAD_MATT_HEIGHT
140
3.499999940395355
  0
XRECORD
  5
35D
102
{ACAD_REACTORS
330
35B
102
}
330
35B
100
AcDbXrecord
280
     1
 70
     4
 70
     0
 70
     0
 40
1.0
  2
NOME_TAMPONAMENTO
  1
Embedded Object
 10
12.0
 20
4.0
 30
0.0
 40
3.499999940395355
 41
0.0
 46
0.0
 71
     4
 72
     5
  1

  7
Stile testo39
 73
     1
 44
1.0
  0
XRECORD
  5
35C
102
{ACAD_REACTORS
330
35B
102
}
330
35B
100
AcDbXrecord
280
     1
102
ACAD_MATT_HEIGHT
140
3.499999940395355
  0
XRECORD
  5
360
102
{ACAD_REACTORS
330
35E
102
}
330
35E
100
AcDbXrecord
280
     1
 70
     4
 70
     0
 70
     0
 40
1.0
  2
NOME_TAMPONAMENTO
  1
Embedded Object
 10
11.99830177266988
 20
4.164164974003654
 30
0.0
 40
3.499999940395355
 41
0.0
 46
0.0
 71
     4
 72
     5
  1

  7
Stile testo39
 73
     1
 44
1.0
  0
XRECORD
  5
35F
102
{ACAD_REACTORS
330
35E
102
}
330
35E
100
AcDbXrecord
280
     1
102
ACAD_MATT_HEIGHT
140
3.499999940395355
  0
ACDBDETAILVIEWSTYLE
  5
6B
102
{ACAD_XDICTIONARY
360
32E
102
}
102
{ACAD_REACTORS
330
6A
102
}
330
6A
100
AcDbModelDocViewStyle
 70
     0
  3
Imperial24
290
     0
100
AcDbDetailViewStyle
 70
     0
 71
     0
 90
        3
 71
     1
340
55
 62
   256
 40
0.24
340
0
 62
   256
 40
0.24
300

 40
0.36
280
     3
 71
     2
340
5D
 90
       25
 62
   256
 71
     3
340
55
 62
   256
 40
0.24
 90
        1
 40
0.75
 90
        1
300
%<\AcVar ViewType \f "%tc1">% %<\AcVar ViewDetailId>%\PSCALA %<\AcVar ViewScale \f "%sn">%
 71
     4
340
5D
 90
       25
 62
   256
340
5D
 90
       25
 62
   256
280
     0
  0
LAYOUT
  5
6F
102
{ACAD_REACTORS
330
62
102
}
330
62
100
AcDbPlotSettings
  1

  2

  4

  6

 40
0.0
 41
0.0
 42
0.0
 43
0.0
 44
0.0
 45
0.0
 46
0.0
 47
0.0
 48
0.0
 49
0.0
140
0.0
141
0.0
142
1.0
143
1.0
 70
   688
 72
     0
 73
     0
 74
     5
  7

 75
    16
147
1.0
 76
     0
 77
     2
 78
   300
148
0.0
149
0.0
100
AcDbLayout
  1
Layout1
 70
     1
 71
     1
 10
0.0
 20
0.0
 11
12.0
 21
9.0
 12
0.0
 22
0.0
 32
0.0
 14
0.0
 24
0.0
 34
0.0
 15
0.0
 25
0.0
 35
0.0
146
0.0
 13
0.0
 23
0.0
 33
0.0
 16
1.0
 26
0.0
 36
0.0
 17
0.0
 27
1.0
 37
0.0
 76
     0
330
6C
  0
LAYOUT
  5
77
102
{ACAD_REACTORS
330
62
102
}
330
62
100
AcDbPlotSettings
  1

  2

  4

  6

 40
0.0
 41
0.0
 42
0.0
 43
0.0
 44
0.0
 45
0.0
 46
0.0
 47
0.0
 48
0.0
 49
0.0
140
0.0
141
0.0
142
1.0
143
1.0
 70
   688
 72
     0
 73
     0
 74
     5
  7

 75
    16
147
1.0
 76
     0
 77
     2
 78
   300
148
0.0
149
0.0
100
AcDbLayout
  1
Layout2
 70
     1
 71
     2
 10
0.0
 20
0.0
 11
12.0
 21
9.0
 12
0.0
 22
0.0
 32
0.0
 14
0.0
 24
0.0
 34
0.0
 15
0.0
 25
0.0
 35
0.0
146
0.0
 13
0.0
 23
0.0
 33
0.0
 16
1.0
 26
0.0
 36
0.0
 17
0.0
 27
1.0
 37
0.0
 76
     0
330
74
  0
LAYOUT
  5
73
102
{ACAD_REACTORS
330
62
102
}
330
62
100
AcDbPlotSettings
  1

  2

  4

  6

 40
0.0
 41
0.0
 42
0.0
 43
0.0
 44
0.0
 45
0.0
 46
0.0
 47
0.0
 48
0.0
 49
0.0
140
0.0
141
0.0
142
1.0
143
1.0
 70
  1712
 72
     0
 73
     0
 74
     0
  7

 75
     0
147
1.0
 76
     0
 77
     2
 78
   300
148
0.0
149
0.0
100
AcDbLayout
  1
Model
 70
     1
 71
     0
 10
0.0
 20
0.0
 11
12.0
 21
9.0
 12
0.0
 22
0.0
 32
0.0
 14
0.0
 24
0.0
 34
0.0
 15
0.0
 25
0.0
 35
0.0
146
0.0
 13
0.0
 23
0.0
 33
0.0
 16
1.0
 26
0.0
 36
0.0
 17
0.0
 27
1.0
 37
0.0
 76
     0
330
70
  0
MATERIAL
  5
19
102
{ACAD_XDICTIONARY
360
1A
102
}
102
{ACAD_REACTORS
330
10
102
}
330
10
100
AcDbMaterial
  1
ByBlock
 72
     0
 43
0.0208333333333333
 43
0.0
 43
0.0
 43
0.0
 43
0.0
 43
0.0208333333333333
 43
0.0
 43
0.0
 43
0.0
 43
0.0
 43
1.0
 43
0.0
 43
0.0
 43
0.0
 43
0.0
 43
1.0
 77
     0
 47
0.0208333333333333
 47
0.0
 47
0.0
 47
0.0
 47
0.0
 47
0.0208333333333333
 47
0.0
 47
0.0
 47
0.0
 47
0.0
 47
1.0
 47
0.0
 47
0.0
 47
0.0
 47
0.0
 47
1.0
171
     0
 49
0.0208333333333333
 49
0.0
 49
0.0
 49
0.0
 49
0.0
 49
0.0208333333333333
 49
0.0
 49
0.0
 49
0.0
 49
0.0
 49
1.0
 49
0.0
 49
0.0
 49
0.0
 49
0.0
 49
1.0
175
     0
142
0.0208333333333333
142
0.0
142
0.0
142
0.0
142
0.0
142
0.0208333333333333
142
0.0
142
0.0
142
0.0
142
0.0
142
1.0
142
0.0
142
0.0
142
0.0
142
0.0
142
1.0
179
     0
144
0.0208333333333333
144
0.0
144
0.0
144
0.0
144
0.0
144
0.0208333333333333
144
0.0
144
0.0
144
0.0
144
0.0
144
1.0
144
0.0
144
0.0
144
0.0
144
0.0
144
1.0
147
0.0208333333333333
147
0.0
147
0.0
147
0.0
147
0.0
147
0.0208333333333333
147
0.0
147
0.0
147
0.0
147
0.0
147
1.0
147
0.0
147
0.0
147
0.0
147
0.0
147
1.0
  0
MATERIAL
  5
11
102
{ACAD_XDICTIONARY
360
12
102
}
102
{ACAD_REACTORS
330
10
102
}
330
10
100
AcDbMaterial
  1
ByLayer
 72
     0
 43
0.0208333333333333
 43
0.0
 43
0.0
 43
0.0
 43
0.0
 43
0.0208333333333333
 43
0.0
 43
0.0
 43
0.0
 43
0.0
 43
1.0
 43
0.0
 43
0.0
 43
0.0
 43
0.0
 43
1.0
 77
     0
 47
0.0208333333333333
 47
0.0
 47
0.0
 47
0.0
 47
0.0
 47
0.0208333333333333
 47
0.0
 47
0.0
 47
0.0
 47
0.0
 47
1.0
 47
0.0
 47
0.0
 47
0.0
 47
0.0
 47
1.0
171
     0
 49
0.0208333333333333
 49
0.0
 49
0.0
 49
0.0
 49
0.0
 49
0.0208333333333333
 49
0.0
 49
0.0
 49
0.0
 49
0.0
 49
1.0
 49
0.0
 49
0.0
 49
0.0
 49
0.0
 49
1.0
175
     0
142
0.0208333333333333
142
0.0
142
0.0
142
0.0
142
0.0
142
0.0208333333333333
142
0.0
142
0.0
142
0.0
142
0.0
142
1.0
142
0.0
142
0.0
142
0.0
142
0.0
142
1.0
179
     0
144
0.0208333333333333
144
0.0
144
0.0
144
0.0
144
0.0
144
0.0208333333333333
144
0.0
144
0.0
144
0.0
144
0.0
144
1.0
144
0.0
144
0.0
144
0.0
144
0.0
144
1.0
147
0.0208333333333333
147
0.0
147
0.0
147
0.0
147
0.0
147
0.0208333333333333
147
0.0
147
0.0
147
0.0
147
0.0
147
1.0
147
0.0
147
0.0
147
0.0
147
0.0
147
1.0
  0
MATERIAL
  5
21
102
{ACAD_XDICTIONARY
360
22
102
}
102
{ACAD_REACTORS
330
10
102
}
330
10
100
AcDbMaterial
  1
Global
 72
     0
 43
0.0208333333333333
 43
0.0
 43
0.0
 43
0.0
 43
0.0
 43
0.0208333333333333
 43
0.0
 43
0.0
 43
0.0
 43
0.0
 43
1.0
 43
0.0
 43
0.0
 43
0.0
 43
0.0
 43
1.0
 77
     0
 47
0.0208333333333333
 47
0.0
 47
0.0
 47
0.0
 47
0.0
 47
0.0208333333333333
 47
0.0
 47
0.0
 47
0.0
 47
0.0
 47
1.0
 47
0.0
 47
0.0
 47
0.0
 47
0.0
 47
1.0
171
     0
 49
0.0208333333333333
 49
0.0
 49
0.0
 49
0.0
 49
0.0
 49
0.0208333333333333
 49
0.0
 49
0.0
 49
0.0
 49
0.0
 49
1.0
 49
0.0
 49
0.0
 49
0.0
 49
0.0
 49
1.0
175
     0
142
0.0208333333333333
142
0.0
142
0.0
142
0.0
142
0.0
142
0.0208333333333333
142
0.0
142
0.0
142
0.0
142
0.0
142
1.0
142
0.0
142
0.0
142
0.0
142
0.0
142
1.0
179
     0
144
0.0208333333333333
144
0.0
144
0.0
144
0.0
144
0.0
144
0.0208333333333333
144
0.0
144
0.0
144
0.0
144
0.0
144
1.0
144
0.0
144
0.0
144
0.0
144
0.0
144
1.0
147
0.0208333333333333
147
0.0
147
0.0
147
0.0
147
0.0
147
0.0208333333333333
147
0.0
147
0.0
147
0.0
147
0.0
147
1.0
147
0.0
147
0.0
147
0.0
147
0.0
147
1.0
  0
MLEADERSTYLE
  5
67
102
{ACAD_REACTORS
330
66
102
}
330
66
100
AcDbMLeaderStyle
179
     2
170
     2
171
     1
172
     0
 90
        2
 40
0.0
 41
0.0
173
     1
 91
-1056964608
340
5B
 92
       -2
290
     1
 42
0.09
291
     1
 43
0.36
  3
Standard
 44
0.18
300

342
55
174
     1
178
     6
175
     1
176
     0
 93
-1056964608
 45
0.18
292
     0
297
     0
 46
0.18
 94
-1056964608
 47
1.0
 49
1.0
140
1.0
293
     1
141
0.0
294
     1
177
     0
142
1.0
295
     1
296
     0
143
0.125
271
     0
272
     9
273
     9
298
     1
  0
MLINESTYLE
  5
60
102
{ACAD_REACTORS
330
5F
102
}
330
5F
100
AcDbMlineStyle
  2
STANDARD
 70
     0
  3

 62
   256
 51
90.0
 52
90.0
 71
     2
 49
0.5
 62
   256
  6
BYLAYER
 49
-0.5
 62
   256
  6
BYLAYER
  0
ACDBPLACEHOLDER
  5
F
102
{ACAD_REACTORS
330
E
102
}
330
E
  0
SCALE
  5
43
102
{ACAD_REACTORS
330
42
102
}
330
42
100
AcDbScale
 70
     0
300
1:1
140
1.0
141
1.0
290
     1
  0
SCALE
  5
44
102
{ACAD_REACTORS
330
42
102
}
330
42
100
AcDbScale
 70
     0
300
1/128" = 1'-0"
140
0.0078125
141
12.0
290
     0
  0
SCALE
  5
45
102
{ACAD_REACTORS
330
42
102
}
330
42
100
AcDbScale
 70
     0
300
1/64" = 1'-0"
140
0.015625
141
12.0
290
     0
  0
SCALE
  5
46
102
{ACAD_REACTORS
330
42
102
}
330
42
100
AcDbScale
 70
     0
300
1/32" = 1'-0"
140
0.03125
141
12.0
290
     0
  0
SCALE
  5
47
102
{ACAD_REACTORS
330
42
102
}
330
42
100
AcDbScale
 70
     0
300
1/16" = 1'-0"
140
0.0625
141
12.0
290
     0
  0
SCALE
  5
48
102
{ACAD_REACTORS
330
42
102
}
330
42
100
AcDbScale
 70
     0
300
3/32" = 1'-0"
140
0.09375
141
12.0
290
     0
  0
SCALE
  5
49
102
{ACAD_REACTORS
330
42
102
}
330
42
100
AcDbScale
 70
     0
300
1/8" = 1'-0"
140
0.125
141
12.0
290
     0
  0
SCALE
  5
4A
102
{ACAD_REACTORS
330
42
102
}
330
42
100
AcDbScale
 70
     0
300
3/16" = 1'-0"
140
0.1875
141
12.0
290
     0
  0
SCALE
  5
4B
102
{ACAD_REACTORS
330
42
102
}
330
42
100
AcDbScale
 70
     0
300
1/4" = 1'-0"
140
0.25
141
12.0
290
     0
  0
SCALE
  5
4C
102
{ACAD_REACTORS
330
42
102
}
330
42
100
AcDbScale
 70
     0
300
3/8" = 1'-0"
140
0.375
141
12.0
290
     0
  0
SCALE
  5
4D
102
{ACAD_REACTORS
330
42
102
}
330
42
100
AcDbScale
 70
     0
300
1/2" = 1'-0"
140
0.5
141
12.0
290
     0
  0
SCALE
  5
4E
102
{ACAD_REACTORS
330
42
102
}
330
42
100
AcDbScale
 70
     0
300
3/4" = 1'-0"
140
0.75
141
12.0
290
     0
  0
SCALE
  5
4F
102
{ACAD_REACTORS
330
42
102
}
330
42
100
AcDbScale
 70
     0
300
1" = 1'-0"
140
1.0
141
12.0
290
     0
  0
SCALE
  5
50
102
{ACAD_REACTORS
330
42
102
}
330
42
100
AcDbScale
 70
     0
300
1-1/2" = 1'-0"
140
1.5
141
12.0
290
     0
  0
SCALE
  5
51
102
{ACAD_REACTORS
330
42
102
}
330
42
100
AcDbScale
 70
     0
300
3" = 1'-0"
140
3.0
141
12.0
290
     0
  0
SCALE
  5
52
102
{ACAD_REACTORS
330
42
102
}
330
42
100
AcDbScale
 70
     0
300
6" = 1'-0"
140
6.0
141
12.0
290
     0
  0
SCALE
  5
53
102
{ACAD_REACTORS
330
42
102
}
330
42
100
AcDbScale
 70
     0
300
1'-0" = 1'-0"
140
12.0
141
12.0
290
     0
  0
ACDBSECTIONVIEWSTYLE
  5
69
102
{ACAD_XDICTIONARY
360
32C
102
}
102
{ACAD_REACTORS
330
68
102
}
330
68
100
AcDbModelDocViewStyle
 70
     0
  3
Imperial24
290
     0
100
AcDbSectionViewStyle
 70
     0
 71
     0
 90
       78
 71
     1
340
55
 62
   256
 40
0.24
340
0
340
0
 62
   256
 40
0.24
300
I, O, Q, S, X, Z
 40
0.48
 90
        3
 40
0.18
 90
        1
 71
     2
340
5D
 90
       25
 62
   256
340
5D
 90
       50
 62
   256
 40
0.24
 40
0.0
 40
0.24
 71
     3
340
55
 62
   256
 40
0.24
 90
        1
 40
0.75
 90
        1
300
%<\AcVar ViewType \f "%tc1">% %<\AcVar ViewSectionStartId>%-%<\AcVar ViewSectionEndId>%\PSCALA %<\AcVar ViewScale \f "%sn">%
 71
     4
 62
   256
 62
   257
300
ANSI31
 40
1.0
 90
        0
290
     0
290
     0
 90
        6
 40
0.0
 40
1.570796326794896
 40
0.2617993877991494
 40
1.308996938995747
 40
-0.2617993877991494
 40
1.832595714594046
  0
TABLESTYLE
  5
65
102
{ACAD_XDICTIONARY
360
32A
102
}
102
{ACAD_REACTORS
330
64
102
}
330
64
100
AcDbTableStyle
280
     0
  3
Standard
 70
     0
 71
     0
 40
0.06
 41
0.06
280
     0
281
     0
  7
Standard
140
0.18
170
     2
 62
     0
 63
     7
283
     0
 90
      512
 91
        0
  1

274
    -2
284
     1
 64
     0
275
    -2
285
     1
 65
     0
276
    -2
286
     1
 66
     0
277
    -2
287
     1
 67
     0
278
    -2
288
     1
 68
     0
279
    -2
289
     1
 69
     0
  7
Standard
140
0.25
170
     5
 62
     0
 63
     7
283
     0
 90
      512
 91
        0
  1

274
    -2
284
     1
 64
     0
275
    -2
285
     1
 65
     0
276
    -2
286
     1
 66
     0
277
    -2
287
     1
 67
     0
278
    -2
288
     1
 68
     0
279
    -2
289
     1
 69
     0
  7
Standard
140
0.18
170
     5
 62
     0
 63
     7
283
     0
 90
      512
 91
        0
  1

274
    -2
284
     1
 64
     0
275
    -2
285
     1
 65
     0
276
    -2
286
     1
 66
     0
277
    -2
287
     1
 67
     0
278
    -2
288
     1
 68
     0
279
    -2
289
     1
 69
     0
  0
VISUALSTYLE
  5
2F
102
{ACAD_REACTORS
330
29
102
}
330
29
100
AcDbVisualStyle
  2
2dWireframe
 70
     4
177
     3
291
     0
 70
    58
 90
        0
176
     1
 90
        2
176
     1
 90
        0
176
     1
 90
        0
176
     1
 40
0.6
176
     1
 40
30.0
176
     1
 62
     7
420
 16777215
176
     1
 90
        1
176
     1
 90
        4
176
     1
 62
     7
176
     1
 62
   257
176
     1
 90
        1
176
     1
 90
        1
176
     1
 40
1.0
176
     1
 90
        0
176
     1
 62
   257
176
     1
 40
1.0
176
     1
 90
        1
176
     1
 90
        6
176
     1
 90
        2
176
     1
 62
     7
176
     1
 90
        5
176
     1
 90
        0
176
     1
 90
        0
176
     1
290
     0
176
     1
 90
        1
176
     1
 40
0.0
176
     1
 90
        0
176
     1
290
     1
176
     1
290
     1
176
     1
290
     0
176
     1
290
     0
176
     1
290
     0
176
     1
290
     0
176
     1
290
     0
176
     1
290
     0
176
     1
290
     0
176
     1
 90
       50
176
     1
 40
0.0
176
     1
 40
1.0
176
     1
 90
        0
176
     1
 62
    18
420
        0
176
     1
 90
       50
176
     1
 90
        3
176
     1
 62
     5
420
      255
176
     1
290
     0
176
     1
 90
       50
176
     1
 90
       50
176
     1
 90
       50
176
     1
290
     0
176
     1
 90
       50
176
     1
 62
   256
176
     0
 40
1.0
176
     0
 90
        2
176
     1
  1
strokes_ogs.tif
176
     1
290
     0
176
     1
 40
1.0
176
     1
 40
1.0
176
     1
  0
VISUALSTYLE
  5
2E
102
{ACAD_REACTORS
330
29
102
}
330
29
100
AcDbVisualStyle
  2
Basic
 70
     7
177
     3
291
     1
 70
    58
 90
        1
176
     1
 90
        0
176
     1
 90
        1
176
     1
 90
        0
176
     1
 40
0.6
176
     1
 40
30.0
176
     1
 62
     7
420
 16777215
176
     1
 90
        0
176
     1
 90
        4
176
     1
 62
     7
176
     1
 62
   257
176
     1
 90
        1
176
     1
 90
        1
176
     1
 40
1.0
176
     1
 90
        8
176
     1
 62
     7
176
     1
 40
1.0
176
     1
 90
        1
176
     1
 90
        6
176
     1
 90
        2
176
     1
 62
     7
176
     1
 90
        5
176
     1
 90
        0
176
     1
 90
        0
176
     1
290
     0
176
     1
 90
        1
176
     1
 40
0.0
176
     1
 90
        0
176
     1
290
     0
176
     1
290
     1
176
     1
290
     1
176
     1
290
     0
176
     1
290
     0
176
     1
290
     0
176
     1
290
     0
176
     1
290
     0
176
     1
290
     0
176
     1
 90
       50
176
     1
 40
0.0
176
     1
 40
1.0
176
     1
 90
        0
176
     1
 62
    18
420
        0
176
     1
 90
       50
176
     1
 90
        3
176
     1
 62
     5
420
      255
176
     1
290
     0
176
     1
 90
       50
176
     1
 90
       50
176
     1
 90
       50
176
     1
290
     0
176
     1
 90
       50
176
     1
 62
   256
176
     0
 40
1.0
176
     0
 90
        2
176
     1
  1
strokes_ogs.tif
176
     1
290
     0
176
     1
 40
1.0
176
     1
 40
1.0
176
     1
  0
VISUALSTYLE
  5
35
102
{ACAD_REACTORS
330
29
102
}
330
29
100
AcDbVisualStyle
  2
Brighten
 70
    12
177
     3
291
     1
 70
    58
 90
        2
176
     1
 90
        2
176
     1
 90
        0
176
     1
 90
        0
176
     1
 40
0.6
176
     1
 40
30.0
176
     1
 62
     7
420
 16777215
176
     1
 90
        1
176
     1
 90
        4
176
     1
 62
     7
176
     1
 62
   257
176
     1
 90
        1
176
     1
 90
        1
176
     1
 40
1.0
176
     1
 90
        8
176
     1
 62
     7
176
     1
 40
1.0
176
     1
 90
        1
176
     1
 90
        6
176
     1
 90
        2
176
     1
 62
     7
176
     1
 90
        5
176
     1
 90
        0
176
     1
 90
        0
176
     1
290
     0
176
     1
 90
        1
176
     1
 40
50.0
176
     1
 90
        0
176
     1
290
     0
176
     1
290
     1
176
     1
290
     1
176
     1
290
     0
176
     1
290
     0
176
     1
290
     0
176
     1
290
     0
176
     1
290
     0
176
     1
290
     0
176
     1
 90
       50
176
     1
 40
0.0
176
     1
 40
1.0
176
     1
 90
        0
176
     1
 62
    18
420
        0
176
     1
 90
       50
176
     1
 90
        3
176
     1
 62
     5
420
      255
176
     1
290
     0
176
     1
 90
       50
176
     1
 90
       50
176
     1
 90
       50
176
     1
290
     0
176
     1
 90
       50
176
     1
 62
   256
176
     0
 40
1.0
176
     0
 90
        2
176
     1
  1
strokes_ogs.tif
176
     1
290
     0
176
     1
 40
1.0
176
     1
 40
1.0
176
     1
  0
VISUALSTYLE
  5
39
102
{ACAD_REACTORS
330
29
102
}
330
29
100
AcDbVisualStyle
  2
ColorChange
 70
    16
177
     3
291
     1
 70
    58
 90
        2
176
     1
 90
        2
176
     1
 90
        3
176
     1
 90
        0
176
     1
 40
0.6
176
     1
 40
30.0
176
     1
 62
     8
420
  8421504
176
     1
 90
        1
176
     1
 90
        4
176
     1
 62
     7
176
     1
 62
   257
176
     1
 90
        1
176
     1
 90
        1
176
     1
 40
1.0
176
     1
 90
        8
176
     1
 62
     8
420
  8421504
176
     1
 40
1.0
176
     1
 90
        1
176
     1
 90
        6
176
     1
 90
        2
176
     1
 62
     7
176
     1
 90
        5
176
     1
 90
        0
176
     1
 90
        0
176
     1
290
     0
176
     1
 90
        1
176
     1
 40
0.0
176
     1
 90
        0
176
     1
290
     0
176
     1
290
     1
176
     1
290
     1
176
     1
290
     0
176
     1
290
     0
176
     1
290
     0
176
     1
290
     0
176
     1
290
     0
176
     1
290
     0
176
     1
 90
       50
176
     1
 40
0.0
176
     1
 40
1.0
176
     1
 90
        0
176
     1
 62
    18
420
        0
176
     1
 90
       50
176
     1
 90
        3
176
     1
 62
     5
420
      255
176
     1
290
     0
176
     1
 90
       50
176
     1
 90
       50
176
     1
 90
       50
176
     1
290
     0
176
     1
 90
       50
176
     1
 62
   256
176
     0
 40
1.0
176
     0
 90
        2
176
     1
  1
strokes_ogs.tif
176
     1
290
     0
176
     1
 40
1.0
176
     1
 40
1.0
176
     1
  0
VISUALSTYLE
  5
32
102
{ACAD_REACTORS
330
29
102
}
330
29
100
AcDbVisualStyle
  2
Conceptual
 70
     9
177
     3
291
     0
 70
    58
 90
        3
176
     1
 90
        2
176
     1
 90
        0
176
     1
 90
        0
176
     1
 40
0.6
176
     1
 40
30.0
176
     1
 62
     7
420
 16777215
176
     1
 90
        2
176
     1
 90
        2
176
     1
 62
     7
176
     1
 62
   257
176
     1
 90
        1
176
     1
 90
        1
176
     1
 40
179.0
176
     1
 90
        8
176
     1
 62
     7
176
     1
 40
1.0
176
     1
 90
        1
176
     1
 90
        6
176
     1
 90
        2
176
     1
 62
     7
176
     1
 90
        3
176
     1
 90
        0
176
     1
 90
        0
176
     1
290
     0
176
     1
 90
        1
176
     1
 40
0.0
176
     1
 90
        0
176
     1
290
     0
176
     1
290
     1
176
     1
290
     1
176
     1
290
     0
176
     1
290
     0
176
     1
290
     0
176
     1
290
     0
176
     1
290
     0
176
     1
290
     0
176
     1
 90
       50
176
     1
 40
0.0
176
     1
 40
1.0
176
     1
 90
        0
176
     1
 62
    18
420
        0
176
     1
 90
       50
176
     1
 90
        3
176
     1
 62
     5
420
      255
176
     1
290
     0
176
     1
 90
       50
176
     1
 90
       50
176
     1
 90
       50
176
     1
290
     0
176
     1
 90
       50
176
     1
 62
   256
176
     0
 40
1.0
176
     0
 90
        2
176
     1
  1
strokes_ogs.tif
176
     1
290
     0
176
     1
 40
1.0
176
     1
 40
1.0
176
     1
  0
VISUALSTYLE
  5
34
102
{ACAD_REACTORS
330
29
102
}
330
29
100
AcDbVisualStyle
  2
Dim
 70
    11
177
     3
291
     1
 70
    58
 90
        2
176
     1
 90
        2
176
     1
 90
        0
176
     1
 90
        0
176
     1
 40
0.6
176
     1
 40
30.0
176
     1
 62
     7
420
 16777215
176
     1
 90
        1
176
     1
 90
        4
176
     1
 62
     7
176
     1
 62
   257
176
     1
 90
        1
176
     1
 90
        1
176
     1
 40
1.0
176
     1
 90
        8
176
     1
 62
     7
176
     1
 40
1.0
176
     1
 90
        1
176
     1
 90
        6
176
     1
 90
        2
176
     1
 62
     7
176
     1
 90
        5
176
     1
 90
        0
176
     1
 90
        0
176
     1
290
     0
176
     1
 90
        1
176
     1
 40
-50.0
176
     1
 90
        0
176
     1
290
     0
176
     1
290
     1
176
     1
290
     1
176
     1
290
     0
176
     1
290
     0
176
     1
290
     0
176
     1
290
     0
176
     1
290
     0
176
     1
290
     0
176
     1
 90
       50
176
     1
 40
0.0
176
     1
 40
1.0
176
     1
 90
        0
176
     1
 62
    18
420
        0
176
     1
 90
       50
176
     1
 90
        3
176
     1
 62
     5
420
      255
176
     1
290
     0
176
     1
 90
       50
176
     1
 90
       50
176
     1
 90
       50
176
     1
290
     0
176
     1
 90
       50
176
     1
 62
   256
176
     0
 40
1.0
176
     0
 90
        2
176
     1
  1
strokes_ogs.tif
176
     1
290
     0
176
     1
 40
1.0
176
     1
 40
1.0
176
     1
  0
VISUALSTYLE
  5
41
102
{ACAD_REACTORS
330
29
102
}
330
29
100
AcDbVisualStyle
  2
EdgeColorOff
 70
    22
177
     3
291
     1
 70
    58
 90
        2
176
     0
 90
        2
176
     0
 90
        0
176
     0
 90
        0
176
     0
 40
0.6
176
     0
 40
30.0
176
     0
 62
     7
420
 16777215
176
     0
 90
        1
176
     0
 90
        4
176
     0
 62
     7
176
     0
 62
   257
176
     0
 90
        1
176
     0
 90
        1
176
     0
 40
1.0
176
     0
 90
        8
176
     2
 62
     7
176
     0
 40
1.0
176
     0
 90
        1
176
     0
 90
        6
176
     0
 90
        2
176
     0
 62
     7
176
     0
 90
        5
176
     0
 90
        0
176
     0
 90
        0
176
     0
290
     0
176
     0
 90
        1
176
     0
 40
0.0
176
     0
 90
        0
176
     0
290
     0
176
     0
290
     1
176
     0
290
     1
176
     0
290
     0
176
     0
290
     0
176
     0
290
     0
176
     0
290
     0
176
     0
290
     0
176
     0
290
     0
176
     0
 90
       50
176
     0
 40
0.0
176
     0
 40
1.0
176
     0
 90
        0
176
     0
 62
    18
420
        0
176
     0
 90
       50
176
     0
 90
        3
176
     0
 62
     5
420
      255
176
     0
290
     0
176
     0
 90
       50
176
     0
 90
       50
176
     0
 90
       50
176
     0
290
     0
176
     0
 90
       50
176
     0
 62
   256
176
     0
 40
1.0
176
     0
 90
        2
176
     0
  1
strokes_ogs.tif
176
     0
290
     0
176
     0
 40
1.0
176
     0
 40
1.0
176
     0
  0
VISUALSTYLE
  5
38
102
{ACAD_REACTORS
330
29
102
}
330
29
100
AcDbVisualStyle
  2
Facepattern
 70
    15
177
     3
291
     1
 70
    58
 90
        2
176
     1
 90
        2
176
     1
 90
        0
176
     1
 90
        0
176
     1
 40
0.6
176
     1
 40
30.0
176
     1
 62
     7
420
 16777215
176
     1
 90
        1
176
     1
 90
        4
176
     1
 62
     7
176
     1
 62
   257
176
     1
 90
        1
176
     1
 90
        1
176
     1
 40
1.0
176
     1
 90
        8
176
     1
 62
     7
176
     1
 40
1.0
176
     1
 90
        1
176
     1
 90
        6
176
     1
 90
        2
176
     1
 62
     7
176
     1
 90
        5
176
     1
 90
        0
176
     1
 90
        0
176
     1
290
     0
176
     1
 90
        1
176
     1
 40
0.0
176
     1
 90
        0
176
     1
290
     0
176
     1
290
     1
176
     1
290
     1
176
     1
290
     0
176
     1
290
     0
176
     1
290
     0
176
     1
290
     0
176
     1
290
     0
176
     1
290
     0
176
     1
 90
       50
176
     1
 40
0.0
176
     1
 40
1.0
176
     1
 90
        0
176
     1
 62
    18
420
        0
176
     1
 90
       50
176
     1
 90
        3
176
     1
 62
     5
420
      255
176
     1
290
     0
176
     1
 90
       50
176
     1
 90
       50
176
     1
 90
       50
176
     1
290
     0
176
     1
 90
       50
176
     1
 62
   256
176
     0
 40
1.0
176
     0
 90
        2
176
     1
  1
strokes_ogs.tif
176
     1
290
     0
176
     1
 40
1.0
176
     1
 40
1.0
176
     1
  0
VISUALSTYLE
  5
2A
102
{ACAD_REACTORS
330
29
102
}
330
29
100
AcDbVisualStyle
  2
Flat
 70
     0
177
     3
291
     1
 70
    58
 90
        2
176
     1
 90
        1
176
     1
 90
        1
176
     1
 90
        2
176
     1
 40
0.6
176
     1
 40
30.0
176
     1
 62
     7
420
 16777215
176
     1
 90
        0
176
     1
 90
        0
176
     1
 62
     7
176
     1
 62
   257
176
     1
 90
        1
176
     1
 90
        1
176
     1
 40
1.0
176
     1
 90
        8
176
     1
 62
     7
176
     1
 40
1.0
176
     1
 90
        1
176
     1
 90
        6
176
     1
 90
        2
176
     1
 62
     7
176
     1
 90
        5
176
     1
 90
        0
176
     1
 90
        0
176
     1
290
     0
176
     1
 90
       13
176
     1
 40
0.0
176
     1
 90
        0
176
     1
290
     0
176
     1
290
     1
176
     1
290
     1
176
     1
290
     0
176
     1
290
     0
176
     1
290
     0
176
     1
290
     0
176
     1
290
     0
176
     1
290
     0
176
     1
 90
       50
176
     1
 40
0.0
176
     1
 40
1.0
176
     1
 90
        0
176
     1
 62
    18
420
        0
176
     1
 90
       50
176
     1
 90
        3
176
     1
 62
     5
420
      255
176
     1
290
     0
176
     1
 90
       50
176
     1
 90
       50
176
     1
 90
       50
176
     1
290
     0
176
     1
 90
       50
176
     1
 62
   256
176
     0
 40
1.0
176
     0
 90
        2
176
     1
  1
strokes_ogs.tif
176
     1
290
     0
176
     1
 40
1.0
176
     1
 40
1.0
176
     1
  0
VISUALSTYLE
  5
2B
102
{ACAD_REACTORS
330
29
102
}
330
29
100
AcDbVisualStyle
  2
FlatWithEdges
 70
     1
177
     3
291
     1
 70
    58
 90
        2
176
     1
 90
        1
176
     1
 90
        1
176
     1
 90
        2
176
     1
 40
0.6
176
     1
 40
30.0
176
     1
 62
     7
420
 16777215
176
     1
 90
        1
176
     1
 90
        0
176
     1
 62
     7
176
     1
 62
   257
176
     1
 90
        1
176
     1
 90
        1
176
     1
 40
1.0
176
     1
 90
        0
176
     1
 62
   257
176
     1
 40
1.0
176
     1
 90
        1
176
     1
 90
        6
176
     1
 90
        2
176
     1
 62
     7
176
     1
 90
        5
176
     1
 90
        0
176
     1
 90
        0
176
     1
290
     0
176
     1
 90
       13
176
     1
 40
0.0
176
     1
 90
        0
176
     1
290
     0
176
     1
290
     1
176
     1
290
     1
176
     1
290
     0
176
     1
290
     0
176
     1
290
     0
176
     1
290
     0
176
     1
290
     0
176
     1
290
     0
176
     1
 90
       50
176
     1
 40
0.0
176
     1
 40
1.0
176
     1
 90
        0
176
     1
 62
    18
420
        0
176
     1
 90
       50
176
     1
 90
        3
176
     1
 62
     5
420
      255
176
     1
290
     0
176
     1
 90
       50
176
     1
 90
       50
176
     1
 90
       50
176
     1
290
     0
176
     1
 90
       50
176
     1
 62
   256
176
     0
 40
1.0
176
     0
 90
        2
176
     1
  1
strokes_ogs.tif
176
     1
290
     0
176
     1
 40
1.0
176
     1
 40
1.0
176
     1
  0
VISUALSTYLE
  5
2C
102
{ACAD_REACTORS
330
29
102
}
330
29
100
AcDbVisualStyle
  2
Gouraud
 70
     2
177
     3
291
     1
 70
    58
 90
        2
176
     1
 90
        2
176
     1
 90
        1
176
     1
 90
        2
176
     1
 40
0.6
176
     1
 40
30.0
176
     1
 62
     7
420
 16777215
176
     1
 90
        0
176
     1
 90
        0
176
     1
 62
     7
176
     1
 62
   257
176
     1
 90
        1
176
     1
 90
        1
176
     1
 40
1.0
176
     1
 90
        0
176
     1
 62
     7
176
     1
 40
1.0
176
     1
 90
        1
176
     1
 90
        6
176
     1
 90
        2
176
     1
 62
     7
176
     1
 90
        5
176
     1
 90
        0
176
     1
 90
        0
176
     1
290
     0
176
     1
 90
       13
176
     1
 40
0.0
176
     1
 90
        0
176
     1
290
     0
176
     1
290
     1
176
     1
290
     1
176
     1
290
     0
176
     1
290
     0
176
     1
290
     0
176
     1
290
     0
176
     1
290
     0
176
     1
290
     0
176
     1
 90
       50
176
     1
 40
0.0
176
     1
 40
1.0
176
     1
 90
        0
176
     1
 62
    18
420
        0
176
     1
 90
       50
176
     1
 90
        3
176
     1
 62
     5
420
      255
176
     1
290
     0
176
     1
 90
       50
176
     1
 90
       50
176
     1
 90
       50
176
     1
290
     0
176
     1
 90
       50
176
     1
 62
   256
176
     0
 40
1.0
176
     0
 90
        2
176
     1
  1
strokes_ogs.tif
176
     1
290
     0
176
     1
 40
1.0
176
     1
 40
1.0
176
     1
  0
VISUALSTYLE
  5
2D
102
{ACAD_REACTORS
330
29
102
}
330
29
100
AcDbVisualStyle
  2
GouraudWithEdges
 70
     3
177
     3
291
     1
 70
    58
 90
        2
176
     1
 90
        2
176
     1
 90
        1
176
     1
 90
        2
176
     1
 40
0.6
176
     1
 40
30.0
176
     1
 62
     7
420
 16777215
176
     1
 90
        1
176
     1
 90
        0
176
     1
 62
     7
176
     1
 62
   257
176
     1
 90
        1
176
     1
 90
        1
176
     1
 40
1.0
176
     1
 90
        0
176
     1
 62
   257
176
     1
 40
1.0
176
     1
 90
        1
176
     1
 90
        6
176
     1
 90
        2
176
     1
 62
     7
176
     1
 90
        5
176
     1
 90
        0
176
     1
 90
        0
176
     1
290
     0
176
     1
 90
       13
176
     1
 40
0.0
176
     1
 90
        0
176
     1
290
     0
176
     1
290
     1
176
     1
290
     1
176
     1
290
     0
176
     1
290
     0
176
     1
290
     0
176
     1
290
     0
176
     1
290
     0
176
     1
290
     0
176
     1
 90
       50
176
     1
 40
0.0
176
     1
 40
1.0
176
     1
 90
        0
176
     1
 62
    18
420
        0
176
     1
 90
       50
176
     1
 90
        3
176
     1
 62
     5
420
      255
176
     1
290
     0
176
     1
 90
       50
176
     1
 90
       50
176
     1
 90
       50
176
     1
290
     0
176
     1
 90
       50
176
     1
 62
   256
176
     0
 40
1.0
176
     0
 90
        2
176
     1
  1
strokes_ogs.tif
176
     1
290
     0
176
     1
 40
1.0
176
     1
 40
1.0
176
     1
  0
VISUALSTYLE
  5
31
102
{ACAD_REACTORS
330
29
102
}
330
29
100
AcDbVisualStyle
  2
Hidden
 70
     6
177
     3
291
     0
 70
    58
 90
        1
176
     1
 90
        2
176
     1
 90
        2
176
     1
 90
        0
176
     1
 40
0.6
176
     1
 40
30.0
176
     1
 62
     7
420
 16777215
176
     1
 90
        2
176
     1
 90
        2
176
     1
 62
     7
176
     1
 62
   257
176
     1
 90
        2
176
     1
 90
        1
176
     1
 40
40.0
176
     1
 90
        0
176
     1
 62
   257
176
     1
 40
1.0
176
     1
 90
        1
176
     1
 90
        6
176
     1
 90
        2
176
     1
 62
     7
176
     1
 90
        3
176
     1
 90
        0
176
     1
 90
        0
176
     1
290
     0
176
     1
 90
        1
176
     1
 40
0.0
176
     1
 90
        0
176
     1
290
     0
176
     1
290
     1
176
     1
290
     1
176
     1
290
     0
176
     1
290
     0
176
     1
290
     0
176
     1
290
     0
176
     1
290
     0
176
     1
290
     0
176
     1
 90
       50
176
     1
 40
0.0
176
     1
 40
1.0
176
     1
 90
        0
176
     1
 62
    18
420
        0
176
     1
 90
       50
176
     1
 90
        3
176
     1
 62
     5
420
      255
176
     1
290
     0
176
     1
 90
       50
176
     1
 90
       50
176
     1
 90
       50
176
     1
290
     0
176
     1
 90
       50
176
     1
 62
   256
176
     0
 40
1.0
176
     0
 90
        2
176
     1
  1
strokes_ogs.tif
176
     1
290
     0
176
     1
 40
1.0
176
     1
 40
1.0
176
     1
  0
VISUALSTYLE
  5
3F
102
{ACAD_REACTORS
330
29
102
}
330
29
100
AcDbVisualStyle
  2
JitterOff
 70
    20
177
     3
291
     1
 70
    58
 90
        2
176
     0
 90
        2
176
     0
 90
        0
176
     0
 90
        0
176
     0
 40
0.6
176
     0
 40
30.0
176
     0
 62
     7
420
 16777215
176
     0
 90
        1
176
     0
 90
        4
176
     0
 62
     7
176
     0
 62
   257
176
     0
 90
        1
176
     0
 90
        1
176
     0
 40
1.0
176
     0
 90
       10
176
     2
 62
     7
176
     0
 40
1.0
176
     0
 90
        1
176
     0
 90
        6
176
     0
 90
        2
176
     0
 62
     7
176
     0
 90
        5
176
     0
 90
        0
176
     0
 90
        0
176
     0
290
     0
176
     0
 90
        1
176
     0
 40
0.0
176
     0
 90
        0
176
     0
290
     0
176
     0
290
     1
176
     0
290
     1
176
     0
290
     0
176
     0
290
     0
176
     0
290
     0
176
     0
290
     0
176
     0
290
     0
176
     0
290
     0
176
     0
 90
       50
176
     0
 40
0.0
176
     0
 40
1.0
176
     0
 90
        0
176
     0
 62
    18
420
        0
176
     0
 90
       50
176
     0
 90
        3
176
     0
 62
     5
420
      255
176
     0
290
     0
176
     0
 90
       50
176
     0
 90
       50
176
     0
 90
       50
176
     0
290
     0
176
     0
 90
       50
176
     0
 62
   256
176
     0
 40
1.0
176
     0
 90
        2
176
     0
  1
strokes_ogs.tif
176
     0
290
     0
176
     0
 40
1.0
176
     0
 40
1.0
176
     0
  0
VISUALSTYLE
  5
37
102
{ACAD_REACTORS
330
29
102
}
330
29
100
AcDbVisualStyle
  2
Linepattern
 70
    14
177
     3
291
     1
 70
    58
 90
        2
176
     1
 90
        2
176
     1
 90
        0
176
     1
 90
        0
176
     1
 40
0.6
176
     1
 40
30.0
176
     1
 62
     7
420
 16777215
176
     1
 90
        1
176
     1
 90
        4
176
     1
 62
     7
176
     1
 62
   257
176
     1
 90
        7
176
     1
 90
        7
176
     1
 40
1.0
176
     1
 90
        8
176
     1
 62
     7
176
     1
 40
1.0
176
     1
 90
        1
176
     1
 90
        6
176
     1
 90
        2
176
     1
 62
     7
176
     1
 90
        5
176
     1
 90
        0
176
     1
 90
        0
176
     1
290
     0
176
     1
 90
        1
176
     1
 40
0.0
176
     1
 90
        0
176
     1
290
     0
176
     1
290
     1
176
     1
290
     1
176
     1
290
     0
176
     1
290
     0
176
     1
290
     0
176
     1
290
     0
176
     1
290
     0
176
     1
290
     0
176
     1
 90
       50
176
     1
 40
0.0
176
     1
 40
1.0
176
     1
 90
        0
176
     1
 62
    18
420
        0
176
     1
 90
       50
176
     1
 90
        3
176
     1
 62
     5
420
      255
176
     1
290
     0
176
     1
 90
       50
176
     1
 90
       50
176
     1
 90
       50
176
     1
290
     0
176
     1
 90
       50
176
     1
 62
   256
176
     0
 40
1.0
176
     0
 90
        2
176
     1
  1
strokes_ogs.tif
176
     1
290
     0
176
     1
 40
1.0
176
     1
 40
1.0
176
     1
  0
VISUALSTYLE
  5
40
102
{ACAD_REACTORS
330
29
102
}
330
29
100
AcDbVisualStyle
  2
OverhangOff
 70
    21
177
     3
291
     1
 70
    58
 90
        2
176
     0
 90
        2
176
     0
 90
        0
176
     0
 90
        0
176
     0
 40
0.6
176
     0
 40
30.0
176
     0
 62
     7
420
 16777215
176
     0
 90
        1
176
     0
 90
        4
176
     0
 62
     7
176
     0
 62
   257
176
     0
 90
        1
176
     0
 90
        1
176
     0
 40
1.0
176
     0
 90
        9
176
     2
 62
     7
176
     0
 40
1.0
176
     0
 90
        1
176
     0
 90
        6
176
     0
 90
        2
176
     0
 62
     7
176
     0
 90
        5
176
     0
 90
        0
176
     0
 90
        0
176
     0
290
     0
176
     0
 90
        1
176
     0
 40
0.0
176
     0
 90
        0
176
     0
290
     0
176
     0
290
     1
176
     0
290
     1
176
     0
290
     0
176
     0
290
     0
176
     0
290
     0
176
     0
290
     0
176
     0
290
     0
176
     0
290
     0
176
     0
 90
       50
176
     0
 40
0.0
176
     0
 40
1.0
176
     0
 90
        0
176
     0
 62
    18
420
        0
176
     0
 90
       50
176
     0
 90
        3
176
     0
 62
     5
420
      255
176
     0
290
     0
176
     0
 90
       50
176
     0
 90
       50
176
     0
 90
       50
176
     0
290
     0
176
     0
 90
       50
176
     0
 62
   256
176
     0
 40
1.0
176
     0
 90
        2
176
     0
  1
strokes_ogs.tif
176
     0
290
     0
176
     0
 40
1.0
176
     0
 40
1.0
176
     0
  0
VISUALSTYLE
  5
33
102
{ACAD_REACTORS
330
29
102
}
330
29
100
AcDbVisualStyle
  2
Realistic
 70
     8
177
     3
291
     0
 70
    58
 90
        2
176
     1
 90
        3
176
     1
 90
        0
176
     1
 90
        2
176
     1
 40
0.6
176
     1
 40
30.0
176
     1
 62
     7
420
 16777215
176
     1
 90
        0
176
     1
 90
        0
176
     1
 62
     7
176
     1
 62
   257
176
     1
 90
        1
176
     1
 90
        1
176
     1
 40
1.0
176
     1
 90
        8
176
     1
 62
   257
176
     1
 40
1.0
176
     1
 90
        1
176
     1
 90
        6
176
     1
 90
        2
176
     1
 62
     7
176
     1
 90
        3
176
     1
 90
        0
176
     1
 90
        0
176
     1
290
     0
176
     1
 90
       13
176
     1
 40
0.0
176
     1
 90
        0
176
     1
290
     0
176
     1
290
     1
176
     1
290
     1
176
     1
290
     0
176
     1
290
     0
176
     1
290
     0
176
     1
290
     0
176
     1
290
     0
176
     1
290
     0
176
     1
 90
       50
176
     1
 40
0.0
176
     1
 40
1.0
176
     1
 90
        0
176
     1
 62
    18
420
        0
176
     1
 90
       50
176
     1
 90
        3
176
     1
 62
     5
420
      255
176
     1
290
     0
176
     1
 90
       50
176
     1
 90
       50
176
     1
 90
       50
176
     1
290
     0
176
     1
 90
       50
176
     1
 62
   256
176
     0
 40
1.0
176
     0
 90
        2
176
     1
  1
strokes_ogs.tif
176
     1
290
     0
176
     1
 40
1.0
176
     1
 40
1.0
176
     1
  0
VISUALSTYLE
  5
3E
102
{ACAD_REACTORS
330
29
102
}
330
29
100
AcDbVisualStyle
  2
Shaded
 70
    27
177
     3
291
     0
 70
    58
 90
        2
176
     1
 90
        2
176
     1
 90
        1
176
     1
 90
        2
176
     1
 40
0.6
176
     1
 40
30.0
176
     1
 62
     7
420
 16777215
176
     1
 90
        0
176
     1
 90
        4
176
     1
 62
     7
176
     1
 62
   257
176
     1
 90
        1
176
     1
 90
        1
176
     1
 40
1.0
176
     1
 90
        8
176
     1
 62
   257
176
     1
 40
1.0
176
     1
 90
        1
176
     1
 90
        6
176
     1
 90
        2
176
     1
 62
     8
420
  7895160
176
     1
 90
        3
176
     1
 90
        0
176
     1
 90
        0
176
     1
290
     0
176
     1
 90
        5
176
     1
 40
0.0
176
     1
 90
        0
176
     1
290
     0
176
     1
290
     1
176
     1
290
     1
176
     1
290
     0
176
     1
290
     0
176
     1
290
     0
176
     1
290
     0
176
     1
290
     0
176
     1
290
     0
176
     1
 90
       50
176
     1
 40
0.0
176
     1
 40
1.0
176
     1
 90
        0
176
     1
 62
    18
420
        0
176
     1
 90
       50
176
     1
 90
        3
176
     1
 62
     5
420
      255
176
     1
290
     0
176
     1
 90
       50
176
     1
 90
       50
176
     1
 90
       50
176
     1
290
     0
176
     1
 90
       50
176
     1
 62
   256
176
     0
 40
1.0
176
     0
 90
        2
176
     1
  1
strokes_ogs.tif
176
     1
290
     0
176
     1
 40
1.0
176
     1
 40
1.0
176
     1
  0
VISUALSTYLE
  5
3D
102
{ACAD_REACTORS
330
29
102
}
330
29
100
AcDbVisualStyle
  2
Shaded with edges
 70
    26
177
     3
291
     0
 70
    58
 90
        2
176
     1
 90
        2
176
     1
 90
        1
176
     1
 90
        2
176
     1
 40
0.6
176
     1
 40
30.0
176
     1
 62
     7
420
 16777215
176
     1
 90
        1
176
     1
 90
       10
176
     1
 62
     7
176
     1
 62
   257
176
     1
 90
        2
176
     1
 90
        1
176
     1
 40
1.0
176
     1
 90
        8
176
     1
 62
   257
176
     1
 40
1.0
176
     1
 90
        1
176
     1
 90
        6
176
     1
 90
        2
176
     1
 62
     7
176
     1
 90
        3
176
     1
 90
        0
176
     1
 90
        0
176
     1
290
     0
176
     1
 90
        5
176
     1
 40
0.0
176
     1
 90
        0
176
     1
290
     0
176
     1
290
     1
176
     1
290
     1
176
     1
290
     0
176
     1
290
     0
176
     1
290
     0
176
     1
290
     0
176
     1
290
     0
176
     1
290
     0
176
     1
 90
       50
176
     1
 40
0.0
176
     1
 40
1.0
176
     1
 90
        0
176
     1
 62
    18
420
        0
176
     1
 90
       50
176
     1
 90
        3
176
     1
 62
     5
420
      255
176
     1
290
     0
176
     1
 90
       50
176
     1
 90
       50
176
     1
 90
       50
176
     1
290
     0
176
     1
 90
       50
176
     1
 62
   256
176
     0
 40
1.0
176
     0
 90
        2
176
     1
  1
strokes_ogs.tif
176
     1
290
     0
176
     1
 40
1.0
176
     1
 40
1.0
176
     1
  0
VISUALSTYLE
  5
3A
102
{ACAD_REACTORS
330
29
102
}
330
29
100
AcDbVisualStyle
  2
Shades of Gray
 70
    23
177
     3
291
     0
 70
    58
 90
        2
176
     1
 90
        2
176
     1
 90
        3
176
     1
 90
        0
176
     1
 40
0.6
176
     1
 40
30.0
176
     1
 62
     7
420
 16777215
176
     1
 90
        2
176
     1
 90
        2
176
     1
 62
     7
176
     1
 62
     7
176
     1
 90
        1
176
     1
 90
        1
176
     1
 40
40.0
176
     1
 90
        8
176
     1
 62
     7
176
     1
 40
1.0
176
     1
 90
        1
176
     1
 90
        6
176
     1
 90
        2
176
     1
 62
     7
176
     1
 90
        3
176
     1
 90
        0
176
     1
 90
        0
176
     1
290
     0
176
     1
 90
        1
176
     1
 40
0.0
176
     1
 90
        0
176
     1
290
     0
176
     1
290
     1
176
     1
290
     1
176
     1
290
     0
176
     1
290
     0
176
     1
290
     0
176
     1
290
     0
176
     1
290
     0
176
     1
290
     0
176
     1
 90
       50
176
     1
 40
0.0
176
     1
 40
1.0
176
     1
 90
        0
176
     1
 62
    18
420
        0
176
     1
 90
       50
176
     1
 90
        3
176
     1
 62
     5
420
      255
176
     1
290
     0
176
     1
 90
       50
176
     1
 90
       50
176
     1
 90
       50
176
     1
290
     0
176
     1
 90
       50
176
     1
 62
   256
176
     0
 40
1.0
176
     0
 90
        2
176
     1
  1
strokes_ogs.tif
176
     1
290
     0
176
     1
 40
1.0
176
     1
 40
1.0
176
     1
  0
VISUALSTYLE
  5
3B
102
{ACAD_REACTORS
330
29
102
}
330
29
100
AcDbVisualStyle
  2
Sketchy
 70
    24
177
     3
291
     0
 70
    58
 90
        1
176
     1
 90
        2
176
     1
 90
        2
176
     1
 90
        0
176
     1
 40
0.6
176
     1
 40
30.0
176
     1
 62
     7
420
 16777215
176
     1
 90
        2
176
     1
 90
        2
176
     1
 62
     7
176
     1
 62
     7
176
     1
 90
        1
176
     1
 90
        1
176
     1
 40
40.0
176
     1
 90
       11
176
     1
 62
     7
176
     1
 40
1.0
176
     1
 90
        1
176
     1
 90
        6
176
     1
 90
        2
176
     1
 62
     7
176
     1
 90
        6
176
     1
 90
        0
176
     1
 90
        0
176
     1
290
     0
176
     1
 90
        1
176
     1
 40
0.0
176
     1
 90
        0
176
     1
290
     0
176
     1
290
     1
176
     1
290
     1
176
     1
290
     0
176
     1
290
     0
176
     1
290
     0
176
     1
290
     0
176
     1
290
     0
176
     1
290
     0
176
     1
 90
       50
176
     1
 40
0.0
176
     1
 40
1.0
176
     1
 90
        0
176
     1
 62
    18
420
        0
176
     1
 90
       50
176
     1
 90
        3
176
     1
 62
     5
420
      255
176
     1
290
     0
176
     1
 90
       50
176
     1
 90
       50
176
     1
 90
       50
176
     1
290
     0
176
     1
 90
       50
176
     1
 62
   256
176
     0
 40
1.0
176
     0
 90
        2
176
     1
  1
strokes_ogs.tif
176
     1
290
     0
176
     1
 40
1.0
176
     1
 40
1.0
176
     1
  0
VISUALSTYLE
  5
36
102
{ACAD_REACTORS
330
29
102
}
330
29
100
AcDbVisualStyle
  2
Thicken
 70
    13
177
     3
291
     1
 70
    58
 90
        2
176
     1
 90
        2
176
     1
 90
        0
176
     1
 90
        0
176
     1
 40
0.6
176
     1
 40
30.0
176
     1
 62
     7
420
 16777215
176
     1
 90
        1
176
     1
 90
        4
176
     1
 62
     7
176
     1
 62
   257
176
     1
 90
        1
176
     1
 90
        1
176
     1
 40
1.0
176
     1
 90
       12
176
     1
 62
     7
176
     1
 40
1.0
176
     1
 90
        1
176
     1
 90
        6
176
     1
 90
        2
176
     1
 62
     7
176
     1
 90
        5
176
     1
 90
        0
176
     1
 90
        0
176
     1
290
     0
176
     1
 90
        1
176
     1
 40
0.0
176
     1
 90
        0
176
     1
290
     0
176
     1
290
     1
176
     1
290
     1
176
     1
290
     0
176
     1
290
     0
176
     1
290
     0
176
     1
290
     0
176
     1
290
     0
176
     1
290
     0
176
     1
 90
       50
176
     1
 40
0.0
176
     1
 40
1.0
176
     1
 90
        0
176
     1
 62
    18
420
        0
176
     1
 90
       50
176
     1
 90
        3
176
     1
 62
     5
420
      255
176
     1
290
     0
176
     1
 90
       50
176
     1
 90
       50
176
     1
 90
       50
176
     1
290
     0
176
     1
 90
       50
176
     1
 62
   256
176
     0
 40
1.0
176
     0
 90
        2
176
     1
  1
strokes_ogs.tif
176
     1
290
     0
176
     1
 40
1.0
176
     1
 40
1.0
176
     1
  0
VISUALSTYLE
  5
30
102
{ACAD_REACTORS
330
29
102
}
330
29
100
AcDbVisualStyle
  2
Wireframe
 70
     5
177
     3
291
     0
 70
    58
 90
        0
176
     1
 90
        2
176
     1
 90
        0
176
     1
 90
        0
176
     1
 40
0.6
176
     1
 40
30.0
176
     1
 62
     7
420
 16777215
176
     1
 90
        1
176
     1
 90
        4
176
     1
 62
     7
176
     1
 62
   257
176
     1
 90
        1
176
     1
 90
        1
176
     1
 40
1.0
176
     1
 90
        0
176
     1
 62
   257
176
     1
 40
1.0
176
     1
 90
        1
176
     1
 90
        6
176
     1
 90
        2
176
     1
 62
     7
176
     1
 90
        3
176
     1
 90
        0
176
     1
 90
        0
176
     1
290
     0
176
     1
 90
        1
176
     1
 40
0.0
176
     1
 90
        0
176
     1
290
     0
176
     1
290
     1
176
     1
290
     1
176
     1
290
     0
176
     1
290
     0
176
     1
290
     0
176
     1
290
     0
176
     1
290
     0
176
     1
290
     0
176
     1
 90
       50
176
     1
 40
0.0
176
     1
 40
1.0
176
     1
 90
        0
176
     1
 62
    18
420
        0
176
     1
 90
       50
176
     1
 90
        3
176
     1
 62
     5
420
      255
176
     1
290
     0
176
     1
 90
       50
176
     1
 90
       50
176
     1
 90
       50
176
     1
290
     0
176
     1
 90
       50
176
     1
 62
   256
176
     0
 40
1.0
176
     0
 90
        2
176
     1
  1
strokes_ogs.tif
176
     1
290
     0
176
     1
 40
1.0
176
     1
 40
1.0
176
     1
  0
VISUALSTYLE
  5
3C
102
{ACAD_REACTORS
330
29
102
}
330
29
100
AcDbVisualStyle
  2
X-Ray
 70
    25
177
     3
291
     0
 70
    58
 90
        2
176
     1
 90
        2
176
     1
 90
        1
176
     1
 90
        1
176
     1
 40
0.5
176
     1
 40
30.0
176
     1
 62
     7
420
 16777215
176
     1
 90
        1
176
     1
 90
        0
176
     1
 62
     7
176
     1
 62
   257
176
     1
 90
        1
176
     1
 90
        1
176
     1
 40
1.0
176
     1
 90
        8
176
     1
 62
     7
176
     1
 40
1.0
176
     1
 90
        1
176
     1
 90
        6
176
     1
 90
        2
176
     1
 62
     7
176
     1
 90
        3
176
     1
 90
        0
176
     1
 90
        0
176
     1
290
     0
176
     1
 90
       13
176
     1
 40
0.0
176
     1
 90
        0
176
     1
290
     0
176
     1
290
     1
176
     1
290
     1
176
     1
290
     0
176
     1
290
     0
176
     1
290
     0
176
     1
290
     0
176
     1
290
     0
176
     1
290
     0
176
     1
 90
       50
176
     1
 40
0.0
176
     1
 40
1.0
176
     1
 90
        0
176
     1
 62
    18
420
        0
176
     1
 90
       50
176
     1
 90
        3
176
     1
 62
     5
420
      255
176
     1
290
     0
176
     1
 90
       50
176
     1
 90
       50
176
     1
 90
       50
176
     1
290
     0
176
     1
 90
       50
176
     1
 62
   256
176
     0
 40
1.0
176
     0
 90
        2
176
     1
  1
strokes_ogs.tif
176
     1
290
     0
176
     1
 40
1.0
176
     1
 40
1.0
176
     1
  0
DICTIONARYVAR
  5
329
102
{ACAD_REACTORS
330
324
102
}
330
324
100
DictionaryVariables
280
     0
  1
1:1
  0
DICTIONARYVAR
  5
326
102
{ACAD_REACTORS
330
324
102
}
330
324
100
DictionaryVariables
280
     0
  1
STANDARD
  0
DICTIONARYVAR
  5
325
102
{ACAD_REACTORS
330
324
102
}
330
324
100
DictionaryVariables
280
     0
  1
STANDARD
  0
DICTIONARYVAR
  5
327
102
{ACAD_REACTORS
330
324
102
}
330
324
100
DictionaryVariables
280
     0
  1
Imperial24
  0
DICTIONARYVAR
  5
328
102
{ACAD_REACTORS
330
324
102
}
330
324
100
DictionaryVariables
280
     0
  1
Imperial24
  0
DICTIONARY
  5
32E
330
6B
100
AcDbDictionary
280
     1
281
     1
  3
ACAD_XREC_ROUNDTRIP
360
32F
  0
DICTIONARY
  5
1A
330
19
100
AcDbDictionary
280
     1
281
     1
  3
BUMPTILE
360
1C
  3
DIFFUSETILE
360
1B
  3
OPACITYTILE
360
1F
  3
REFLECTIONTILE
360
1E
  3
REFRACTIONTILE
360
20
  3
SPECULARTILE
360
1D
  0
DICTIONARY
  5
12
330
11
100
AcDbDictionary
280
     1
281
     1
  3
BUMPTILE
360
14
  3
DIFFUSETILE
360
13
  3
FBXASSET
360
E8
  3
OPACITYTILE
360
17
  3
REFLECTIONTILE
360
16
  3
REFRACTIONTILE
360
18
  3
SPECULARTILE
360
15
  0
DICTIONARY
  5
22
330
21
100
AcDbDictionary
280
     1
281
     1
  3
BUMPTILE
360
24
  3
DIFFUSETILE
360
23
  3
OPACITYTILE
360
27
  3
REFLECTIONTILE
360
26
  3
REFRACTIONTILE
360
28
  3
SPECULARTILE
360
25
  0
DICTIONARY
  5
32C
330
69
100
AcDbDictionary
280
     1
281
     1
  3
ACAD_XREC_ROUNDTRIP
360
32D
  0
DICTIONARY
  5
32A
330
65
100
AcDbDictionary
280
     1
281
     1
  3
ACAD_ROUNDTRIP_2008_TABLESTYLE_CELLSTYLEMAP
360
32B
  0
XRECORD
  5
32F
102
{ACAD_REACTORS
330
32E
102
}
330
32E
100
AcDbXrecord
280
     1
102
DISPLAYNAME
  1
Imperial24
102
FLAGS
 90
        0
  0
XRECORD
  5
1C
102
{ACAD_REACTORS
330
1A
102
}
330
1A
100
AcDbXrecord
280
     1
270
     1
271
     1
  0
XRECORD
  5
1B
102
{ACAD_REACTORS
330
1A
102
}
330
1A
100
AcDbXrecord
280
     1
270
     1
271
     1
  0
XRECORD
  5
1F
102
{ACAD_REACTORS
330
1A
102
}
330
1A
100
AcDbXrecord
280
     1
270
     1
271
     1
  0
XRECORD
  5
1E
102
{ACAD_REACTORS
330
1A
102
}
330
1A
100
AcDbXrecord
280
     1
270
     1
271
     1
  0
XRECORD
  5
20
102
{ACAD_REACTORS
330
1A
102
}
330
1A
100
AcDbXrecord
280
     1
270
     1
271
     1
  0
XRECORD
  5
1D
102
{ACAD_REACTORS
330
1A
102
}
330
1A
100
AcDbXrecord
280
     1
270
     1
271
     1
  0
XRECORD
  5
14
102
{ACAD_REACTORS
330
12
102
}
330
12
100
AcDbXrecord
280
     1
270
     1
271
     1
  0
XRECORD
  5
13
102
{ACAD_REACTORS
330
12
102
}
330
12
100
AcDbXrecord
280
     1
270
     1
271
     1
  0
XRECORD
  5
E8
102
{ACAD_REACTORS
330
12
102
}
330
12
100
AcDbXrecord
280
     1
 70
     1
 90
1959938040
 71
     1
  1
C6D7165B-412D-4A6D-8F23-46F899634310
311
504B03041400060808004E783E4CB21EC361FA000000A80100004F00000045433642394137322D314335322D344142312D414345312D3433364643353530433531322F4173736574446174612F446566696E6974696F6E4974657261746F7250726F706572746965732E62696EBD50BB4EC430103434888282E27A0A5AE347
311
6C274142C88F84069AE3039009E62E52923BC589D07557F2D7B0D6855F60A559AFC6BB3B637F23847E9680129D018E90AFE07C0A4318DBE6B5D986DEA30B60CCE1D91FC2780B25CF5DAD0B5D60C9798185CA0D3656E7D8945A59CA69A54A770E7D69CC854F3F7753DAF9D2C626749D1FC26E8ED7402C2237BD9F40CC777769
311
E812A57C0420F47711D3A6CDC95272F905F01FFBFB471F63981E48651568E71C332B3916DA30AC6DC5B0C8546DA5A456324ED621EEE6B1099158E572A6A4C1827107EDCAE1A2E619BCA42ECA52652263944CDBF4352B509AFBF7C1B71DA164B1F0B61F36C0FF57FC02504B03041400060808004E783E4C96D001F908010000
311
300200004500000045433642394137322D314335322D344142312D414345312D3433364643353530433531322F4173736574446174612F496E7374616E636550726F706572746965732E62696EEB606060F80F0540260323103700495E20ED9E9A975A94991C9C9C919A9BA802147036733137343375D235313472D1357134
311
73D1B5703332D6353173B3B0B4343336313634604768046931363471713532B5D435353101293432D475727372D13534373670367376B67474B5042A03DBCBA019D37FE8ABC6157B20CD04146B0062181F4C03F940F0C11EA29A8141C08141002C0426541C106CAC2CA046088033B02A030AC2157C6006F21A8018AAF50194
311
E6010A610250382264E08660284CD9E98021862280A91564B406929A0FF62C401E28B6F88038B83CB1243943D7A928312F2535052423B0DF19E47486030B258EFC03C6C982935E603EC81C1080892B1CC32E9E80433D00504B03041400060808004E783E4C88E57597CD3F0000904100006B00000045433642394137322D31
311
4335322D344142312D414345312D3433364643353530433531322F5265736F75726365732F43364437313635422D343132442D344136442D384632332D3436463839393633343331302F7468756D626E61696C2F302F67656E657269635F706E67355B773CD4FF1FBF73E71C0E67EF7576C9DEF3EC995D46C6A1EC5046649C
311
BDF79E192942562825CE965D8A868C2842C8DE9FDFD1F7E7F138F7078FCF6B3F5FCFD7EBFDFEC41B196891913091804020321D6D7513FC77D8C5070EC3FFEE51B21F068154CC75D455CC028A3EA68992803810109FDDE5D5CEC5521B28A1B422BF80741695D5B529DA1C2D058AD2388BDA9F476F7C2CADC939304173DBF48A
311
452BF8A700C0C70C3D121C1AA15A5270C22E2B9E28763651F7DA0D12CE11077B2ECD0D560B5E3DE2368B1E65C5E1C87384A4CC5F2D9FB8BE39E9B77C753783A37998F5CEF1B4FEE553463245C9712270880DF339E0B882A6BA713D865F6F384C842D440934EF264F4A304F8DE4EEFA1E2BF5E2D91F5ADD9613D6E31DDB33ED
311
31DB1D7916CAF091286EA3D31B9CFECB78BB0060245B943C4C040119FF780A74DD308BA9D028678674EB5504ECF284EE814DAED07440BAF649BE4B55DA2890F4D73E2D489A59EE54FDB0A85B59F2F52C4858A02705C4815A792B0C4A996A2023ECB195073E115E3E3647F64243A8338F2000BCB58DA5692C7E7C3D413F963F
311
EDF3CF00FBB0F831A9D51360FECA43819F527B89FA260EB63C5DA676830AA3626A3693B23F1A17A0DFFCE3EE164E31B5365EDF0C89EF64D8E38AB0BA9A1117D7C3A0EC44F44F4023095E80BA610DE336D0F99593A88BFC5306E72DF98F7FD132ED95878DF2964EA7E43071359FD83B2BDF9C6B5BDF768F0F3C0FC351199526
311
F53D9460A34511F75D1B63E488178569472C91A94497807A3FD4A390C6558F26D416365C3656DE6E769DA9D8FC73774E1709812842DD8EF96AED1960F79D21B395CDDFE6F92CB4EB962A4668C76990E2EF29798C8941D67DA50F4A5F947872460F1F6FDB794E8A29FD7AC0C0D6E0714339CE258FB17AE8535221E3464A10F2
311
9A0BE5EEECEFC5675926A89F49EB14E5711894F6586DB5754EB4D5DA9C6437EBA57DB97A24F8B8A8DB295FFD73266CF57E82694DF5166DDF93573AFE9C9C5EB05F8FEF8E89E0A8917B0B3724DB7BEBB53252581EFC3E38166BA131A3A5B42FE2AD00A769BBFA4458D2DE7822F8C4F63D0B8E21B285AE13325F3410A435C648
311
C9D91FDEB109E73CEDA7BC796961AF79175E1A3CE4C5E8B0D009B0C9E29EFD98BC8E97554E3D8D838424E270F7685226E5AC268E021EDE3522D583E8F20C0BDE2959EF5BBFEEDAB32FE9A3ED0E39F211A86AA9DEBFC68182EDED132AB8BB794442D2D7EA9F4D8BFF52BC4D55BB165124EE90A42D101E67BBBB292FFB4F66DE
311
5BF2300E44546757DA7CEF8932BFC9F92A0707953491A55C5A5ACEDABD9FA1AEA01BAC3DC5A24E22E7C47213493996EFBC369D086ED9397C9BA6C7F9855C7BD5E15BFC8C53DB3D2A4C5901A57ACD2FBDF4D1676E95338B2C2BCE65FDA4C64F5FEFDC7D9CA5AA1FCF11E193F2FDABF0F4916BF13FB916A224380E6462A9815F
311
2300DC49CC4DF8D055CEF76462F4B7A7ACA7365C2707891370BC1D0AA6203C44CCAB47084FEC057F27FFCD57F89B8B9852459798A675C66BD7CE572CAF71FF7E6D7ECF7BF62CAB7B3F1107DCD04DC55A3F9961700286141C94A4F771FEB2BCDA2DDEE0CB0BAE402FF1DB0100F8E475DFFFC074DDB4498AB7D186A7654DDB1C
311
B680D703D47CEB4E72F8CB13D86A4AA68116E26387B93FD6738779B34FEDB8E517EDF2BAF28D9BE93A1D3A164320E07D42E514725C29515FF361754213EDE06B079A2E99EB1CA82A02019EADEEB87B9AF005BD04BBCECB14AACD6B24EFBE482194A97DD32400685FF1FEF1544D1B14EFB1E7F08E6D2CD2AF52DE757F35F5E6
311
2332EE88EA26417AD5C3E0E319D68F25414E6D672BD4522B278C57D18F0113921C71D96527E091F00CEB15AE23D24667369BD3CEFA10C7549D930890BA4366F4EBC55F01F746109F98ABCDD5A3EE06619C6AD78AB33E48E4C9BD21BF7478B385EC05C4F8987E2C1BFA0A60EBEDAA0AE0B015C2720ECE180FB6F2DEFBEB822D
311
96338C9B63822183BBF52FB664A7AE57003AABCE512BF77E7E31BDA2E739AC4C131657DDFE5225E900FB56CC01CDE808FA4A9C9DA16AC679656BB64796283D89812B8F91136AE18EE5EBBAF47A73BE3C153EB5D4CD491B4BFB4FE690A4CF9ABA08C0D8AA64220C438C96EA6CA80B58FE5761E697B3A292EB9FBDA502FA863E
311
49FE694ADDFFF9D62C520BDD1A22014147A0903A05B9B729F54272EF83931FEEC057BFF8C8055C279EAC5C0011804828734024F6CFA319C9CC6867C727184465CD9BB7ED386AFFD96B294A85E3802FAE47244602D8273615952B98C4F23F7EAE4463D9D638EEE374A20959E0FE519C4CFB0FBFE5DD80C2AA3F9DB961D1BDE5
311
7E67C9BB47B77FDD74EE3094F5DBBE3EBC1FBDB7393F5116263009E2EFE1AF9A221B2AE234C902BF70E9F280ED23E73908361565964333A3F01D0B006AF32FB21AA1316744B489D5A198E85299241735BE559675130955C902A8ED761FC0DBE337A9F91919AF5CE32AF902ADF9AB2615E00E8A94586BA1A90839B61832FF1B
311
FB76D2EFADE6DB1BA04CCAD3DA649E7E2A0219F592E22F2AD54847EEA8E42271011E9074F8F3DD9FBA6CDF88FFC9FC7E811AD1CA8F4557CE4AFC7BBEDCF0114A48689F20A584520C74DA8127124B767E2FB91A6B186246727BE63C9445BAE02088D58B8EFDC0F1072407CD9B89A13F6303B4A928F593AD489B58E686932579
311
0ADC406036C591729FE14021F94B7796BB11848D463536A092A26F077F94639F7CEEE2A724C66EC885F4A24F8B8A0AC321F8FD149BA529460FAA34E4663C02D41FDF80BCA222D42F0ABFF8490F4FA74C673807C2051D8E467B47B616072860069A9A303ABA9B319D58404461401B0A0F9BE5E1E151C14BC33B32ABE03DDE91
311
708DFAEB15E7C0D593C86BB7D7EC17BE56E57975F077BFD5525F3A1A361D584A75E08CF29FC7B44B2B3085014F3A5A14517377C3F6B8F37E59514C3B12F8AACDEDDA4DFC49BE5710101534CD6FB6DE15B50F11A09472AABA727F0C49D9CB906B158030065F48EB3625E010CEC1D511D0053474B11E6A4F01C0D6EF1BED3A94
311
4FDEC70E0DDCDC756C86545910E0DAE3BE3AA9A404574C2995CD5CAF9549226BC94B4F4F0F5F9086F418F6B32346464610D8BC7391D3C3A3CCF04CFC1FB2A3A3170E369511868F14EEA4E5E438CC73DB1F3248AA94B6B2FF33B222FF3D1E7BF146CAD229770158063BCE4F5391964DF62F7E52A7BE0EEA829C9E13C4C147D6
311
F93FE59E111DAB5E4594D6F3CD1AD375EE039930EFE5AF2BB2D41C83C7DABD8C659BAFBE8FAB392CA634F3D15C1D945DB4588D2B0824A4EC928AAC565557CA2F0DAA588CA5BE30B3A8004F7BF005E96CBF891D7F18112A3619FDF530DC8AA64954258E1811789B5189B49B4EB53F5F89F7D37523894F3EB57B373763C91E50
311
2F52CC99EB7BDDF933FC324C4FFC2561DFFA7339FAFDD0A4BFBE6D3A8FF9ED1FC49898139864602458968913181918F719CCF5A68B2EE9C1FF050E34E63107003B8120FA982C21B30A874E4F5E4B38D5A8290C4B8D9BE48A0BE31EA995BDC37AC6DE90BA17D259DEF53605D55922FEB1855D915B659FBEB350EE0DFB2F9F76
311
6E1C84CC8964B75D08667445EAB966015F63A18A9E0A325C1B3DC628C0D3CB60F767FA93CC65F25458BD23C3B312716E5F40E5858AC06EBA9AB14F95DB99147B832069201541D09A0D856E12C629CF32683760EE855537D1901988D5EBC156676C7DD51D7207CF3267AF1D76C2AD867315E44618015313A98B19941C696FED
311
3461CAA9B5415F918556D7802EDACEFD6B2E45853A9735DFC9DBF7E440F9319F8B6805A973BCCDC76C069A9144E51F187EDCC12FC31B5DEAAF0A76137199B106EC84ADA6B6EE697D4E6A96E007417F4E880E8B1E89B4BCE9D81EF611E2ED8F0C1A6C25F620FAFAAB656A7C42D464880E8AFAB0E0FC8EA38CA9A8AEEAEE3E46
311
48BA4680270A89743CDD3E6C6CBF34B7B640EFA285ABC7EA0A1E28F3CC963D114A80123EE66D0AF7D5380EB41909B605AB4765B709B808590458157E69BA1378FEC4B48CAF6A730E3BE3C5EF2DD1A5EAF94B1DDE50CEB55DDFD7EE9A16747FA4B223359FB1FCC69E1194892BABB93A1D5C4E807AC0EA2E30180811E77A2291
311
F6E7F7FAA5E0F60215BC6024E48DE436C511F0628B8CA189982D4D83CCA17D305A7E923C37941CFDFDCD93ACAF735EF5F0E61BBD3E6C41A59B242790D3A3BAC7064DCD89AA2E37214EC839820949D5CAA31E240D2948E48F690298974A96BA9A8432BC90F5071D6537C9666EA4564796B7AFFFA548077BEEA75F6308343507
311
4BA182F3699557397F71548383FDA8CA34D99B981E72835ECDA5DDDC151315173D05A21F651AAF8524E88209E2E7A737ED1045800CE3390050BCFB8BE588DF111617874C62575039CA588EEFDEFEFE319B739DE2EDC147092A262611E159650E787917885EF08F1F51B8F2D8A71D60B58B190FEF9541A1BE94BC19FEA50784
311
DA1419FE4B0FB51B8D36B5FF8E1286FD8AF42B91E59A5F1CC4D60174E764045FD8C57B18209B217F89A62252BD20BE0E63E12B8E8F029FE19E0E8D0870F58721A557082250D5424F7909369376E41666C0EE77CD87CB283F661D5FB6D0DA023CB67320A20DC7BE661E9E1BFE5463085C557DA1FF9BE835733766C3D139F2CF
311
9E2208873AD0EB4814DE9E6BF2CAF81614D4D43906ED1C05A3265CABBFE192770FC2F64F940CB6B17B5F166F133C9AEEAD2641807C3E69515171DD74C4A85311513D6EC9530B3B601B6BA3EBFF3B5C3D2F7D69765141E345F75433953D013ADDF8F6AA7DC3F4A7563FE5C7D367937E2900D7EAD0F9FC9A4A1A9B5BDF1FEF08
311
532660C01C5D6DE22199AA774383E306DAB87E301ABB7D213887F9869D4942D0D71E94B27EDF216A318BD488D45DF84529EF575AF3C3938C0AAA0215B01994153E2054A0B894DA5C784980633AAD48576957CF4AEAEAFADC7C587368551C73DBE1E57C58AC713303A8BFC258BD04B51724459FF9E24C03A81E0E0679CEB9B3
311
48C0DC998FEB9C6D6EFA77D247CC8F92D3848599ED89A23218D0636465AD1CEEB7DC140D7426F83491C4E8E8281C2FB35240918FFECE880CA2A42D70E8B20B34DF5221C7DB0CF90ECCB9C745B37A47E9B716FF7A97B7A252C1F3814DC7B1E1A7F72B8751D524EF7CAE45B0C73B3BE7D08ED39781B380DDFC9AA4A4749C9493
311
DB5BAD07A6EA6C092FBD0E85DB004DF06B8C9D3089C5320187E4CE1846158C7EA7DDAE8AD9AFFF21AA3A1026BB06A259845E8232DEE62811A4DA9CEAB3A4887320B76E2AE5615EAB7BDF738CBDD01F1E64064BC13D9EC53576751CA8CACD58B3CEB0E6CA585BD089B2A59B9FC101403387AADBDBE70586B93D64BF3AD4453E
311
F9C3B6A93817E8346991798601344F79A83C51F3D50F7BF2683A3605F51A72449489E0EE6169C749C60B1035651103AEE24D24E51A759C840DD3FC6504DA6FE107510E447B43461C79D22970B75DE5E1BD3007D1AFC619A4A4A69B5626AF5E9B8374E20677F77E2F8E73DF868E8BEC7EBA7B6A75EEF7205E1AB9486CB64274
311
1D6E03FF13FCCEDB1C4AC129886268B01CDF4B124AF797CF784F3C6DEC97A17D4B558070A0F1C04DA4FF9BDBF34159AEFE958479824B3F58EBD1E19088A2AFDE501B6F2052368A3FD0E650A179EFAB1561E1D27527077136E652676C3670F42DCB3352F48F6BC86D2C3B0051727E41A0A4DC6CE2BE9D47F5CAA2935A3C0539
311
AF080665997194ABECD723B08129CC5B6B21D2E7D54CD4D12610E7E9FB8306771A89576C7A982002775ED44F3F744CF21EEBB27A631671D921938AAEE3EB0D19CD1E083727F607823E817BF599DCED5394E37EEBC2E88782E638920CA641EF74D4CDFCDEF06F4278ECB18E31E7E9876F2D783C8BF429C75395F57E98C2B495
311
A3DA077EB3AC3C158608B6B57FE3EA48484D9A480096FCEE0DE880950E7E5A5714131C5C41AAA29FD19AE81AC145FA1B9E85C7169A5AB837B213493DF7E9AA4B5FBF9CDEB36EBD21EF1181B7CF7366AB2A951D01E37AF4EB835D1BE8C117CFBE7625D2EBCDB0B20C5A4B45CED0BCDE3EE8DA9DA78C2E21DEAAFFD1197E463C
311
33CC6A80FB785669B856EFF7A8CCCA2841B5A5369173320B1170C368B2748D81062EA0296E5E2D95D7667A4A46D98A6FF475C76AAB0A8C8D45E226FAFC9FE0133EA9F60111F99CA81ACE03A1D14C89E8B0D69079C91464FA1D99E651D0EAF606F345C42A8A1AA9BA391031582B96D5B4176A77AADB01F12FD298A75DEEBB2C
311
82F0B8650E880722F8DDD90C56A7A058E5FDEF1AC93545BA27367C76F5D8F9690CB6F8DAE141EDD7971F0FB548A2AE435F224D6E5954CA155512F7332029D5A1230854B79F258EC5FFDB09F5F6343A8EB193229B7F7E79B3E48F8E183860B38C8269D1B53738FF1E0BACF6AADA6D4869E9DE708E79B5DADCC09B1BC76F6497
311
31CFAF59A83FD8BAE4C749D66FA87A3810D4D62FFE826FA400C0F325D2BC0F3CA35F5847B82A2ACC7961745C823E4D863D54460AF792CE6F79B5C7A33B25C3AEA6CDE15A919B6367D781E9D44F61BF828672594A3E1D9EDD6DF179A81F27EAC05B936575D73E05C209DDD2115CFB705DF9BBF3C911589B3640735E9E618FC9
311
C36A7326C82B2205E244C55D56FDB9D5DC93CE958D4BF8174D2B3DA54CB3C09F2C2A6DFF73D23B2197355761AD421EC581284A7EF8DE2CE3497C0C804D49B41DFD6A7360844E5BEFFB495CFCDB97A4595911CDBA623274CE852B5E278AF0BEB1770E9D37CD977B2766A7DED0E94B840E1E95E8C77DE5CB6354AF7871427C28
311
ADBEEF7BA0A28E19DE9ACD75F379FE373EAE6DDDAE3834692F9C2B03B4FCA8FCA9ABE8EEEBEBB725B88A7C90941E850682CA04061A7DF0CE82ED49BFAFFD42C309818FAE14755CAAE78B0F73243ECCCAD7DF58FCB9CDFAE7A4D3E6671A613639130D056C8383C8F4FCF4808C331E544DD26E4755D09EA05253B3049A1E3258
311
7CC25D72E073E2CD96D04A71BBCB0038FEC3F53D254199C3CDC67CD66640269431860225392B2CB3ECD0B4498AAE78BA1994246AE1EE78F2EDFB79F6C6CB6B5E279C4D373FBC21CB2698C9ACBBEB6A4BB6B39E16AB0E421CCBFC7654D81ED86022F9BB522146F9F4772E2D0E4FA70120C95A85A417BF5078B232F4754363EB
311
1750B2AC2148EB46B1EA72AD9B4D23ADCBC589D70106C3EC2ABEEED84DFE28E718C6C83502C28E9FDD3B09DA0A6F6F7B72B706A31C9E2A331EE70DA56A083D2177BFD63C55B11D8D949FAFCF90B23A1E24B9B5018B9A17E99F2890EC302F330FE7936E2C23F0D237EC8916F5166AB84B62A21BB0B950146962D754F92CC2C8
311
877BED8FC7B7B25726DD19545392570B3A2C66B58F027BEF412E552D12A588C4A3CC5C3193FCB3485EFFF700D0B9EEC077754A33DC1FB9E25AF814628F91DDFECB667D3F7690803F38D13F8AE39353523BB08FC6760144AFA2CE28236F65EDBB3D5F59A57D612B99E3D7E5F8A851666BF9B5A6658EFC96EEB37A378ABB0EB3
311
FDDF1303AF32C41BD1C8560745D7BD81066B0D6313359CF488563D3BA3F8E2185D1FAA3EBA1397C9D0E3DD232180A4DCADB6AF25DB3AC3CC26589C8239E66E81547BC7E2F328F9884764CA37EB5DBE390DFC03A5246B456A7C3684C4377D0EEF9A350680FA9A077E8B2957B489E09AB1AD41316944C2254B5984830F691C93
311
CAA767EECF976FA5647538830B5E63236A6F0365C1E0F3E327F24FE35EDDBD7360B0F7374837409F7A6311BECC12B7026D4FA1AE204FA3F5FE904B1F420C7A9044AE58E403E7C4848E7DA25DC9EDAC79DD756FAA26B9EA83ACE8A214A2612A22AFA19DAE7DBAC5F8CDE1292A485F98DAC731A29FE01A3966E96BCB9FB5A4C8
311
830E1B9AF0C54B87FBE221A097036E5D28D1F869F810C06A9BB0AC0612F69AEBAF893C6E7AD59460208BAB3A6B09CA4F6BDDAB8CF0D1F84B72487498395A70DCD754796E271099A567A55CF242BBED64696378BB6CF25EF0FCDB589F3A82F1116D010A9AB9FA4358809EE0C973A2B4229BAA876A70B03AB49CBA7FBE71DB18
311
32FFD32F9BF2C8E98075CACAFB36921235D0F552B6A67E94E094097A5D7DF681B40623DA535ADA7A9AD8E9A62407D7C9A5AE51D62A17A83A23728DE86BB56115804D3F2675F2C6B87541A0FC497BF0CA86420F558C9859EBE9FAD62747E323E3AADC03FDCDDFE7407B09DA90B44E3185723C5381EAEF589765E2F7A099BA46
311
695BAD60CEF3491B8A171F5F56444F7CE9455312C3498C74173AEA0214EC029833B34B650CBB5A5508D5091665309642791708ECF27CF11DB3D797D6CFE474453BD4BFADB768094B2147814D81C7CBAF8228DCAF5564B5891F5EF6A860EB2E323CB82AB868D8EA048880D63B0DE5341F1B3D53297B928A11E15F25E5148990
311
F710747C3509ED14909C552EBE3973246FCE55D00564D8310BC3EBC5085D08D806799B77D6C57FDF5E55837F9E934F09C03C729271B64F12D0A9F9E938107CAF7BF1EC8CF1BB9B42363D33070F4CACB425E605DDB0A34A12BB936DE286B9887A4E2E558F0886498BFF49C311D96C277CF6A9FC0D75AD0ECC5226D7E0E35720
311
12E56D7FDE4410CEC7A6D0F997F225A2055B8B92E3956E875AE4993CB3D4C9063AF98FD45E1BAB165640A43439A2C9181A7C355B297C0A0CCFFAE19B6FA3C2BA238A885FBC98B8F6DAF4B94B97304878DF4D8BFF6A4AEDF79E90ED4E68F00CD7299F4E0D83E35601AF0CBEF18C1E870E74758FA91F5131075004DB3CFCF09A
311
E1DABC11957FD9808C92E8A678CE9DBE40DDA0E0D1D505AAFBCBA208232BFB6FB3704E8985E61ADE53DE74152F5C7DE74B1DEDCD37DC3E8FB30D7EBA8B9EFFC3606BF90B8D438279CB7709FC7C00D327F41817EEA71CD9E49FE9C8C9A81C70915D9F0F15958EC5AA4C3BBFAF46986B90F188BDB24B89DE3C6F29EC3E6F66D8
311
4856EE96A35E657CA41B41EFD8DBFA16AD6E91439EA92B40B21C053249F51AE50EB0B24C770FFAF40DF12C8436366819C48E36547D4E7B72FE2BBF10828583057814A668BDF183F6B2E58DFB151103E56303E63D00F39C27C4661605DB644D19175D02E3F0241E8FC3458D17AAAADB117CE9EEA690D0DB01E634878C04C2C9
311
310B69FCAB831151E3AD293BEF6E46B0ABCECB50F5939B39C613D41E81FAE8D34CAE3C4566B761D37185FE864AC32FCB71AEF39DAA5BAB88609BB980CD2F07A8F941653B529567726E2B2A58D079DD57E1E5E31426CF184A04D7B03B985F276D47406AF276FE32E3328BA866EB1FD39BEF57863A317634AA5FE467409B3873
311
F5069EF0D71AF00AD189D17BA1974ECDB2D623E9E14086386A6AAB5807825C37B015BFE892AFD154920EC437EB945D958E18622E1E0FE2FA06557CE4BB9BBD05A2D40E774DA2B65473791E314B7D6C886820B2FCFE4AA272B3B8B15E7344A145E8AF919B5454D89D36D413E87211186BF6F645E5EC94DCCE8E1C799022E4EC
311
9BC86D7A0F2AFB1FC4B2CE48F84B3F49ECE65BAD24CADCC07EFF39AB06BE9E6B27A059938EA7208838455383DDBCFCD967DDE4650EF92A14FF933C975DB20BD7FEEBC4487576485963D757D16340D9599FEB362F775F38CA4185A86F74B629C81B133644A3B18FD056E997E0734F9BE26D11C0AAFC669E2AC9FC41D281F8B2
311
E1C35AE27BCE05F3DA295488096688719D974DF1B5D182DB7792288697F8763CFB43562C1CDEE11C4AABD5C22B6E33F6F389CFC3477C5919DC0D533F8A7A1846B7ADB60ABDC26C43D0CFC8910B7C15EE22675BD02702ED39DB77A87A192CA7A543E6205B979B9F5A6B512A3CA799E198B2D5797C0AF8D1D872CA455D4D431A
311
7879D4DD76110B5FF7F4176B54477A9EB5E4A5D11214FDA585F0382751D8E2582BA5D2075053298FEB8F1537304E32CB22C2E2B693DC0A760B1DFCA751BDC445AFDCBB12820ED85F6D5298933C7EF1211E9E057684056CDA3FEF3BB6052355E162DF27C59E965A8DDB7F9437EB72CDDA3A090DE65A5B2F50326247B7EC67B7
311
3ACC7047FC9B353D6EE990F772207C6EC52B39DC2F3C0754821DAB559F7C1809C7D0DD5B0499D0442E0A6E391B3D5DB46D11E731E6794EC77523FBDAA242ED67F9FA1FB684255671F63C9BCFE6E7E896D51001A6113EF2298BA494E0B0980D1FA5B9D60796554C02256B1E0345FB7C6186B6A19D2DCA270416262845FA4F42
311
DB5D9B0A0B6F07FCA2E56C242522E001E0CEB734AF310FC8BFB57E38E03AACE93B3326A2197891E68452B26A6307FDABFEE0223D3C03C3C73D2D5BC054C8311F12004CAE488E5C29287F8156A2CAA4AD0D7BE6B97264E4139F437CE73ADF52E5134C52B819777C18B323A5924E4F67AFD13B1CDC3A61793A79FAF5C0CEB718
311
E441071E797C6DCCB9EFCF7E4A1E9F3DF3C2F9C9E8294E9586868788C972857FB0556D7A26941A7EEB9B580AD78EC40B85DC906B4120A563CA3B87797ED612D3B035962BB75F6515A393F4CB057F564CDF54F2E5A024514E6A1F901DB80C7E70B1FC05E356A7E72FABF4775B3E3FB8F70A2A8E7B6A94542BB304157978CCC9
311
99E707A29CC795E67A59CC546A5D47B368954CA7B6E75EC9E1F6FC73CE3B4F71F8CB1A6B15923D61EAAEB14626AAA9D04A26EB9C66CD1BE86CA31A5D8703DE04CD1EBCE4F5CCB62F93909AD11E55799A781A956ED27D3E738F4538CB04ADABC7DAEF20BC35BA6A90BCC1DC61BA05F20D8832FFB9BC9B15E2DB838A0AFBB7E0
311
C82A562127E0446894F427794C3037186F622BF24DE1B00AA10A23BFA47B2A180D6DA5AD6F7326FEB8C100C2D7142EB2A0B2A9D1008A09BA343D70E054AB69E2A7EDB783CBD92537FAF4A44D1296AC2792729104B3276C276C951D0CF3CF3F1E6B017720A7B8505A5FF9589365979678C36F1BAF759EAF57C60F1FF5FE9DCF
311
5F8E764FF25A2D06CF25117A8FED51884C13B2B750DB0E4F5E3D64124FCF11F0AD8F1CC3B3DA4B38ED22BF1CB2585EE6BFEBBA63FBFD44F9537B9B37BDD6B358720F98A8125AED4349CCFEB0E135F19E208A04CA7E2B10711185D72E381F448036EF57C9F874E54A971CA37A639E986AC0226DC5AA00D5B14FEA9192234B3D
311
E617814FC221C92F33F1D392F297731B567FD98FD91D989379AF567A65B8ADF177591DB90FBEA99BF4ED11B16E50A0AB1DBF1156D034BBE04D69D08F939D8E92BF525A1DDAFF80ECBC95D8F45D3FDD289FD23F7D8B452F8EBB34EC082DEEE68E18EDDF072060FAD2AB1504DD4879BF67099FC58F6E9DEFBF645D16334A3E9A
311
127C6F1AF6132CF287E433B43A0EE93812B4AA0B194E03EE3FF91EF9C6ED0074A2F6EB18A96A7C9890B1FCDA1F2095E944DB911ED54C60DF16FB74C8CE9BDC7C54C4F14078CF73C2FFF1F1BBCCD7CF64F71407EA1683DBC410D226627F66E509060D5C0AFD611DE681D509DB8DD12FB1265B03C6F5C55FF4C30BD94187FF69
311
2B4F152982502F193098A789526A038AB529A52BC0DC4FB6285CBAC10A8B8DB75DCD9BDABBB221E27D1F8DA9F5EE5926A1C8AA9BA9BC09239C6A7F12914EA3B59EFF7AAEC3FFCCE56F1C5C2980AD072793527565E774F4631DB178CEEC691B1F367BEA0CF2907E1D6B854D527065979DDEF002D8B2ACEA7CE21AE297737EDE
311
1D45B31233B73FEA35BCFDD0B09721FDBAF6432681F2FD10C3E9EFB246FD6E854B344ACC9D8A0EEF876A7314B49B6A499FC650B099D650DBFEC7638ADFD245E2B7839DA5AC5F7D5623FC0ECEEC8653FC9B2BDD1AD4D00A566FBA7186DD3C9CD26512551637498CADB950FEC71ADB9A5524285DE328B8EC7EC75D2345AEC6A2
311
7C42AF6D9B92155315C80DBFCABBB7DA0FAE425C4FB896B15C9BFAC4FE67DF5A23D30C93DA4D8F36FB15D100050DA6062E22AEC5F4DAC4F6FEEF97AE05DE63C6D38F9E068A20BC5E3B6BCD75320C5090924E7F93640A7735B1A43451C2D91EE62C6238B797349E59890AF3A520DF4A87095F3ABEC2E61F0593416CE46CDCBE
311
0E00E2523FCCD04408588B5B6C9DB6459C786CE378770B54F51DA3A5E1DF2A3349BEAAC234A6CF8993B598B3B25B4B113E353A4D750FA7534749430F3EBF2512E7EA3FD43C6AB9A1F765A58463B306721A15D224FAFE8C6F5E3432D57EE697DA0DD5A9D4866A8BCCAAA9DFF1F06047851408FEC060471D0E3EB86BFAF46E4B
311
5E60311DC3E3CEA147C75CF971BE74689507154FF2D2E92F15CDB2B9182B11459FD8ACAC5A85F174BC94A7F4EE4C4F5CAFA7C02E37BF0BC77B7DCD0C047BC316F562A01A441AFA7931CC84A28CB9F4AA367EB515778F29BFE61195FA671F4352E5E46E3A64773F1F76EE5EB36D7BCE9BCEAD837A4D77F8DB8C92AEEF671192
311
0D7C7D0F76B0FD0EB7AB83724CD35BCA7D36DDDF5FBB7FF6F04A91F3E2BB3B8F1A43CD659639507FF6331C5F697BCC782AE57D757A27D97F1AB9E0AEDB43F92F1B2AACDF5FEC8ADBAF9F814E2027003BA2F9E144B1938A7A04050AE5D953B82C45619165C813A10E76DD6906B3C16438064D14CDA713AEC420034613E1AC72
311
41904A49FBF87409AFB1FCB9B72FE7933A87D8FBEDACECE4EDCF6A4FE9FB94D5DEB74FAB7CFEAE17EE965DF980DCCA2D04134994F9A2E94D2265DA4FE6AA7B7AC15FACAC2B5ABBCD7DFF542C5314FDAB2E1B9D8B65220B8E2B638BE008E8DCA22678C820C5053664D15E89F2D735B51A84955E81A443545E9FF787BE0FA700
311
A76D136C27DA179A7C6E8939E01BE756E19CB292798063D8B97F44E8A27BCF3A614FEB8BE974A718E86F7EC99B53CA35FA24F61F2B07266684623A3D4CF073E511F3A10A8FDAFAF0078C577F4DF9D339FE7862E5FA47CF4344209E5BF76D783B1B48E152AD281B15FCB934DCDA49CEC5706B1EE8B460F435324A5CAD154725
311
E21AB8044B75A557A79F6C807B9340AA3D92503E866F4274412926C8C504E4D5EF8C0E68DD0B028781A6B4054F11CF18941F101C57CCC796773ABC8DED9CD91FE5788806C05E548895354AEAC96546D55B0E94A59F148D061F42AA398D822CDECA4CDE79E13469BDCC44FDC990F366BA5978C15F97ED80CBFD73B0CD9B8B83
311
A4F6845BDFBFAF034019473FB9A63BD55D3A4A7284757071574029A4D016DCCBE95DD679EF3C4880BF169422F8C89B68A988D2B13793CAED4F74DE7486C72DC94DF46B8E93D8E02EFCB1FF9B3BA10C8AE7F653DF94F4AF466CDDCEF5776687F7C4C14B63E4EED1719DC2EC482D7DBCC7AE518CDE3D5FF86D39000EC3673C00
311
44E1D308BF05F74D1B5F033A7D1BE7F74BC55BBE3E4A20F920946CA0271EB17BD2B80E5660ACB8A29A79F5E4BBA49D4D945B6EEF4A7EFEAA65E5555BBB57A7E15D2F83C69F30BBB978D2B39F1F26FC097424D39BB33CA3D87ABF64E307938B685BAD44F71556A30B7E712CA4FE600613C3E554B69ADE949A7CFE214DF1FFF0
311
5CB82151EC6FC31950239F94CF7AD39DC473F6EA356E5EC2C4EFA04383CEFE985A127484366FBEE3C0EC4FEA363E4F6632AE781392FD45D67B63FB8DF70E82734F431FD3443172A0E30A83D60982D55FA6A2CF86DBA8382502ACC6CDEF3B907982EED1160E14863FA242F9757347E1544275CCDCF71ECD5F8621CBEA326B8B
311
A884AD7F825781923E66971F04010D574C541D8427A438A37EEF8AF88240EED7362C953F5A81DE2D56109CDE2524EA0F5D2F87308C0C47BD97AD605878AB8589E17CA83930CB5E0DCCD75853D68B1AB136594926DE426C367428E9334AFAFF90ECE221BB5DC9E5BB53D2CDEF954EAA9CD814F0E5725F1965DD458E5F848768
311
3AD86B9D0076BE3EE91EB1CECC5331A67A3F79D8B27587C12EC2A6A70474749F27B4C0BBAFB94B34189E88DC18964BE4121B9137FD516C7755356E50D6714E31ACD222621EBBCD1CFF81D87479056A9DA0E0B8EA19D24CF937DA89F78E8650CCBDC110AAB6C4E46DCBFD0446BA9E2060E81F314AC2031E88135E5476AC0160
311
EF5C0DD2EEF1B8B5CB2D198BE9A554A9093B5F7D7E4B5407DDFCA1D9C152FD97F55BFFFDFE802954DFEC8995B983E28AC92F1971E28F531DC407A1280EB125F64A72E617EFB27DFBCEDCDA2D6F2BDADA36873EE46B9BE1782998C63DA7182BC383FB6FD15DA472B175D7E8B4FC88F38D6E07FEAA3FA3CBB8F6B449ECF14D21
311
75E5C5CCA3A42ABF24CA6C9395AF74535F4DDB38CB84F56614B0FD32D7E19CA5CF988DB4449C40E23DF2B16772594554579094450F56F253CD25EA7F77366FB1CFE79696C428BB64D5A41E986189427E5E4D7E2DAE3D5BB4972B3DC44EAABDDDD63A2264ECFA5C786EB0EE1FDC5BE34FA0F08376869FD1E61EA06CAE151911
311
35445EE8F0394161C3266A596AA035572BB0C8876180D8B9C77D307DF9DCDF7365ABDA6F3A2366436457A4DFC1F259666569A9E4A79C817BDD5610E5200FCE894A358EC72858D50EF67545DA81C6FACE3D457BAF70367E1E6BDD9A952FB4F56247F58F523B97E640246051A72F79BE42FFA0B3187F63097F91C48B868586F7
311
14B0EBD5A00A8412C1236E1298F60C72BE6C96B82B404CADAA304AE9F303176B14BA53FBC2D5E86377E35542019E24D97B96A49B2C0E5006E7795954DEAF5DA58958839043C6C70BD3B1B33B6DC5C31316D8A6923F142E26F6711A2258AF977DDF1F970ECC4F1F2B434B96D81BEB6E89BF3BBB3C7C8CC80505070723D6D7D7
311
D3C8CA27CA164A26024FED94B12A86031867241DA53D929636DA600F050BC40CE48B8BA03D69224720DEE2ED2127390BDF5E6EA64527BBD4C4C63FA76BB801FEEC0E61218EC98A8A86CD8313781617877E66692839B9468CF4DB8E50A73986E558E309C0D6F676F921BE02F1185454DC75B111572FF9D27D85EA14C05AD727
311
1225B391C4275659CA4A43759D0BA44639BE4C30A84DB7F67A41399FB95CBF923B1B1672ABC807C1590557FB18D811983FA97F5E609516D62281D38B1281F68FC75528C35E4CD7DF0F7DBB5E5DD69C414EBEA2F4A5B241B996BA77AE6C772E367408C633EA3E438B68563EA8BE7667F3A4C4FDEEA52ABD78A2820F443B7914
311
A15F180018D231E64519C56A12F6CA7C8DAE18F06F6B769DBF92329EF6A5D18FBCE600F36BD8E8198DE5CDAA96181F3A756EBA5501CEE58F497EA4F418A2B82565B9BCC611713C0B708CCA1F398B78C5F7D03B3437CC18F13061F55C7BEDADD5ACB1DB0E36D3CE47FF6EA1A563A57E9649EA5D14D1A50EAA457463381C0737
311
77EF1600607BAF6428A7DDC079D47A204EF1E1F1F0589FB054D45E02CE623B3823C317C601E589E22B1E88B448524B86A82828E32345EC18AE17214B42F8C41C6D428016D9BA31DDCB47572561E5A402E5BA4FCE55F78AF7268524AA04130F3A20BA5D1E9F9948EA48FC8F5314FDB35E21898198060034ACE5E3E2BBCA3409
311
2518F275190AF65F45867FF0900AA4B81F25427414C372BF51DC29AA855C5428EE1EEDD6B849AD60F6E73475C2D2523F8A2772C840A478DED18A8C5C91B085F255DC4F54EA7AA8947354FD17ECF8FB3B4A0DE7B483CAF3A1165EE05BBA413E5C1FEF3DE1D6B8F2F3F3251C17D9FCAB48A9AAF63AC773A0E413BBC46A9ADF84
311
A566FC920E4D8C52C9769EE3301CADEEEDD92B312E02E2A7E35B7F1E7D203FE5A7D75578B06E99D0E46FFADB8FDA17ED8880390DA29094202D6F645F76F6F96409CDA05495A96E84B04A00D1A6C6C81D7F3DE9376E828CCF144EE50E364ACCE7237EA0BFB5607ED1AC3CFE73794E5B61739D14DF1743441B1AC98F00ECEDE9
311
E7301FA29755FBEFA68C91EF2B314CF510537EF1ABFC9A762496280B546F5EDAAF8A5B387D469FC9A878A92828C88608453ACEC6094DCA54111E7AD5B2663DFE2DD151B7F123B9F4FEF8EE36AB125FD7AD52A59B1B765B3E3F73E3F73DEA93875004D2AFFE3CDE9493B87A9904DD052028949041A91DC0E1BA47BA714343FD
311
5B25E0A6A09503AFC17C790058A836A324FE31D7893512E28230332F153181C1E018E1124EBE1BA262AA428A518237D1EA7275E48C5C561BD19ED6912EDD8367DA0F31E40EEAE9683DA9257525AEA7B632B97119E17145A90231768A4F3B9120FF32E8319B015E3CBE26F1A754177D8185345817C096B0CE443A955D13AC15
311
E1FB5DEEA0239EC32A3C92241A237B0B02FFCB4F93CF2B02570C8D192E2F2A68CEEB42F12E6F8CEEFF46C251E22B4341C56FB08CCE550E7A9D6F4D6564B9EA52A83D5BF2C6E03FA19D2775E15A8A7ACF30A13C259EE7F5EF2AC3BA354F1500E1A07FC63FB4686E2F12EC69719F9ECF5FE3F35598DF2CE944008CE78F0911BA
311
5BE5D0A34E0098FF038669C26030BA9B300303039852A8F6F496341737CA7E0D2E3AAA36DE0A70AA7D9CA0D54D9AD84B18A44C9E625475E1C97B93BEBB38DCE7D227E67A2D00F531436136355F243D1FC0D712C5765754FA22FCFFAE97919161F46D6E61ACB37D83777B385889770B50765B127768443A5C4D3A4E35A31511
311
11F146B7CA116F918A049F1C272F2CD7976C69A0068773451659A97E0F4A08FE604C3FF6CE7385DB19F4D3ABC8A0D80DA8A42096AC377DB49382B36E270B6FA7570188B4B7D1DDDDA82ACA487CCA5D38BD3BD039ADBAFA4ACFF27809239B722081E2EB9F145320553D183F28471C388BC8814E5045676767AB58A8E72D1CED
311
2CA731379515D2E533E4CF0B39DFC625F97AC4836831A4DE330E87A8126FA17EBE583D614E71E22A8DBF2825599743E0640037303E8E1B1E8EA4E1ABFA4F62907B5E4E0E5DCFDAB417C36C6848A2B8D15F1E505434C0707E16B1CFC2A1C36A42BBF55734F8F4301DDC2A5110CEE8C0747F69519265012A2174BF4E955ECD4F
311
DE095A3ABC70536B7AD0B9D7892F81287D667C108703C9B66A221E9A0929D030008F77FF6F5D2108EF5706FC87A3069B976F7C9FC3239D13D283CDEA83597461079FEEE049B0F392889898B7D87D31F8D60ED7B56B91823A8E4EDDB36C6172ECEE42BD42B12CD67994FA0F0DFAE9389356F4CD4425A4B8AA55CBF7ECD585C6
311
A2C2316791E43D5C06841ADBB226A87FD61515FFBB0167B74E56BD7F3E90A57A97FEDCBDF483A0D6699A8C0849CAEB4947FAA90D8E332D9DEBD9F4738C37DA0CAF9CF3DAA68BCB67C420459C7A64498D6E848E5CADE92BB6901F607AA331104A67F7CD650EE169B1DAE94D2C31C2F993632259B6957E246EFE4C5481107B07
311
118607700040E5812A2A2A38DA0076875258C753F60E0F2662C748EDD5F3F3686B8FC3BD6FE631ECCAA1E8B1C1E565AD117E54893E79F4672E32F9E46B2A183DFDCF3EECB4D4D077DBEA0DA254D256045109670050129E9B9B1A9E4A11344D61497A992778095151510C4BB7EF2009B63AA4360635312E4CF668B7E0D3D85A
311
8688E2BD83B569439892ADB63461930D428E0DE42E4AC57CE48DA5CC1449530D8BD3D6A0F08DF20C8E8F570F2CFFFCEA286E30969B4654D498A58D9DA782E19FE3F002181838925592C4A1EF0B332D88B61A92C644547BED490D3A42CFFAB70E36D961F694F6307F72FF15A1C79D5B1B5CEFD353D9E2B52566DEC8F8F09CB3
311
E8359C0F68EBBB7898243E34E12A015B2685AB303C04D3A9E00671FF3DFF0A184E4A2ABEB2B666AF5B3A209C73D8EF29DCDB069C9F391EEE9DD0F74C7BCDE16F8F02E3B8816122BBEB50665775B600549D8BB33A54A6BF940C028118BC6878C79958D6784F9DEAA6E26748386FFAF8D0D0101E2847B6563F5D8DC1D78F787B
311
E00E2C941AE12148D4A81599FE8F68D4DA5CDED75530ADE138240300EE13B0FC13A1687FED6774662C05A2B7DFB186732F0D7A93545D8B0A6390AE5054D9CB582DA846D7A061B3358B45E2B52DDE63E114397EDB7E09233A579155D795BE76102CF277F4DF8B188C4F2879BEAE3C08347124BF9ED23B128259FE107D31E34A
311
652F090B30B39E0D9AF917B76A2806135621A8A60681F16AF216514BBD02711585B5B1AE823F4B2D0369EA5B6BCB863072727FFC871CA6C9AB79A814D989057E9470A3D238BC87CBB4A0EA49AFE2B86F22E499793CAA9047080450166BDC357524561E258C77CB697F1ABB32562CF87C3B7AA12F911EF19FB3E5C02222E887
311
D08202A60A17151F5E053A86B437771088B4FEE14D652C43E8D939995D34545E12E2FF93D4E366EAD25F10CB7DED141563C3D0C447AF06078A91135FD4B9611583CB4BF3BD167F2399CEAB0E0100F8FFC305F00F1711717173138B4B48C83022295DE657EFEDD97F238ECA80F528AFB4F8D67AD4E2594B9A3AA86D7487EFC3
311
13BA95745C186F0CDD84CC12DC9CB0424B42203D351FD9C0A3AF10CC7F388E0329279087386421F194F4A29464C1DEF7EF8BE515E4A199DCD5B909342598D8FE6A231F71336248D5CEC5454455C7BE383B3BC7B260FED27F703FDC39A170F3827239102F59D4DEE7FEF82EAA1A5E4BA94DCC4CC44E7E2EDE20F24244E44543
311
69D2E87C3F823F193FD4FD27E1C23984B01898D15ABC20711A8A558054951A6AE280096BA36CBA439603B7B0B4C45F248C14B2383B4B5CD8ECECE4FF859AD4A6CA2326D020EF090F4041D28DB66E5256B56232CC52829DE8060BAE6BBF37D4B7469B822454FE93210A3E8D15E69FFCF01123222611C51C4FD0A041A0CFA247
311
1CF6BE38D2B20FA4C3525B5B8B586759475CF80ADFE67A284AC24651E52B8E683D24C2622642F27E7C3C22783BCF63648BC398BD6CD0D9C97E7E7E3EACB6126DB7A6C1FD9F1031302EE67ED96F22B77C7CA0239BB324207559B105E4693EB26EC46182A92C9C0DBD24F29B31C5C5AC1F84300E0E17CEEAC15F5736FA4A9897
311
1E2F1423BFCD68D4BBD5F86E74B40A369F39507C88FCDB35D2DD8DEBEA4AF999E23CF2816D204200DF6E611781B9884C1AC8888B4DE397320472959434323A5A36B22A8E1F721A270DF3BD65E4A31C11FF048AFB0D8B7B6881423793963A23CFCE935FC189ED36FAE35C46DA3574C979E4394BE52084F3081837BE033396D2
311
EBD80F1F691B273F660D2B32FA27A33B1DE4ADA5F0FA4651511102DFA410DDA86E065272CA314D5249DF91B06BB92807B28EFD54F08F7B525252782CD276DD02E6B0319B13DF87B1F6361AD6B28FC0D711CF445429B9E5A433CD493051C49A9E03DDB1B147D880253514A5DED88009018620EE229101C041950E2D8AA8E1F5
311
F5438E0C0C0C60EEDEE9E3E0C051948C69F84BB7B2A48A1F3C8EB9E6864687F4F4F6F6E2FA87608ADAF9C5E117B7C1A737E710769DA1D15ECE6A84502AA855398712D5FB51BE92E4EF824969CE18278798AC303C2C7980DD2500ADF8FB1E6D6C2FAAFF9987178923334A244758BAA01A9A1B70FA5097D01E1CC2A58DAD0EC9
311
4CE6430AA9B0C10D75E3C6BAC670EFBADEE1607739CE0FC18A2587E3EC3058562014C64219C69BC269082D5C2F4A659278D585755912176D78A1B641719C2A394CED495A1AC5D583FD2F5EDD93308EA7EAE8A6DD396598BDBD3D4CFED62D18A5BDFDE0DD5C80D1A89BA62697B131AE7CE9A6594138582F1B37D68F1749AC7C
311
B67A70695D48A4A056AC1FBD4E82358CEAE38F54B95A9016F9000F9879C0D9D131768635CA798895F27D6F1614F11F2838A83611AA51C9A3DDB539D42979C29F10465655C17BEC3E2760B80DCBF609198C7B171A531905F3EC218D696025975E986C6B4C666666787271F202805577DD5A3EF0CAFAF91B62DC4B2DB4217A76
311
06282F31D8DDBC290593BAA93EA6353AFA9939B877978481E15CFC9F2755CDC00C538F63A4BA3E80AE009B73CA0185687D339A507D165B74290D6EE46D5C58148F020C3668ABE9EF2F7549170DC80DB41FFC1D678FF19AEB10C7133832B104B80F691B3138F97A92D26E551F1F110400D45AC71A9B9AC41A1A1B1DAEED0B08
311
10638EFFB511D46B121C6FEA0F38CD00E03CFFEB9713FE1F9C263E4DDEC160D0497FA9A132BA608584057FB15380825DE6C7FC3C667EE947D488A09898D8E939C4953BF4EC9836344D2CC6B2971B2A21A572B06096F4982D2CC7232D46E8EA69DC83722E267754D777F97F96D5DA74E1E75178084D0E70F12AD33E5F71EF2A
311
FA599B2BEBF60A5BE475F444F240CBFE8143C334E7ED9150FEEFEF7EB020C4DBED388DD1D6A167A76F3CBF119B578AE8CFA7736ACAFA4440A1C47185638A0D2F3EB5BDDEFDA958FB13CE4AA4923D5BF840392D45544329525749734866684BF7F8D9D54D892E19BCA9F829A0F8BFCBEEA6CFDFC61D74EA1A645ED7A1FF2417
311
39F15694BD835B66FEC5677E40FE69BD3F91AE402F036537218A401CB0828604AD189E575015C6F3F6BBC8AC79CF6C70653847254B31551EFCBEB5978B9DB85D58D0FA41A9DFE9C624834AA04949D24B5AE6D299E072D152D12097920F14AA92C31C3B97E28B6C2E6E9C23D63043ECBBC0A60FDF5BD0C33C127EA8A3308B8B
311
6AFFEB28B4455BF6E7AF4FC6222728357EB8E46E85053E6A8843AB23295BF838ABDA94658FEF3F832F147046B4ACD6F7D48E8FCC9618582961C898D1C7A253C91BFECBDA6BA18A1FCF70755DCCEE2222F41B76D23CA98D0CB3D95F0CF66D57FFF65E2A90F5DF40FC3187621E981BD0BC1D992787212688976B94A8F0C6EF64
311
6624B570B78E068826F87CE27041A95C9A4871FF65CC17FCB1639629AD6A9517000D63AC231F3D741CB8430777E7ECF80CE7A3F73C0F162F7E56AA71F4DA80A33CD6ACEE78E2C11FAC03DAFCE929B106F8F6B3ED2DC71FF994BD9CEF4E9A94896EF1B6E2B7B4978168BCF0847A3D2A4F1B0500B926E634B174548E9FBAD271
311
53FB5FC36799B1E6C7C38A94E1F9E996796D7B485E635D5287A2AE76FBD11A341DB3F8F810385BB7296391973DC6C37C452A9305AEBBE0CDB6C566DB59FE60C8E94B1FD090354BF51439FFD1B48D725228FFA88C84F686F547107A7A235665A4593B7C34D748C1AC8D56DD5DA861EEFBADDECBBD65117E65851F90351AEB65
311
F0EFCFF4BCFEF24CB7A5879699FAC437A7AF9099186CF006BB923A59E37D7A36A29FD8D2CBB914A5E9D0A8FD212FBF796AE9A67958FF1D5D8B85F78F96219D4714EB919929241B6C018AAE0C02069F8D919961EC5DDFBFB7573E3AC8E08BFB7C8534BE6DE045B3CD63DBD71F7638BA2309CAE398EA3A7D8F98BBBC7AEB367E
311
FA5CFA27A9F8F2F52FE878058E6209C026453F8E7E8A237DFC389E9590F6059B397CFD65183BBF936E86896612A5B5FEE49DAC8455D026218AFEBEC12B3523A45B57B82C9C97E02ACFA1184DB18E48CF615DBF39C3CC6F0B4AE6BBEEA2E39D944E290302FA3DE33FA7E40296E2EF7BF1CD855BBECFAD0FD622BEE9746FC4FD
311
FDE545AE6E3BC234CADF83A0FB76DFB145BF3828AE3436368AC24989454F8FF70A177672C711CAA1A76107218CF948CA01F873520E7A2B118EBB161ABAD432932029628B6761590C98AB590C8C8C79798CE9F715BA696E839E9131A4BB68BE923F1747FBFF165331FFDD4D05997ACD168F12CA75348DAC04C7F509FE83898A
311
8B421181AF492861CE81E4A2DD0A30850CFA95E05F097FF70F9E777310D584A75BA7018922E271DAB1D785671157685B7D383D3E074DDB4F1E44EF04B07BAAC75A062077C54B9752C738C9D804D402E02851F3F89605AF189738C18C021D2139EAF72513824E10DDD3047BACC8521ED7E98B257D1166903B1B08FA6F918FD7
311
E162913FEC7D0EF4787E29C35FBA8C6E2C9C20E9AB30AE42CA2A01A090E7D010C1B5BF9CEE2A304BF3A987FB40D836979B79E18D70F257DA61E808472DD85B82761825779D6B90CAEB0F23360C6F80A7D7D77545E95B3DFF0CF96A827F9B5BCECD2C9698718417EF80FEEDEE938AFF55859D0D540B7FE09435583A6F04874A
311
0C7E8CF234DF4879722000167F5872CEC6BF3EF7E5A8CC8121E6A359227C8A29C95212F9F735BC72A887D56B8F309FC525BFB4FD767AAEC4AEFF249CFBBD2DE1AB9969A6155C7D8DABC307E47324C1F916C7BCFF40ABA5644E9FFB9238D19ADADA49D9610F01ABBA57E4DFCBDCCBB2B93C8953206C91DE01B0E2651A6D6C31
311
721915B31F7B7CBCE55466F6D70402788FA91D73BE4ADCBA99A35F17D6B83383704917D6833F0FA3CD45C926ADB8BC17999A4A0AFBCE2541F7B8CF4C2F5FBA611B3E626D64407CB32C122DFF4EF8674D6EDBB86C8F7C6A16D50FA685E2CCA34F8F7D1D8265BB0042E9D7F1F666F7BE5FAA5184DF58E12122A42EF02F461B3F
311
369AC746F96528AD208512AB56844CF75B97F352DF7995024FB02855385854F3798670D01CAC771AC3E1889EC25F61A20C1F8CAB46898817F9C47E2CDA1F286BF2F358298709FE567C91133E2638C8B53975E753EA8BFD3578B5F7186B7BF084EBA3F77BAC3132A5779902EC22AF2D2E79F42D324E083386DAEE9810D1B44A
311
5DAA54513C7A71E52A4AB9257D975B621308FE4D2141CC3DCFE946C154A3C1DFCCA7629EC69ACFA831634ADDA93C0388D2A9A2DDAFCF957C6995BCE7FBB6DC4EBAE79E63EB08E9A25F52F67076F7093CA545CA3053B5BF576DEAD4E0017143C5F759F32B2D6F145B52B67B48909B7C7FCA6586EE385A2189C16932CB6DDFD9
311
152AE317C430492A578ED27B72D85D40C7C93C097939E1B50F4D67F05334FE9DC362C30B7FF561B95259138ECFD9274C8D695C31B14D4EAA9F3D7FA8DDF652F8C5DEFA23284C799B7D94416DEE81E05A866302DC70192A5368EA65E1CED8BF107A1E2D3119A71E85DC1A7B0C1E93274CE04DD0F2ABC8AC7C987FDB002B6F81
311
757B43502EF7A0D92E416494FAEEA4C9C090CD9557AA4D532F4996A272B94355C5A0E4974EEA9627476F30809B94D8D8D860062E02204643BEC7D0438AF800FC7E2B26955D595421E83C69E1A07E0E3122285835F014AD538188CF9737CE76D464A353FA55A001AB2526B84E985083693BC76FE211CA1D000679C889E3C009
311
832C87E1AC2EDD05C302557422DF0800E316FCAC86978A371F025A6C7DAA9F333E7BD160403A1A06EA75AA9888FF01504B03041400060808004E783E4C28BB58AF800100009E0500003D00000045433642394137322D314335322D344142312D414345312D3433364643353530433531322F536368656D61732F436F6D6D6F
311
6E536368656D612E786D6CBD544D4FC23018BEFB2B96DE15493C78601010A34B880709DEDFB52FD0D8B54BD70DF6EFED3AC0B12E6442E2716BFB3CEFF3D18E26FB440405EA8C2B1992E1C323095052C5B8DC842437EBFB673219DF8DA659866649B798C078B48AE6410122242F2A4994AC7F93815DF85C049C8564CA0A9014
311
99DD886B2EB9B1E02448F358701A9235880C49A0119892A20C89D1B9FD768815CAD268CB5E0355B40B1E47F3E37A2020464BED06AA57CE8FCC20C3C3446D46761A2632A8C1283D07031EFF2AE7CCB1BFEEE916E406DFAC8E36FFD99A9D60A6944090EEDC3B670C7DC13DE86B6B2C5C240D6E503BB85ACD579D513F1B9F9A69
311
DC9CC22AFA80C426D40AF0B21EA168559156B6276F0F726A6BFF04DCD513A87A62CAD41FB24FCB2858B3952E3D852084DA25B9303C15687973CC8E8AAE11DF2836C38C6A9E765E8C1BA1BFB1DC29CDFE518C8B5A7655A4ED7E77291ABEB80DBD82EC866ADE1B8D05AF9E35CF09D7A061F38A986D9EC412B8F0F65E5D81534D
311
9B231D1E5A8FE577A241F3A5FD01504B03041400060808004E783E4C2CCEBD668A040000E01200003E00000045433642394137322D314335322D344142312D414345312D3433364643353530433531322F536368656D61732F47656E65726963536368656D612E786D6CD5586D6FDB380CFE7EBF42F0F7A649B70E1B907448
311
56B4970F450FCD7A5F05459613EDE4174872DADCAF3F522F8ED3B88D2F1D06AC4050DBA2493EE4438AF2F8EB73AEC8466823CB62928C06C384888297A92C5693A4B6D9D9E7E4EBD51FE3A931C22EF85AE4EC6AFC38BF261BA626C9AD288496DC3F4FCEAFC63366845F7A10452AF41DB320C0D44EC26EAB2091873556558269
311
5670811A6A49643A49A6E9069FA4604A64B29016DC4B48552F95E4932463CA888468C1D2B250DB4962750DF7CE273069CE8363F1FF4EDB00E0A21999574AE4A2B00C353B93F3BD4777B8A61ED8F604ABFEDD79CE56A2B7BDFBDBC50996E0ADDE16FED26223C5D30956C29BDF4A55EA686E5E58B112DA45CE67F76F4FA27EFA
311
3FB672FD7372FC388FAECDCA5209E693CAD167BADCD272F943701B3812F8A3D852008B1D2E32DB927B2F833C6EA95879925356D254582695095A3CE982924720BE5774A3CB9CDCDB350427D2DF20DA1B5532EBE2D5D6288D75D4F7E4FD9890A0EF8E3D93EBB8F8BA4758158EF6FB90A6F9520281C93DE7AAC6D24607DA296B
311
B96018123F821A7D6A5C5884050C475DA4865442732C8B95684A50165CBB3A32F25F783A4A480ED59AD7F924B968AEA50131F46303223E6A397B0E52976030DC1DCA81D7E7C1EDEEA42C19FF27635C505E2BD5198A599020DF50A2330FCB3AAF28CB0124108429553EF1B228802E2265D8F7CC2401042B155BCC7070F1E5C5
311
5F13B4A9577362CCCE46C32174E010C3C378C44841A4BDA00FE3A12006CE11EE6AEC59894D3526DDE1CD59D503ECC324017F8061B7F162162FA62EDD81AE3308617770796DCBDAD2B2625C5AE8A63DE20B2C8AA5E95E76E5730823955956E33E705425A2187C185D36489A1B44D3DCEC2172F6BA2105C3546287A7194B2331
311
768EBBE64F6E70A9930ABE0ADEA89E9E2C38523B810287AD67A54A039C1606EAFE68F8304610BB9093DBDDABC0B2AE4E290DCDA15376D7E39F72B556F0B32EAB5D3D498B4C41ABADEC3A1434C422D87E8025A84BDCB2B1417ED750FAE4DA8976863974C577C7F902D3F156AD354DEA3540DE6BEAE2BEA52F7A2EB4CA43802E
311
CE5BF2CE2EDC9347179FFB023CE412E60BE16DA0BE29B374988A553F561DC04615DD35F7D2C8979F60E5955CE93DF29DED8AFA1EE6642D53418086C03C47C377910F75F7E8F5EF665F70B60FFB22AEDF897D119E8423C773E819A3C1E55E550599EE6EDCA34D0C86FD72057DF2CD46F16A470682471C164E4346D5306BF12D
311
7D12D82CFF673D41636C347443FEB51B50D72EA171A8E4A58623A4A16E0FA2B8B10A0D23268D87C33896EE8FB73305A74BF224EDBADFA0BD674AB354D63DB7BD5D83426761C077DE767728235446A552754EB93B755891C3C4CC6CADE37CF0E912A7BB38DBA010F9DE1282EDF470CA69A9CDA482E334C4A6EA4107987980B1
311
7E72F31730EBF88BBD39E7C629F56797A3C0009C2C5AE7951D9A05A02773440F02EEB4DE396A3B6A570C72CCFBCD823B0B8ED3F1D5CEDDFED772FA70236C83FB7D86C385D570B87107535572A60A96035F8F7C6A7192F13007246BBE0521855E6AC46F3E27689CEE7D186A6FD679D98CDCAD13333E04EBE7ED6F55FF01504B
311
03041400060808004E783E4C6180134D5F0100006B0300004500000045433642394137322D314335322D344142312D414345312D3433364643353530433531322F536368656D61732F52656E6465724D6174657269616C536368656D612E786D6CA5934D6FC2300C86EFFB1551EEE343DBA41D1A103009551ADAD40EAE28A4
311
A68D9426284961FCFBE5A340113B2071746D3F765EBF4DC6BFB5407BD0862B49F0B037C0082453059725C18DDD3EBFE3F1E829991803366715D474942CD30FB4A782E00C64017A412D684E454CE3FE28995203B162A6EA5AC94B66997D225E109CD63B0135484BAD1B3C07E9080CA35DB3119C11BCA5C200461A68A1A43812
311
6C75E3E230D40FF81FB3F03C91D1E3A3A0AF79FE28E25BC39EC3E17E4C2A2D94A0833A51AF55BCCA7D88572FCBAC529C4140B020FC3AAFA886621DCED7EAD7664CC86024E806DC297DA1BB393E4156543457A4537DB8817349A70F8ACBF09B3EEE2CB2F33E91B65D60786E4E3B39B77E3FEEEF5650424525DA657FB8B46BE6
311
BF064646F0A0F7327C0BC1BC1B4CBBC1C419FA3CCB23500007872A2580CAAE5461865565294E4EDB4617B62FF579DF9A5B2F54E834076A597573A020912FED777F9B3F504B03041400060808004E783E4C1D742D9551000000570000004700000045433642394137322D314335322D344142312D414345312D343336464335
311
3530433531322F4173736574446174612F41737365745461626C654F66436F6E74656E74732E62696E536160607036733137343375D235313472D135713473D1B5703332D6353173B3B0B43433363136341002AACB4D2C492DCA4CCC492C28484D2C4ACC4B4E050A82012F90744FCD03CA26072767A4E6260200504B030414
311
00060808004E783E4CF865834058000000680000004500000045433642394137322D314335322D344142312D414345312D3433364643353530433531322F4173736574446174612F53747265616D56657273696F6E5461626C652E696E66558CBD0A80300C06F73E4B117FB66E451741D041DC5BF98480A492E4FDD18EAEC7
311
DD4555D89EF28DF51A0B1BD8340C4DE7DD848B988C0ACF0649566493F2408C508DDEBB99D5129FF8F1AF8CF5B9503E20FAE5A16B5AF702504B03041400060808004E783E4CCC0D254A37010000A20400003600000045433642394137322D314335322D344142312D414345312D3433364643353530433531322F4173736574
311
446174612F636E782E786D6CCD94314FC3301085FF4A648931B1138414558E2B044B2790A818D8AECEA55875ECC8BE20F8F7D86D0650115387AEA7EFEE9E9FFC4EAE3F475B7C6088C6BB8ED59560053AED7BE3F61D9B69285B56AC950CDED30F8C150E46EC582E3325F7C1CFD352EA7180D9E6AA35EEB014EF6344DAC2CEE2
311
D3F0E01DA1A3C80A6D21C68E45FD8E23543093EF311EAA1E08AABA0A18FD1C34A64964465C26E98040D833D588BA2D455DDE8A6D7DB712CDAA69DF24CFA4923BEFEDC29BB42CF8E9A611FAB49729217906949C8359A8FC1AA6FE5259ED8C933C914A460AC995A583BEA6D401D3648D064AE671AF09A94C10C228F909569267
311
177E79F188837126B76C9234201F9E93400C64F00A3DF94FEDE5BDD9B848E0345EB323E71A2FEFC3CBF117BD9E6279CCCDF5A5E55C6365DC7081ACF0E33949D1C9D7457D03504B03041400060808004E783E4C19FCBB05E6000000600100006700000045433642394137322D314335322D344142312D414345312D34333646
311
43353530433531322F5265736F75726365732F43364437313635422D343132442D344136442D384632332D3436463839393633343331302F7468756D626E61696C2F302F636E782E786D6C4D90C16EC4200C447F2542EA3181A4AA14AD08FB133DF552B9C49BA2251881A9DABF2FB41CF634D6F8C9F28CBE7E9F7EF8C2941D
311
854DCC931203064BBB0BC7260ADFC6550C57A313113F60620870E2269A2D8C3E1295D8AD1D6F507C73BD0BF76E1E183039FB1EC32106EB21E74D64FB89274C509876CCF7690786699E12662AC9623DC0EEC47EC02604C65D9845CDEBA8E6F159BDCE2F17B55C96F54DCB461AFD41E43BEF0263A2F8B4284B750CF51FA56503
311
8C2EC975AA8510E6E1392DEBD2E8CCA9E6EF10FFC40A418CDE59E05A9324CBC86385104E2DFF61A365CB5BE5AF8CAAAD1BF30B504B03041400060808004E783E4CA233C2345D000000800000006500000045433642394137322D314335322D344142312D414345312D3433364643353530433531322F5265736F7572636573
311
2F43364437313635422D343132442D344136442D384632332D3436463839393633343331302F7468756D626E61696C2F636E782E786D6C4D8B490E80201004BF42E6EE76F3C0F216234B883063108CCF170C074F95AE5473F5C4C06E932E4F28601967600677D21E9D8092EDB002539227A2FCCB80E1168D80A6417297A89C
311
5D6963B7129A0D1E8F2EE73AA7B62BBEB8B27DE50B504B03041400060808004E783E4CBE89762363000000880000005B00000045433642394137322D314335322D344142312D414345312D3433364643353530433531322F5265736F75726365732F43364437313635422D343132442D344136442D384632332D3436463839
311
393633343331302F636E782E786D6C4DCC3B0E80201004D0AB90EDFD75167CCE820A4A845D83603CBE602CAC26799919AEEEE0D965E2E908050C6D0FCCE04C8BC355404EB6198129C92351FAD580A10E464065907C8D948F8F166375F655BDC3FDC3B4E530A176BE7057BDC43B2A593FE403504B03041400060808004E783E
311
4C7D07E1827E000000A30000003600000045433642394137322D314335322D344142312D414345312D3433364643353530433531322F5265736F75726365732F636E782E786D6C4D8CD10AC22018465F45FE7B6B4E3307EAA864EF319A1B92D3B0193D7E1ABBE8EA83C3778EEC3FAB476F9B5E2E0605E4D000B2E11E271716
311
05799BB100D46B9962DCFE6E80C2B85A051583964B8AF9B9A3C9CE63F6957A171E3BBC717326FC74C58CB406B30B37580C2DC58C0FA2EB38659434C53856A5CCAF57B6E6F517504B03041400060808004E783E4CA7E677270B010000550300003400000045433642394137322D314335322D344142312D414345312D343336
311
4643353530433531322F536368656D61732F636E782E786D6CCD93BD4E042114855F65426239C08C31996C18B6B0B0B2512B3B64EEAE64813BE1C7E8DB0B23C56E62A7C57670F2E5E69C0357EC3F9DED3E2044837E2603E5A403AF7131FE38939C0EFD44BABD1401319D61A4F3CAC14CAA4CA43806CC6B931638A86CAB6A8D
311
3F35F11E9D43FFACDFC129D269AB629C49DCAE54E5840BC4135D545274A00122E6A0A14C48C6419BA003A8040B91231FA69E0FFD2D7F19EE767CDC8DD3AB609594E20DD136DEF80401D79B916B2C475F0C71C12A20450EA651350591E7EE68E943B042481153282D34327DAD8554EB6A8D56A994C536F0879182D5B017911F
311
C04330FA5A335FD8FBB7D04FE017088FE5A58251F65AB3FFE6F26F15B06D03CA37A80B21BF01504B03041400060808004E783E4CE3603EBE7A000000C20000002C00000045433642394137322D314335322D344142312D414345312D3433364643353530433531322F636E782E786D6C6DCD410EC2201085E1AB90D9DBEACE
311
05D09878023D01A1D34A8419C380F1F82DA68B9AB8FDFEC93C3D7C52546FCC12980C9CBA232824CF63A0D9402DD3E10C6AB03A3397DD192872090D3406ABE7CCF5B5D18893ABB1690CF4DCF02282E5EA8A5BB96FFE536F285CB347F95BEFFE81C9ED5AFF9D5B1FB575BB00504B03041400060808004E783E4CC4F521B67E00
311
0000A300000007000000636E782E786D6C4D8CD10E822018465F85FDF79890586D804366EFE1121D0BA191B81E3F685E74F56D67DF39BCFBAC0EED26BE6DF00248550332FE1126EB1701699BF1155027790C61FBBB01F2E36A04140C922F31A4D78126338FC915EAAC7F1E70D06D7F53178A89661437AA2758E981E0E6DCDE
311
3563B5668466E354943CBF5EDE92975F504B03041400060808004E783E4CCA1DF9C9A900000073010000130000005B436F6E74656E745F54797065735D2E786D6CA590410EC2300C04BF12E5DEBA70400835E500FC800F84E0B411AD13252E2ABF27A55740421CEDDDD9B55CEFA7A117778CC979527255565220197F75D42A
311
39B22DB652EC9BFAFC089844F65252B2630E3B80643A1C742A7D40CA8AF571D09CC7D842D0E6A65B8475556DC07862242E78CE904D7D44ABC79EC569CAEBA537E3521C16DF5CA5A40EA17746733E0B6615DE7217475F386F18B9481C510F1F021CD9FF027EA0E1F5C4E609504B03041400060808004E783E4C3DEE336E6400
311
0000790000001B0000006175746F6465736B2D64657369676E2D7061636B6167652E786D6C35CBC10E83200C00D05F21DCA56CA76D41FC96062B120735B69A7DBE268BB7777961F8D5AF396893C2ADB70FE7ADA196782C2DF776D7A97B5933C430F15651E5469C55D70F80A4992A3ADC954792C525AE70A1E4D6AD9816CC04
311
4FEFDF01FE3FDE907802504B03041400060808004E783E4CA55D2A96F8000000960100003700000045433642394137322D314335322D344142312D414345312D3433364643353530433531322F4173736574446174612F636F72652E786D6C8550CB6E833010FC15B4771B0C81A2C8386A047C414FBD59B643AD041BF951F5
311
F36B072AB5A79E76353B3BBB33F4F2B53E8A4FE5BCB66600822B289411566AB30C10C30DF5505C1875D6865F34280C5FD5001906461767E37640C29AA04C468D95EA00B9F72A40211EA919C08B0FB572CC63480C7FC71B1777BE284CF0CE6334462D8F552D939ABE69E58091EBDC4DF3D8A1699C1A74EAC98CAECDF482BA91
311
B453DB9DC6A69F699997190D7AFDB92E9CE241496075457A5411D4546FA43D57F5B9EEDF6999998CFAE092E7E3687607EC357F3DF2C069B94FFFA8C64DFEAF1AB5094D7DA8EE1B3EF9484F3E078C9639A5549E11A69A1365DF504B03041400060808004E783E4CA8C22D9FF30000008E010000680000004543364239413732
311
2D314335322D344142312D414345312D3433364643353530433531322F5265736F75726365732F43364437313635422D343132442D344136442D384632332D3436463839393633343331302F7468756D626E61696C2F302F636F72652E786D6C8550CB6E833010FC15B477830D81A2C83852047C414FBD59B643AC041BF951
311
F5F36B072AB5A79E76353B33BB3BF4F2B53E8B4FE5BCB666005262289411566AB30C10C30DF5505C1875D6865F34280C5FD5001906461767E37640C29AA04C468D95EA00B9F72A40219EA919C08BBB5A79C963480CFF28372E1E7C512529771EA3316A7948B54C6EFAA6950346AE7337CD6387A6716AD0A92733BA36D31BEA
311
46D24E6D771A9B7EA65516331AF4FAB35D38C58392C06A4C7A84096AF03B69CFB83ED7FD07AD3293511F5CFAF9589ABF038669B5A37FDCE226FF778BDA84A63EDC76854FF7A7E35E0346AB9C4E2AAFE852CD49B26F504B03041400060808004E783E4CC5931B94F9000000960100006600000045433642394137322D314335
311
322D344142312D414345312D3433364643353530433531322F5265736F75726365732F43364437313635422D343132442D344136442D384632332D3436463839393633343331302F7468756D626E61696C2F636F72652E786D6C8550CB6E833010FC15B47703864051641C2902BEA0A7DE5CDB2156C0467E44FDFCDA814AED
311
A9A7B56667663D432E5FEB923DA575CAE81E705E4226353742E9B987E06FA883EC428935C6FFA241A6D92A7B483050325B13B603E2467BA913AA8D9007C89C931E32BEC4470F8EDFE5CA72167C64B847BE31FE60B3CC71BEF32809418943AA44745337252D507C9DDA711A5A340E638D4E1D9ED0B51EDF503BE0666CDAD350
311
771329929812AFD69FEBDC4AE6A5005A95B843254675F98E9B73599DABEE8314894989F336663E8EA67440FD3DAC9F9AA98514FBF68F6BD8C4FFAE41695F5787EBAE703147FCE46B4149915A8AE355619CA951FA0D504B03041400060808004E783E4CACA96BD50C010000B10100005C00000045433642394137322D314335
311
322D344142312D414345312D3433364643353530433531322F5265736F75726365732F43364437313635422D343132442D344136442D384632332D3436463839393633343331302F636F72652E786D6C8590C16E842018845FC5704745946537C8A6167D829E7A23CA5AB22B1881A68F5F586DD29E7AFAC930C3C7FCECFAB5
311
3CB24FB5396D4D0B505E824C99D14EDACC2D08FE0629C8AE9C6DD6FA5F369019B9A816241970366F36AC87345AE39549AAB1933A44E99CF2201B1FF1D002377EA845E632F8E870F77C95E35DCE2A47F9EEE32C043D1D513DC5D7F44DAB0D70D40DA41F0481BDE831AC291A6087FB132402357D436A81E9C08A14E6CCEBE587
311
3E6E4A7A35015E9588C212415CBEA1E65256978ABEB3223939737E8B9D0F686A07F82B1127449A0ED6A812B07E2102D2A18A6032D0F399E01AA392157BF00F30ACD3FFC0A08DC7D501DC132E568CFF7F5E7056A405C6F1DC6E9C69D9FC1B504B03041400060808004E783E4C31014DCBF90000009601000037000000454336
311
42394137322D314335322D344142312D414345312D3433364643353530433531322F5265736F75726365732F636F72652E786D6C8550CB6E833010FC15B47703864051641C29023EA0EAA937CB6CA89560233FAA7E7EED40A5F6D4D35AB333B39E6197AFF5917DA275CAE81E685E42865A9A59E9A587E06FA483ECC29935C6
311
FFA241A6C58A3D2418385BAC09DB0149A33DEA846A33E3010AE7D043261FF1D183931FB88A5C041F19EE9E6F42DEC58239CD771E6721A8F990AA39BAA99B420B9C5EA7769C86968CC3589353472772ADC717D20EB4199BF634D4DDC48A24E6CCABF5E7BAB4283CCEC0AB9276A4A4A42EDF68732EAB73D5BDB322313973DEC6
311
CCC7D1940EF82B3A13AC44C78A7DFBC7356CF3FFAE41695F5787EBAE703147FCE473C159915A8AE359619CA951FE0D504B03041400060808004E783E4CEAFF1EA9F7000000940100003500000045433642394137322D314335322D344142312D414345312D3433364643353530433531322F536368656D61732F636F72652E
311
786D6C8550CB6E833010FC15B47703864051641C29027EA03DF566D90EB5126CE44795CF8F0D546A4F3DED6A76767667C8E5B93CB26F699D32BA079C979049CD8D507AEE21F81BEA20BB50628DF1BF689069B6C81E120C94CCD684F580B8D15EEA846A23E40132E7A4878C3F62D383E35F7261390B3E32DC3D5F19BFB359E6
311
38DF799484A0C4B1AA44545337252D507C9DDA711A5A340E638D4E1D9ED0B51EDF503BE0666CDAD350771329D232255E2D3FD7B995CC4B01B42A71874A8CEAF20337E7B23A57DD2729129312E76DF47C1C4DEE80BE6F7F3A52ECB33F9A6115FF6B06A57D5D1D9AFB868B2EE28BDB8092226514CB1660AC294FFA02504B0304
311
1400060808004E783E4C6E1AABB701010000D80100002D00000045433642394137322D314335322D344142312D414345312D3433364643353530433531322F636F72652E786D6C9591416EC3201045AF62CD1E1B709CBA112672ACF4045D7547CDC44189C1025CF5F8C5B52BA5BB7605FAFC37C39F11C7CFF19E7DA00FC6D9
311
06584E2143DB3B6DECD0C01C2FA486EC2885772E3ED820B36AC4061619A418BC9BA74DEA9D8D6817D53A8D9BA842C008597F4F9706427FC551E56A8EC9116EF9A4FA9B1A3067F9EA93229AF107ED3DAA881A24A7AC26949192BEB2EA40F981D76FA2589C52CCC6C6926FCD707C479DB929A6480963A2589F936D367A33199D
311
3E692E063DC873B73F3DB74F9CB0AEE264D79E1869BB3323BB72FFD25515ED2AC65391044B11A24FA3D98A2C43F82BBE82BFA2CD93FE67B49508201F4215CB9CA528BE9790CE6527F20B504B03041400060808004E783E4CAC2BA04507010000B201000008000000636F72652E786D6C8D50CD6E8420187C15C21D055DADD9
311
209B6CD427E8A9372AAC25AB60F8D9B46F5F5869D2DE7AFAC8CC7CDF0C432F9FDB0A1ED23A65740F498121907A3642E9A587C1DF5007C185516B8CFF258340F34DF630C190D1C59AB0676836DA4B9D506D84CC20774E7A08E6353E7AE8E60FB9F182071F15EE5EEC7CBEF34516A438748C7AB5FDACCE56722F056415261DC2
311
04D5F89534675C9DABEE8D9649C968084A642B25A2BBBA29692123D7A91DA7A145E330D6E8D491095DEBF105B50369C6A63D0D7537D1322D33EABC8D7FCE47624E0F1C7F245F5A1E14A3EFC6AC5910430960F4FA0519A66522FE840EBBF84768A57D5DE583C7868B9963A027118D5383713CEB8D33B5CDBE01504B01021400
311
1400060808004E783E4CB21EC361FA000000A80100004F000000000000000000000000000000000045433642394137322D314335322D344142312D414345312D3433364643353530433531322F4173736574446174612F446566696E6974696F6E4974657261746F7250726F706572746965732E62696E504B010214001400
311
060808004E783E4C96D001F9080100003002000045000000000000000000000000006701000045433642394137322D314335322D344142312D414345312D3433364643353530433531322F4173736574446174612F496E7374616E636550726F706572746965732E62696E504B010214001400060808004E783E4C88E57597
311
CD3F0000904100006B00000000000000000000000000D202000045433642394137322D314335322D344142312D414345312D3433364643353530433531322F5265736F75726365732F43364437313635422D343132442D344136442D384632332D3436463839393633343331302F7468756D626E61696C2F302F67656E6572
311
69635F706E67504B010214001400060808004E783E4C28BB58AF800100009E0500003D000000000000000000000000002843000045433642394137322D314335322D344142312D414345312D3433364643353530433531322F536368656D61732F436F6D6D6F6E536368656D612E786D6C504B010214001400060808004E78
311
3E4C2CCEBD668A040000E01200003E000000000000000000000000000345000045433642394137322D314335322D344142312D414345312D3433364643353530433531322F536368656D61732F47656E65726963536368656D612E786D6C504B010214001400060808004E783E4C6180134D5F0100006B0300004500000000
311
000000000000000000E949000045433642394137322D314335322D344142312D414345312D3433364643353530433531322F536368656D61732F52656E6465724D6174657269616C536368656D612E786D6C504B010214001400060808004E783E4C1D742D9551000000570000004700000000000000000000000000AB4B00
311
0045433642394137322D314335322D344142312D414345312D3433364643353530433531322F4173736574446174612F41737365745461626C654F66436F6E74656E74732E62696E504B010214001400060808004E783E4CF865834058000000680000004500000000000000000000000000614C000045433642394137322D
311
314335322D344142312D414345312D3433364643353530433531322F4173736574446174612F53747265616D56657273696F6E5461626C652E696E66504B010214001400060808004E783E4CCC0D254A37010000A204000036000000000000000000000000001C4D000045433642394137322D314335322D344142312D4143
311
45312D3433364643353530433531322F4173736574446174612F636E782E786D6C504B010214001400060808004E783E4C19FCBB05E6000000600100006700000000000000000000000000A74E000045433642394137322D314335322D344142312D414345312D3433364643353530433531322F5265736F75726365732F43
311
364437313635422D343132442D344136442D384632332D3436463839393633343331302F7468756D626E61696C2F302F636E782E786D6C504B010214001400060808004E783E4CA233C2345D0000008000000065000000000000000000000000001250000045433642394137322D314335322D344142312D414345312D3433
311
364643353530433531322F5265736F75726365732F43364437313635422D343132442D344136442D384632332D3436463839393633343331302F7468756D626E61696C2F636E782E786D6C504B010214001400060808004E783E4CBE89762363000000880000005B00000000000000000000000000F2500000454336423941
311
37322D314335322D344142312D414345312D3433364643353530433531322F5265736F75726365732F43364437313635422D343132442D344136442D384632332D3436463839393633343331302F636E782E786D6C504B010214001400060808004E783E4C7D07E1827E000000A30000003600000000000000000000000000
311
CE51000045433642394137322D314335322D344142312D414345312D3433364643353530433531322F5265736F75726365732F636E782E786D6C504B010214001400060808004E783E4CA7E677270B010000550300003400000000000000000000000000A052000045433642394137322D314335322D344142312D41434531
311
2D3433364643353530433531322F536368656D61732F636E782E786D6C504B010214001400060808004E783E4CE3603EBE7A000000C20000002C00000000000000000000000000FD53000045433642394137322D314335322D344142312D414345312D3433364643353530433531322F636E782E786D6C504B010214001400
311
060808004E783E4CC4F521B67E000000A30000000700000000000000000000000000C1540000636E782E786D6C504B010214001400060808004E783E4CCA1DF9C9A9000000730100001300000000000000000000000000645500005B436F6E74656E745F54797065735D2E786D6C504B010214001400060808004E783E4C3D
311
EE336E64000000790000001B000000000000000000000000003E5600006175746F6465736B2D64657369676E2D7061636B6167652E786D6C504B010214001400060808004E783E4CA55D2A96F8000000960100003700000000000000000000000000DB56000045433642394137322D314335322D344142312D414345312D34
311
33364643353530433531322F4173736574446174612F636F72652E786D6C504B010214001400060808004E783E4CA8C22D9FF30000008E01000068000000000000000000000000002858000045433642394137322D314335322D344142312D414345312D3433364643353530433531322F5265736F75726365732F43364437
311
313635422D343132442D344136442D384632332D3436463839393633343331302F7468756D626E61696C2F302F636F72652E786D6C504B010214001400060808004E783E4CC5931B94F9000000960100006600000000000000000000000000A159000045433642394137322D314335322D344142312D414345312D34333646
311
43353530433531322F5265736F75726365732F43364437313635422D343132442D344136442D384632332D3436463839393633343331302F7468756D626E61696C2F636F72652E786D6C504B010214001400060808004E783E4CACA96BD50C010000B10100005C000000000000000000000000001E5B000045433642394137
311
322D314335322D344142312D414345312D3433364643353530433531322F5265736F75726365732F43364437313635422D343132442D344136442D384632332D3436463839393633343331302F636F72652E786D6C504B010214001400060808004E783E4C31014DCBF9000000960100003700000000000000000000000000
311
A45C000045433642394137322D314335322D344142312D414345312D3433364643353530433531322F5265736F75726365732F636F72652E786D6C504B010214001400060808004E783E4CEAFF1EA9F7000000940100003500000000000000000000000000F25D000045433642394137322D314335322D344142312D414345
311
312D3433364643353530433531322F536368656D61732F636F72652E786D6C504B010214001400060808004E783E4C6E1AABB701010000D80100002D000000000000000000000000003C5F000045433642394137322D314335322D344142312D414345312D3433364643353530433531322F636F72652E786D6C504B010214
311
001400060808004E783E4CAC2BA04507010000B2010000080000000000000000000000000088600000636F72652E786D6C504B0506000000001A001A00210B0000B56100000000
310
504B03041400060808004E783E4C000000000000000000000000370000006662782F41383939353830462D434534332D343136412D394634372D3246393738303934353239382F617474726962757465732E62696E504B03041400060808004E783E4C000000000000000000000000350000006662782F4138393935383046
310
2D434534332D343136412D394634372D3246393738303934353239382F76657274696365732E62696E504B03041400060808004E783E4CF270F1330600000004000000360000006662782F41383939353830462D434534332D343136412D394634372D3246393738303934353239382F747269616E676C65732E62696E6366
310
60600000504B03041400060808004E783E4C88E57597CD3F000090410000420000006662782F41383939353830462D434534332D343136412D394634372D3246393738303934353239382F7265736F75726365732F322F305F67656E657269632E706E67355B773CD4FF1FBF73E71C0E67EF7576C9DEF3EC995D46C6A1EC50
310
46649CBDF79E192942562825CE965D8A868C2842C8DE9FDFD1F7E7F138F7078FCF6B3F5FCFD7EBFDFEC41B196891913091804020321D6D7513FC77D8C5070EC3FFEE51B21F068154CC75D455CC028A3EA68992803810109FDDE5D5CEC5521B28A1B422BF80741695D5B529DA1C2D058AD2388BDA9F476F7C2CADC939304173
310
DBF48A452BF8A700C0C70C3D121C1AA15A5270C22E2B9E28763651F7DA0D12CE11077B2ECD0D560B5E3DE2368B1E65C5E1C87384A4CC5F2D9FB8BE39E9B77C753783A37998F5CEF1B4FEE553463245C9712270880DF339E0B882A6BA713D865F6F384C842D440934EF264F4A304F8DE4EEFA1E2BF5E2D91F5ADD9613D6E31D
310
DB33ED31DB1D7916CAF091286EA3D31B9CFECB78BB0060245B943C4C040119FF780A74DD308BA9D028678674EB5504ECF284EE814DAED07440BAF649BE4B55DA2890F4D73E2D489A59EE54FDB0A85B59F2F52C4858A02705C4815A792B0C4A996A2023ECB195073E115E3E3647F64243A8338F2000BCB58DA5692C7E7C3D41
310
3F963FEDF3CF00FBB0F831A9D51360FECA43819F527B89FA260EB63C5DA676830AA3626A3693B23F1A17A0DFFCE3EE164E31B5365EDF0C89EF64D8E38AB0BA9A1117D7C3A0EC44F44F4023095E80BA610DE336D0F99593A88BFC5306E72DF98F7FD132ED95878DF2964EA7E43071359FD83B2BDF9C6B5BDF768F0F3C0FC351
310
199526F53D9460A34511F75D1B63E488178569472C91A94497807A3FD4A390C6558F26D416365C3656DE6E769DA9D8FC73774E1709812842DD8EF96AED1960F79D21B395CDDFE6F92CB4EB962A4668C76990E2EF29798C8941D67DA50F4A5F947872460F1F6FDB794E8A29FD7AC0C0D6E0714339CE258FB17AE8535221E346
310
4A10F29A0BE5EEECEFC5675926A89F49EB14E5711894F6586DB5754EB4D5DA9C6437EBA57DB97A24F8B8A8DB295FFD73266CF57E82694DF5166DDF93573AFE9C9C5EB05F8FEF8E89E0A8917B0B3724DB7BEBB53252581EFC3E38166BA131A3A5B42FE2AD00A769BBFA4458D2DE7822F8C4F63D0B8E21B285AE13325F3410A4
310
35C648C9D91FDEB109E73CEDA7BC796961AF79175E1A3CE4C5E8B0D009B0C9E29EFD98BC8E97554E3D8D838424E270F7685226E5AC268E021EDE3522D583E8F20C0BDE2959EF5BBFEEDAB32FE9A3ED0E39F211A86AA9DEBFC68182EDED132AB8BB794442D2D7EA9F4D8BFF52BC4D55BB165124EE90A42D101E67BBBB292FFB
310
4F66DE5BF2300E44546757DA7CEF8932BFC9F92A0707953491A55C5A5ACEDABD9FA1AEA01BAC3DC5A24E22E7C47213493996EFBC369D086ED9397C9BA6C7F9855C7BD5E15BFC8C53DB3D2A4C5901A57ACD2FBDF4D1676E95338B2C2BCE65FDA4C64F5FEFDC7D9CA5AA1FCF11E193F2FDABF0F4916BF13FB916A224380E6462
310
A9815F2300DC49CC4DF8D055CEF76462F4B7A7ACA7365C2707891370BC1D0AA6203C44CCAB47084FEC057F27FFCD57F89B8B9852459798A675C66BD7CE572CAF71FF7E6D7ECF7BF62CAB7B3F1107DCD04DC55A3F9961700286141C94A4F771FEB2BCDA2DDEE0CB0BAE402FF1DB0100F8E475DFFFC074DDB4498AB7D186A765
310
4DDB1CB680D703D47CEB4E72F8CB13D86A4AA68116E26387B93FD6738779B34FEDB8E517EDF2BAF28D9BE93A1D3A164320E07D42E514725C29515FF361754213EDE06B079A2E99EB1CA82A02019EADEEB87B9AF005BD04BBCECB14AACD6B24EFBE482194A97DD32400685FF1FEF1544D1B14EFB1E7F08E6D2CD2AF52DE757F
310
35F5E62332EE88EA26417AD5C3E0E319D68F25414E6D672BD4522B278C57D18F0113921C71D96527E091F00CEB15AE23D24667369BD3CEFA10C7549D930890BA4366F4EBC55F01F746109F98ABCDD5A3EE06619C6AD78AB33E48E4C9BD21BF7478B385EC05C4F8987E2C1BFA0A60EBEDAA0AE0B015C2720ECE180FB6F2DEFB
310
EB822D96338C9B63822183BBF52FB664A7AE57003AABCE512BF77E7E31BDA2E739AC4C131657DDFE5225E900FB56CC01CDE808FA4A9C9DA16AC679656BB64796283D89812B8F91136AE18EE5EBBAF47A73BE3C153EB5D4CD491B4BFB4FE690A4CF9ABA08C0D8AA64220C438C96EA6CA80B58FE5761E697B3A292EB9FBDA502
310
FA863E49FE694ADDFFF9D62C520BDD1A22014147A0903A05B9B729F54272EF83931FEEC057BFF8C8055C279EAC5C0011804828734024F6CFA319C9CC6867C727184465CD9BB7ED386AFFD96B294A85E3802FAE47244602D8273615952B98C4F23F7EAE4463D9D638EEE374A20959E0FE519C4CFB0FBFE5DD80C2AA3F9DB961
310
D1BDE57E67C9BB47B77FDD74EE3094F5DBBE3EBC1FBDB7393F5116263009E2EFE1AF9A221B2AE234C902BF70E9F280ED23E73908361565964333A3F01D0B006AF32FB21AA1316744B489D5A198E85299241735BE559675130955C902A8ED761FC0DBE337A9F91919AF5CE32AF902ADF9AB2615E00E8A94586BA1A90839B618
310
32FF1BFB76D2EFADE6DB1BA04CCAD3DA649E7E2A0219F592E22F2AD54847EEA8E42271011E9074F8F3DD9FBA6CDF88FFC9FC7E811AD1CA8F4557CE4AFC7BBEDCF0114A48689F20A584520C74DA8127124B767E2FB91A6B186246727BE63C9445BAE02088D58B8EFDC0F1072407CD9B89A13F6303B4A928F593AD489B58E686
310
9325790ADC406036C591729FE14021F94B7796BB11848D463536A092A26F077F94639F7CEEE2A724C66EC885F4A24F8B8A0AC321F8FD149BA529460FAA34E4663C02D41FDF80BCA222D42F0ABFF8490F4FA74C673807C2051D8E467B47B616072860069A9A303ABA9B319D58404461401B0A0F9BE5E1E151C14BC33B32ABE0
310
3DDE91708DFAEB15E7C0D593C86BB7D7EC17BE56E57975F077BFD5525F3A1A361D584A75E08CF29FC7B44B2B3085014F3A5A14517377C3F6B8F37E59514C3B12F8AACDEDDA4DFC49BE5710101534CD6FB6DE15B50F11A09472AABA727F0C49D9CB906B158030065F48EB3625E010CEC1D511D0053474B11E6A4F01C0D6EF1B
310
ED3A944FDEC70E0DDCDC756C86545910E0DAE3BE3AA9A404574C2995CD5CAF9549226BC94B4F4F0F5F9086F418F6B32346464610D8BC7391D3C3A3CCF04CFC1FB2A3A3170E369511868F14EEA4E5E438CC73DB1F3248AA94B6B2FF33B222FF3D1E7BF146CAD229770158063BCE4F5391964DF62F7E52A7BE0EEA829C9E13C4
310
C147D6F93FE59E111DAB5E4594D6F3CD1AD375EE039930EFE5AF2BB2D41C83C7DABD8C659BAFBE8FAB392CA634F3D15C1D945DB4588D2B0824A4EC928AAC565557CA2F0DAA588CA5BE30B3A8004F7BF005E96CBF891D7F18112A3619FDF530DC8AA64954258E1811789B5189B49B4EB53F5F89F7D37523894F3EB57B373763
310
C91E502F52CC99EB7BDDF933FC324C4FFC2561DFFA7339FAFDD0A4BFBE6D3A8FF9ED1FC49898139864602458968913181918F719CCF5A68B2EE9C1FF050E34E63107003B8120FA982C21B30A874E4F5E4B38D5A8290C4B8D9BE48A0BE31EA995BDC37AC6DE90BA17D259DEF53605D55922FEB1855D915B659FBEB350EE0DFB
310
2F9F766E1C84CC8964B75D08667445EAB966015F63A18A9E0A325C1B3DC628C0D3CB60F767FA93CC65F25458BD23C3B312716E5F40E5858AC06EBA9AB14F95DB99147B832069201541D09A0D856E12C629CF32683760EE855537D1901988D5EBC156676C7DD51D7207CF3267AF1D76C2AD867315E44618015313A98B19941C
310
696FED3461CAA9B5415F918556D7802EDACEFD6B2E45853A9735DFC9DBF7E440F9319F8B6805A973BCCDC76C069A9144E51F187EDCC12FC31B5DEAAF0A76137199B106EC84ADA6B6EE697D4E6A96E007417F4E880E8B1E89B4BCE9D81EF611E2ED8F0C1A6C25F620FAFAAB656A7C42D464880E8AFAB0E0FC8EA38CA9A8AEEA
310
EE3E4648BA4680270A89743CDD3E6C6CBF34B7B640EFA285ABC7EA0A1E28F3CC963D114A80123EE66D0AF7D5380EB41909B605AB4765B709B808590458157E69BA1378FEC4B48CAF6A730E3BE3C5EF2DD1A5EAF94B1DDE50CEB55DDFD7EE9A16747FA4B223359FB1FCC69E1194892BABB93A1D5C4E807AC0EA2E30180811E7
310
7A2291F6E7F7FAA5E0F60215BC6024E48DE436C511F0628B8CA189982D4D83CCA17D305A7E923C37941CFDFDCD93ACAF735EF5F0E61BBD3E6C41A59B242790D3A3BAC7064DCD89AA2E37214EC839820949D5CAA31E240D2948E48F690298974A96BA9A8432BC90F5071D6537C9666EA4564796B7AFFFA548077BEEA75F6308
310
3435074BA182F3699557397F71548383FDA8CA34D99B981E72835ECDA5DDDC151315173D05A21F651AAF8524E88209E2E7A737ED1045800CE3390050BCFB8BE588DF111617874C62575039CA588EEFDEFEFE319B739DE2EDC147092A262611E159650E787917885EF08F1F51B8F2D8A71D60B58B190FEF9541A1BE94BC19FE
310
A50784DA1419FE4B0FB51B8D36B5FF8E1286FD8AF42B91E59A5F1CC4D60174E764045FD8C57B18209B217F89A62252BD20BE0E63E12B8E8F029FE19E0E8D0870F58721A557082250D5424F7909369376E41666C0EE77CD87CB283F661D5FB6D0DA023CB67320A20DC7BE661E9E1BFE5463085C557DA1FF9BE835733766C3D1
310
39F2CF9E2208873AD0EB4814DE9E6BF2CAF81614D4D43906ED1C05A3265CABBFE192770FC2F64F940CB6B17B5F166F133C9AEEAD2641807C3E69515171DD74C4A85311513D6EC9530B3B601B6BA3EBFF3B5C3D2F7D69765141E345F75433953D013ADDF8F6AA7DC3F4A7563FE5C7D367937E2900D7EAD0F9FC9A4A1A9B5BDF
310
1FEF08532660C01C5D6DE22199AA774383E306DAB87E301ABB7D213887F9869D4942D0D71E94B27EDF216A318BD488D45DF84529EF575AF3C3938C0AAA0215B01994153E2054A0B894DA5C784980633AAD48576957CF4AEAEAFADC7C587368551C73DBE1E57C58AC713303A8BFC258BD04B51724459FF9E24C03A81E0E0679
310
CEB9B348C0DC998FEB9C6D6EFA77D247CC8F92D3848599ED89A23218D0636465AD1CEEB7DC140D7426F83491C4E8E8281C2FB35240918FFECE880CA2A42D70E8B20B34DF5221C7DB0CF90ECCB9C745B37A47E9B716FF7A97B7A252C1F3814DC7B1E1A7F72B8751D524EF7CAE45B0C73B3BE7D08ED39781B380DDFC9AA4A474
310
9C9493DB5BAD07A6EA6C092FBD0E85DB004DF06B8C9D3089C5320187E4CE1846158C7EA7DDAE8AD9AFFF21AA3A1026BB06A259845E8232DEE62811A4DA9CEAB3A4887320B76E2AE5615EAB7BDF738CBDD01F1E64064BC13D9EC53576751CA8CACD58B3CEB0E6CA585BD089B2A59B9FC101403387AADBDBE70586B93D64BF3A
310
D4453EF9C3B6A93817E8346991798601344F79A83C51F3D50F7BF2683A3605F51A72449489E0EE6169C749C60B1035651103AEE24D24E51A759C840DD3FC6504DA6FE107510E447B43461C79D22970B75DE5E1BD3007D1AFC619A4A4A69B5626AF5E9B8374E20677F77E2F8E73DF868E8BEC7EBA7B6A75EEF7205E1AB9486C
310
B642741D6E03FF13FCCEDB1C4AC129886268B01CDF4B124AF797CF784F3C6DEC97A17D4B558070A0F1C04DA4FF9BDBF34159AEFE958479824B3F58EBD1E19088A2AFDE501B6F2052368A3FD0E650A179EFAB1561E1D27527077136E652676C3670F42DCB3352F48F6BC86D2C3B0051727E41A0A4DC6CE2BE9D47F5CAA2935A
310
3C0539AF080665997194ABECD723B08129CC5B6B21D2E7D54CD4D12610E7E9FB8306771A89576C7A982002775ED44F3F744CF21EEBB27A631671D921938AAEE3EB0D19CD1E083727F607823E817BF599DCED5394E37EEBC2E88782E638920CA641EF74D4CDFCDEF06F4278ECB18E31E7E9876F2D783C8BF429C75395F57E98
310
C2B495A3DA077EB3AC3C158608B6B57FE3EA48484D9A480096FCEE0DE880950E7E5A5714131C5C41AAA29FD19AE81AC145FA1B9E85C7169A5AB837B213493DF7E9AA4B5FBF9CDEB36EBD21EF1181B7CF7366AB2A951D01E37AF4EB835D1BE8C117CFBE7625D2EBCDB0B20C5A4B45CED0BCDE3EE8DA9DA78C2E21DEAAFFD119
310
7E463C33CC6A80FB785669B856EFF7A8CCCA2841B5A5369173320B1170C368B2748D81062EA0296E5E2D95D7667A4A46D98A6FF475C76AAB0A8C8D45E226FAFC9FE0133EA9F60111F99CA81ACE03A1D14C89E8B0D69079C91464FA1D99E651D0EAF606F345C42A8A1AA9BA391031582B96D5B4176A77AADB01F12FD298A75D
310
EEBB2C82F0B8650E880722F8DDD90C56A7A058E5FDEF1AC93545BA27367C76F5D8F9690CB6F8DAE141EDD7971F0FB548A2AE435F224D6E5954CA155512F7332029D5A1230854B79F258EC5FFDB09F5F6343A8EB193229B7F7E79B3E48F8E183860B38C8269D1B53738FF1E0BACF6AADA6D4869E9DE708E79B5DADCC09B1BC7
310
6F649731CFAF59A83FD8BAE4C749D66FA87A3810D4D62FFE826FA400C0F325D2BC0F3CA35F5847B82A2ACC7961745C823E4D863D54460AF792CE6F79B5C7A33B25C3AEA6CDE15A919B6367D781E9D44F61BF828672594A3E1D9EDD6DF179A81F27EAC05B936575D73E05C209DDD2115CFB705DF9BBF3C911589B3640735E9E
310
618FC9C36A7326C82B2205E244C55D56FDB9D5DC93CE958D4BF8174D2B3DA54CB3C09F2C2A6DFF73D23B2197355761AD421EC581284A7EF8DE2CE3497C0C804D49B41DFD6A7360844E5BEFFB495CFCDB97A4595911CDBA623274CE852B5E278AF0BEB1770E9D37CD977B2766A7DED0E94B840E1E95E8C77DE5CB6354AF7871
310
427C28ADBEEF7BA0A28E19DE9ACD75F379FE373EAE6DDDAE3834692F9C2B03B4FCA8FCA9ABE8EEEBEBB725B88A7C90941E850682CA04061A7DF0CE82ED49BFAFFD42C309818FAE14755CAAE78B0F73243ECCCAD7DF58FCB9CDFAE7A4D3E6671A613639130D056C8383C8F4FCF4808C331E544DD26E4755D09EA05253B3049A
310
1E32587CC25D72E073E2CD96D04A71BBCB0038FEC3F53D254199C3CDC67CD66640269431860225392B2CB3ECD0B4498AAE78BA1994246AE1EE78F2EDFB79F6C6CB6B5E279C4D373FBC21CB2698C9ACBBEB6A4BB6B39E16AB0E421CCBFC7654D81ED86022F9BB522146F9F4772E2D0E4FA70120C95A85A417BF5078B232F475
310
4363EB1750B2AC2148EB46B1EA72AD9B4D23ADCBC589D70106C3EC2ABEEED84DFE28E718C6C83502C28E9FDD3B09DA0A6F6F7B72B706A31C9E2A331EE70DA56A083D2177BFD63C55B11D8D949FAFCF90B23A1E24B9B5018B9A17E99F2890EC302F330FE7936E2C23F0D237EC8916F5166AB84B62A21BB0B950146962D754F9
310
2CC2C8877BED8FC7B7B25726DD19545392570B3A2C66B58F027BEF412E552D12A588C4A3CC5C3193FCB3485EFFF700D0B9EEC077754A33DC1FB9E25AF814628F91DDFECB667D3F7690803F38D13F8AE39353523BB08FC6760144AFA2CE28236F65EDBB3D5F59A57D612B99E3D7E5F8A851666BF9B5A6658EFC96EEB37A378A
310
BB0EB3FDDF1303AF32C41BD1C8560745D7BD81066B0D6313359CF488563D3BA3F8E2185D1FAA3EBA1397C9D0E3DD232180A4DCADB6AF25DB3AC3CC26589C8239E66E81547BC7E2F328F9884764CA37EB5DBE390DFC03A5246B456A7C3684C4377D0EEF9A350680FA9A077E8B2957B489E09AB1AD41316944C2254B5984830F
310
691C93CAA767EECF976FA5647538830B5E63236A6F0365C1E0F3E327F24FE35EDDBD7360B0F7374837409F7A6311BECC12B7026D4FA1AE204FA3F5FE904B1F420C7A9044AE58E403E7C4848E7DA25DC9EDAC79DD756FAA26B9EA83ACE8A214A2612A22AFA19DAE7DBAC5F8CDE1292A485F98DAC731A29FE01A3966E96BCB9F
310
B5A4C8830E1B9AF0C54B87FBE221A097036E5D28D1F869F810C06A9BB0AC0612F69AEBAF893C6E7AD59460208BAB3A6B09CA4F6BDDAB8CF0D1F84B72487498395A70DCD754796E271099A567A55CF242BBED64696378BB6CF25EF0FCDB589F3A82F1116D010A9AB9FA4358809EE0C973A2B4229BAA876A70B03AB49CBA7FBE
310
71DB1832FFD32F9BF2C8E98075CACAFB36921235D0F552B6A67E94E094097A5D7DF681B40623DA535ADA7A9AD8E9A62407D7C9A5AE51D62A17A83A23728DE86BB56115804D3F2675F2C6B87541A0FC497BF0CA86420F558C9859EBE9FAD62747E323E3AADC03FDCDDFE7407B09DA90B44E3185723C5381EAEF589765E2F7A0
310
99BA46695BAD60CEF3491B8A171F5F56444F7CE9455312C3498C74173AEA0214EC029833B34B650CBB5A5508D5091665309642791708ECF27CF11DB3D797D6CFE474453BD4BFADB768094B2147814D81C7CBAF8228DCAF5564B5891F5EF6A860EB2E323CB82AB868D8EA048880D63B0DE5341F1B3D53297B928A11E15F25E5
310
148990F710747C3509ED14909C552EBE3973246FCE55D00564D8310BC3EBC5085D08D806799B77D6C57FDF5E55837F9E934F09C03C729271B64F12D0A9F9E938107CAF7BF1EC8CF1BB9B42363D33070F4CACB425E605DDB0A34A12BB936DE286B9887A4E2E558F0886498BFF49C311D96C277CF6A9FC0D75AD0ECC5226D7E0
310
E3572012E56D7FDE4410CEC7A6D0F997F225A2055B8B92E3956E875AE4993CB3D4C9063AF98FD45E1BAB165640A43439A2C9181A7C355B297C0A0CCFFAE19B6FA3C2BA238A885FBC98B8F6DAF4B94B97304878DF4D8BFF6A4AEDF79E90ED4E68F00CD7299F4E0D83E35601AF0CBEF18C1E870E74758FA91F5131075004DB3C
310
FCF09AE1DABC11957FD9808C92E8A678CE9DBE40DDA0E0D1D505AAFBCBA208232BFB6FB3704E8985E61ADE53DE74152F5C7DE74B1DEDCD37DC3E8FB30D7EBA8B9EFFC3606BF90B8D438279CB7709FC7C00D327F41817EEA71CD9E49FE9C8C9A81C70915D9F0F15958EC5AA4C3BBFAF46986B90F188BDB24B89DE3C6F29EC3E
310
6F66D84856EE96A35E657CA41B41EFD8DBFA16AD6E91439EA92B40B21C053249F51AE50EB0B24C770FFAF40DF12C8436366819C48E36547D4E7B72FE2BBF10828583057814A668BDF183F6B2E58DFB151103E56303E63D00F39C27C4661605DB644D19175D02E3F0241E8FC3458D17AAAADB117CE9EEA690D0DB01E634878C
310
04C2C9310B69FCAB831151E3AD293BEF6E46B0ABCECB50F5939B39C613D41E81FAE8D34CAE3C4566B761D37185FE864AC32FCB71AEF39DAA5BAB88609BB980CD2F07A8F941653B529567726E2B2A58D079DD57E1E5E31426CF184A04D7B03B985F276D47406AF276FE32E3328BA866EB1FD39BEF57863A317634AA5FE46740
310
9B3873F5069EF0D71AF00AD189D17BA1974ECDB2D623E9E14086386A6AAB5807825C37B015BFE892AFD154920EC437EB945D958E18622E1E0FE2FA06557CE4BB9BBD05A2D40E774DA2B65473791E314B7D6C886820B2FCFE4AA272B3B8B15E7344A145E8AF919B5454D89D36D413E87211186BF6F645E5EC94DCCE8E1C7990
310
22E4EC9BC86D7A0F2AFB1FC4B2CE48F84B3F49ECE65BAD24CADCC07EFF39AB06BE9E6B27A059938EA7208838455383DDBCFCD967DDE4650EF92A14FF933C975DB20BD7FEEBC4487576485963D757D16340D9599FEB362F775F38CA4185A86F74B629C81B133644A3B18FD056E997E0734F9BE26D11C0AAFC669E2AC9FC41D2
310
81F8B2E1C35AE27BCE05F3DA295488096688719D974DF1B5D182DB7792288697F8763CFB43562C1CDEE11C4AABD5C22B6E33F6F389CFC3477C5919DC0D533F8A7A1846B7ADB60ABDC26C43D0CFC8910B7C15EE22675BD02702ED39DB77A87A192CA7A543E6205B979B9F5A6B512A3CA799E198B2D5797C0AF8D1D872CA455D
310
4D431A7879D4DD76110B5FF7F4176B54477A9EB5E4A5D11214FDA585F0382751D8E2582BA5D2075053298FEB8F1537304E32CB22C2E2B693DC0A760B1DFCA751BDC445AFDCBB12820ED85F6D5298933C7EF1211E9E057684056CDA3FEF3BB6052355E162DF27C59E965A8DDB7F9437EB72CDDA3A090DE65A5B2F50326247B7
310
EC67B73ACC7047FC9B353D6EE990F772207C6EC52B39DC2F3C0754821DAB559F7C1809C7D0DD5B0499D0442E0A6E391B3D5DB46D11E731E6794EC77523FBDAA242ED67F9FA1FB684255671F63C9BCFE6E7E896D51001A6113EF2298BA494E0B0980D1FA5B9D60796554C02256B1E0345FB7C6186B6A19D2DCA270416262845
310
FA4F42DB5D9B0A0B6F07FCA2E56C242522E001E0CEB734AF310FC8BFB57E38E03AACE93B3326A2197891E68452B26A6307FDABFEE0223D3C03C3C73D2D5BC054C8311F12004CAE488E5C29287F8156A2CAA4AD0D7BE6B97264E4139F437CE73ADF52E5134C52B819777C18B323A5924E4F67AFD13B1CDC3A61793A79FAF5C0
310
CEB718E441071E797C6DCCB9EFCF7E4A1E9F3DF3C2F9C9E8294E9586868788C972857FB0556D7A26941A7EEB9B580AD78EC40B85DC906B4120A563CA3B87797ED612D3B035962BB75F6515A393F4CB057F564CDF54F2E5A024514E6A1F901DB80C7E70B1FC05E356A7E72FABF4775B3E3FB8F70A2A8E7B6A94542BB3041579
310
78CCC999E707A29CC795E67A59CC546A5D47B368954CA7B6E75EC9E1F6FC73CE3B4F71F8CB1A6B15923D61EAAEB14626AAA9D04A26EB9C66CD1BE86CA31A5D8703DE04CD1EBCE4F5CCB62F93909AD11E55799A781A956ED27D3E738F4538CB04ADABC7DAEF20BC35BA6A90BCC1DC61BA05F20D8832FFB9BC9B15E2DB838A0A
310
FBB7E0C82A562127E0446894F427794C3037186F622BF24DE1B00AA10A23BFA47B2A180D6DA5AD6F7326FEB8C100C2D7142EB2A0B2A9D1008A09BA343D70E054AB69E2A7EDB783CBD92537FAF4A44D1296AC2792729104B3276C276C951D0CF3CF3F1E6B017720A7B8505A5FF9589365979678C36F1BAF759EAF57C60F1FF5
310
FE9DCF5F8E764FF25A2D06CF25117A8FED51884C13B2B750DB0E4F5E3D64124FCF11F0AD8F1CC3B3DA4B38ED22BF1CB2585EE6BFEBBA63FBFD44F9537B9B37BDD6B358720F98A8125AED4349CCFEB0E135F19E208A04CA7E2B10711185D72E381F448036EF57C9F874E54A971CA37A639E986AC0226DC5AA00D5B14FEA9192
310
234B3DE617814FC221C92F33F1D392F297731B567FD98FD91D989379AF567A65B8ADF177591DB90FBEA99BF4ED11B16E50A0AB1DBF1156D034BBE04D69D08F939D8E92BF525A1DDAFF80ECBC95D8F45D3FDD289FD23F7D8B452F8EBB34EC082DEEE68E18EDDF072060FAD2AB1504DD4879BF67099FC58F6E9DEFBF645D1633
310
4A3E9A127C6F1AF6132CF287E433B43A0EE93812B4AA0B194E03EE3FF91EF9C6ED0074A2F6EB18A96A7C9890B1FCDA1F2095E944DB911ED54C60DF16FB74C8CE9BDC7C54C4F14078CF73C2FFF1F1BBCCD7CF64F71407EA1683DBC410D226627F66E509060D5C0AFD611DE681D509DB8DD12FB1265B03C6F5C55FF4C30BD941
310
87FF692B4F152982502F193098A789526A038AB529A52BC0DC4FB6285CBAC10A8B8DB75DCD9BDABBB221E27D1F8DA9F5EE5926A1C8AA9BA9BC09239C6A7F12914EA3B59EFF7AAEC3FFCCE56F1C5C2980AD072793527565E774F4631DB178CEEC691B1F367BEA0CF2907E1D6B854D527065979DDEF002D8B2ACEA7CE21AE297
310
737EDE1D45B31233B73FEA35BCFDD0B09721FDBAF6432681F2FD10C3E9EFB246FD6E854B344ACC9D8A0EEF876A7314B49B6A499FC650B099D650DBFEC7638ADFD245E2B7839DA5AC5F7D5623FC0ECEEC8653FC9B2BDD1AD4D00A566FBA7186DD3C9CD26512551637498CADB950FEC71ADB9A5524285DE328B8EC7EC75D2345
310
AEC6A27C42AF6D9B92155315C80DBFCABBB7DA0FAE425C4FB896B15C9BFAC4FE67DF5A23D30C93DA4D8F36FB15D100050DA6062E22AEC5F4DAC4F6FEEF97AE05DE63C6D38F9E068A20BC5E3B6BCD75320C5090924E7F93640A7735B1A43451C2D91EE62C6238B797349E59890AF3A520DF4A87095F3ABEC2E61F0593416CE4
310
6CDCBE0E00E2523FCCD04408588B5B6C9DB6459C786CE378770B54F51DA3A5E1DF2A3349BEAAC234A6CF8993B598B3B25B4B113E353A4D750FA7534749430F3EBF2512E7EA3FD43C6AB9A1F765A58463B306721A15D224FAFE8C6F5E3432D57EE697DA0DD5A9D4866A8BCCAAA9DFF1F06047851408FEC060471D0E3EB86BFA
310
F46E4B5E60311DC3E3CEA147C75CF971BE74689507154FF2D2E92F15CDB2B9182B11459FD8ACAC5A85F174BC94A7F4EE4C4F5CAFA7C02E37BF0BC77B7DCD0C047BC316F562A01A441AFA7931CC84A28CB9F4AA367EB515778F29BFE61195FA671F4352E5E46E3A64773F1F76EE5EB36D7BCE9BCEAD837A4D77F8DB8C92AEEF
310
6711920D7C7D0F76B0FD0EB7AB83724CD35BCA7D36DDDF5FBB7FF6F04A91F3E2BB3B8F1A43CD659639507FF6331C5F697BCC782AE57D757A27D97F1AB9E0AEDB43F92F1B2AACDF5FEC8ADBAF9F814E2027003BA2F9E144B1938A7A04050AE5D953B82C45619165C813A10E76DD6906B3C16438064D14CDA713AEC420034613
310
E1AC7241904A49FBF87409AFB1FCB9B72FE7933A87D8FBEDACECE4EDCF6A4FE9FB94D5DEB74FAB7CFEAE17EE965DF980DCCA2D04134994F9A2E94D2265DA4FE6AA7B7AC15FACAC2B5ABBCD7DFF542C5314FDAB2E1B9D8B65220B8E2B638BE008E8DCA22678C820C5053664D15E89F2D735B51A84955E81A443545E9FF787BE
310
0FA700A76D136C27DA179A7C6E8939E01BE756E19CB292798063D8B97F44E8A27BCF3A614FEB8BE974A718E86F7EC99B53CA35FA24F61F2B07266684623A3D4CF073E511F3A10A8FDAFAF0078C577F4DF9D339FE7862E5FA47CF4344209E5BF76D783B1B48E152AD281B15FCB934DCDA49CEC5706B1EE8B460F435324A5CAD
310
154725E21AB8044B75A557A79F6C807B9340AA3D92503E866F4274412926C8C504E4D5EF8C0E68DD0B028781A6B4054F11CF18941F101C57CCC796773ABC8DED9CD91FE5788806C05E548895354AEAC96546D55B0E94A59F148D061F42AA398D822CDECA4CDE79E13469BDCC44FDC990F366BA5978C15F97ED80CBFD73B0CD
310
9B8B83A4F6845BDFBFAF034019473FB9A63BD55D3A4A7284757071574029A4D016DCCBE95DD679EF3C4880BF169422F8C89B68A988D2B13793CAED4F74DE7486C72DC94DF46B8E93D8E02EFCB1FF9B3BA10C8AE7F653DF94F4AF466CDDCEF5776687F7C4C14B63E4EED1719DC2EC482D7DBCC7AE518CDE3D5FF86D39000EC3
310
673C0044E1D308BF05F74D1B5F033A7D1BE7F74BC55BBE3E4A20F920946CA0271EB17BD2B80E5660ACB8A29A79F5E4BBA49D4D945B6EEF4A7EFEAA65E5555BBB57A7E15D2F83C69F30BBB978D2B39F1F26FC097424D39BB33CA3D87ABF64E307938B685BAD44F71556A30B7E712CA4FE600613C3E554B69ADE949A7CFE214D
310
F1FFF05CB82151EC6FC31950239F94CF7AD39DC473F6EA356E5EC2C4EFA04383CEFE985A127484366FBEE3C0EC4FEA363E4F6632AE781392FD45D67B63FB8DF70E82734F431FD3443172A0E30A83D60982D55FA6A2CF86DBA8382502ACC6CDEF3B907982EED1160E14863FA242F9757347E1544275CCDCF71ECD5F8621CBEA
310
326B8BA884AD7F825781923E66971F04010D574C541D8427A438A37EEF8AF88240EED7362C953F5A81DE2D56109CDE2524EA0F5D2F87308C0C47BD97AD605878AB8589E17CA83930CB5E0DCCD75853D68B1AB136594926DE426C367428E9334AFAFF90ECE221BB5DC9E5BB53D2CDEF954EAA9CD814F0E5725F1965DD458E5F
310
8487683AD86B9D0076BE3EE91EB1CECC5331A67A3F79D8B27587C12EC2A6A70474749F27B4C0BBAFB94B34189E88DC18964BE4121B9137FD516C7755356E50D6714E31ACD222621EBBCD1CFF81D87479056A9DA0E0B8EA19D24CF937DA89F78E8650CCBDC110AAB6C4E46DCBFD0446BA9E2060E81F314AC2031E88135E5476
310
AC0160EF5C0DD2EEF1B8B5CB2D198BE9A554A9093B5F7D7E4B5407DDFCA1D9C152FD97F55BFFFDFE802954DFEC8995B983E28AC92F1971E28F531DC407A1280EB125F64A72E617EFB27DFBCEDCDA2D6F2BDADA36873EE46B9BE1782998C63DA7182BC383FB6FD15DA472B175D7E8B4FC88F38D6E07FEAA3FA3CBB8F6B449EC
310
F14D2175E5C5CCA3A42ABF24CA6C9395AF74535F4DDB38CB84F56614B0FD32D7E19CA5CF988DB4449C40E23DF2B16772594554579094450F56F253CD25EA7F77366FB1CFE79696C428BB64D5A41E986189427E5E4D7E2DAE3D5BB4972B3DC44EAABDDDD63A2264ECFA5C786EB0EE1FDC5BE34FA0F08376869FD1E61EA06CAE
310
15191135445EE8F0394161C3266A596AA035572BB0C8876180D8B9C77D307DF9DCDF7365ABDA6F3A2366436457A4DFC1F259666569A9E4A79C817BDD5610E5200FCE894A358EC72858D50EF67545DA81C6FACE3D457BAF70367E1E6BDD9A952FB4F56247F58F523B97E640246051A72F79BE42FFA0B3187F63097F91C48B86
310
8586F714B0EBD5A00A8412C1236E1298F60C72BE6C96B82B404CADAA304AE9F303176B14BA53FBC2D5E86377E35542019E24D97B96A49B2C0E5006E7795954DEAF5DA58958839043C6C70BD3B1B33B6DC5C31316D8A6923F142E26F6711A2258AF977DDF1F970ECC4F1F2B434B96D81BEB6E89BF3BBB3C7C8CC80505070723
310
D6D7D7D3C8CA27CA164A26024FED94B12A86031867241DA53D929636DA600F050BC40CE48B8BA03D69224720DEE2ED2127390BDF5E6EA64527BBD4C4C63FA76BB801FEEC0E61218EC98A8A86CD8313781617877E66692839B9468CF4DB8E50A73986E558E309C0D6F676F921BE02F1185454DC75B111572FF9D27D85EA14C0
310
5AD7271225B391C4275659CA4A43759D0BA44639BE4C30A84DB7F67A41399FB95CBF923B1B1672ABC807C1590557FB18D811983FA97F5E609516D62281D38B1281F68FC75528C35E4CD7DF0F7DBB5E5DD69C414EBEA2F4A5B241B996BA77AE6C772E367408C633EA3E438B68563EA8BE7667F3A4C4FDEEA52ABD78A2820F44
310
3B7914A15F180018D231E64519C56A12F6CA7C8DAE18F06F6B769DBF92329EF6A5D18FBCE600F36BD8E8198DE5CDAA96181F3A756EBA5501CEE58F497EA4F418A2B82565B9BCC611713C0B708CCA1F398B78C5F7D03B3437CC18F13061F55C7BEDADD5ACB1DB0E36D3CE47FF6EA1A563A57E9649EA5D14D1A50EAA45746338
310
1C073777EF1600607BAF6428A7DDC079D47A204EF1E1F1F0589FB054D45E02CE623B3823C317C601E589E22B1E88B448524B86A82828E32345EC18AE17214B42F8C41C6D428016D9BA31DDCB47572561E5A402E5BA4FCE55F78AF7268524AA04130F3A20BA5D1E9F9948EA48FC8F5314FDB35E21898198060034ACE5E3E2BB
310
CA34092518F275190AF65F45867FF0900AA4B81F25427414C372BF51DC29AA855C5428EE1EEDD6B849AD60F6E73475C2D2523F8A2772C840A478DED18A8C5C91B085F255DC4F54EA7AA8947354FD17ECF8FB3B4A0DE7B483CAF3A1165EE05BBA413E5C1FEF3DE1D6B8F2F3F3251C17D9FCAB48A9AAF63AC773A0E413BBC46A
310
9ADF84A566FC920E4D8C52C9769EE3301CADEEEDD92B312E02E2A7E35B7F1E7D203FE5A7D75578B06E99D0E46FFADB8FDA17ED8880390DA29094202D6F645F76F6F96409CDA05495A96E84B04A00D1A6C6C81D7F3DE9376E828CCF144EE50E364ACCE7237EA0BFB5607ED1AC3CFE73794E5B61739D14DF1743441B1AC98F00
310
ECEDE9E7301FA29755FBEFA68C91EF2B314CF510537EF1ABFC9A762496280B546F5EDAAF8A5B387D469FC9A878A92828C88608453ACEC6094DCA54111E7AD5B2663DFE2DD151B7F123B9F4FEF8EE36AB125FD7AD52A59B1B765B3E3F73E3F73DEA93875004D2AFFE3CDE9493B87A9904DD052028949041A91DC0E1BA47BA71
310
4343FD5B25E0A6A09503AFC17C790058A836A324FE31D7893512E28230332F153181C1E018E1124EBE1BA262AA428A518237D1EA7275E48C5C561BD19ED6912EDD8367DA0F31E40EEAE9683DA9257525AEA7B632B97119E17145A90231768A4F3B9120FF32E8319B015E3CBE26F1A754177D8185345817C096B0CE443A955D
310
13AC15E1FB5DEEA0239EC32A3C92241A237B0B02FFCB4F93CF2B02570C8D192E2F2A68CEEB42F12E6F8CEEFF46C251E22B4341C56FB08CCE550E7A9D6F4D6564B9EA52A83D5BF2C6E03FA19D2775E15A8A7ACF30A13C259EE7F5EF2AC3BA354F1500E1A07FC63FB4686E2F12EC69719F9ECF5FE3F35598DF2CE944008CE78F
310
0911BA5BE5D0A34E0098FF038669C26030BA9B300303039852A8F6F496341737CA7E0D2E3AAA36DE0A70AA7D9CA0D54D9AD84B18A44C9E625475E1C97B93BEBB38DCE7D227E67A2D00F531436136355F243D1FC0D712C5765754FA22FCFFAE97919161F46D6E61ACB37D83777B385889770B50765B127768443A5C4D3A4E35
310
A3151111F146B7CA116F918A049F1C272F2CD7976C69A0068773451659A97E0F4A08FE604C3FF6CE7385DB19F4D3ABC8A0D80DA8A42096AC377DB49382B36E270B6FA7570188B4B7D1DDDDA82ACA487CCA5D38BD3BD039ADBAFA4ACFF27809239B722081E2EB9F145320553D183F28471C388BC8814E5045676767AB58A8E7
310
2D1CED2CA731379515D2E533E4CF0B39DFC625F97AC4836831A4DE330E87A8126FA17EBE583D614E71E22A8DBF2825599743E0640037303E8E1B1E8EA4E1ABFA4F62907B5E4E0E5DCFDAB417C36C6848A2B8D15F1E505434C0707E16B1CFC2A1C36A42BBF55734F8F4301DDC2A5110CEE8C0747F69519265012A2174BF4E95
310
5ECD4FDE095A3ABC70536B7AD0B9D7892F81287D667C108703C9B66A221E9A0929D030008F77FF6F5D2108EF5706FC87A3069B976F7C9FC3239D13D283CDEA83597461079FEEE049B0F392889898B7D87D31F8D60ED7B56B91823A8E4EDDB36C6172ECEE42BD42B12CD67994FA0F0DFAE9389356F4CD4425A4B8AA55CBF7EC
310
D585C6A2C2316791E43D5C06841ADBB226A87FD61515FFBB0167B74E56BD7F3E90A57A97FEDCBDF483A0D6699A8C0849CAEB4947FAA90D8E332D9DEBD9F4738C37DA0CAF9CF3DAA68BCB67C420459C7A64498D6E848E5CADE92BB6901F607AA331104A67F7CD650EE169B1DAE94D2C31C2F993632259B6957E246EFE4C5481
310
107B07118607700040E5812A2A2A38DA0076875258C753F60E0F2662C748EDD5F3F3686B8FC3BD6FE631ECCAA1E8B1C1E565AD117E54893E79F4672E32F9E46B2A183DFDCF3EECB4D4D077DBEA0DA254D256045109670050129E9B9B1A9E4A11344D61497A992778095151510C4BB7EF2009B63AA4360635312E4CF668B7E0
310
D3D85A8688E2BD83B569439892ADB63461930D428E0DE42E4AC57CE48DA5CC1449530D8BD3D6A0F08DF20C8E8F570F2CFFFCEA286E30969B4654D498A58D9DA782E19FE3F002181838925592C4A1EF0B332D88B61A92C644547BED490D3A42CFFAB70E36D961F694F6307F72FF15A1C79D5B1B5CEFD353D9E2B52566DEC8F8
310
F09CB3E8359C0F68EBBB7898243E34E12A015B2685AB303C04D3A9E00671FF3DFF0A184E4A2ABEB2B666AF5B3A209C73D8EF29DCDB069C9F391EEE9DD0F74C7BCDE16F8F02E3B8816122BBEB50665775B600549D8BB33A54A6BF940C028118BC6878C79958D6784F9DEAA6E26748386FFAF8D0D0101E2847B6563F5D8DC1D7
310
8F787BE00E2C941AE12148D4A81599FE8F68D4DA5CDED75530ADE138240300EE13B0FC13A1687FED6774662C05A2B7DFB186732F0D7A93545D8B0A6390AE5054D9CB582DA846D7A061B3358B45E2B52DDE63E114397EDB7E09233A579155D795BE76102CF277F4DF8B188C4F2879BEAE3C08347124BF9ED23B128259FE107D
310
31E34A652F090B30B39E0D9AF917B76A2806135621A8A60681F16AF216514BBD02711585B5B1AE823F4B2D0369EA5B6BCB863072727FFC871CA6C9AB79A814D989057E9470A3D238BC87CBB4A0EA49AFE2B86F22E499793CAA9047080450166BDC357524561E258C77CB697F1ABB32562CF87C3B7AA12F911EF19FB3E5C022
310
22E887D08202A60A17151F5E053A86B437771088B4FEE14D652C43E8D939995D34545E12E2FF93D4E366EAD25F10CB7DED141563C3D0C447AF06078A91135FD4B9611583CB4BF3BD167F2399CEAB0E0100F8FFC305F00F1711717173138B4B48C83022295DE657EFEDD97F238ECA80F528AFB4F8D67AD4E2594B9A3AA86D74
310
87EFC313BA95745C186F0CDD84CC12DC9CB0424B42203D351FD9C0A3AF10CC7F388E0329279087386421F194F4A29464C1DEF7EF8BE515E4A199DCD5B909342598D8FE6A231F71336248D5CEC5454455C7BE383B3BC7B260FED27F703FDC39A170F3827239102F59D4DEE7FEF82EAA1A5E4BA94DCC4CC44E7E2EDE20F24244
310
E4454369D2E87C3F823F193FD4FD27E1C23984B01898D15ABC20711A8A558054951A6AE280096BA36CBA439603B7B0B4C45F248C14B2383B4B5CD8ECECE4FF859AD4A6CA2326D020EF090F4041D28DB66E5256B56232CC52829DE8060BAE6BBF37D4B7469B822454FE93210A3E8D15E69FFCF01123222611C51C4FD0A041A0
310
CFA2471CF6BE38D2B20FA4C3525B5B8B586759475CF80ADFE67A284AC24651E52B8E683D24C2622642F27E7C3C22783BCF63648BC398BD6CD0D9C97E7E7E3EACB6126DB7A6C1FD9F1031302EE67ED96F22B77C7CA0239BB324207559B105E4693EB26EC46182A92C9C0DBD24F29B31C5C5AC1F84300E0E17CEEAC15F5736FA
310
4A98971E2F1423BFCD68D4BBD5F86E74B40A369F39507C88FCDB35D2DD8DEBEA4AF999E23CF2816D204200DF6E611781B9884C1AC8888B4DE397320472959434323A5A36B22A8E1F721A270DF3BD65E4A31C11FF048AFB0D8B7B6881423793963A23CFCE935FC189ED36FAE35C46DA3574C979E4394BE52084F3081837BE03
310
3396D2EBD80F1F691B273F660D2B32FA27A33B1DE4ADA5F0FA4651511102DFA410DDA86E065272CA314D5249DF91B06BB92807B28EFD54F08F7B525252782CD276DD02E6B0319B13DF87B1F6361AD6B28FC0D711CF445429B9E5A433CD493051C49A9E03DDB1B147D880253514A5DED88009018620EE229101C041950E2D8A
310
A8E1F5F5438E0C0C0C60EEDEE9E3E0C051948C69F84BB7B2A48A1F3C8EB9E6864687F4F4F6F6E2FA87608ADAF9C5E117B7C1A737E710769DA1D15ECE6A84502AA855398712D5FB51BE92E4EF824969CE18278798AC303C2C7980DD2500ADF8FB1E6D6C2FAAFF9987178923334A244758BAA01A9A1B70FA5097D01E1CC2A58D
310
AD0EC94CE6430AA9B0C10D75E3C6BAC670EFBADEE1607739CE0FC18A2587E3EC3058562014C64219C69BC269082D5C2F4A659278D585755912176D78A1B641719C2A394CED495A1AC5D583FD2F5EDD93308EA7EAE8A6DD396598BDBD3D4CFED62D18A5BDFDE0DD5C80D1A89BA62697B131AE7CE9A6594138582F1B37D68F17
310
49AC7CB67A70695D48A4A056AC1FBD4E82358CEAE38F54B95A9016F9000F9879C0D9D131768635CA798895F27D6F1614F11F2838A83611AA51C9A3DDB539D42979C29F10465655C17BEC3E2760B80DCBF609198C7B171A531905F3EC218D696025975E986C6B4C666666787271F202805577DD5A3EF0CAFAF91B62DC4B2DB4
310
217A7606282F31D8DDBC290593BAA93EA6353AFA9939B877978481E15CFC9F2755CDC00C538F63A4BA3E80AE009B73CA0185687D339A507D165B74290D6EE46D5C58148F020C3668ABE9EF2F7549170DC80DB41FFC1D678FF19AEB10C7133832B104B80F691B3138F97A92D26E551F1F110400D45AC71A9B9AC41A1A1B1DAE
310
ED0B0810638EFFB511D46B121C6FEA0F38CD00E03CFFEB9713FE1F9C263E4DDEC160D0497FA9A132BA608584057FB15380825DE6C7FC3C667EE947D488A09898D8E939C4953BF4EC9836344D2CC6B2971B2A21A572B06096F4982D2CC7232D46E8EA69DC83722E267754D777F97F96D5DA74E1E75178084D0E70F12AD33E5F
310
71EF2AFA599B2BEBF60A5BE475F444F240CBFE8143C334E7ED9150FEEFEF7EB020C4DBED388DD1D6A167A76F3CBF119B578AE8CFA7736ACAFA4440A1C47185638A0D2F3EB5BDDEFDA958FB13CE4AA4923D5BF840392D45544329525749734866684BF7F8D9D54D892E19BCA9F829A0F8BFCBEEA6CFDFC61D74EA1A645ED7A1
310
FF241739F15694BD835B66FEC5677E40FE69BD3F91AE402F036537218A401CB0828604AD189E575015C6F3F6BBC8AC79CF6C70653847254B31551EFCBEB5978B9DB85D58D0FA41A9DFE9C624834AA04949D24B5AE6D299E072D152D12097920F14AA92C31C3B97E28B6C2E6E9C23D63043ECBBC0A60FDF5BD0C33C127EA8A3
310
308B8B6AFFEB28B4455BF6E7AF4FC6222728357EB8E46E85053E6A8843AB23295BF838ABDA94658FEF3F832F147046B4ACD6F7D48E8FCC9618582961C898D1C7A253C91BFECBDA6BA18A1FCF70755DCCEE2222F41B76D23CA98D0CB3D95F0CF66D57FFF65E2A90F5DF40FC3187621E981BD0BC1D992787212688976B94A8F0
310
C6EF646624B570B78E068826F87CE27041A95C9A4871FF65CC17FCB1639629AD6A9517000D63AC231F3D741CB8430777E7ECF80CE7A3F73C0F162F7E56AA71F4DA80A33CD6ACEE78E2C11FAC03DAFCE929B106F8F6B3ED2DC71FF994BD9CEF4E9A94896EF1B6E2B7B4978168BCF0847A3D2A4F1B0500B926E634B174548E9F
310
BAD27153FB5FC36799B1E6C7C38A94E1F9E996796D7B485E635D5287A2AE76FBD11A341DB3F8F810385BB7296391973DC6C37C452A9305AEBBE0CDB6C566DB59FE60C8E94B1FD090354BF51439FFD1B48D725228FFA88C84F686F547107A7A235665A4593B7C34D748C1AC8D56DD5DA861EEFBADDECBBD65117E65851F9035
310
1AEB65F0EFCFF4BCFEF24CB7A5879699FAC437A7AF9099186CF006BB923A59E37D7A36A29FD8D2CBB914A5E9D0A8FD212FBF796AE9A67958FF1D5D8B85F78F96219D4714EB919929241B6C018AAE0C02069F8D919961EC5DDFBFB7573E3AC8E08BFB7C8534BE6DE045B3CD63DBD71F7638BA2309CAE398EA3A7D8F98BBBC7A
310
EB367EFA5CFA27A9F8F2F52FE878058E6209C026453F8E7E8A237DFC389E9590F6059B397CFD65183BBF936E86896612A5B5FEE49DAC8455D026218AFEBEC12B3523A45B57B82C9C97E02ACFA1184DB18E48CF615DBF39C3CC6F0B4AE6BBEEA2E39D944E290302FA3DE33FA7E40296E2EF7BF1CD855BBECFAD0FD622BEE974
310
6FC4FDFDE545AE6E3BC234CADF83A0FB76DFB145BF3828AE3436368AC24989454F8FF70A177672C711CAA1A76107218CF948CA01F873520E7A2B118EBB161ABAD432932029628B6761590C98AB590C8C8C79798CE9F715BA696E839E9131A4BB68BE923F1747FBFF165331FFDD4D05997ACD168F12CA75348DAC04C7F509FE
310
83898A8B421181AF492861CE81E4A2DD0A30850CFA95E05F097FF70F9E777310D584A75BA7018922E271DAB1D785671157685B7D383D3E074DDB4F1E44EF04B07BAAC75A062077C54B9752C738C9D804D402E02851F3F89605AF189738C18C021D2139EAF72513824E10DDD3047BACC8521ED7E98B257D1166903B1B08FA6F
310
918FD7E162913FEC7D0EF4787E29C35FBA8C6E2C9C20E9AB30AE42CA2A01A090E7D010C1B5BF9CEE2A304BF3A987FB40D836979B79E18D70F257DA61E808472DD85B82761825779D6B90CAEB0F23360C6F80A7D7D77545E95B3DFF0CF96A827F9B5BCECD2C9698718417EF80FEEDEE938AFF55859D0D540B7FE09435583A6F
310
04874A0C7E8CF234DF4879722000167F5872CEC6BF3EF7E5A8CC8121E6A359227C8A29C95212F9F735BC72A887D56B8F309FC525BFB4FD767AAEC4AEFF249CFBBD2DE1AB9969A6155C7D8DABC307E47324C1F916C7BCFF40ABA5644E9FFB9238D19ADADA49D9610F01ABBA57E4DFCBDCCBB2B93C8953206C91DE01B0E2651A
310
6D6C31721915B31F7B7CBCE55466F6D70402788FA91D73BE4ADCBA99A35F17D6B83383704917D6833F0FA3CD45C926ADB8BC17999A4A0AFBCE2541F7B8CF4C2F5FBA611B3E626D64407CB32C122DFF4EF8674D6EDBB86C8F7C6A16D50FA685E2CCA34F8F7D1D8265BB0042E9D7F1F666F7BE5FAA5184DF58E12122A42EF02F
310
461B3F369AC746F96528AD208512AB56844CF75B97F352DF7995024FB02855385854F3798670D01CAC771AC3E1889EC25F61A20C1F8CAB46898817F9C47E2CDA1F286BF2F358298709FE567C91133E2638C8B53975E753EA8BFD3578B5F7186B7BF084EBA3F77BAC3132A5779902EC22AF2D2E79F42D324E083386DAEE9810
310
D1B44A5DAA54513C7A71E52A4AB9257D975B621308FE4D2141CC3DCFE946C154A3C1DFCCA7629EC69ACFA831634ADDA93C0388D2A9A2DDAFCF957C6995BCE7FBB6DC4EBAE79E63EB08E9A25F52F67076F7093CA545CA3053B5BF576DEAD4E0017143C5F759F32B2D6F145B52B67B48909B7C7FCA6586EE385A2189C16932CB
310
6DDFD9152AE317C430492A578ED27B72D85D40C7C93C097939E1B50F4D67F05334FE9DC362C30B7FF561B95259138ECFD9274C8D695C31B14D4EAA9F3D7FA8DDF652F8C5DEFA23284C799B7D94416DEE81E05A866302DC70192A5368EA65E1CED8BF107A1E2D3119A71E85DC1A7B0C1E93274CE04DD0F2ABC8AC7C987FDB00
310
2B6F81757B43502EF7A0D92E416494FAEEA4C9C090CD9557AA4D532F4996A272B94355C5A0E4974EEA9627476F30809B94D8D8D860062E02204643BEC7D0438AF800FC7E2B26955D595421E83C69E1A07E0E3122285835F014AD538188CF9737CE76D464A353FA55A001AB2526B84E985083693BC76FE211CA1D000679C889
310
E3C009832C87E1AC2EDD05C302557422DF0800E316FCAC86978A371F025A6C7DAA9F333E7BD160403A1A06EA75AA9888FF01504B03041400060808004E783E4C51464CB48900000043010000360000006662782F41383939353830462D434534332D343136412D394634372D3246393738303934353239382F646972656374
310
6F72792E786D6C9D8F310EC2300C45AF127987122606C71DD918B841D4B851A43646695A717C52A85029031293A5A76FBF6FACEF7DA7264E43906840EF0FA03836E242F406C6DCEE4EA06AC22492573150D1F66C60C640E8938CB705396EEDD86DE9B5042FE27813D640EA63BB001C722AF6E55CB61E4863F58284D5D3F53D
310
D715CE1C3985E63FD7F1B7EBDD617E9F1E504B03041400060808004E783E4C637D380038070000211C0000340000006662782F41383939353830462D434534332D343136412D394634372D3246393738303934353239382F6F626A656374732E786D6CDD596D6FDB3610FE2B84F665FB60BDF82D76E1B848EC7A30BAB4458D
310
0EFB26D032ED70D11B4829B1F7EB77A4485994655BC95AA05802240E431DEF9EBB7BEE789ABCDF47217A268CD324BEB53CDBB51089836443E3DDAD9567DBCEC842EFA768C29224ABECB3508C23726B89656B3AD9B1244FD5D2866C711ED65717F77F211E909858280831E7B7160F1E49846D9C67C986F0277B83336CEFB67B
310
DBB38B8DA6D81DC3E963EDA814331267A02AACC7204569E0997F8249CE74E2880DC6B66EBB6DBD0BDB1C69B8A9288D7986E3E044AB9A9C6E3BAD7A5E7FFEA13B187706FD7EAFD31F76BDCEFDE27EDEF16E7AEE6C389B8DEF3E8C2D349DAC93242C1D909278035E3C58536FE288FF94E62B149AF40E9238268142B369C38628
310
B994F03A2606B09E34ADE290C2D6CA42AFA5F167B6B502C550C9405B1BA77F57A33759FF0D20F03651CA381151CE3306BE56D817F9E04E9C62D5F00BE528C21961148728A46B86193808B6160E32C4886C11A290C04C7A51CBABEA0A817D3D979AB4DCE66128F2D79ACA4CF3211F49C6A566F41FC28EDA574F039DC0DA9CC6
310
D948199B1D5210319E3872B1F85FAFABFE590089B621DE41B480996253AF5BC36B26B86039B7A61F17EBFD4AF043F3E1294B52C2321179329955DE690F56420B82AF052805AEA6EF8EA87C05E83F01F2A52E68029E6374DFDFF7B5ED0CC77C9BB008BC835CD471E1878BC4C7934F13A77C788A90C195E73085B4FD4E981A66
310
186757209D4E9E21E813D653C6AD021C424C3FD058E439040A0A135802BEDFAEF7D67409640A8BF0140EC17AF89E38E223825F851CE09B9A879AE8B785A374C2D4F3ECE8ABDF2166180D4A5719369EC377F05DF0BD9BAF3EAE72B6C5017950893D275B1AD30C8A69B34206E846CA7F5B7E921979628FB12B80737689208E06
310
BFAC945F90740CA822EA70E11AB9F24021DDC310C724C9B95A6F22AA200913E6AF0F7E91C38D67FDA983A0380CF25B4440239941750F184D0528D654995732A17DC449F0A00AC05DE1547F8D832701AF1F0063BD450F885ACCEA42F328F57194E4B1A0EFD3F0AE9B66F75CF9E579E3AE3BEE8EC6436D2C97E275F6686A2895
310
17E744383D73C8CCF096620D2DB9C8A33EB065930501F44C79E627290E68D61C0B3523548602D81755DED0ED36E740EA8DB0D434B67BDE00B9959FE52197B55787F834C23BE26FB1A8708DE7190095C2B5058DC8ECC284731A132E3B9413E6AAA1E2DA400445DC6AA90D4148B91F910CBF25FE64C9AB851F23DBD0875E2A13
310
DDECF5E8D30AAAEA794EA2E8DC92D897F61F7C8EA3342CBAB46B1878DDDA098DB80AA5C511CF106F3ECE7C774364D37D4D7AC90B1ADF56D2C76F167F061E867F383CFA080AAD37D4C8EB9EF5EC8137165F232095E1C0EBDD68475CC34A1F95891E24CCA16B0A0EFE0BA1BBC77684D6EA1C4EC2AD4FC3308FFCA21E64248216
310
0C67396B95AFC3817BE27CC50BB584A89CB4A52134C8AD4953F61EBAFB00AB64F3718E342BC7805134863B5A2B434EAC680C61E90B791F15D7AEEBDE7FBDD4FFCC97D57BCA1339BC246CD3A8A9D946E80E4C370C822E55852BE3484A9E4EAAC917C98BCB751CFA5A88E2B7E296A0228491672A0613F206D4787FE02F380B80
310
4857F277E71E32624336C79EC210A7C61CD6140ED5D2749F5ABDE900D989F261345E4B41A8114C1BB0E0D907F121FC8AC1D5D0F9714775354EB1BE1485CD86C1CA518F0BB23EFFBEAA498195D64F7F111891979A04B53A138DDC0551DF96C77EB5264159F46D79E1F1EC318FD631A6A2328AB0C09BF4DD7B7997BC75E0A2E0
310
DC8DC6E3C1C85D74661FC4ECC21BDE75C68BFE4DA7BB18DF00E9F507DDF1C8618427390B0877BA8EEBEBDE298D773A300AE8DADC2860AA70FDEAA7E3B9EEE0FFEF8DE2FEF0073E546FF54630FEAC378AB2DF131D592D19DBDE281A997AFDBAF6DF3B61EAE62AF6AAD6B91816E808BF5CB7808D74C16FDF5B68D1BA9568D6B9
310
52125F5979CF5E577E78913118BDB140183B9A38DF887F317C6A2853FA7A2B896D369CDF78C3C13D705877DEE9DF0DE79DD1A22BC6B10BA0B861AFDFAB44892A866D0BCB4F41A25AD9CA1C0DC6C13C09294CE5C906ED48025720183BB4205816112EAF36D001A83AAE5F09B478FAB918AA66781DEAA783470C93E95095E43C
310
80A9285C3B6E2DB58E7E8139A81845CAE994FD04954745BB8572466F2D08818C4281B1D730CF92D34329BD36AF04B7E178272E4DC553E5DFC7C7043A102B47BBCA3D6D70519619D109D38154BE2800B6D31DC9DB4DD7EA209CC1C7759E95C61C178ED62810F41B81C23818FB3D2978F7403C97EDF26CB9C780A4D568FE621C
310
14523B19663B395FAFE07D37FFE288D1F8F2334AC37C27DC79A9E01B923AA2D108F3620A3581C05066A6585CC467EF9C2F2C81774C115A500802F4EB7E34FCCD99255194C4C59273A7DE54A1D523BC77DA387AE6079D8BEB0D1DD9F8A8B93E0CAE38B1F1863FC102B89651311C2D203602A0A4A74A00688F085FC063C6FEE5
310
1CA92250E961ABBDAB80470EF5112492789923D2A6BAA13281845C00AD8A416DF9412F4C1C0653F0E9BF504B03041400060808004E783E4C739DA7DCE1000000550100003C0000006662782F41383939353830462D434534332D343136412D394634372D3246393738303934353239382F7265736F75726365732F322F636E
310
782E786D6C4D90CD6AC33010845F45087AB47E5C0A26C8CA4BF4D44B50E58D2A62698D7E42FAF69552157ADA65E663991D757E849DDC21658F71A592094A205ADC7C742BADE53A2D949CB54A88E51F4649340156DA65AA954B588F216D703575EFEAEEE36D88E2E22042F2F672444789DD4DCE2BCDF60B8261A616DC20DFD8
310
668A619225C858938576A2F800E3844D600A6C54CF422E9390D3AB78976F27319FE6E543F14E6AF589B80FDEC702098F9759586C6B6C8984E21DD0AA263FA8FE4633FEE2B1164FF1666B954B6A1D0CAC7C1F0DF3C138E04FE4D7D58AF727DB7836D0662F44FF00504B03041400060808004E783E4CFF15A4A45D0000008000
310
00003A0000006662782F41383939353830462D434534332D343136412D394634372D3246393738303934353239382F7265736F75726365732F636E782E786D6C4D8B3B0E80201005AF42B6F75B59F0390B113044D83508C6E30BC6C26AF226F3B8BA6360974DA7271430F523308B2B198F9B80925DB700539227A2FCCB80A1
310
8E5640D320F996A81C9F32D6E9129A0D1EF74FCE750E6D57BC7165FBCA07504B03041400060808004E783E4C4777F1964201000056050000300000006662782F41383939353830462D434534332D343136412D394634372D3246393738303934353239382F636E782E786D6CCD94C16A032110865F65117A5CDDDD5208C135
310
D0439FA087D29BEB4EB626BBBAE8589AB7AFA6266929A13D04929B8C9FF0FF33BFC3571FD358BC83F3DA9A96D4B4220518657B6D8696045C970B52AC0477D6E2378C14464ED0925426820FCE8639977A58CB30A6EAA8CD361725A2D35D40F0A450A3F4BE255EBDC124A90C687BF05BDA4B94B4A60EBC0D4E417C8F7A82FC5E
310
3990083D114D552FCAAA2EEFABE7FA615935CB66F1CA592205EFAC1D33AF0D82B3F35D53291B8F26CAA9384B80E0C1E94C250F449CB4D14E1BCEE2BDE03EEA3543E67037276E9E47AD24C64631AB10B08C10C889B32F5870961CFFF0FDF4F872D2104FBD76A0D0BADDD5DA509F6BC3511A8D89F85F17F6E05FE66DB78996AF
310
37F7B386B3B08BD93D24D7C7E8FE4E42CC9334C3788B1FE028EDF2F98F8B05B5BA45D3076517F2CCF62B300E3E6D44F109504B03041400060808004E783E4CCCD0D3927E000000A30000000B0000006662782F636E782E786D6C4D8CD10A832018465F45FE7B376BB6FC418D18F33D6259C84CC3D5D8E34F4717BBFAE0F09D
310
23BBCFE2C9DBA6978B41417562406C78C4D18559C1BE4D5400E9B44C316E7F37206158AC828241CB39C57D3DD068A761F7857A179E07EC05622398A1B73BBF505E5D7B8A86B7B436D80A86BCA95164E35C943CBF5EDE92D75F504B03041400060808004E783E4CA6D797065F0000008200000007000000636E782E786D6C4D
310
CB3B0E80201045D1AD90E9FD7516806B51190811670C8A61F982B1B0BAC9C97B72CA7B1037C6D3332918DA1E04D2CAC69353902EDB8C20262D23F3F59B81A079470595414B17391D1F19B4730A5583A7ED43BBE4025D9592775E5ADFFA01504B03041400060808004E783E4CECFD112DA800000026010000130000005B436F
310
6E74656E745F54797065735D2E786D6C7D4F4B0EC22010BD0A61DF525D18634ABB506FE00510A79458060253536F2FD89D5197F3FED3F68B9BD80362B21E25DFD40D6780DADF2C1AC9671AAA3D677DD75E9E0112CB5A4C928F44E12044D22338956A1F003333F8E814E5331A1194BE2B0362DB343BA13D122055543278D79E
310
6050F344ECBC6478EDCD76CE8EABAE5449AE4298AC56946789C28AAFBEABC53F3EAF09A84A1441B91F0101CD4780756578C173A578FFDDBD00504B03041400060808004E783E4C3DEE336E64000000790000001B0000006175746F6465736B2D64657369676E2D7061636B6167652E786D6C35CBC10E83200C00D05F21DCA5
310
6CA76D41FC96062B120735B69A7DBE268BB7777961F8D5AF396893C2ADB70FE7ADA196782C2DF776D7A97B5933C430F15651E5469C55D70F80A4992A3ADC954792C525AE70A1E4D6AD9816CC044FEFDF01FE3FDE907802504B03041400060808004E783E4C7B869F80F30000008E0100003D0000006662782F413839393538
310
30462D434534332D343136412D394634372D3246393738303934353239382F7265736F75726365732F322F636F72652E786D6C8550CB6EC32010FC156BEFD88093D48930515D375FD0536F08888B1283C5A3EAE71762576A4F3DED6A76667677D8F96BBE579FDA07E36C0FA4C650692B9D3276EA21C52BEAA03A73E69D8BBF
310
68505931EB1E0A0C9C4DDEA56583A4B351DB825AA7F4068A1074844ADE73D343901F7A16B5483133C2AD5E84BC8949D7A45E799CA564D426352ABB99ABD11EF870182F6D371ED0B0DF8F687724CFE838628A5E2979D97503A64F17C29A22E62C9AF967BBF45A44AD80534C3A84096AF11BD99F303DD1EE9D3585C959883EFF
310
BC2D2DDF653A6B56F48F5B5AD4FF6EC9D8D8D2CD6D5504E0E5B8C780B3A6A493CB23BA5C4B92FC1B504B03041400060808004E783E4C4891F26DF9000000960100003B0000006662782F41383939353830462D434534332D343136412D394634372D3246393738303934353239382F7265736F75726365732F636F72652E78
310
6D6C8550CB6E833010FC15B477836D929444C65129CD17F4D49B6536D44AB0911F553FBF3850A93DF5B4ABD999D9DD11E7AFE95E7CA20FC6D9165849A140ABDD60ECD8428A57D2407196C23B177FD1A0B06AC216320C528CDEA57983B4B3116D46AD1B7003550818A1D0F7A56921E80F9C54A9525C18E156CE4ADFD488252B
310
579E14299961939A61713357831E6477E82F75D31F48B7DFF7647764CFE4D8534E5E397BD9351DE54F1726AA2C96229AE967BBF6A8220E2039650DA18CD4F48DED4F949F78F32EAACC942244BFFCBC2DCDDF81F4185CF21A83A8D6E91FD7340FFFBB266363CD37D7551140E6231F0329AA9CD2521E112E35272ABF01504B03
310
041400060808004E783E4CCB8C1B65F1000000B1010000310000006662782F41383939353830462D434534332D343136412D394634372D3246393738303934353239382F636F72652E786D6C8D504B6EC32014BC8AC51E1BB0DD408489A2AA394157DD21202E4A0C169FAAC72FC4AED4EEB27A68DE0C336FF8E97BB9375F26
310
44EBDD04708B40639CF2DABA7902395D2105CD49F0E07DFA43038D938B99408581E073F079DD21E55D32AEA2CE6BB38332469340A3EEE53181A83ECD225B995361C45BBB4A7593B36971BBF1044F76F995AA6064321A0882308508C31EBDE3F188C891D00FDE55A6E0395BBD5B595DDCEDD59A00C4993236527481AF6F430F
310
07FC7286EC321C20B9B003456C1809A3BCAB62C1630AE5E6FD937ADDB3F24DF82F735EF51399AD4B3DD90D37450402973C8F85E05D2DB08C47BB65D6B2C50F504B03041400060808004E783E4C8CADC5E654010000DD0200000C0000006662782F636F72652E786D6C8D525D6F832014FD2B867715E8C76C8334EB5C7FC19E
310
F646913A52058360FAF3077EC4F9B06E314172EEBDE7DC7302393D9A3AEA85E9A4563940090491505C9752553970F61667203A5162B4B63FDA40A45823721060404965B46B27886B65850AA8D2A59840D675C28288D7FE92838E7F898625CC59DFD1DD9396F13BAB448292B18F12E764398DCAD2B3C99B1406D0F3BEB86CB2
310
621F9F77BB22DE1ED06B7C28208EDF317ADB6667885F2E88A46198122B9B599D1BC1AC2801C510653144F1067EA0DD11E223CE3E491A3A29E9ACF19E27D1E00ED0DBF541D2115FF1B9B6FC9BCF49653778E21B273A40C37A43819234E4E37F4378EB0CBDB0CFCFB26B3D5BB87BA817DC6AB3F59552BBA5D4B3DA094F0DA3E1
310
23E958F5CC03C16F3CF809CF730E1F1453955F8D597FBD3A1BD4D73BB5C2C4BD7D444A9B86D5CB72E38ACBB908AD2CCDE35CD7DAFC677AB63A8799868749BF01504B03041400060808004E783E4C70E520CE07010000B201000008000000636F72652E786D6C8D50C172832014FC15E6DD51C0989A0C92A9B5F9829E7AA342
310
0C13054730D3FE7D21DA99F6D6D36376F7BD5D969F3EC701DDF5EC8DB335D08C00D2B673CAD8BE86255C7005E824F8EC5CF8250364E5A86B483008DECF6E9936A87336689B50EB94DE40E9BD0E80BA213E6AF0DD558F32934B880A7FCB26D9DD64AF339AAD3AC183197F56BB59CBA0150846688509C50579A3E591B023ABDE
310
799E94822F8B519B9551D1DD5C8C9E4134FBF65C54ED1E3765D9E2DD813EE3434B187E65F4655735843D9D29CFD3B2E03ECCF1CFDB919833202FEFC997E72B25F88773C32688A1147276F80241789E883FA19749FD23B4B1A160DBC175C38348811E44344E0DC6F1A837CED4B6F806504B010214001400060808004E783E4C
310
0000000000000000000000003700000000000000000000000000000000006662782F41383939353830462D434534332D343136412D394634372D3246393738303934353239382F617474726962757465732E62696E504B010214001400060808004E783E4C0000000000000000000000003500000000000000000000000000
310
550000006662782F41383939353830462D434534332D343136412D394634372D3246393738303934353239382F76657274696365732E62696E504B010214001400060808004E783E4CF270F13306000000040000003600000000000000000000000000A80000006662782F41383939353830462D434534332D343136412D39
310
4634372D3246393738303934353239382F747269616E676C65732E62696E504B010214001400060808004E783E4C88E57597CD3F0000904100004200000000000000000000000000020100006662782F41383939353830462D434534332D343136412D394634372D3246393738303934353239382F7265736F75726365732F
310
322F305F67656E657269632E706E67504B010214001400060808004E783E4C51464CB4890000004301000036000000000000000000000000002F4100006662782F41383939353830462D434534332D343136412D394634372D3246393738303934353239382F6469726563746F72792E786D6C504B01021400140006080800
310
4E783E4C637D380038070000211C000034000000000000000000000000000C4200006662782F41383939353830462D434534332D343136412D394634372D3246393738303934353239382F6F626A656374732E786D6C504B010214001400060808004E783E4C739DA7DCE1000000550100003C000000000000000000000000
310
00964900006662782F41383939353830462D434534332D343136412D394634372D3246393738303934353239382F7265736F75726365732F322F636E782E786D6C504B010214001400060808004E783E4CFF15A4A45D000000800000003A00000000000000000000000000D14A00006662782F41383939353830462D434534
310
332D343136412D394634372D3246393738303934353239382F7265736F75726365732F636E782E786D6C504B010214001400060808004E783E4C4777F19642010000560500003000000000000000000000000000864B00006662782F41383939353830462D434534332D343136412D394634372D3246393738303934353239
310
382F636E782E786D6C504B010214001400060808004E783E4CCCD0D3927E000000A30000000B00000000000000000000000000164D00006662782F636E782E786D6C504B010214001400060808004E783E4CA6D797065F000000820000000700000000000000000000000000BD4D0000636E782E786D6C504B010214001400
310
060808004E783E4CECFD112DA8000000260100001300000000000000000000000000414E00005B436F6E74656E745F54797065735D2E786D6C504B010214001400060808004E783E4C3DEE336E64000000790000001B000000000000000000000000001A4F00006175746F6465736B2D64657369676E2D7061636B6167652E
310
786D6C504B010214001400060808004E783E4C7B869F80F30000008E0100003D00000000000000000000000000B74F00006662782F41383939353830462D434534332D343136412D394634372D3246393738303934353239382F7265736F75726365732F322F636F72652E786D6C504B010214001400060808004E783E4C48
310
91F26DF9000000960100003B00000000000000000000000000055100006662782F41383939353830462D434534332D343136412D394634372D3246393738303934353239382F7265736F75726365732F636F72652E786D6C504B010214001400060808004E783E4CCB8C1B65F1000000B10100003100000000000000000000
310
000000575200006662782F41383939353830462D434534332D343136412D394634372D3246393738303934353239382F636F72652E786D6C504B010214001400060808004E783E4C8CADC5E654010000DD0200000C00000000000000000000000000975300006662782F636F72652E786D6C504B010214001400060808004E
310
783E4C70E520CE07010000B2010000080000000000000000000000000015550000636F72652E786D6C504B050600000000120012002D060000425600000000
  0
XRECORD
  5
17
102
{ACAD_REACTORS
330
12
102
}
330
12
100
AcDbXrecord
280
     1
270
     1
271
     1
  0
XRECORD
  5
16
102
{ACAD_REACTORS
330
12
102
}
330
12
100
AcDbXrecord
280
     1
270
     1
271
     1
  0
XRECORD
  5
18
102
{ACAD_REACTORS
330
12
102
}
330
12
100
AcDbXrecord
280
     1
270
     1
271
     1
  0
XRECORD
  5
15
102
{ACAD_REACTORS
330
12
102
}
330
12
100
AcDbXrecord
280
     1
270
     1
271
     1
  0
XRECORD
  5
24
102
{ACAD_REACTORS
330
22
102
}
330
22
100
AcDbXrecord
280
     1
270
     1
271
     1
  0
XRECORD
  5
23
102
{ACAD_REACTORS
330
22
102
}
330
22
100
AcDbXrecord
280
     1
270
     1
271
     1
  0
XRECORD
  5
27
102
{ACAD_REACTORS
330
22
102
}
330
22
100
AcDbXrecord
280
     1
270
     1
271
     1
  0
XRECORD
  5
26
102
{ACAD_REACTORS
330
22
102
}
330
22
100
AcDbXrecord
280
     1
270
     1
271
     1
  0
XRECORD
  5
28
102
{ACAD_REACTORS
330
22
102
}
330
22
100
AcDbXrecord
280
     1
270
     1
271
     1
  0
XRECORD
  5
25
102
{ACAD_REACTORS
330
22
102
}
330
22
100
AcDbXrecord
280
     1
270
     1
271
     1
  0
XRECORD
  5
32D
102
{ACAD_REACTORS
330
32C
102
}
330
32C
100
AcDbXrecord
280
     1
102
DISPLAYNAME
  1
Imperial24
102
FLAGS
 90
        0
  0
CELLSTYLEMAP
  5
32B
102
{ACAD_REACTORS
330
32A
102
}
330
32A
100
AcDbCellStyleMap
 90
        3
300
CELLSTYLE
  1
TABLEFORMAT_BEGIN
 90
        5
170
     1
 91
        0
 92
    32768
 62
   257
 93
        1
300
CONTENTFORMAT
  1
CONTENTFORMAT_BEGIN
 90
        0
 91
        0
 92
      512
 93
        0
300

 40
0.0
140
1.0
 94
        5
 62
     0
340
55
144
0.25
309
CONTENTFORMAT_END
171
     0
 94
        0
309
TABLEFORMAT_END
  1
CELLSTYLE_BEGIN
 90
        1
 91
        1
300
_TITLE
309
CELLSTYLE_END
300
CELLSTYLE
  1
TABLEFORMAT_BEGIN
 90
        5
170
     1
 91
        0
 92
        0
 62
   257
 93
        1
300
CONTENTFORMAT
  1
CONTENTFORMAT_BEGIN
 90
        0
 91
        0
 92
      512
 93
        0
300

 40
0.0
140
1.0
 94
        5
 62
     0
340
55
144
0.18
309
CONTENTFORMAT_END
171
     0
 94
        0
309
TABLEFORMAT_END
  1
CELLSTYLE_BEGIN
 90
        2
 91
        1
300
_HEADER
309
CELLSTYLE_END
300
CELLSTYLE
  1
TABLEFORMAT_BEGIN
 90
        5
170
     1
 91
        0
 92
        0
 62
   257
 93
        1
300
CONTENTFORMAT
  1
CONTENTFORMAT_BEGIN
 90
        0
 91
        0
 92
      512
 93
        0
300

 40
0.0
140
1.0
 94
        2
 62
     0
340
55
144
0.18
309
CONTENTFORMAT_END
171
     0
 94
        0
309
TABLEFORMAT_END
  1
CELLSTYLE_BEGIN
 90
        3
 91
        2
300
_DATA
309
CELLSTYLE_END
  0
ENDSEC
  0
EOF
