  0
SECTION
  2
HEADER
  9
$ACADVER
  1
AC1015
  9
$ACADMAINTVER
 70
    20
  9
$DWGCODEPAGE
  3
ANSI_1252
  9
$INSBASE
 10
0.0
 20
0.0
 30
0.0
  9
$EXTMIN
 10
-73.50199999958568
 20
-15.39999999999854
 30
0.0
  9
$EXTMAX
 10
170.6950680447089
 20
315.8217689567286
 30
0.0
  9
$LIMMIN
 10
0.0
 20
0.0
  9
$LIMMAX
 10
420.0
 20
300.0
  9
$ORTHOMODE
 70
     0
  9
$REGENMODE
 70
     1
  9
$FILLMODE
 70
     1
  9
$QTEXTMODE
 70
     0
  9
$MIRRTEXT
 70
     0
  9
$LTSCALE
 40
1.0
  9
$ATTMODE
 70
     1
  9
$TEXTSIZE
 40
3.0
  9
$TRACEWID
 40
0.05
  9
$TEXTSTYLE
  7
ROMANS
  9
$CLAYER
  8
P-0000
  9
$CELTYPE
  6
CONTINUOUS
  9
$CECOLOR
 62
     7
  9
$CELTSCALE
 40
1.0
  9
$DISPSILH
 70
     0
  9
$DIMSCALE
 40
1.0
  9
$DIMASZ
 40
2.0
  9
$DIMEXO
 40
1.0
  9
$DIMDLI
 40
10.0
  9
$DIMRND
 40
0.0
  9
$DIMDLE
 40
0.0
  9
$DIMEXE
 40
1.5
  9
$DIMTP
 40
0.0
  9
$DIMTM
 40
0.0
  9
$DIMTXT
 40
2.0
  9
$DIMCEN
 40
2.0
  9
$DIMTSZ
 40
0.0
  9
$DIMTOL
 70
     0
  9
$DIMLIM
 70
     0
  9
$DIMTIH
 70
     0
  9
$DIMTOH
 70
     0
  9
$DIMSE1
 70
     0
  9
$DIMSE2
 70
     0
  9
$DIMTAD
 70
     1
  9
$DIMZIN
 70
     8
  9
$DIMBLK
  1

  9
$DIMASO
 70
     1
  9
$DIMSHO
 70
     1
  9
$DIMPOST
  1

  9
$DIMAPOST
  1

  9
$DIMALT
 70
     0
  9
$DIMALTD
 70
     2
  9
$DIMALTF
 40
25.4
  9
$DIMLFAC
 40
1.0
  9
$DIMTOFL
 70
     1
  9
$DIMTVP
 40
0.0
  9
$DIMTIX
 70
     0
  9
$DIMSOXD
 70
     0
  9
$DIMSAH
 70
     0
  9
$DIMBLK1
  1

  9
$DIMBLK2
  1

  9
$DIMSTYLE
  2
ACADTOP
  9
$DIMCLRD
 70
     2
  9
$DIMCLRE
 70
     2
  9
$DIMCLRT
 70
     1
  9
$DIMTFAC
 40
0.6
  9
$DIMGAP
 40
1.0
  9
$DIMJUST
 70
     0
  9
$DIMSD1
 70
     0
  9
$DIMSD2
 70
     0
  9
$DIMTOLJ
 70
     1
  9
$DIMTZIN
 70
     8
  9
$DIMALTZ
 70
     0
  9
$DIMALTTZ
 70
     0
  9
$DIMUPT
 70
     0
  9
$DIMDEC
 70
     2
  9
$DIMTDEC
 70
     2
  9
$DIMALTU
 70
     2
  9
$DIMALTTD
 70
     2
  9
$DIMTXSTY
  7
Stile_Quota
  9
$DIMAUNIT
 70
     0
  9
$DIMADEC
 70
     1
  9
$DIMALTRND
 40
0.0
  9
$DIMAZIN
 70
     2
  9
$DIMDSEP
 70
    46
  9
$DIMATFIT
 70
     0
  9
$DIMFRAC
 70
     0
  9
$DIMLDRBLK
  1

  9
$DIMLUNIT
 70
     2
  9
$DIMLWD
 70
    -2
  9
$DIMLWE
 70
    -2
  9
$DIMTMOVE
 70
     0
  9
$LUNITS
 70
     2
  9
$LUPREC
 70
     3
  9
$SKETCHINC
 40
0.1
  9
$FILLETRAD
 40
0.5
  9
$AUNITS
 70
     0
  9
$AUPREC
 70
     3
  9
$MENU
  1
.
  9
$ELEVATION
 40
0.0
  9
$PELEVATION
 40
0.0
  9
$THICKNESS
 40
0.0
  9
$LIMCHECK
 70
     0
  9
$CHAMFERA
 40
0.5
  9
$CHAMFERB
 40
0.5
  9
$CHAMFERC
 40
1.0
  9
$CHAMFERD
 40
0.0
  9
$SKPOLY
 70
     1
  9
$TDCREATE
 40
2455560.347091181
  9
$TDUCREATE
 40
2455560.305424514
  9
$TDUPDATE
 40
2455637.375363530
  9
$TDUUPDATE
 40
2455637.333696864
  9
$TDINDWG
 40
0.0086635764
  9
$TDUSRTIMER
 40
0.0086633912
  9
$USRTIMER
 70
     1
  9
$ANGBASE
 50
0.0
  9
$ANGDIR
 70
     0
  9
$PDMODE
 70
     0
  9
$PDSIZE
 40
0.0
  9
$PLINEWID
 40
0.0
  9
$SPLFRAME
 70
     0
  9
$SPLINETYPE
 70
     6
  9
$SPLINESEGS
 70
     8
  9
$HANDSEED
  5
A80
  9
$SURFTAB1
 70
     6
  9
$SURFTAB2
 70
     6
  9
$SURFTYPE
 70
     6
  9
$SURFU
 70
     6
  9
$SURFV
 70
     6
  9
$UCSBASE
  2

  9
$UCSNAME
  2

  9
$UCSORG
 10
0.0
 20
0.0
 30
0.0
  9
$UCSXDIR
 10
1.0
 20
0.0
 30
0.0
  9
$UCSYDIR
 10
0.0
 20
1.0
 30
0.0
  9
$UCSORTHOREF
  2

  9
$UCSORTHOVIEW
 70
     0
  9
$UCSORGTOP
 10
0.0
 20
0.0
 30
0.0
  9
$UCSORGBOTTOM
 10
0.0
 20
0.0
 30
0.0
  9
$UCSORGLEFT
 10
0.0
 20
0.0
 30
0.0
  9
$UCSORGRIGHT
 10
0.0
 20
0.0
 30
0.0
  9
$UCSORGFRONT
 10
0.0
 20
0.0
 30
0.0
  9
$UCSORGBACK
 10
0.0
 20
0.0
 30
0.0
  9
$PUCSBASE
  2

  9
$PUCSNAME
  2

  9
$PUCSORG
 10
0.0
 20
0.0
 30
0.0
  9
$PUCSXDIR
 10
1.0
 20
0.0
 30
0.0
  9
$PUCSYDIR
 10
0.0
 20
1.0
 30
0.0
  9
$PUCSORTHOREF
  2

  9
$PUCSORTHOVIEW
 70
     0
  9
$PUCSORGTOP
 10
0.0
 20
0.0
 30
0.0
  9
$PUCSORGBOTTOM
 10
0.0
 20
0.0
 30
0.0
  9
$PUCSORGLEFT
 10
0.0
 20
0.0
 30
0.0
  9
$PUCSORGRIGHT
 10
0.0
 20
0.0
 30
0.0
  9
$PUCSORGFRONT
 10
0.0
 20
0.0
 30
0.0
  9
$PUCSORGBACK
 10
0.0
 20
0.0
 30
0.0
  9
$USERI1
 70
     0
  9
$USERI2
 70
     0
  9
$USERI3
 70
     0
  9
$USERI4
 70
     0
  9
$USERI5
 70
     0
  9
$USERR1
 40
0.0
  9
$USERR2
 40
0.0
  9
$USERR3
 40
0.0
  9
$USERR4
 40
0.0
  9
$USERR5
 40
0.0
  9
$WORLDVIEW
 70
     1
  9
$SHADEDGE
 70
     3
  9
$SHADEDIF
 70
    70
  9
$TILEMODE
 70
     1
  9
$MAXACTVP
 70
    48
  9
$PINSBASE
 10
0.0
 20
0.0
 30
0.0
  9
$PLIMCHECK
 70
     0
  9
$PEXTMIN
 10
1.000000000000000E+20
 20
1.000000000000000E+20
 30
1.000000000000000E+20
  9
$PEXTMAX
 10
-1.000000000000000E+20
 20
-1.000000000000000E+20
 30
-1.000000000000000E+20
  9
$PLIMMIN
 10
0.0
 20
0.0
  9
$PLIMMAX
 10
12.0
 20
9.0
  9
$UNITMODE
 70
     0
  9
$VISRETAIN
 70
     1
  9
$PLINEGEN
 70
     0
  9
$PSLTSCALE
 70
     1
  9
$TREEDEPTH
 70
  3020
  9
$CMLSTYLE
  2
STANDARD
  9
$CMLJUST
 70
     0
  9
$CMLSCALE
 40
1.0
  9
$PROXYGRAPHICS
 70
     1
  9
$MEASUREMENT
 70
     1
  9
$CELWEIGHT
370
    -1
  9
$ENDCAPS
280
     0
  9
$JOINSTYLE
280
     0
  9
$LWDISPLAY
290
     0
  9
$INSUNITS
 70
     0
  9
$HYPERLINKBASE
  1

  9
$STYLESHEET
  1

  9
$XEDIT
290
     1
  9
$CEPSNTYPE
380
     0
  9
$PSTYLEMODE
290
     1
  9
$FINGERPRINTGUID
  2
{E6FBD256-B3F9-467F-9E37-C8B8DE0C660F}
  9
$VERSIONGUID
  2
{DA1D1752-5FDA-4C51-AD2B-24FB7F483D23}
  9
$EXTNAMES
290
     1
  9
$PSVPSCALE
 40
0.0
  9
$OLESTARTUP
290
     0
  0
ENDSEC
  0
SECTION
  2
CLASSES
  0
CLASS
  1
DICTIONARYVAR
  2
AcDbDictionaryVar
  3
ObjectDBX Classes
 90
        0
280
     0
281
     0
  0
CLASS
  1
ACDBDICTIONARYWDFLT
  2
AcDbDictionaryWithDefault
  3
ObjectDBX Classes
 90
        0
280
     0
281
     0
  0
CLASS
  1
ACDBPLACEHOLDER
  2
AcDbPlaceHolder
  3
ObjectDBX Classes
 90
        0
280
     0
281
     0
  0
CLASS
  1
LAYOUT
  2
AcDbLayout
  3
ObjectDBX Classes
 90
        0
280
     0
281
     0
  0
CLASS
  1
PLOTSETTINGS
  2
AcDbPlotSettings
  3
ObjectDBX Classes
 90
        0
280
     0
281
     0
  0
CLASS
  1
MATERIAL
  2
AcDbMaterial
  3
ObjectDBX Classes
 90
     1153
280
     0
281
     0
  0
CLASS
  1
VISUALSTYLE
  2
AcDbVisualStyle
  3
ObjectDBX Classes
 90
     4095
280
     0
281
     0
  0
CLASS
  1
TABLESTYLE
  2
AcDbTableStyle
  3
ObjectDBX Classes
 90
     4095
280
     0
281
     0
  0
CLASS
  1
SCALE
  2
AcDbScale
  3
ObjectDBX Classes
 90
     1153
280
     0
281
     0
  0
CLASS
  1
MLEADERSTYLE
  2
AcDbMLeaderStyle
  3
ACDB_MLEADERSTYLE_CLASS
 90
     4095
280
     0
281
     0
  0
CLASS
  1
CELLSTYLEMAP
  2
AcDbCellStyleMap
  3
ObjectDBX Classes
 90
     1152
280
     0
281
     0
  0
CLASS
  1
DIMASSOC
  2
AcDbDimAssoc
  3
"AcDbDimAssoc|Product Desc:     AcDim ARX App For Dimension|Company:          Autodesk, Inc.|WEB Address:      www.autodesk.com"
 90
    32768
280
     0
281
     0
  0
CLASS
  1
ACDBQSCATEGORY
  2
AcQsCategory
  3
categories
 90
     1024
280
     0
281
     0
  0
CLASS
  1
SORTENTSTABLE
  2
AcDbSortentsTable
  3
ObjectDBX Classes
 90
    32768
280
     0
281
     0
  0
ENDSEC
  0
SECTION
  2
TABLES
  0
TABLE
  2
VPORT
  5
12
102
{ACAD_XDICTIONARY
360
300
102
}
330
0
100
AcDbSymbolTable
 70
     1
  0
VPORT
  5
2AE
330
12
100
AcDbSymbolTableRecord
100
AcDbViewportTableRecord
  2
*Active
 70
     0
 10
0.0
 20
0.0
 11
1.0
 21
1.0
 12
48.65995392228663
 22
150.217623730882
 13
0.0
 23
0.0
 14
1.0
 24
1.0
 15
1.0
 25
1.0
 16
0.0
 26
0.0
 36
1.0
 17
0.0
 27
0.0
 37
0.0
 40
333.6786110477133
 41
2.251225490196078
 42
50.0
 43
0.0
 44
0.0
 50
0.0
 51
0.0
 71
     0
 72
   100
 73
     1
 74
     0
 75
     0
 76
     0
 77
     0
 78
     0
281
     0
 65
     1
110
0.0
120
0.0
130
0.0
111
1.0
121
0.0
131
0.0
112
0.0
122
1.0
132
0.0
 79
     0
146
0.0
  0
ENDTAB
  0
TABLE
  2
LTYPE
  5
D
330
0
100
AcDbSymbolTable
 70
     7
  0
LTYPE
  5
E
330
D
100
AcDbSymbolTableRecord
100
AcDbLinetypeTableRecord
  2
BYBLOCK
 70
     0
  3

 72
    65
 73
     0
 40
0.0
  0
LTYPE
  5
F
330
D
100
AcDbSymbolTableRecord
100
AcDbLinetypeTableRecord
  2
BYLAYER
 70
     0
  3

 72
    65
 73
     0
 40
0.0
  0
LTYPE
  5
5
330
D
100
AcDbSymbolTableRecord
100
AcDbLinetypeTableRecord
  2
CONTINUOUS
 70
     0
  3
Solid line
 72
    65
 73
     0
 40
0.0
  0
LTYPE
  5
3E
330
D
100
AcDbSymbolTableRecord
100
AcDbLinetypeTableRecord
  2
ASSI
 70
     0
  3
-.-.-.-.-.-.-.-.-.-.-.-.-.-.-.-.-.-.-.-.-.-.-.-
 72
    65
 73
     4
 40
16.0
 49
10.0
 74
     0
 49
-2.0
 74
     0
 49
2.0
 74
     0
 49
-2.0
 74
     0
  0
LTYPE
  5
3F
330
D
100
AcDbSymbolTableRecord
100
AcDbLinetypeTableRecord
  2
INGOMBRI
 70
     0
  3
--..--..--..--..--..--..--..--..--..--..--..--
 72
    65
 73
     6
 40
20.0
 49
10.0
 74
     0
 49
-2.0
 74
     0
 49
2.0
 74
     0
 49
-2.0
 74
     0
 49
2.0
 74
     0
 49
-2.0
 74
     0
  0
LTYPE
  5
40
330
D
100
AcDbSymbolTableRecord
100
AcDbLinetypeTableRecord
  2
TRATTEGGIO
 70
     0
  3
- - - - - - - - - - - - - - - - - - - - - -
 72
    65
 73
     2
 40
5.5
 49
4.0
 74
     0
 49
-1.5
 74
     0
  0
LTYPE
  5
277
330
D
100
AcDbSymbolTableRecord
100
AcDbLinetypeTableRecord
  2
PUNTO
 70
     0
  3
Punto . . . . . . . . . . . . . . . . . . . . .
 72
    65
 73
     2
 40
6.349999999999999
 49
0.0
 74
     0
 49
-6.349999999999999
 74
     0
  0
LTYPE
  5
6FD
330
D
100
AcDbSymbolTableRecord
100
AcDbLinetypeTableRecord
  2
CENTER
 70
     0
  3

 72
    65
 73
     4
 40
0.9
 49
0.6
 74
     0
 49
-0.1
 74
     0
 49
0.1
 74
     0
 49
-0.1
 74
     0
  0
LTYPE
  5
6FE
330
D
100
AcDbSymbolTableRecord
100
AcDbLinetypeTableRecord
  2
DASHED3
 70
     0
  3

 72
    65
 73
     2
 40
0.2
 49
-0.1
 74
     0
 49
0.1
 74
     0
  0
ENDTAB
  0
TABLE
  2
LAYER
  5
A
102
{ACAD_XDICTIONARY
360
708
102
}
330
0
100
AcDbSymbolTable
 70
     3
  0
LAYER
  5
4
102
{ACAD_XDICTIONARY
360
37B
102
}
330
A
100
AcDbSymbolTableRecord
100
AcDbLayerTableRecord
  2
0
 70
     0
 62
     7
  6
CONTINUOUS
370
    -3
390
44
  0
LAYER
  5
118
330
A
100
AcDbSymbolTableRecord
100
AcDbLayerTableRecord
  2
Defpoints
 70
     0
 62
     7
  6
CONTINUOUS
290
     0
370
    -3
390
44
  0
LAYER
  5
6EE
102
{ACAD_XDICTIONARY
360
98B
102
}
330
A
100
AcDbSymbolTableRecord
100
AcDbLayerTableRecord
  2
P-0000
 70
     0
 62
     7
  6
CONTINUOUS
370
    -3
390
44
1001
AcAecLayerStandard
1000

1000
TOP
  0
ENDTAB
  0
TABLE
  2
STYLE
  5
B
330
0
100
AcDbSymbolTable
 70
     6
  0
STYLE
  5
C
330
B
100
AcDbSymbolTableRecord
100
AcDbTextStyleTableRecord
  2
STANDARD
 70
     0
 40
0.0
 41
0.8
 50
0.0
 71
     0
 42
0.2
  3
romans.shx
  4

  0
STYLE
  5
1B
330
B
100
AcDbSymbolTableRecord
100
AcDbTextStyleTableRecord
  2
ROMANS
 70
     0
 40
0.0
 41
0.8
 50
0.0
 71
     0
 42
3.0
  3
ROMANS.shx
  4

  0
STYLE
  5
25
330
B
100
AcDbSymbolTableRecord
100
AcDbTextStyleTableRecord
  2

 70
     1
 40
0.0
 41
1.0
 50
0.0
 71
     0
 42
0.2
  3
ltypeshp.shx
  4

  0
STYLE
  5
35C
330
B
100
AcDbSymbolTableRecord
100
AcDbTextStyleTableRecord
  2
Stile_Quota
 70
     0
 40
0.0
 41
1.0
 50
0.0
 71
     0
 42
3.0
  3
BOD_I.TTF
  4

1001
ACAD
1000
Bodoni MT
1071
 16777234
  0
STYLE
  5
635
330
B
100
AcDbSymbolTableRecord
100
AcDbTextStyleTableRecord
  2
Stile_Quota_FISSO
 70
     0
 40
20.0
 41
1.0
 50
0.0
 71
     0
 42
3.0
  3
BOD_I.TTF
  4

1001
ACAD
1000
Bodoni MT
1071
 16777234
  0
STYLE
  5
701
330
B
100
AcDbSymbolTableRecord
100
AcDbTextStyleTableRecord
  2
MARCO
 70
     0
 40
0.0
 41
1.0
 50
0.0
 71
     0
 42
30.0
  3
BOD_I.TTF
  4

1001
ACAD
1000
Bodoni MT
1071
 16777234
  0
ENDTAB
  0
TABLE
  2
VIEW
  5
10
330
0
100
AcDbSymbolTable
 70
     0
  0
ENDTAB
  0
TABLE
  2
UCS
  5
11
330
0
100
AcDbSymbolTable
 70
     0
  0
ENDTAB
  0
TABLE
  2
APPID
  5
14
330
0
100
AcDbSymbolTable
 70
    12
  0
APPID
  5
15
330
14
100
AcDbSymbolTableRecord
100
AcDbRegAppTableRecord
  2
ACAD
 70
     0
  0
APPID
  5
53
330
14
100
AcDbSymbolTableRecord
100
AcDbRegAppTableRecord
  2
TOP
 70
     0
  0
APPID
  5
356
330
14
100
AcDbSymbolTableRecord
100
AcDbRegAppTableRecord
  2
ACAD_MLEADERVER
 70
     0
  0
APPID
  5
35A
330
14
100
AcDbSymbolTableRecord
100
AcDbRegAppTableRecord
  2
ACAD_DSTYLE_DIMJAG
 70
     0
  0
APPID
  5
35B
330
14
100
AcDbSymbolTableRecord
100
AcDbRegAppTableRecord
  2
ACAD_DSTYLE_DIMTALN
 70
     0
  0
APPID
  5
35D
330
14
100
AcDbSymbolTableRecord
100
AcDbRegAppTableRecord
  2
AcadAnnoPO
 70
     0
  0
APPID
  5
374
330
14
100
AcDbSymbolTableRecord
100
AcDbRegAppTableRecord
  2
ACAD_EXEMPT_FROM_CAD_STANDARDS
 70
     0
  0
APPID
  5
38F
330
14
100
AcDbSymbolTableRecord
100
AcDbRegAppTableRecord
  2
ACAD_PSEXT
 70
     0
  0
APPID
  5
3BC
330
14
100
AcDbSymbolTableRecord
100
AcDbRegAppTableRecord
  2
ACAD_DSTYLE_DIMBREAK
 70
     0
  0
APPID
  5
6EF
330
14
100
AcDbSymbolTableRecord
100
AcDbRegAppTableRecord
  2
AcAecLayerStandard
 70
     0
  0
APPID
  5
707
330
14
100
AcDbSymbolTableRecord
100
AcDbRegAppTableRecord
  2
TOP_ETICH
 70
     0
  0
APPID
  5
A1E
330
14
100
AcDbSymbolTableRecord
100
AcDbRegAppTableRecord
  2
ACAD_DSTYLE_DIMJOGGED_JOGANGLE_SYMBOL
 70
     0
  0
ENDTAB
  0
TABLE
  2
DIMSTYLE
  5
16
330
0
100
AcDbSymbolTable
 70
     8
100
AcDbDimStyleTable
 71
     3
340
1D
340
3BD
340
3BE
  0
DIMSTYLE
105
1D
330
16
100
AcDbSymbolTableRecord
100
AcDbDimStyleTableRecord
  2
ACADTOP
 70
     0
 41
2.0
 42
1.0
 43
10.0
 44
1.5
 73
     0
 74
     0
 77
     1
 78
     8
 79
     2
140
2.0
141
2.0
146
0.6
147
1.0
172
     1
176
     2
177
     2
178
     1
179
     1
271
     2
272
     2
284
     8
289
     0
340
35C
1001
ACAD_DSTYLE_DIMJAG
1070
   388
1040
1.5
1001
ACAD_DSTYLE_DIMTALN
1070
   392
1070
     0
  0
DIMSTYLE
105
3BD
330
16
100
AcDbSymbolTableRecord
100
AcDbDimStyleTableRecord
  2
DIERRE_LUNG-ALT
 70
     0
 41
3.0
 42
1.0
 43
10.0
 44
1.5
 73
     0
 74
     0
 75
     1
 76
     1
 78
     8
 79
     2
140
20.0
141
2.0
146
0.6
147
1.0
172
     1
176
     3
177
     3
178
    30
179
     1
271
     1
272
     1
281
     1
282
     1
284
     8
340
635
1001
ACAD_DSTYLE_DIMBREAK
1070
   391
1040
3.75
1001
ACAD_DSTYLE_DIMJAG
1070
   388
1040
1.5
1001
ACAD_DSTYLE_DIMTALN
1070
   392
1070
     0
  0
DIMSTYLE
105
3BE
330
16
100
AcDbSymbolTableRecord
100
AcDbDimStyleTableRecord
  2
DIERRE_LARG
 70
     0
 41
3.0
 42
1.0
 43
10.0
 44
1.5
 73
     0
 74
     0
 75
     1
 76
     1
 78
     8
 79
     2
140
20.0
141
2.0
146
0.6
147
1.0
172
     1
176
     4
177
     4
178
     4
179
     1
271
     1
272
     1
281
     1
282
     1
284
     8
340
635
1001
ACAD_DSTYLE_DIMBREAK
1070
   391
1040
3.75
1001
ACAD_DSTYLE_DIMJAG
1070
   388
1040
1.5
1001
ACAD_DSTYLE_DIMTALN
1070
   392
1070
     0
  0
DIMSTYLE
105
702
330
16
100
AcDbSymbolTableRecord
100
AcDbDimStyleTableRecord
  2
ESE
 70
     0
 40
3.0
 41
2.0
 42
1.0
 43
10.0
 44
1.5
 73
     0
 74
     0
 77
     1
 78
     8
 79
     2
140
2.0
141
2.0
146
0.6
147
1.0
172
     1
176
     2
177
     2
178
     1
179
     1
271
     2
272
     2
284
     8
289
     0
340
35C
1001
ACAD_DSTYLE_DIMBREAK
1070
   391
1040
3.75
1001
ACAD_DSTYLE_DIMJAG
1070
   388
1040
1.5
1001
ACAD_DSTYLE_DIMTALN
1070
   392
1070
     0
  0
DIMSTYLE
105
703
330
16
100
AcDbSymbolTableRecord
100
AcDbDimStyleTableRecord
  2
ACADTOP10_0_0_33
 70
     0
 40
5.0
 41
3.0
 42
1.0
 43
10.0
 44
1.5
 73
     0
 74
     0
 77
     1
 78
     8
 79
     2
140
3.0
141
2.0
144
0.3333
146
0.6
147
1.0
172
     1
176
     2
177
     2
178
     1
179
     1
271
     2
272
     2
284
     8
289
     0
340
35C
  0
DIMSTYLE
105
704
330
16
100
AcDbSymbolTableRecord
100
AcDbDimStyleTableRecord
  2
ISO-25
 70
     0
 41
2.5
 42
0.625
 43
3.75
 44
1.25
 73
     0
 74
     0
 77
     1
 78
     8
140
2.5
141
2.5
143
0.03937007874016
147
0.625
171
     3
172
     1
271
     2
272
     2
274
     3
278
    44
283
     0
284
     8
340
C
1001
ACAD_DSTYLE_DIMJOGGED_JOGANGLE_SYMBOL
1070
   384
1040
1.570796326794896
  0
DIMSTYLE
105
705
330
16
100
AcDbSymbolTableRecord
100
AcDbDimStyleTableRecord
  2
MARCO
 70
     0
 41
50.0
 42
10.0
 44
20.0
 73
     0
 74
     0
 77
     1
 78
     8
140
50.0
141
2.0
144
0.1
147
10.0
172
     1
176
     1
177
     2
178
     1
271
     2
272
     2
283
     0
340
701
  0
DIMSTYLE
105
706
330
16
100
AcDbSymbolTableRecord
100
AcDbDimStyleTableRecord
  2
ACADTOP5_00_0_50
 70
     0
 40
5.0
 41
2.0
 42
1.0
 43
10.0
 44
1.5
 73
     0
 74
     0
 77
     1
 78
     8
 79
     2
140
2.0
141
2.0
144
0.5
146
0.6
147
1.0
172
     1
176
     2
177
     2
178
     1
179
     1
271
     2
272
     2
284
     8
289
     0
340
35C
  0
ENDTAB
  0
TABLE
  2
BLOCK_RECORD
  5
1
330
0
100
AcDbSymbolTable
 70
     0
  0
BLOCK_RECORD
  5
2
330
1
100
AcDbSymbolTableRecord
100
AcDbBlockTableRecord
  2
*MODEL_SPACE
340
47
  0
BLOCK_RECORD
  5
7
330
1
100
AcDbSymbolTableRecord
100
AcDbBlockTableRecord
  2
*PAPER_SPACE
340
48
  0
ENDTAB
  0
ENDSEC
  0
SECTION
  2
BLOCKS
  0
BLOCK
  5
3
330
2
100
AcDbEntity
  8
0
100
AcDbBlockBegin
  2
*MODEL_SPACE
 70
     0
 10
0.0
 20
0.0
 30
0.0
  3
*MODEL_SPACE
  1

  0
ENDBLK
  5
6
330
2
100
AcDbEntity
  8
0
100
AcDbBlockEnd
  0
BLOCK
  5
8
330
7
100
AcDbEntity
 67
     1
  8
0
100
AcDbBlockBegin
  2
*PAPER_SPACE
 70
     0
 10
0.0
 20
0.0
 30
0.0
  3
*PAPER_SPACE
  1

  0
ENDBLK
  5
9
330
7
100
AcDbEntity
 67
     1
  8
0
100
AcDbBlockEnd
  0
ENDSEC
  0
SECTION
  2
ENTITIES
  0
LINE
  5
84B
330
2
100
AcDbEntity
  8
P-0000
  6
Continuous
 62
     1
100
AcDbLine
 10
6.100000000002182
 20
12.0
 30
0.0
 11
0.0
 21
12.0
 31
0.0
  0
ARC
  5
84C
330
2
100
AcDbEntity
  8
P-0000
  6
Continuous
 62
     1
100
AcDbCircle
 10
6.100000000002182
 20
11.5
 30
0.0
 40
0.5
100
AcDbArc
 50
0.0
 51
90.0
  0
ARC
  5
84D
330
2
100
AcDbEntity
  8
P-0000
  6
Continuous
 62
     1
100
AcDbCircle
 10
0.0
 20
0.0
 30
0.0
 40
11.2
100
AcDbArc
 50
306.1062999999584
 51
53.89399999995009
  0
LINE
  5
84E
330
2
100
AcDbEntity
  8
P-0000
  6
Continuous
 62
     1
100
AcDbLine
 10
6.600000000002182
 20
11.5
 30
0.0
 11
6.600000000002182
 21
-11.5
 31
0.0
  0
LINE
  5
84F
330
2
100
AcDbEntity
  8
P-0000
  6
Continuous
 62
     1
100
AcDbLine
 10
147.456768044708
 20
301.7217689567283
 30
0.0
 11
147.456768044708
 21
292.7217689567283
 31
0.0
  0
ARC
  5
850
330
2
100
AcDbEntity
  8
P-0000
  6
Continuous
 62
     1
100
AcDbCircle
 10
147.6567680447088
 20
301.7217689567283
 30
0.0
 40
0.2
100
AcDbArc
 50
90.0
 51
180.0
  0
ARC
  5
851
330
2
100
AcDbEntity
  8
P-0000
  6
Continuous
 62
     1
100
AcDbCircle
 10
147.6567680447088
 20
292.7217689567283
 30
0.0
 40
0.2
100
AcDbArc
 50
180.0
 51
270.0
  0
LINE
  5
852
330
2
100
AcDbEntity
  8
P-0000
  6
Continuous
 62
     1
100
AcDbLine
 10
163.133468044708
 20
301.7217689567283
 30
0.0
 11
163.133468044708
 21
292.7217689567283
 31
0.0
  0
ARC
  5
853
330
2
100
AcDbEntity
  8
P-0000
  6
Continuous
 62
     1
100
AcDbCircle
 10
162.9334680447073
 20
301.7217689567283
 30
0.0
 40
0.2
100
AcDbArc
 50
0.0
 51
90.0
  0
ARC
  5
854
330
2
100
AcDbEntity
  8
P-0000
  6
Continuous
 62
     1
100
AcDbCircle
 10
162.9334680447073
 20
292.7217689567283
 30
0.0
 40
0.2
100
AcDbArc
 50
270.0
 51
0.0
  0
LINE
  5
855
330
2
100
AcDbEntity
  8
P-0000
  6
Continuous
 62
     1
100
AcDbLine
 10
162.9334680447073
 20
292.5217689567285
 30
0.0
 11
147.6567680447088
 21
292.5217689567285
 31
0.0
  0
LINE
  5
856
330
2
100
AcDbEntity
  8
P-0000
  6
Continuous
 62
     1
100
AcDbLine
 10
162.9334680447073
 20
301.9217689567281
 30
0.0
 11
147.6567680447088
 21
301.9217689567281
 31
0.0
  0
LINE
  5
857
330
2
100
AcDbEntity
  8
P-0000
  6
Continuous
 62
     1
100
AcDbLine
 10
160.8950680447096
 20
285.6217689567288
 30
0.0
 11
160.8950680447096
 21
288.3217689567286
 31
0.0
  0
ARC
  5
858
330
2
100
AcDbEntity
  8
P-0000
  6
Continuous
 62
     1
100
AcDbCircle
 10
160.4950680447082
 20
285.6217689567288
 30
0.0
 40
0.4
100
AcDbArc
 50
270.0
 51
0.0
  0
ARC
  5
859
330
2
100
AcDbEntity
  8
P-0000
  6
Continuous
 62
     1
100
AcDbCircle
 10
164.1950680447089
 20
288.3217689567286
 30
0.0
 40
3.299999999999999
100
AcDbArc
 50
90.0
 51
180.0
  0
LINE
  5
85A
330
2
100
AcDbEntity
  8
P-0000
  6
Continuous
 62
     1
100
AcDbLine
 10
164.1950680447089
 20
291.6217689567288
 30
0.0
 11
166.8950680447096
 21
291.6217689567288
 31
0.0
  0
ARC
  5
85B
330
2
100
AcDbEntity
  8
P-0000
  6
Continuous
 62
     1
100
AcDbCircle
 10
166.8950680447096
 20
292.0217689567285
 30
0.0
 40
0.4
100
AcDbArc
 50
270.0
 51
0.0
  0
LINE
  5
85C
330
2
100
AcDbEntity
  8
P-0000
  6
Continuous
 62
     1
100
AcDbLine
 10
6.200000000000727
 20
-5.599999999998544
 30
0.0
 11
4.0
 21
-5.599999999998544
 31
0.0
  0
LINE
  5
85D
330
2
100
AcDbEntity
  8
P-0000
  6
Continuous
 62
     1
100
AcDbLine
 10
6.200000000000727
 20
5.600000000002182
 30
0.0
 11
4.0
 21
5.600000000002182
 31
0.0
  0
LINE
  5
85E
330
2
100
AcDbEntity
  8
P-0000
  6
Continuous
 62
     1
100
AcDbLine
 10
3.600000000002182
 20
12.0
 30
0.0
 11
3.600000000002182
 21
6.0
 31
0.0
  0
ARC
  5
85F
330
2
100
AcDbEntity
  8
P-0000
  6
Continuous
 62
     1
100
AcDbCircle
 10
4.0
 20
-6.0
 30
0.0
 40
0.4
100
AcDbArc
 50
90.0
 51
180.0
  0
ARC
  5
860
330
2
100
AcDbEntity
  8
P-0000
  6
Continuous
 62
     1
100
AcDbCircle
 10
6.200000000000727
 20
-5.199999999997089
 30
0.0
 40
0.4
100
AcDbArc
 50
270.0001191470722
 51
0.0002000000201289
  0
ARC
  5
861
330
2
100
AcDbEntity
  8
P-0000
  6
Continuous
 62
     1
100
AcDbCircle
 10
6.200000000000727
 20
5.200000000000727
 30
0.0
 40
0.4
100
AcDbArc
 50
0.0
 51
90.0
  0
ARC
  5
862
330
2
100
AcDbEntity
  8
P-0000
  6
Continuous
 62
     1
100
AcDbCircle
 10
4.0
 20
6.0
 30
0.0
 40
0.4
100
AcDbArc
 50
180.0
 51
270.0001191470722
  0
LINE
  5
863
330
2
100
AcDbEntity
  8
P-0000
  6
Continuous
 62
     1
100
AcDbLine
 10
-14.30099999999947
 20
-6.0
 30
0.0
 11
-22.0
 21
-6.0
 31
0.0
  0
ARC
  5
864
330
2
100
AcDbEntity
  8
P-0000
  6
Continuous
 62
     1
100
AcDbCircle
 10
-22.0
 20
-10.0
 30
0.0
 40
4.0
100
AcDbArc
 50
90.0
 51
180.0
  0
ARC
  5
865
330
2
100
AcDbEntity
  8
P-0000
  6
Continuous
 62
     1
100
AcDbCircle
 10
-14.30099999999947
 20
-5.0
 30
0.0
 40
1.0
100
AcDbArc
 50
270.0
 51
0.0
  0
ARC
  5
866
330
2
100
AcDbEntity
  8
P-0000
  6
Continuous
 62
     1
100
AcDbCircle
 10
-26.29999999999927
 20
-15.09999999999854
 30
0.0
 40
0.3
100
AcDbArc
 50
270.0
 51
0.0
  0
LINE
  5
867
330
2
100
AcDbEntity
  8
P-0000
  6
Continuous
 62
     1
100
AcDbLine
 10
-14.30099999999947
 20
6.0
 30
0.0
 11
-22.0
 21
6.0
 31
0.0
  0
ARC
  5
868
330
2
100
AcDbEntity
  8
P-0000
  6
Continuous
 62
     1
100
AcDbCircle
 10
-14.30099999999947
 20
5.0
 30
0.0
 40
1.0
100
AcDbArc
 50
0.0
 51
90.0
  0
ARC
  5
869
330
2
100
AcDbEntity
  8
P-0000
  6
Continuous
 62
     1
100
AcDbCircle
 10
-26.29999999999927
 20
15.10000000000218
 30
0.0
 40
0.3
100
AcDbArc
 50
0.0
 51
90.0
  0
LINE
  5
86A
330
2
100
AcDbEntity
  8
P-0000
  6
Continuous
 62
     1
100
AcDbLine
 10
-26.0
 20
-15.09999999999854
 30
0.0
 11
-26.0
 21
-10.0
 31
0.0
  0
LINE
  5
86B
330
2
100
AcDbEntity
  8
P-0000
  6
Continuous
 62
     1
100
AcDbLine
 10
-26.0
 20
10.0
 30
0.0
 11
-26.0
 21
15.13000000000102
 31
0.0
  0
ARC
  5
86C
330
2
100
AcDbEntity
  8
P-0000
  6
Continuous
 62
     1
100
AcDbCircle
 10
-22.0
 20
10.0
 30
0.0
 40
4.0
100
AcDbArc
 50
180.0
 51
270.0
  0
LINE
  5
86D
330
2
100
AcDbEntity
  8
P-0000
  6
Continuous
 62
     1
100
AcDbLine
 10
-11.0
 20
-6.0
 30
0.0
 11
-13.30099999999947
 21
-6.0
 31
0.0
  0
LINE
  5
86E
330
2
100
AcDbEntity
  8
P-0000
  6
Continuous
 62
     1
100
AcDbLine
 10
-11.0
 20
-12.0
 30
0.0
 11
-15.0
 21
-12.0
 31
0.0
  0
ARC
  5
86F
330
2
100
AcDbEntity
  8
P-0000
  6
Continuous
 62
     1
100
AcDbCircle
 10
-16.5
 20
-13.89999999999782
 30
0.0
 40
1.5
100
AcDbArc
 50
270.0
 51
0.0
  0
LINE
  5
870
330
2
100
AcDbEntity
  8
P-0000
  6
Continuous
 62
     1
100
AcDbLine
 10
-15.0
 20
-13.89999999999782
 30
0.0
 11
-15.0
 21
-12.0
 31
0.0
  0
LINE
  5
873
330
2
100
AcDbEntity
  8
P-0000
  6
Continuous
 62
     1
100
AcDbLine
 10
-11.0
 20
6.0
 30
0.0
 11
-13.30099999999947
 21
6.0
 31
0.0
  0
LINE
  5
874
330
2
100
AcDbEntity
  8
P-0000
  6
Continuous
 62
     1
100
AcDbLine
 10
-11.0
 20
12.0
 30
0.0
 11
-15.0
 21
12.0
 31
0.0
  0
LINE
  5
875
330
2
100
AcDbEntity
  8
P-0000
  6
Continuous
 62
     1
100
AcDbLine
 10
-15.0
 20
13.93000000000029
 30
0.0
 11
-15.0
 21
12.0
 31
0.0
  0
ARC
  5
876
330
2
100
AcDbEntity
  8
P-0000
  6
Continuous
 62
     1
100
AcDbCircle
 10
-16.5
 20
13.90000000000145
 30
0.0
 40
1.5
100
AcDbArc
 50
0.0
 51
90.0
  0
LINE
  5
877
330
2
100
AcDbEntity
  8
P-0000
  6
Continuous
 62
     1
100
AcDbLine
 10
-13.30099999999947
 20
-6.0
 30
0.0
 11
-13.30099999999947
 21
6.0
 31
0.0
  0
ARC
  5
878
330
2
100
AcDbEntity
  8
P-0000
  6
Continuous
 62
     1
100
AcDbCircle
 10
169.1950680447089
 20
314.3217689567287
 30
0.0
 40
1.5
100
AcDbArc
 50
0.0
 51
90.0
  0
ARC
  5
879
330
2
100
AcDbEntity
  8
P-0000
  6
Continuous
 62
     1
100
AcDbCircle
 10
166.2950680447075
 20
308.2217689567283
 30
0.0
 40
1.0
100
AcDbArc
 50
0.0
 51
90.0
  0
LINE
  5
87A
330
2
100
AcDbEntity
  8
P-0000
  6
Continuous
 62
     1
100
AcDbLine
 10
139.8950680447096
 20
311.7217689567283
 30
0.0
 11
170.6950680447089
 21
311.7217689567283
 31
0.0
  0
LINE
  5
87F
330
2
100
AcDbEntity
  8
P-0000
  6
Continuous
 62
     1
100
AcDbLine
 10
-19.0
 20
-13.0
 30
0.0
 11
-22.0
 21
-13.0
 31
0.0
  0
LINE
  5
880
330
2
100
AcDbEntity
  8
P-0000
  6
Continuous
 62
     1
100
AcDbLine
 10
-24.0
 20
-10.0
 30
0.0
 11
-24.0
 21
-11.0
 31
0.0
  0
ARC
  5
881
330
2
100
AcDbEntity
  8
P-0000
  6
Continuous
 62
     1
100
AcDbCircle
 10
-22.0
 20
-10.0
 30
0.0
 40
2.0
100
AcDbArc
 50
29.99999999992221
 51
180.0
  0
LINE
  5
882
330
2
100
AcDbEntity
  8
P-0000
  6
Continuous
 62
     1
100
AcDbLine
 10
-19.0
 20
-9.0
 30
0.0
 11
-20.26800000000003
 21
-9.0
 31
0.0
  0
ARC
  5
884
330
2
100
AcDbEntity
  8
P-0000
  6
Continuous
 62
     1
100
AcDbCircle
 10
-19.0
 20
-11.0
 30
0.0
 40
2.0
100
AcDbArc
 50
270.0
 51
90.0
  0
ARC
  5
885
330
2
100
AcDbEntity
  8
P-0000
  6
Continuous
 62
     1
100
AcDbCircle
 10
-72.0010000000002
 20
-13.89999999999782
 30
0.0
 40
1.5
100
AcDbArc
 50
180.0
 51
270.0
  0
ARC
  5
886
330
2
100
AcDbEntity
  8
P-0000
  6
Continuous
 62
     1
100
AcDbCircle
 10
-72.0010000000002
 20
13.90000000000145
 30
0.0
 40
1.5
100
AcDbArc
 50
90.0
 51
180.0
  0
LINE
  5
887
330
2
100
AcDbEntity
  8
P-0000
  6
Continuous
 62
     1
100
AcDbLine
 10
-73.5010000000002
 20
-13.89999999999782
 30
0.0
 11
-73.5010000000002
 21
13.93000000000029
 31
0.0
  0
LINE
  5
888
330
2
100
AcDbEntity
  8
P-0000
  6
Continuous
 62
     1
100
AcDbLine
 10
-71.5010000000002
 20
-15.39999999999781
 30
0.0
 11
-71.5010000000002
 21
15.40000000000145
 31
0.0
  0
LINE
  5
889
330
2
100
AcDbEntity
  8
P-0000
  6
Continuous
 62
     1
100
AcDbLine
 10
141.3950680447096
 20
315.8217689567286
 30
0.0
 11
169.2250680447078
 21
315.8217689567286
 31
0.0
  0
ARC
  5
88A
330
2
100
AcDbEntity
  8
P-0000
  6
Continuous
 62
     1
100
AcDbCircle
 10
141.3950680447096
 20
314.3217689567287
 30
0.0
 40
1.5
100
AcDbArc
 50
90.0
 51
180.0
  0
ARC
  5
88B
330
2
100
AcDbEntity
  8
P-0000
  6
Continuous
 62
     1
100
AcDbCircle
 10
-22.0
 20
-11.0
 30
0.0
 40
2.0
100
AcDbArc
 50
180.0
 51
270.0
  0
ARC
  5
88C
330
2
100
AcDbEntity
  8
P-0000
  6
Continuous
 62
     1
100
AcDbCircle
 10
-19.0
 20
11.0
 30
0.0
 40
2.0
100
AcDbArc
 50
270.0
 51
90.0
  0
LINE
  5
88D
330
2
100
AcDbEntity
  8
P-0000
  6
Continuous
 62
     1
100
AcDbLine
 10
-19.0
 20
9.0
 30
0.0
 11
-20.26800000000003
 21
9.0
 31
0.0
  0
ARC
  5
88E
330
2
100
AcDbEntity
  8
P-0000
  6
Continuous
 62
     1
100
AcDbCircle
 10
-22.0
 20
10.0
 30
0.0
 40
2.0
100
AcDbArc
 50
180.0
 51
330.0000000000778
  0
ARC
  5
88F
330
2
100
AcDbEntity
  8
P-0000
  6
Continuous
 62
     1
100
AcDbCircle
 10
-22.0
 20
11.0
 30
0.0
 40
2.0
100
AcDbArc
 50
90.0
 51
180.0
  0
LINE
  5
890
330
2
100
AcDbEntity
  8
P-0000
  6
Continuous
 62
     1
100
AcDbLine
 10
-19.0
 20
13.0
 30
0.0
 11
-22.0
 21
13.0
 31
0.0
  0
LINE
  5
891
330
2
100
AcDbEntity
  8
P-0000
  6
Continuous
 62
     1
100
AcDbLine
 10
-24.0
 20
10.0
 30
0.0
 11
-24.0
 21
11.0
 31
0.0
  0
LINE
  5
892
330
2
100
AcDbEntity
  8
P-0000
  6
Continuous
 62
     1
100
AcDbLine
 10
140.905068044708
 20
311.7217689567283
 30
0.0
 11
141.1950680447089
 21
312.1217689567288
 31
0.0
  0
LINE
  5
893
330
2
100
AcDbEntity
  8
P-0000
  6
Continuous
 62
     1
100
AcDbLine
 10
169.6750680447085
 20
311.7217689567283
 30
0.0
 11
169.3950680447096
 21
312.1217689567288
 31
0.0
  0
LINE
  5
894
330
2
100
AcDbEntity
  8
P-0000
  6
Continuous
 62
     1
100
AcDbLine
 10
139.8950680447096
 20
311.8217689567286
 30
0.0
 11
140.9750680447077
 21
311.8217689567286
 31
0.0
  0
LINE
  5
895
330
2
100
AcDbEntity
  8
P-0000
  6
Continuous
 62
     1
100
AcDbLine
 10
169.6050680447088
 20
311.8217689567286
 30
0.0
 11
170.6950680447089
 21
311.8217689567286
 31
0.0
  0
CIRCLE
  5
896
330
2
100
AcDbEntity
  8
P-0000
  6
Continuous
 62
     1
100
AcDbCircle
 10
-19.0
 20
0.0
 30
0.0
 40
3.299999999999999
  0
LINE
  5
897
330
2
100
AcDbEntity
  8
P-0000
  6
Continuous
 62
     1
100
AcDbLine
 10
0.0
 20
-12.0
 30
0.0
 11
-11.0
 21
-12.0
 31
0.0
  0
LINE
  5
898
330
2
100
AcDbEntity
  8
P-0000
  6
Continuous
 62
     1
100
AcDbLine
 10
0.0
 20
12.0
 30
0.0
 11
-11.0
 21
12.0
 31
0.0
  0
LINE
  5
899
330
2
100
AcDbEntity
  8
P-0000
  6
Continuous
 62
     1
100
AcDbLine
 10
-11.0
 20
-12.0
 30
0.0
 11
-11.0
 21
-6.0
 31
0.0
  0
LINE
  5
89A
330
2
100
AcDbEntity
  8
P-0000
  6
Continuous
 62
     1
100
AcDbLine
 10
-11.0
 20
6.0
 30
0.0
 11
-11.0
 21
12.0
 31
0.0
  0
ARC
  5
89D
330
2
100
AcDbEntity
  8
P-0000
  6
Continuous
 62
     1
100
AcDbCircle
 10
144.2950680447075
 20
286.2217689567283
 30
0.0
 40
1.0
100
AcDbArc
 50
180.0
 51
270.0
  0
ARC
  5
89E
330
2
100
AcDbEntity
  8
P-0000
  6
Continuous
 62
     1
100
AcDbCircle
 10
166.2950680447075
 20
308.2217689567283
 30
0.0
 40
1.0
100
AcDbArc
 50
0.0
 51
90.0
  0
ARC
  5
89F
330
2
100
AcDbEntity
  8
P-0000
  6
Continuous
 62
     1
100
AcDbCircle
 10
144.2950680447075
 20
308.2217689567283
 30
0.0
 40
1.0
100
AcDbArc
 50
90.0
 51
180.0
  0
ARC
  5
8A0
330
2
100
AcDbEntity
  8
P-0000
  6
Continuous
 62
     1
100
AcDbCircle
 10
166.2950680447075
 20
286.2217689567283
 30
0.0
 40
1.0
100
AcDbArc
 50
270.0
 51
0.0
  0
LINE
  5
8A1
330
2
100
AcDbEntity
  8
P-0000
  6
Continuous
 62
     1
100
AcDbLine
 10
170.6950680447089
 20
285.2217689567283
 30
0.0
 11
139.8950680447096
 21
285.2217689567283
 31
0.0
  0
LINE
  5
8A2
330
2
100
AcDbEntity
  8
P-0000
  6
Continuous
 62
     1
100
AcDbLine
 10
143.2950680447075
 20
286.2217689567283
 30
0.0
 11
143.2950680447075
 21
308.2217689567283
 31
0.0
  0
LINE
  5
8A3
330
2
100
AcDbEntity
  8
P-0000
  6
Continuous
 62
     1
100
AcDbLine
 10
139.8950680447096
 20
309.2217689567283
 30
0.0
 11
170.6950680447089
 21
309.2217689567283
 31
0.0
  0
LINE
  5
8A4
330
2
100
AcDbEntity
  8
P-0000
  6
Continuous
 62
     1
100
AcDbLine
 10
167.2950680447075
 20
308.2217689567283
 30
0.0
 11
167.2950680447075
 21
286.2217689567283
 31
0.0
  0
LINE
  5
8A6
330
2
100
AcDbEntity
  8
P-0000
  6
Continuous
 62
     1
100
AcDbLine
 10
-16.5
 20
15.40000000000145
 30
0.0
 11
-72.0010000000002
 21
15.40000000000145
 31
0.0
  0
LINE
  5
8A7
330
2
100
AcDbEntity
  8
P-0000
  6
Continuous
 62
     1
100
AcDbLine
 10
170.6950680447089
 20
285.0217689567285
 30
0.0
 11
170.6950680447089
 21
314.3217689567287
 31
0.0
  0
LINE
  5
8A8
330
2
100
AcDbEntity
  8
P-0000
  6
Continuous
 62
     1
100
AcDbLine
 10
-16.5
 20
-15.39999999999781
 30
0.0
 11
-72.0010000000002
 21
-15.39999999999781
 31
0.0
  0
LINE
  5
8A9
330
2
100
AcDbEntity
  8
P-0000
  6
Continuous
 62
     1
100
AcDbLine
 10
139.8950680447096
 20
285.0217689567285
 30
0.0
 11
139.8950680447096
 21
314.3217689567287
 31
0.0
  0
LINE
  5
8AC
330
2
100
AcDbEntity
  8
P-0000
  6
Continuous
 62
     1
100
AcDbLine
 10
170.6950680447089
 20
285.0217689567285
 30
0.0
 11
161.8950680447096
 21
285.0217689567285
 31
0.0
  0
LINE
  5
8AD
330
2
100
AcDbEntity
  8
P-0000
  6
Continuous
 62
     1
100
AcDbLine
 10
148.6950680447089
 20
285.0217689567285
 30
0.0
 11
139.8950680447096
 21
285.0217689567285
 31
0.0
  0
LINE
  5
8AE
330
2
100
AcDbEntity
  8
P-0000
  6
Continuous
 62
     1
100
AcDbLine
 10
161.8950680447096
 20
285.0217689567285
 30
0.0
 11
161.8950680447096
 21
285.2217689567283
 31
0.0
  0
LINE
  5
8AF
330
2
100
AcDbEntity
  8
P-0000
  6
Continuous
 62
     1
100
AcDbLine
 10
148.6950680447089
 20
285.0217689567285
 30
0.0
 11
148.6950680447089
 21
285.2217689567283
 31
0.0
  0
LINE
  5
8B0
330
2
100
AcDbEntity
  8
P-0000
  6
Continuous
 62
     1
100
AcDbLine
 10
141.1950680447089
 20
312.1217689567288
 30
0.0
 11
169.3950680447096
 21
312.1217689567288
 31
0.0
  0
LINE
  5
8B1
330
2
100
AcDbEntity
  8
P-0000
  6
Continuous
 62
     1
100
AcDbLine
 10
161.2950680447075
 20
309.2217689567283
 30
0.0
 11
161.2950680447075
 21
315.8217689567286
 31
0.0
  0
LINE
  5
8B2
330
2
100
AcDbEntity
  8
P-0000
  6
Continuous
 62
     1
100
AcDbLine
 10
149.2950680447075
 20
309.2217689567283
 30
0.0
 11
149.2950680447075
 21
315.8217689567286
 31
0.0
  0
ARC
  5
8B3
330
2
100
AcDbEntity
  8
P-0000
  6
Continuous
 62
     1
100
AcDbCircle
 10
6.100000000002182
 20
-11.5
 30
0.0
 40
0.5
100
AcDbArc
 50
270.0
 51
0.0
  0
LINE
  5
8B4
330
2
100
AcDbEntity
  8
P-0000
  6
Continuous
 62
     1
100
AcDbLine
 10
6.100000000002182
 20
-12.0
 30
0.0
 11
0.0
 21
-12.0
 31
0.0
  0
LINE
  5
8B5
330
2
100
AcDbEntity
  8
P-0000
  6
Continuous
 62
     1
100
AcDbLine
 10
3.600000000002182
 20
-12.0
 30
0.0
 11
3.600000000002182
 21
-6.0
 31
0.0
  0
ARC
  5
8B6
330
2
100
AcDbEntity
  8
P-0000
  6
Continuous
 62
     1
100
AcDbCircle
 10
143.6950680447089
 20
292.0217689567285
 30
0.0
 40
0.4
100
AcDbArc
 50
180.0
 51
270.0
  0
LINE
  5
8B7
330
2
100
AcDbEntity
  8
P-0000
  6
Continuous
 62
     1
100
AcDbLine
 10
146.3950680447096
 20
291.6217689567288
 30
0.0
 11
143.6950680447089
 21
291.6217689567288
 31
0.0
  0
ARC
  5
8B8
330
2
100
AcDbEntity
  8
P-0000
  6
Continuous
 62
     1
100
AcDbCircle
 10
146.3950680447096
 20
288.3217689567286
 30
0.0
 40
3.299999999999999
100
AcDbArc
 50
0.0
 51
90.0
  0
LINE
  5
8B9
330
2
100
AcDbEntity
  8
P-0000
  6
Continuous
 62
     1
100
AcDbLine
 10
149.6950680447089
 20
285.6217689567288
 30
0.0
 11
149.6950680447089
 21
288.3217689567286
 31
0.0
  0
ARC
  5
8BA
330
2
100
AcDbEntity
  8
P-0000
  6
Continuous
 62
     1
100
AcDbCircle
 10
150.0950680447104
 20
285.6217689567288
 30
0.0
 40
0.4
100
AcDbArc
 50
180.0
 51
270.0
  0
ARC
  5
8BB
330
2
100
AcDbEntity
  8
P-0000
  6
Continuous
 62
     1
100
AcDbCircle
 10
160.4950680447082
 20
308.8217689567287
 30
0.0
 40
0.4
100
AcDbArc
 50
0.0
 51
90.0
  0
LINE
  5
8BC
330
2
100
AcDbEntity
  8
P-0000
  6
Continuous
 62
     1
100
AcDbLine
 10
160.8950680447096
 20
308.8217689567287
 30
0.0
 11
160.8950680447096
 21
306.1217689567288
 31
0.0
  0
ARC
  5
8BD
330
2
100
AcDbEntity
  8
P-0000
  6
Continuous
 62
     1
100
AcDbCircle
 10
164.1950680447089
 20
306.1217689567288
 30
0.0
 40
3.299999999999999
100
AcDbArc
 50
180.0
 51
270.0
  0
LINE
  5
8BE
330
2
100
AcDbEntity
  8
P-0000
  6
Continuous
 62
     1
100
AcDbLine
 10
164.1950680447089
 20
302.8217689567286
 30
0.0
 11
166.8950680447096
 21
302.8217689567286
 31
0.0
  0
ARC
  5
8BF
330
2
100
AcDbEntity
  8
P-0000
  6
Continuous
 62
     1
100
AcDbCircle
 10
166.8950680447096
 20
302.4217689567281
 30
0.0
 40
0.4
100
AcDbArc
 50
0.0
 51
90.0
  0
ARC
  5
8C0
330
2
100
AcDbEntity
  8
P-0000
  6
Continuous
 62
     1
100
AcDbCircle
 10
150.0950680447104
 20
308.8217689567287
 30
0.0
 40
0.4
100
AcDbArc
 50
90.0
 51
180.0000107339733
  0
LINE
  5
8C1
330
2
100
AcDbEntity
  8
P-0000
  6
Continuous
 62
     1
100
AcDbLine
 10
149.6950680447089
 20
308.8217689567287
 30
0.0
 11
149.6950680447089
 21
306.1217689567288
 31
0.0
  0
ARC
  5
8C2
330
2
100
AcDbEntity
  8
P-0000
  6
Continuous
 62
     1
100
AcDbCircle
 10
146.3950680447096
 20
306.1217689567288
 30
0.0
 40
3.299999999999999
100
AcDbArc
 50
270.0
 51
0.0
  0
LINE
  5
8C3
330
2
100
AcDbEntity
  8
P-0000
  6
Continuous
 62
     1
100
AcDbLine
 10
146.3950680447096
 20
302.8217689567286
 30
0.0
 11
143.6950680447089
 21
302.8217689567286
 31
0.0
  0
ARC
  5
8C4
330
2
100
AcDbEntity
  8
P-0000
  6
Continuous
 62
     1
100
AcDbCircle
 10
143.6950680447089
 20
302.4217689567281
 30
0.0
 40
0.4
100
AcDbArc
 50
90.0
 51
180.0000107339733
  0
CIRCLE
  5
8C5
330
2
100
AcDbEntity
  8
P-0000
  6
Continuous
 62
     1
100
AcDbCircle
 10
164.2950680447075
 20
288.2217689567283
 30
0.0
 40
2.649999999999999
  0
ARC
  5
8C6
330
2
100
AcDbEntity
  8
P-0000
  6
Continuous
 62
     1
100
AcDbCircle
 10
164.2950680447075
 20
288.2217689567283
 30
0.0
 40
1.5
100
AcDbArc
 50
250.5284000000508
 51
289.4720000000977
  0
ARC
  5
8C7
330
2
100
AcDbEntity
  8
P-0000
  6
Continuous
 62
     1
100
AcDbCircle
 10
164.2950680447075
 20
288.2217689567283
 30
0.0
 40
1.5
100
AcDbArc
 50
340.5290000000087
 51
19.47099999999129
  0
ARC
  5
8C8
330
2
100
AcDbEntity
  8
P-0000
  6
Continuous
 62
     1
100
AcDbCircle
 10
164.2950680447075
 20
288.2217689567283
 30
0.0
 40
1.5
100
AcDbArc
 50
70.52799999990224
 51
109.4720000000977
  0
LINE
  5
8C9
330
2
100
AcDbEntity
  8
P-0000
  6
Continuous
 62
     1
100
AcDbLine
 10
163.7950680447074
 20
286.8075689567281
 30
0.0
 11
163.8342680447103
 21
287.3217689567287
 31
0.0
  0
LINE
  5
8CA
330
2
100
AcDbEntity
  8
P-0000
  6
Continuous
 62
     1
100
AcDbLine
 10
163.8342680447103
 20
287.3217689567287
 30
0.0
 11
163.7905680447083
 21
287.7172689567283
 31
0.0
  0
LINE
  5
8CB
330
2
100
AcDbEntity
  8
P-0000
  6
Continuous
 62
     1
100
AcDbLine
 10
163.3950680447096
 20
287.7609689567285
 30
0.0
 11
163.7905680447083
 21
287.7172689567283
 31
0.0
  0
LINE
  5
8CC
330
2
100
AcDbEntity
  8
P-0000
  6
Continuous
 62
     1
100
AcDbLine
 10
164.79496804471
 20
286.8075689567281
 30
0.0
 11
164.7558680447082
 21
287.3217689567287
 31
0.0
  0
LINE
  5
8CD
330
2
100
AcDbEntity
  8
P-0000
  6
Continuous
 62
     1
100
AcDbLine
 10
164.7558680447082
 20
287.3217689567287
 30
0.0
 11
164.7995680447102
 21
287.7172689567283
 31
0.0
  0
LINE
  5
8CE
330
2
100
AcDbEntity
  8
P-0000
  6
Continuous
 62
     1
100
AcDbLine
 10
165.1950680447089
 20
287.7609689567285
 30
0.0
 11
164.7995680447102
 21
287.7172689567283
 31
0.0
  0
LINE
  5
8CF
330
2
100
AcDbEntity
  8
P-0000
  6
Continuous
 62
     1
100
AcDbLine
 10
165.7092680447104
 20
287.7217689567283
 30
0.0
 11
165.1950680447089
 21
287.7609689567285
 31
0.0
  0
LINE
  5
8D0
330
2
100
AcDbEntity
  8
P-0000
  6
Continuous
 62
     1
100
AcDbLine
 10
165.7092680447104
 20
288.7217689567283
 30
0.0
 11
165.1950680447089
 21
288.6825689567281
 31
0.0
  0
LINE
  5
8D1
330
2
100
AcDbEntity
  8
P-0000
  6
Continuous
 62
     1
100
AcDbLine
 10
165.1950680447089
 20
288.6825689567281
 30
0.0
 11
164.7995680447102
 21
288.7262689567283
 31
0.0
  0
LINE
  5
8D2
330
2
100
AcDbEntity
  8
P-0000
  6
Continuous
 62
     1
100
AcDbLine
 10
164.7558680447082
 20
289.1217689567288
 30
0.0
 11
164.7995680447102
 21
288.7262689567283
 31
0.0
  0
LINE
  5
8D3
330
2
100
AcDbEntity
  8
P-0000
  6
Continuous
 62
     1
100
AcDbLine
 10
164.7950680447074
 20
289.6359689567285
 30
0.0
 11
164.7558680447082
 21
289.1217689567288
 31
0.0
  0
LINE
  5
8D4
330
2
100
AcDbEntity
  8
P-0000
  6
Continuous
 62
     1
100
AcDbLine
 10
163.7950680447074
 20
289.6359689567285
 30
0.0
 11
163.8342680447103
 21
289.1217689567288
 31
0.0
  0
LINE
  5
8D5
330
2
100
AcDbEntity
  8
P-0000
  6
Continuous
 62
     1
100
AcDbLine
 10
163.8342680447103
 20
289.1217689567288
 30
0.0
 11
163.7905680447083
 21
288.7262689567283
 31
0.0
  0
LINE
  5
8D6
330
2
100
AcDbEntity
  8
P-0000
  6
Continuous
 62
     1
100
AcDbLine
 10
163.3950680447096
 20
288.6825689567281
 30
0.0
 11
163.7905680447083
 21
288.7262689567283
 31
0.0
  0
ARC
  5
8D7
330
2
100
AcDbEntity
  8
P-0000
  6
Continuous
 62
     1
100
AcDbCircle
 10
164.2950680447075
 20
288.2217689567283
 30
0.0
 40
1.5
100
AcDbArc
 50
160.5290000000087
 51
199.4712000000158
  0
LINE
  5
8D8
330
2
100
AcDbEntity
  8
P-0000
  6
Continuous
 62
     1
100
AcDbLine
 10
162.8808680447082
 20
287.7218689567285
 30
0.0
 11
163.3950680447096
 21
287.7609689567285
 31
0.0
  0
LINE
  5
8D9
330
2
100
AcDbEntity
  8
P-0000
  6
Continuous
 62
     1
100
AcDbLine
 10
162.8808680447082
 20
288.7217689567283
 30
0.0
 11
163.3950680447096
 21
288.6825689567281
 31
0.0
  0
CIRCLE
  5
8DA
330
2
100
AcDbEntity
  8
P-0000
  6
Continuous
 62
     1
100
AcDbCircle
 10
146.2950680447075
 20
288.2217689567283
 30
0.0
 40
2.649999999999999
  0
ARC
  5
8DB
330
2
100
AcDbEntity
  8
P-0000
  6
Continuous
 62
     1
100
AcDbCircle
 10
146.2950680447075
 20
288.2217689567283
 30
0.0
 40
1.5
100
AcDbArc
 50
250.5284000000508
 51
289.4720000000977
  0
ARC
  5
8DC
330
2
100
AcDbEntity
  8
P-0000
  6
Continuous
 62
     1
100
AcDbCircle
 10
146.2950680447075
 20
288.2217689567283
 30
0.0
 40
1.5
100
AcDbArc
 50
340.5290000000087
 51
19.47099999999129
  0
ARC
  5
8DD
330
2
100
AcDbEntity
  8
P-0000
  6
Continuous
 62
     1
100
AcDbCircle
 10
146.2950680447075
 20
288.2217689567283
 30
0.0
 40
1.5
100
AcDbArc
 50
70.52799999990224
 51
109.4720000000977
  0
LINE
  5
8DE
330
2
100
AcDbEntity
  8
P-0000
  6
Continuous
 62
     1
100
AcDbLine
 10
145.7950680447074
 20
286.8075689567281
 30
0.0
 11
145.8342680447104
 21
287.3217689567287
 31
0.0
  0
LINE
  5
8DF
330
2
100
AcDbEntity
  8
P-0000
  6
Continuous
 62
     1
100
AcDbLine
 10
145.8342680447104
 20
287.3217689567287
 30
0.0
 11
145.7905680447083
 21
287.7172689567283
 31
0.0
  0
LINE
  5
8E0
330
2
100
AcDbEntity
  8
P-0000
  6
Continuous
 62
     1
100
AcDbLine
 10
145.3950680447096
 20
287.7609689567285
 30
0.0
 11
145.7905680447083
 21
287.7172689567283
 31
0.0
  0
LINE
  5
8E1
330
2
100
AcDbEntity
  8
P-0000
  6
Continuous
 62
     1
100
AcDbLine
 10
146.79496804471
 20
286.8075689567281
 30
0.0
 11
146.7558680447082
 21
287.3217689567287
 31
0.0
  0
LINE
  5
8E2
330
2
100
AcDbEntity
  8
P-0000
  6
Continuous
 62
     1
100
AcDbLine
 10
146.7558680447082
 20
287.3217689567287
 30
0.0
 11
146.7995680447102
 21
287.7172689567283
 31
0.0
  0
LINE
  5
8E3
330
2
100
AcDbEntity
  8
P-0000
  6
Continuous
 62
     1
100
AcDbLine
 10
147.1950680447089
 20
287.7609689567285
 30
0.0
 11
146.7995680447102
 21
287.7172689567283
 31
0.0
  0
LINE
  5
8E4
330
2
100
AcDbEntity
  8
P-0000
  6
Continuous
 62
     1
100
AcDbLine
 10
147.7092680447103
 20
287.7217689567283
 30
0.0
 11
147.1950680447089
 21
287.7609689567285
 31
0.0
  0
LINE
  5
8E5
330
2
100
AcDbEntity
  8
P-0000
  6
Continuous
 62
     1
100
AcDbLine
 10
147.7092680447103
 20
288.7217689567283
 30
0.0
 11
147.1950680447089
 21
288.6825689567281
 31
0.0
  0
LINE
  5
8E6
330
2
100
AcDbEntity
  8
P-0000
  6
Continuous
 62
     1
100
AcDbLine
 10
147.1950680447089
 20
288.6825689567281
 30
0.0
 11
146.7995680447102
 21
288.7262689567283
 31
0.0
  0
LINE
  5
8E7
330
2
100
AcDbEntity
  8
P-0000
  6
Continuous
 62
     1
100
AcDbLine
 10
146.7558680447082
 20
289.1217689567288
 30
0.0
 11
146.7995680447102
 21
288.7262689567283
 31
0.0
  0
LINE
  5
8E8
330
2
100
AcDbEntity
  8
P-0000
  6
Continuous
 62
     1
100
AcDbLine
 10
146.7950680447074
 20
289.6359689567285
 30
0.0
 11
146.7558680447082
 21
289.1217689567288
 31
0.0
  0
LINE
  5
8E9
330
2
100
AcDbEntity
  8
P-0000
  6
Continuous
 62
     1
100
AcDbLine
 10
145.7950680447074
 20
289.6359689567285
 30
0.0
 11
145.8342680447104
 21
289.1217689567288
 31
0.0
  0
LINE
  5
8EA
330
2
100
AcDbEntity
  8
P-0000
  6
Continuous
 62
     1
100
AcDbLine
 10
145.8342680447104
 20
289.1217689567288
 30
0.0
 11
145.7905680447083
 21
288.7262689567283
 31
0.0
  0
LINE
  5
8EB
330
2
100
AcDbEntity
  8
P-0000
  6
Continuous
 62
     1
100
AcDbLine
 10
145.3950680447096
 20
288.6825689567281
 30
0.0
 11
145.7905680447083
 21
288.7262689567283
 31
0.0
  0
ARC
  5
8EC
330
2
100
AcDbEntity
  8
P-0000
  6
Continuous
 62
     1
100
AcDbCircle
 10
146.2950680447075
 20
288.2217689567283
 30
0.0
 40
1.5
100
AcDbArc
 50
160.5290000000087
 51
199.4712000000158
  0
LINE
  5
8ED
330
2
100
AcDbEntity
  8
P-0000
  6
Continuous
 62
     1
100
AcDbLine
 10
144.8808680447082
 20
287.7218689567285
 30
0.0
 11
145.3950680447096
 21
287.7609689567285
 31
0.0
  0
LINE
  5
8EE
330
2
100
AcDbEntity
  8
P-0000
  6
Continuous
 62
     1
100
AcDbLine
 10
144.8808680447082
 20
288.7217689567283
 30
0.0
 11
145.3950680447096
 21
288.6825689567281
 31
0.0
  0
CIRCLE
  5
8EF
330
2
100
AcDbEntity
  8
P-0000
  6
Continuous
 62
     1
100
AcDbCircle
 10
146.2950680447075
 20
306.2217689567283
 30
0.0
 40
2.649999999999999
  0
ARC
  5
8F0
330
2
100
AcDbEntity
  8
P-0000
  6
Continuous
 62
     1
100
AcDbCircle
 10
146.2950680447075
 20
306.2217689567283
 30
0.0
 40
1.5
100
AcDbArc
 50
250.5284000000508
 51
289.4720000000977
  0
ARC
  5
8F1
330
2
100
AcDbEntity
  8
P-0000
  6
Continuous
 62
     1
100
AcDbCircle
 10
146.2950680447075
 20
306.2217689567283
 30
0.0
 40
1.5
100
AcDbArc
 50
340.5290000000087
 51
19.47099999999129
  0
ARC
  5
8F2
330
2
100
AcDbEntity
  8
P-0000
  6
Continuous
 62
     1
100
AcDbCircle
 10
146.2950680447075
 20
306.2217689567283
 30
0.0
 40
1.5
100
AcDbArc
 50
70.52799999990224
 51
109.4720000000977
  0
LINE
  5
8F3
330
2
100
AcDbEntity
  8
P-0000
  6
Continuous
 62
     1
100
AcDbLine
 10
145.7950680447074
 20
304.8075689567281
 30
0.0
 11
145.8342680447104
 21
305.3217689567286
 31
0.0
  0
LINE
  5
8F4
330
2
100
AcDbEntity
  8
P-0000
  6
Continuous
 62
     1
100
AcDbLine
 10
145.8342680447104
 20
305.3217689567286
 30
0.0
 11
145.7905680447083
 21
305.7172689567283
 31
0.0
  0
LINE
  5
8F5
330
2
100
AcDbEntity
  8
P-0000
  6
Continuous
 62
     1
100
AcDbLine
 10
145.3950680447096
 20
305.7609689567284
 30
0.0
 11
145.7905680447083
 21
305.7172689567283
 31
0.0
  0
LINE
  5
8F6
330
2
100
AcDbEntity
  8
P-0000
  6
Continuous
 62
     1
100
AcDbLine
 10
146.79496804471
 20
304.8075689567281
 30
0.0
 11
146.7558680447082
 21
305.3217689567286
 31
0.0
  0
LINE
  5
8F7
330
2
100
AcDbEntity
  8
P-0000
  6
Continuous
 62
     1
100
AcDbLine
 10
146.7558680447082
 20
305.3217689567286
 30
0.0
 11
146.7995680447102
 21
305.7172689567283
 31
0.0
  0
LINE
  5
8F8
330
2
100
AcDbEntity
  8
P-0000
  6
Continuous
 62
     1
100
AcDbLine
 10
147.1950680447089
 20
305.7609689567284
 30
0.0
 11
146.7995680447102
 21
305.7172689567283
 31
0.0
  0
LINE
  5
8F9
330
2
100
AcDbEntity
  8
P-0000
  6
Continuous
 62
     1
100
AcDbLine
 10
147.7092680447103
 20
305.7217689567283
 30
0.0
 11
147.1950680447089
 21
305.7609689567284
 31
0.0
  0
LINE
  5
8FA
330
2
100
AcDbEntity
  8
P-0000
  6
Continuous
 62
     1
100
AcDbLine
 10
147.7092680447103
 20
306.7217689567283
 30
0.0
 11
147.1950680447089
 21
306.6825689567281
 31
0.0
  0
LINE
  5
8FB
330
2
100
AcDbEntity
  8
P-0000
  6
Continuous
 62
     1
100
AcDbLine
 10
147.1950680447089
 20
306.6825689567281
 30
0.0
 11
146.7995680447102
 21
306.7262689567283
 31
0.0
  0
LINE
  5
8FC
330
2
100
AcDbEntity
  8
P-0000
  6
Continuous
 62
     1
100
AcDbLine
 10
146.7558680447082
 20
307.1217689567288
 30
0.0
 11
146.7995680447102
 21
306.7262689567283
 31
0.0
  0
LINE
  5
8FD
330
2
100
AcDbEntity
  8
P-0000
  6
Continuous
 62
     1
100
AcDbLine
 10
146.7950680447074
 20
307.6359689567285
 30
0.0
 11
146.7558680447082
 21
307.1217689567288
 31
0.0
  0
LINE
  5
8FE
330
2
100
AcDbEntity
  8
P-0000
  6
Continuous
 62
     1
100
AcDbLine
 10
145.7950680447074
 20
307.6359689567285
 30
0.0
 11
145.8342680447104
 21
307.1217689567288
 31
0.0
  0
LINE
  5
8FF
330
2
100
AcDbEntity
  8
P-0000
  6
Continuous
 62
     1
100
AcDbLine
 10
145.8342680447104
 20
307.1217689567288
 30
0.0
 11
145.7905680447083
 21
306.7262689567283
 31
0.0
  0
LINE
  5
900
330
2
100
AcDbEntity
  8
P-0000
  6
Continuous
 62
     1
100
AcDbLine
 10
145.3950680447096
 20
306.6825689567281
 30
0.0
 11
145.7905680447083
 21
306.7262689567283
 31
0.0
  0
ARC
  5
901
330
2
100
AcDbEntity
  8
P-0000
  6
Continuous
 62
     1
100
AcDbCircle
 10
146.2950680447075
 20
306.2217689567283
 30
0.0
 40
1.5
100
AcDbArc
 50
160.5290000000087
 51
199.4712000000158
  0
LINE
  5
902
330
2
100
AcDbEntity
  8
P-0000
  6
Continuous
 62
     1
100
AcDbLine
 10
144.8808680447082
 20
305.7218689567285
 30
0.0
 11
145.3950680447096
 21
305.7609689567284
 31
0.0
  0
LINE
  5
903
330
2
100
AcDbEntity
  8
P-0000
  6
Continuous
 62
     1
100
AcDbLine
 10
144.8808680447082
 20
306.7217689567283
 30
0.0
 11
145.3950680447096
 21
306.6825689567281
 31
0.0
  0
CIRCLE
  5
904
330
2
100
AcDbEntity
  8
P-0000
  6
Continuous
 62
     1
100
AcDbCircle
 10
164.2950680447075
 20
306.2217689567283
 30
0.0
 40
2.649999999999999
  0
ARC
  5
905
330
2
100
AcDbEntity
  8
P-0000
  6
Continuous
 62
     1
100
AcDbCircle
 10
164.2950680447075
 20
306.2217689567283
 30
0.0
 40
1.5
100
AcDbArc
 50
250.5284000000508
 51
289.4720000000977
  0
ARC
  5
906
330
2
100
AcDbEntity
  8
P-0000
  6
Continuous
 62
     1
100
AcDbCircle
 10
164.2950680447075
 20
306.2217689567283
 30
0.0
 40
1.5
100
AcDbArc
 50
340.5290000000087
 51
19.47099999999129
  0
ARC
  5
907
330
2
100
AcDbEntity
  8
P-0000
  6
Continuous
 62
     1
100
AcDbCircle
 10
164.2950680447075
 20
306.2217689567283
 30
0.0
 40
1.5
100
AcDbArc
 50
70.52799999990224
 51
109.4720000000977
  0
LINE
  5
908
330
2
100
AcDbEntity
  8
P-0000
  6
Continuous
 62
     1
100
AcDbLine
 10
163.7950680447074
 20
304.8075689567281
 30
0.0
 11
163.8342680447103
 21
305.3217689567286
 31
0.0
  0
LINE
  5
909
330
2
100
AcDbEntity
  8
P-0000
  6
Continuous
 62
     1
100
AcDbLine
 10
163.8342680447103
 20
305.3217689567286
 30
0.0
 11
163.7905680447083
 21
305.7172689567283
 31
0.0
  0
LINE
  5
90A
330
2
100
AcDbEntity
  8
P-0000
  6
Continuous
 62
     1
100
AcDbLine
 10
163.3950680447096
 20
305.7609689567284
 30
0.0
 11
163.7905680447083
 21
305.7172689567283
 31
0.0
  0
LINE
  5
90B
330
2
100
AcDbEntity
  8
P-0000
  6
Continuous
 62
     1
100
AcDbLine
 10
164.79496804471
 20
304.8075689567281
 30
0.0
 11
164.7558680447082
 21
305.3217689567286
 31
0.0
  0
LINE
  5
90C
330
2
100
AcDbEntity
  8
P-0000
  6
Continuous
 62
     1
100
AcDbLine
 10
164.7558680447082
 20
305.3217689567286
 30
0.0
 11
164.7995680447102
 21
305.7172689567283
 31
0.0
  0
LINE
  5
90D
330
2
100
AcDbEntity
  8
P-0000
  6
Continuous
 62
     1
100
AcDbLine
 10
165.1950680447089
 20
305.7609689567284
 30
0.0
 11
164.7995680447102
 21
305.7172689567283
 31
0.0
  0
LINE
  5
90E
330
2
100
AcDbEntity
  8
P-0000
  6
Continuous
 62
     1
100
AcDbLine
 10
165.7092680447104
 20
305.7217689567283
 30
0.0
 11
165.1950680447089
 21
305.7609689567284
 31
0.0
  0
LINE
  5
90F
330
2
100
AcDbEntity
  8
P-0000
  6
Continuous
 62
     1
100
AcDbLine
 10
165.7092680447104
 20
306.7217689567283
 30
0.0
 11
165.1950680447089
 21
306.6825689567281
 31
0.0
  0
LINE
  5
910
330
2
100
AcDbEntity
  8
P-0000
  6
Continuous
 62
     1
100
AcDbLine
 10
165.1950680447089
 20
306.6825689567281
 30
0.0
 11
164.7995680447102
 21
306.7262689567283
 31
0.0
  0
LINE
  5
911
330
2
100
AcDbEntity
  8
P-0000
  6
Continuous
 62
     1
100
AcDbLine
 10
164.7558680447082
 20
307.1217689567288
 30
0.0
 11
164.7995680447102
 21
306.7262689567283
 31
0.0
  0
LINE
  5
912
330
2
100
AcDbEntity
  8
P-0000
  6
Continuous
 62
     1
100
AcDbLine
 10
164.7950680447074
 20
307.6359689567285
 30
0.0
 11
164.7558680447082
 21
307.1217689567288
 31
0.0
  0
LINE
  5
913
330
2
100
AcDbEntity
  8
P-0000
  6
Continuous
 62
     1
100
AcDbLine
 10
163.7950680447074
 20
307.6359689567285
 30
0.0
 11
163.8342680447103
 21
307.1217689567288
 31
0.0
  0
LINE
  5
914
330
2
100
AcDbEntity
  8
P-0000
  6
Continuous
 62
     1
100
AcDbLine
 10
163.8342680447103
 20
307.1217689567288
 30
0.0
 11
163.7905680447083
 21
306.7262689567283
 31
0.0
  0
LINE
  5
915
330
2
100
AcDbEntity
  8
P-0000
  6
Continuous
 62
     1
100
AcDbLine
 10
163.3950680447096
 20
306.6825689567281
 30
0.0
 11
163.7905680447083
 21
306.7262689567283
 31
0.0
  0
ARC
  5
916
330
2
100
AcDbEntity
  8
P-0000
  6
Continuous
 62
     1
100
AcDbCircle
 10
164.2950680447075
 20
306.2217689567283
 30
0.0
 40
1.5
100
AcDbArc
 50
160.5290000000087
 51
199.4712000000158
  0
LINE
  5
917
330
2
100
AcDbEntity
  8
P-0000
  6
Continuous
 62
     1
100
AcDbLine
 10
162.8808680447082
 20
305.7218689567285
 30
0.0
 11
163.3950680447096
 21
305.7609689567284
 31
0.0
  0
LINE
  5
918
330
2
100
AcDbEntity
  8
P-0000
  6
Continuous
 62
     1
100
AcDbLine
 10
162.8808680447082
 20
306.7217689567283
 30
0.0
 11
163.3950680447096
 21
306.6825689567281
 31
0.0
  0
ARC
  5
919
330
2
100
AcDbEntity
  8
P-0000
  6
Continuous
 62
     1
100
AcDbCircle
 10
4.353900000001885
 20
11.14990000000034
 30
0.0
 40
0.5
100
AcDbArc
 50
33.45299999984324
 51
90.0
  0
ARC
  5
91A
330
2
100
AcDbEntity
  8
P-0000
  6
Continuous
 62
     1
100
AcDbCircle
 10
1.100000000002182
 20
8.999900000002526
 30
0.0
 40
4.4
100
AcDbArc
 50
326.5452000000121
 51
0.0
  0
ARC
  5
91B
330
2
100
AcDbEntity
  8
P-0000
  6
Continuous
 62
     1
100
AcDbCircle
 10
1.100000000002182
 20
8.999900000002526
 30
0.0
 40
4.4
100
AcDbArc
 50
0.0
 51
33.45500000012769
  0
ARC
  5
91C
330
2
100
AcDbEntity
  8
P-0000
  6
Continuous
 62
     1
100
AcDbCircle
 10
4.353900000001885
 20
6.850000000002182
 30
0.0
 40
0.5
100
AcDbArc
 50
270.0
 51
326.5465999998951
  0
LINE
  5
91D
330
2
100
AcDbEntity
  8
P-0000
  6
Continuous
 62
     1
100
AcDbLine
 10
4.353900000001885
 20
11.64990000000034
 30
0.0
 11
4.353900000001885
 21
6.350000000002182
 31
0.0
  0
LINE
  5
91E
330
2
100
AcDbEntity
  8
P-0000
  6
Continuous
 62
     1
100
AcDbLine
 10
4.353900000001885
 20
6.350000000002182
 30
0.0
 11
3.600000000002182
 21
6.350000000002182
 31
0.0
  0
LINE
  5
91F
330
2
100
AcDbEntity
  8
P-0000
  6
Continuous
 62
     1
100
AcDbLine
 10
4.353900000001885
 20
11.64990000000034
 30
0.0
 11
3.600000000002182
 21
11.64990000000034
 31
0.0
  0
ARC
  5
920
330
2
100
AcDbEntity
  8
P-0000
  6
Continuous
 62
     1
100
AcDbCircle
 10
4.353900000001885
 20
-6.850099999999656
 30
0.0
 40
0.5
100
AcDbArc
 50
33.45299999984324
 51
90.0
  0
ARC
  5
921
330
2
100
AcDbEntity
  8
P-0000
  6
Continuous
 62
     1
100
AcDbCircle
 10
1.100000000002182
 20
-9.000099999997473
 30
0.0
 40
4.4
100
AcDbArc
 50
326.5452000000121
 51
0.0
  0
ARC
  5
922
330
2
100
AcDbEntity
  8
P-0000
  6
Continuous
 62
     1
100
AcDbCircle
 10
1.100000000002182
 20
-9.000099999997473
 30
0.0
 40
4.4
100
AcDbArc
 50
0.0
 51
33.45500000012769
  0
ARC
  5
923
330
2
100
AcDbEntity
  8
P-0000
  6
Continuous
 62
     1
100
AcDbCircle
 10
4.353900000001885
 20
-11.14999999999781
 30
0.0
 40
0.5
100
AcDbArc
 50
270.0
 51
326.5465999998951
  0
LINE
  5
924
330
2
100
AcDbEntity
  8
P-0000
  6
Continuous
 62
     1
100
AcDbLine
 10
4.353900000001885
 20
-6.350099999999656
 30
0.0
 11
4.353900000001885
 21
-11.64999999999781
 31
0.0
  0
LINE
  5
925
330
2
100
AcDbEntity
  8
P-0000
  6
Continuous
 62
     1
100
AcDbLine
 10
4.353900000001885
 20
-11.64999999999781
 30
0.0
 11
3.600000000002182
 21
-11.64999999999781
 31
0.0
  0
LINE
  5
926
330
2
100
AcDbEntity
  8
P-0000
  6
Continuous
 62
     1
100
AcDbLine
 10
4.353900000001885
 20
-6.350099999999656
 30
0.0
 11
3.600000000002182
 21
-6.350099999999656
 31
0.0
  0
CIRCLE
  5
927
330
2
100
AcDbEntity
  8
P-0000
  6
DASHED3
 62
     1
100
AcDbCircle
 10
0.0
 20
0.0
 30
0.0
 40
6.0
  0
ARC
  5
929
330
2
100
AcDbEntity
  8
P-0000
  6
Continuous
 62
     1
100
AcDbCircle
 10
-19.07070000000021
 20
-0.0707000000002154
 30
0.0
 40
2.1
100
AcDbArc
 50
31.22600000012829
 51
58.77399999987948
  0
ARC
  5
92A
330
2
100
AcDbEntity
  8
P-0000
  6
Continuous
 62
     1
100
AcDbCircle
 10
-18.92929999999978
 20
-0.0707000000002154
 30
0.0
 40
2.1
100
AcDbArc
 50
121.2260000001205
 51
148.7739999998717
  0
ARC
  5
92B
330
2
100
AcDbEntity
  8
P-0000
  6
Continuous
 62
     1
100
AcDbCircle
 10
-18.92929999999978
 20
0.0707000000002154
 30
0.0
 40
2.1
100
AcDbArc
 50
211.2260000001283
 51
238.7739999998795
  0
ARC
  5
92C
330
2
100
AcDbEntity
  8
P-0000
  6
Continuous
 62
     1
100
AcDbCircle
 10
-19.07070000000021
 20
0.0707000000002154
 30
0.0
 40
2.1
100
AcDbArc
 50
301.2258999999939
 51
328.7741000000061
  0
LINE
  5
92D
330
2
100
AcDbEntity
  8
P-0000
  6
Continuous
 62
     1
100
AcDbLine
 10
-17.27490000000034
 20
-1.018000000000029
 30
0.0
 11
-18.08079999999972
 21
-0.2120999999970081
 31
0.0
  0
LINE
  5
92E
330
2
100
AcDbEntity
  8
P-0000
  6
Continuous
 62
     1
100
AcDbLine
 10
-19.21210000000064
 20
0.9192000000002735
 30
0.0
 11
-20.01800000000003
 21
1.725099999999656
 31
0.0
  0
ARC
  5
92F
330
2
100
AcDbEntity
  8
P-0000
  6
Continuous
 62
     1
100
AcDbCircle
 10
-19.0
 20
1.131400000002031
 30
0.0
 40
0.3
100
AcDbArc
 50
224.999999999848
 51
315.000000000152
  0
LINE
  5
930
330
2
100
AcDbEntity
  8
P-0000
  6
Continuous
 62
     1
100
AcDbLine
 10
-17.98199999999997
 20
-1.725099999999656
 30
0.0
 11
-18.78789999999935
 21
-0.9192000000002735
 31
0.0
  0
ARC
  5
931
330
2
100
AcDbEntity
  8
P-0000
  6
Continuous
 62
     1
100
AcDbCircle
 10
-19.0
 20
-1.131399999998393
 30
0.0
 40
0.3
100
AcDbArc
 50
44.999999999848
 51
135.000000000152
  0
LINE
  5
932
330
2
100
AcDbEntity
  8
P-0000
  6
Continuous
 62
     1
100
AcDbLine
 10
-19.91920000000027
 20
0.2121000000006461
 30
0.0
 11
-20.72509999999966
 21
1.018000000000029
 31
0.0
  0
ARC
  5
933
330
2
100
AcDbEntity
  8
P-0000
  6
Continuous
 62
     1
100
AcDbCircle
 10
-20.1313999999984
 20
0.0
 30
0.0
 40
0.3
100
AcDbArc
 50
315.000000000152
 51
44.999999999848
  0
LINE
  5
934
330
2
100
AcDbEntity
  8
P-0000
  6
Continuous
 62
     1
100
AcDbLine
 10
-17.27490000000034
 20
1.018000000000029
 30
0.0
 11
-18.08079999999972
 21
0.2121000000006461
 31
0.0
  0
ARC
  5
935
330
2
100
AcDbEntity
  8
P-0000
  6
Continuous
 62
     1
100
AcDbCircle
 10
-17.86859999999797
 20
0.0
 30
0.0
 40
0.3
100
AcDbArc
 50
135.000000000152
 51
224.999999999848
  0
LINE
  5
936
330
2
100
AcDbEntity
  8
P-0000
  6
Continuous
 62
     1
100
AcDbLine
 10
-17.98199999999997
 20
1.725099999999656
 30
0.0
 11
-18.78789999999935
 21
0.9192000000002735
 31
0.0
  0
LINE
  5
937
330
2
100
AcDbEntity
  8
P-0000
  6
Continuous
 62
     1
100
AcDbLine
 10
-19.21210000000064
 20
-0.9192000000002735
 30
0.0
 11
-20.01800000000003
 21
-1.725099999999656
 31
0.0
  0
LINE
  5
938
330
2
100
AcDbEntity
  8
P-0000
  6
Continuous
 62
     1
100
AcDbLine
 10
-19.91920000000027
 20
-0.2120999999970081
 30
0.0
 11
-20.72509999999966
 21
-1.018000000000029
 31
0.0
  0
LINE
  5
939
330
2
100
AcDbEntity
  8
P-0000
  6
Continuous
 62
     7
100
AcDbLine
 10
151.2950680447111
 20
285.2217689567283
 30
0.0
 11
151.2950680447111
 21
145.2217689567283
 31
0.0
  0
LINE
  5
93A
330
2
100
AcDbEntity
  8
P-0000
  6
Continuous
 62
     7
100
AcDbLine
 10
159.2950680447111
 20
285.2217689567283
 30
0.0
 11
159.2950680447111
 21
145.2217689567283
 31
0.0
  0
LINE
  5
93B
330
2
100
AcDbEntity
  8
P-0000
  6
Continuous
 62
     7
100
AcDbLine
 10
159.2950680447111
 20
145.2217689567283
 30
0.0
 11
151.2950680447111
 21
145.2217689567283
 31
0.0
  0
ARC
  5
93C
330
2
100
AcDbEntity
  8
P-0000
  6
Continuous
 62
     1
100
AcDbCircle
 10
6.100000000413274
 20
285.7217689567264
 30
0.0
 40
0.5
100
AcDbArc
 50
270.0
 51
0.0
  0
LINE
  5
93D
330
2
100
AcDbEntity
  8
P-0000
  6
Continuous
 62
     1
100
AcDbLine
 10
6.100000000413274
 20
285.2217689567265
 30
0.0
 11
0.0000000004147296
 21
285.2217689567265
 31
0.0
  0
LINE
  5
93E
330
2
100
AcDbEntity
  8
P-0000
  6
Continuous
 62
     1
100
AcDbLine
 10
6.600000000413274
 20
285.7217689567264
 30
0.0
 11
6.600000000413274
 21
308.7217689567264
 31
0.0
  0
ARC
  5
93F
330
2
100
AcDbEntity
  8
P-0000
  6
Continuous
 62
     1
100
AcDbCircle
 10
7.100000000413274
 20
292.0217889567252
 30
0.0
 40
0.5
100
AcDbArc
 50
89.99999999499742
 51
180.0
  0
ARC
  5
940
330
2
100
AcDbEntity
  8
P-0000
  6
Continuous
 62
     1
100
AcDbCircle
 10
7.100000000413274
 20
302.4217689567272
 30
0.0
 40
0.5
100
AcDbArc
 50
180.0
 51
270.0
  0
LINE
  5
941
330
2
100
AcDbEntity
  8
P-0000
  6
Continuous
 62
     1
100
AcDbLine
 10
11.20000000041545
 20
300.9217689567272
 30
0.0
 11
11.20000000041545
 21
293.5217889567253
 31
0.0
  0
ARC
  5
942
330
2
100
AcDbEntity
  8
P-0000
  6
Continuous
 62
     1
100
AcDbCircle
 10
10.20000000041545
 20
293.5217889567253
 30
0.0
 40
0.9999999999999998
100
AcDbArc
 50
270.0
 51
0.0
  0
ARC
  5
943
330
2
100
AcDbEntity
  8
P-0000
  6
Continuous
 62
     1
100
AcDbCircle
 10
10.20000000041545
 20
300.9217689567272
 30
0.0
 40
0.9999999999999998
100
AcDbArc
 50
0.0
 51
89.99999999499742
  0
LINE
  5
944
330
2
100
AcDbEntity
  8
P-0000
  6
Continuous
 62
     1
100
AcDbLine
 10
10.20000000041545
 20
301.9217689567272
 30
0.0
 11
7.100000000413274
 21
301.9217689567272
 31
0.0
  0
LINE
  5
945
330
2
100
AcDbEntity
  8
P-0000
  6
Continuous
 62
     1
100
AcDbLine
 10
10.20000000041545
 20
292.5217889567252
 30
0.0
 11
7.100000000413274
 21
292.5217889567252
 31
0.0
  0
LINE
  5
946
330
2
100
AcDbEntity
  8
P-0000
  6
Continuous
 62
     1
100
AcDbLine
 10
3.600000000413274
 20
285.2217689567265
 30
0.0
 11
3.600000000413274
 21
291.2217689567265
 31
0.0
  0
ARC
  5
947
330
2
100
AcDbEntity
  8
P-0000
  6
Continuous
 62
     1
100
AcDbCircle
 10
4.000000000414729
 20
291.2217689567265
 30
0.0
 40
0.4
100
AcDbArc
 50
89.99988085271937
 51
180.0
  0
LINE
  5
948
330
2
100
AcDbEntity
  8
P-0000
  6
Continuous
 62
     1
100
AcDbLine
 10
6.200000000415457
 20
291.6217589567282
 30
0.0
 11
4.000000000414729
 21
291.6217689567279
 31
0.0
  0
ARC
  5
949
330
2
100
AcDbEntity
  8
P-0000
  6
Continuous
 62
     1
100
AcDbCircle
 10
6.200000000415457
 20
292.021758956726
 30
0.0
 40
0.4
100
AcDbArc
 50
270.0
 51
0.0
  0
ARC
  5
94A
330
2
100
AcDbEntity
  8
P-0000
  6
Continuous
 62
     1
100
AcDbCircle
 10
6.200000000415457
 20
302.4217689567272
 30
0.0
 40
0.4
100
AcDbArc
 50
359.9997999999799
 51
89.99988085271937
  0
LINE
  5
94B
330
2
100
AcDbEntity
  8
P-0000
  6
Continuous
 62
     1
100
AcDbLine
 10
6.200000000415457
 20
302.8217689567286
 30
0.0
 11
4.000000000414729
 21
302.8217689567286
 31
0.0
  0
ARC
  5
94C
330
2
100
AcDbEntity
  8
P-0000
  6
Continuous
 62
     1
100
AcDbCircle
 10
4.000000000414729
 20
303.2217689567265
 30
0.0
 40
0.4
100
AcDbArc
 50
180.0
 51
270.0
  0
LINE
  5
94D
330
2
100
AcDbEntity
  8
P-0000
  6
Continuous
 62
     1
100
AcDbLine
 10
-13.30199999958495
 20
311.8217689567286
 30
0.0
 11
-71.50199999958568
 21
311.8217689567286
 31
0.0
  0
LINE
  5
94E
330
2
100
AcDbEntity
  8
P-0000
  6
Continuous
 62
     1
100
AcDbLine
 10
-13.30199999958495
 20
314.3217689567287
 30
0.0
 11
-13.30199999958495
 21
311.8217689567286
 31
0.0
  0
ARC
  5
94F
330
2
100
AcDbEntity
  8
P-0000
  6
Continuous
 62
     1
100
AcDbCircle
 10
-14.80199999958495
 20
314.3217689567287
 30
0.0
 40
1.499999999999999
100
AcDbArc
 50
0.0
 51
90.0
  0
LINE
  5
950
330
2
100
AcDbEntity
  8
P-0000
  6
Continuous
 62
     1
100
AcDbLine
 10
-73.50199999958568
 20
313.3217689567286
 30
0.0
 11
-73.50199999958568
 21
312.3217689567287
 31
0.0
  0
LINE
  5
951
330
2
100
AcDbEntity
  8
P-0000
  6
Continuous
 62
     1
100
AcDbLine
 10
-14.80199999958495
 20
315.8217689567286
 30
0.0
 11
-32.50199999958568
 21
315.8217689567286
 31
0.0
  0
LINE
  5
952
330
2
100
AcDbEntity
  8
P-0000
  6
Continuous
 62
     1
100
AcDbLine
 10
-32.50199999958568
 20
315.8217689567286
 30
0.0
 11
-71.2019999995864
 21
315.8217689567286
 31
0.0
  0
LINE
  5
953
330
2
100
AcDbEntity
  8
P-0000
  6
Continuous
 62
     1
100
AcDbLine
 10
-71.50199999958568
 20
315.5217689567257
 30
0.0
 11
-71.50199999958568
 21
311.8217689567286
 31
0.0
  0
ARC
  5
954
330
2
100
AcDbEntity
  8
P-0000
  6
Continuous
 62
     1
100
AcDbCircle
 10
-71.2019999995864
 20
315.5217689567257
 30
0.0
 40
0.2999999999999999
100
AcDbArc
 50
90.0
 51
180.0
  0
LINE
  5
955
330
2
100
AcDbEntity
  8
P-0000
  6
Continuous
 62
     1
100
AcDbLine
 10
-11.00099999958547
 20
285.2217689567265
 30
0.0
 11
-14.50099999958547
 21
285.2217689567265
 31
0.0
  0
LINE
  5
956
330
2
100
AcDbEntity
  8
P-0000
  6
Continuous
 62
     1
100
AcDbLine
 10
-26.00099999958548
 20
285.2217689567265
 30
0.0
 11
-66.50099999958547
 21
285.2217689567265
 31
0.0
  0
LINE
  5
957
330
2
100
AcDbEntity
  8
P-0000
  6
Continuous
 62
     1
100
AcDbLine
 10
-11.00099999958547
 20
303.2217689567265
 30
0.0
 11
-13.30199999958495
 21
303.2217689567265
 31
0.0
  0
LINE
  5
958
330
2
100
AcDbEntity
  8
P-0000
  6
Continuous
 62
     1
100
AcDbLine
 10
-11.00099999958547
 20
309.2217689567265
 30
0.0
 11
-26.00099999958548
 21
309.2217689567265
 31
0.0
  0
LINE
  5
959
330
2
100
AcDbEntity
  8
P-0000
  6
Continuous
 62
     1
100
AcDbLine
 10
-13.30199999958495
 20
291.2217689567265
 30
0.0
 11
-13.30199999958495
 21
303.2217689567265
 31
0.0
  0
LINE
  5
95A
330
2
100
AcDbEntity
  8
P-0000
  6
Continuous
 62
     1
100
AcDbLine
 10
-13.30199999958495
 20
309.2217689567265
 30
0.0
 11
-13.30199999958495
 21
309.7217689567265
 31
0.0
  0
LINE
  5
95B
330
2
100
AcDbEntity
  8
P-0000
  6
Continuous
 62
     1
100
AcDbLine
 10
-11.00099999958547
 20
285.2217689567265
 30
0.0
 11
-13.30199999958495
 21
285.2217689567265
 31
0.0
  0
LINE
  5
95C
330
2
100
AcDbEntity
  8
P-0000
  6
Continuous
 62
     1
100
AcDbLine
 10
-11.00099999958547
 20
291.2217689567265
 30
0.0
 11
-13.30199999958495
 21
291.2217689567265
 31
0.0
  0
LINE
  5
95D
330
2
100
AcDbEntity
  8
P-0000
  6
Continuous
 62
     1
100
AcDbLine
 10
-66.50099999958547
 20
285.2217689567265
 30
0.0
 11
-66.50099999958547
 21
285.0217689567257
 31
0.0
  0
LINE
  5
95E
330
2
100
AcDbEntity
  8
P-0000
  6
Continuous
 62
     1
100
AcDbLine
 10
-66.50099999958547
 20
285.0217689567257
 30
0.0
 11
-73.50199999958568
 21
285.0217689567257
 31
0.0
  0
LINE
  5
95F
330
2
100
AcDbEntity
  8
P-0000
  6
Continuous
 62
     1
100
AcDbLine
 10
-14.50099999958547
 20
285.2217689567265
 30
0.0
 11
-14.50099999958547
 21
285.0217689567257
 31
0.0
  0
LINE
  5
960
330
2
100
AcDbEntity
  8
P-0000
  6
Continuous
 62
     1
100
AcDbLine
 10
-14.50099999958547
 20
285.0217689567257
 30
0.0
 11
-26.00099999958548
 21
285.0217689567257
 31
0.0
  0
LINE
  5
961
330
2
100
AcDbEntity
  8
P-0000
  6
Continuous
 62
     1
100
AcDbLine
 10
-26.00099999958548
 20
285.2217689567265
 30
0.0
 11
-26.00099999958548
 21
285.0217689567257
 31
0.0
  0
LINE
  5
962
330
2
100
AcDbEntity
  8
P-0000
  6
Continuous
 62
     1
100
AcDbLine
 10
-73.50199999958568
 20
314.2217689567265
 30
0.0
 11
-73.50099999958548
 21
285.0217689567257
 31
0.0
  0
LINE
  5
963
330
2
100
AcDbEntity
  8
P-0000
  6
Continuous
 62
     1
100
AcDbLine
 10
-13.30199999958495
 20
311.7217689567265
 30
0.0
 11
-13.30199999958495
 21
309.7217689567265
 31
0.0
  0
ARC
  5
964
330
2
100
AcDbEntity
  8
P-0000
  6
Continuous
 62
     1
100
AcDbCircle
 10
-72.00199999958567
 20
314.2217689567265
 30
0.0
 40
1.499999999999999
100
AcDbArc
 50
90.0
 51
180.0
  0
LINE
  5
965
330
2
100
AcDbEntity
  8
P-0000
  6
Continuous
 62
     1
100
AcDbLine
 10
-71.42499999958454
 20
315.7217689567265
 30
0.0
 11
-72.00199999958567
 21
315.7217689567265
 31
0.0
  0
LINE
  5
966
330
2
100
AcDbEntity
  8
P-0000
  6
Continuous
 62
     1
100
AcDbLine
 10
-26.00099999958548
 20
309.2217689567265
 30
0.0
 11
-26.00099999958548
 21
311.8217689567286
 31
0.0
  0
LINE
  5
967
330
2
100
AcDbEntity
  8
P-0000
  6
Continuous
 62
     1
100
AcDbLine
 10
-26.00099999958548
 20
311.8217689567286
 30
0.0
 11
-26.00099999958548
 21
315.8217689567286
 31
0.0
  0
LINE
  5
968
330
2
100
AcDbEntity
  8
P-0000
  6
Continuous
 62
     1
100
AcDbLine
 10
0.0000000004147296
 20
309.2217689567265
 30
0.0
 11
-11.00099999958547
 21
309.2217689567265
 31
0.0
  0
LINE
  5
969
330
2
100
AcDbEntity
  8
P-0000
  6
Continuous
 62
     1
100
AcDbLine
 10
0.0000000004147296
 20
285.2217689567265
 30
0.0
 11
-11.00099999958547
 21
285.2217689567265
 31
0.0
  0
LINE
  5
96A
330
2
100
AcDbEntity
  8
P-0000
  6
Continuous
 62
     1
100
AcDbLine
 10
-11.00099999958547
 20
309.2217689567265
 30
0.0
 11
-11.00099999958547
 21
303.2217689567265
 31
0.0
  0
LINE
  5
96B
330
2
100
AcDbEntity
  8
P-0000
  6
Continuous
 62
     1
100
AcDbLine
 10
-11.00099999958547
 20
291.2217689567265
 30
0.0
 11
-11.00099999958547
 21
285.2217689567265
 31
0.0
  0
LINE
  5
96E
330
2
100
AcDbEntity
  8
P-0000
  6
Continuous
 62
     1
100
AcDbLine
 10
-14.99999999958527
 20
309.2217689567265
 30
0.0
 11
-14.99999999958527
 21
285.0217689567257
 31
0.0
  0
LINE
  5
96F
330
2
100
AcDbEntity
  8
P-0000
  6
Continuous
 62
     1
100
AcDbLine
 10
3.600000000413274
 20
309.2217689567265
 30
0.0
 11
3.600000000413274
 21
303.2217689567265
 31
0.0
  0
ARC
  5
970
330
2
100
AcDbEntity
  8
P-0000
  6
Continuous
 62
     1
100
AcDbCircle
 10
6.100000000413274
 20
308.7217689567264
 30
0.0
 40
0.5
100
AcDbArc
 50
0.0
 51
90.0
  0
LINE
  5
971
330
2
100
AcDbEntity
  8
P-0000
  6
Continuous
 62
     1
100
AcDbLine
 10
6.100000000413274
 20
309.2217689567265
 30
0.0
 11
0.0000000004147296
 21
309.2217689567265
 31
0.0
  0
ARC
  5
972
330
2
100
AcDbEntity
  8
P-0000
  6
Continuous
 62
     1
100
AcDbCircle
 10
4.353900000412977
 20
286.0717989567279
 30
0.0
 40
0.5
100
AcDbArc
 50
270.0
 51
326.5470000001568
  0
ARC
  5
973
330
2
100
AcDbEntity
  8
P-0000
  6
Continuous
 62
     1
100
AcDbCircle
 10
1.100000000413274
 20
288.221788956726
 30
0.0
 40
4.399999999999999
100
AcDbArc
 50
0.0
 51
33.45480000013964
  0
ARC
  5
974
330
2
100
AcDbEntity
  8
P-0000
  6
Continuous
 62
     1
100
AcDbCircle
 10
1.100000000413274
 20
288.221788956726
 30
0.0
 40
4.399999999999999
100
AcDbArc
 50
326.5449999998723
 51
0.0
  0
ARC
  5
975
330
2
100
AcDbEntity
  8
P-0000
  6
Continuous
 62
     1
100
AcDbCircle
 10
4.353900000412977
 20
290.3717789567277
 30
0.0
 40
0.5
100
AcDbArc
 50
33.4534000001049
 51
90.0
  0
LINE
  5
976
330
2
100
AcDbEntity
  8
P-0000
  6
Continuous
 62
     1
100
AcDbLine
 10
4.353900000412977
 20
285.5717959567268
 30
0.0
 11
4.353900000412977
 21
290.8717789567277
 31
0.0
  0
LINE
  5
977
330
2
100
AcDbEntity
  8
P-0000
  6
Continuous
 62
     1
100
AcDbLine
 10
4.353900000412977
 20
290.8717789567277
 30
0.0
 11
3.600000000413274
 21
290.8717789567277
 31
0.0
  0
LINE
  5
978
330
2
100
AcDbEntity
  8
P-0000
  6
Continuous
 62
     1
100
AcDbLine
 10
4.353900000412977
 20
285.5717959567268
 30
0.0
 11
3.600000000413274
 21
285.5717959567268
 31
0.0
  0
ARC
  5
979
330
2
100
AcDbEntity
  8
P-0000
  6
Continuous
 62
     1
100
AcDbCircle
 10
4.353900000412977
 20
304.0717689567287
 30
0.0
 40
0.5
100
AcDbArc
 50
270.0
 51
326.5470000001568
  0
ARC
  5
97A
330
2
100
AcDbEntity
  8
P-0000
  6
Continuous
 62
     1
100
AcDbCircle
 10
1.100000000413274
 20
306.2217689567265
 30
0.0
 40
4.399999999999999
100
AcDbArc
 50
0.0
 51
33.45480000013964
  0
ARC
  5
97B
330
2
100
AcDbEntity
  8
P-0000
  6
Continuous
 62
     1
100
AcDbCircle
 10
1.100000000413274
 20
306.2217689567265
 30
0.0
 40
4.399999999999999
100
AcDbArc
 50
326.5449999998723
 51
0.0
  0
ARC
  5
97C
330
2
100
AcDbEntity
  8
P-0000
  6
Continuous
 62
     1
100
AcDbCircle
 10
4.353900000412977
 20
308.3717689567279
 30
0.0
 40
0.5
100
AcDbArc
 50
33.4534000001049
 51
90.0
  0
LINE
  5
97D
330
2
100
AcDbEntity
  8
P-0000
  6
Continuous
 62
     1
100
AcDbLine
 10
4.353900000412977
 20
303.5717689567286
 30
0.0
 11
4.353900000412977
 21
308.8717689567279
 31
0.0
  0
LINE
  5
97E
330
2
100
AcDbEntity
  8
P-0000
  6
Continuous
 62
     1
100
AcDbLine
 10
4.353900000412977
 20
308.8717689567279
 30
0.0
 11
3.600000000413274
 21
308.8717689567279
 31
0.0
  0
LINE
  5
97F
330
2
100
AcDbEntity
  8
P-0000
  6
Continuous
 62
     1
100
AcDbLine
 10
4.353900000412977
 20
303.5717689567286
 30
0.0
 11
3.600000000413274
 21
303.5717689567286
 31
0.0
  0
LINE
  5
980
330
2
100
AcDbEntity
  8
P-0000
  6
Continuous
 62
     1
100
AcDbLine
 10
6.000000000414729
 20
285.2217689567265
 30
0.0
 11
-5.99999999958527
 21
285.2217689567265
 31
0.0
  0
LINE
  5
983
330
2
100
AcDbEntity
  8
P-0000
  6
Continuous
 62
     1
100
AcDbLine
 10
4.000000000414729
 20
285.2217689567265
 30
0.0
 11
4.000000000414729
 21
145.2217689567264
 31
0.0
  0
LINE
  5
984
330
2
100
AcDbEntity
  8
P-0000
  6
Continuous
 62
     1
100
AcDbLine
 10
-3.99999999958527
 20
285.2217689567265
 30
0.0
 11
-3.99999999958527
 21
145.2217689567264
 31
0.0
  0
LINE
  5
985
330
2
100
AcDbEntity
  8
P-0000
  6
Continuous
 62
     1
100
AcDbLine
 10
4.000000000414729
 20
145.2217689567264
 30
0.0
 11
-3.99999999958527
 21
145.2217689567264
 31
0.0
  0
ENDSEC
  0
SECTION
  2
OBJECTS
  0
DICTIONARY
  5
1A
330
0
100
AcDbDictionary
281
     1
  3
ACAD_2007HEADERVARS_RT
350
A33
  3
ACAD_COLOR
350
2C5
  3
ACAD_GROUP
350
18
  3
ACAD_LAYOUT
350
45
  3
ACAD_MATERIAL
350
2B0
  3
ACAD_MLEADERSTYLE
350
354
  3
ACAD_MLINESTYLE
350
19
  3
ACAD_PLOTSETTINGS
350
46
  3
ACAD_PLOTSTYLENAME
350
43
  3
ACAD_SCALELIST
350
332
  3
ACAD_TABLESTYLE
350
2C6
  3
ACAD_VISUALSTYLE
350
2B4
  3
ACDB_RECOMPOSE_DATA
350
A31
  3
AcDbVariableDictionary
350
2AA
  3
DWGPROPS
350
A32
  3
qs_topprt_diz
350
6EC
  3
QSCATDICT
350
6EA
  3
QsTop499
350
9D8
  3
TopSpotLight
350
6F3
  0
DICTIONARY
  5
300
330
12
100
AcDbDictionary
280
     1
281
     1
  0
DICTIONARY
  5
708
330
A
100
AcDbDictionary
280
     1
281
     1
  3
ACAD_LAYERSTATES
360
709
  0
DICTIONARY
  5
37B
330
4
100
AcDbDictionary
280
     1
281
     1
  3
ADSK_XREC_LAYER_RECONCILED
360
98A
  0
DICTIONARY
  5
98B
330
6EE
100
AcDbDictionary
280
     1
281
     1
  3
ADSK_XREC_LAYER_RECONCILED
360
98C
  0
DICTIONARY
  5
A33
102
{ACAD_REACTORS
330
1A
102
}
330
1A
100
AcDbDictionary
281
     1
  3
DIMJOGANG
350
A34
  0
DICTIONARY
  5
2C5
102
{ACAD_REACTORS
330
1A
102
}
330
1A
100
AcDbDictionary
281
     1
  0
DICTIONARY
  5
18
102
{ACAD_REACTORS
330
1A
102
}
330
1A
100
AcDbDictionary
281
     1
  0
DICTIONARY
  5
45
102
{ACAD_REACTORS
330
1A
102
}
330
1A
100
AcDbDictionary
281
     1
  3
Layout1
350
48
  3
Model
350
47
  0
DICTIONARY
  5
2B0
102
{ACAD_REACTORS
330
1A
102
}
330
1A
100
AcDbDictionary
281
     1
  3
ByBlock
350
2B2
  3
ByLayer
350
2B1
  3
Global
350
2B3
  0
DICTIONARY
  5
354
102
{ACAD_REACTORS
330
1A
102
}
330
1A
100
AcDbDictionary
281
     1
  3
Standard
350
355
  0
DICTIONARY
  5
19
102
{ACAD_REACTORS
330
1A
102
}
330
1A
100
AcDbDictionary
281
     1
  3
STANDARD
350
1C
  0
DICTIONARY
  5
46
102
{ACAD_REACTORS
330
1A
102
}
330
1A
100
AcDbDictionary
281
     1
  3
Kyocera_1010 OR
350
6F5
  3
Kyocera_1010 VER
350
6F6
  3
Olivetti_200 A3
350
6F7
  3
Olivetti_200 A4
350
6F8
  3
PLOTTER
350
6F9
  0
ACDBDICTIONARYWDFLT
  5
43
102
{ACAD_REACTORS
330
1A
102
}
330
1A
100
AcDbDictionary
281
     1
  3
Normal
350
44
100
AcDbDictionaryWithDefault
340
44
  0
DICTIONARY
  5
332
102
{ACAD_REACTORS
330
1A
102
}
330
1A
100
AcDbDictionary
281
     1
  3
A0
350
333
  3
A1
350
334
  3
A2
350
335
  3
A3
350
336
  3
A4
350
337
  3
A5
350
338
  3
A6
350
339
  3
A7
350
33A
  3
A8
350
33B
  3
A9
350
33C
  3
B0
350
33D
  3
B1
350
33E
  3
B2
350
33F
  3
B3
350
340
  3
B4
350
341
  3
B5
350
342
  3
B6
350
343
  3
B7
350
344
  3
B8
350
345
  3
B9
350
346
  3
C0
350
347
  3
C1
350
348
  3
C2
350
349
  3
C3
350
34A
  3
C4
350
34B
  3
C5
350
34C
  3
C6
350
34D
  3
C7
350
34E
  3
C8
350
34F
  3
C9
350
350
  3
D0
350
351
  3
D1
350
352
  3
D2
350
353
  0
DICTIONARY
  5
2C6
102
{ACAD_REACTORS
330
1A
102
}
330
1A
100
AcDbDictionary
281
     1
  3
QSTABFORI
350
31A
  3
QSTABREGION
350
2CC
  3
Standard
350
2C7
  0
DICTIONARY
  5
2B4
102
{ACAD_REACTORS
330
1A
102
}
330
1A
100
AcDbDictionary
281
     1
  3
2dWireframe
350
2BA
  3
3D Hidden
350
2BC
  3
3dWireframe
350
2BB
  3
Basic
350
2B9
  3
Brighten
350
2C0
  3
ColorChange
350
2C4
  3
Conceptual
350
2BD
  3
Dim
350
2BF
  3
EdgeColorOff
350
6E4
  3
Facepattern
350
2C3
  3
Flat
350
2B5
  3
FlatWithEdges
350
2B6
  3
Gouraud
350
2B7
  3
GouraudWithEdges
350
2B8
  3
Hidden
350
A23
  3
JitterOff
350
6E2
  3
Linepattern
350
2C2
  3
OverhangOff
350
6E3
  3
Realistic
350
2BE
  3
Shaded
350
A28
  3
Shaded with edges
350
A27
  3
Shades of Gray
350
A24
  3
Sketchy
350
A25
  3
Thicken
350
2C1
  3
Wireframe
350
A22
  3
X-Ray
350
A26
  0
XRECORD
  5
A31
102
{ACAD_REACTORS
330
1A
102
}
330
1A
100
AcDbXrecord
280
     1
 90
        1
330
2C7
330
2CC
330
31A
  0
DICTIONARY
  5
2AA
102
{ACAD_REACTORS
330
1A
102
}
330
1A
100
AcDbDictionary
281
     1
  3
CANNOSCALE
350
36B
  3
CMLEADERSTYLE
350
369
  3
CTABLESTYLE
350
312
  3
DIMASSOC
350
2AB
  3
DRAWORDERCTL
350
A1F
  3
INDEXCTL
350
314
  3
LIGHTINGUNITS
350
36C
  3
MSLTSCALE
350
36A
  3
SORTENTS
350
313
  3
XCLIPFRAME
350
A2D
  0
XRECORD
  5
A32
102
{ACAD_REACTORS
330
1A
102
}
330
1A
100
AcDbXrecord
280
     1
  1
DWGPROPS COOKIE
  2

  3

  4

  6

  7

  8
mpistoia
  9

300
=
301
=
302
=
303
=
304
=
305
=
306
=
307
=
308
=
309
=
 40
0.0086632175925926
 41
2455560.347091181
 42
2455637.37536353
  1

 90
        0
  0
DICTIONARY
  5
6EC
102
{ACAD_REACTORS
330
1A
102
}
330
1A
100
AcDbDictionary
281
     1
  3
UCNT
350
6ED
  0
DICTIONARY
  5
6EA
102
{ACAD_REACTORS
330
1A
102
}
330
1A
100
AcDbDictionary
281
     1
  3
DEFAULT
350
6EB
  0
DICTIONARY
  5
9D8
102
{ACAD_REACTORS
330
1A
102
}
330
1A
100
AcDbDictionary
281
     1
  3
TOP
350
9DA
  3
X4718
350
9D9
  0
DICTIONARY
  5
6F3
102
{ACAD_REACTORS
330
1A
102
}
330
1A
100
AcDbDictionary
281
     1
  3
colors
350
6F4
  0
DICTIONARY
  5
709
102
{ACAD_REACTORS
330
708
102
}
330
708
100
AcDbDictionary
281
     1
  0
XRECORD
  5
98A
102
{ACAD_REACTORS
330
37B
102
}
330
37B
100
AcDbXrecord
280
     1
290
     1
  0
XRECORD
  5
98C
102
{ACAD_REACTORS
330
98B
102
}
330
98B
100
AcDbXrecord
280
     1
290
     1
  0
XRECORD
  5
A34
102
{ACAD_REACTORS
330
A33
102
}
330
A33
100
AcDbXrecord
280
     1
 40
1.570796326794896
  0
LAYOUT
  5
48
102
{ACAD_XDICTIONARY
360
A37
102
}
102
{ACAD_REACTORS
330
45
102
}
330
45
100
AcDbPlotSettings
  1

  2
RICOH Aficio 270 PCL 6 A4
  4

  6

 40
0.0
 41
0.0
 42
0.0
 43
0.0
 44
0.0
 45
0.0
 46
0.0
 47
0.0
 48
0.0
 49
0.0
140
0.0
141
0.0
142
1.0
143
1.0
 70
   688
 72
     0
 73
     0
 74
     5
  7
DIERRE BN.ctb
 75
    16
147
1.0
148
0.0
149
0.0
100
AcDbLayout
  1
Layout1
 70
     1
 71
     1
 10
0.0
 20
0.0
 11
12.0
 21
9.0
 12
0.0
 22
0.0
 32
0.0
 14
1.000000000000000E+20
 24
1.000000000000000E+20
 34
1.000000000000000E+20
 15
-1.000000000000000E+20
 25
-1.000000000000000E+20
 35
-1.000000000000000E+20
146
0.0
 13
0.0
 23
0.0
 33
0.0
 16
1.0
 26
0.0
 36
0.0
 17
0.0
 27
1.0
 37
0.0
 76
     0
330
7
  0
LAYOUT
  5
47
102
{ACAD_XDICTIONARY
360
A35
102
}
102
{ACAD_REACTORS
330
45
102
}
330
45
100
AcDbPlotSettings
  1
Olivetti_200 A4
  2
Olivetti_200.pc3
  4
A4
  6

 40
4.984749794006347
 41
5.154074668884277
 42
5.111740112304687
 43
4.9847412109375
 44
210.0156707763672
 45
297.0106506347656
 46
51.67548120477697
 47
0.0
 48
0.0
 49
0.0
140
0.0
141
0.0
142
1.0
143
0.4718508448115938
 70
 11956
 72
     1
 73
     0
 74
     1
  7
DIERRE BN.ctb
 75
     0
147
2.119313785268927
148
-222.4649060220283
149
-239.0808115236937
100
AcDbLayout
  1
Model
 70
     1
 71
     0
 10
0.0
 20
0.0
 11
12.0
 21
9.0
 12
0.0
 22
0.0
 32
0.0
 14
0.0
 24
0.0
 34
0.0
 15
0.0
 25
0.0
 35
0.0
146
0.0
 13
0.0
 23
0.0
 33
0.0
 16
1.0
 26
0.0
 36
0.0
 17
0.0
 27
1.0
 37
0.0
 76
     0
330
2
331
2AE
1001
ACAD_PSEXT
1000
Olivetti_200.pc3
1000
Olivetti d-Copia 200MF KX
1000
IP_192.168.1.151
1000

1070
     0
  0
MATERIAL
  5
2B2
102
{ACAD_XDICTIONARY
360
A3B
102
}
102
{ACAD_REACTORS
330
2B0
102
}
330
2B0
100
AcDbMaterial
  1
ByBlock
 73
     1
 78
     1
172
     1
176
     1
270
     1
274
     1
  0
MATERIAL
  5
2B1
102
{ACAD_XDICTIONARY
360
A39
102
}
102
{ACAD_REACTORS
330
2B0
102
}
330
2B0
100
AcDbMaterial
  1
ByLayer
 73
     1
 78
     1
172
     1
176
     1
270
     1
274
     1
  0
MATERIAL
  5
2B3
102
{ACAD_XDICTIONARY
360
A3D
102
}
102
{ACAD_REACTORS
330
2B0
102
}
330
2B0
100
AcDbMaterial
  1
Global
 73
     1
 78
     1
172
     1
176
     1
270
     1
274
     1
  0
MLEADERSTYLE
  5
355
102
{ACAD_REACTORS
330
354
102
}
330
354
100
AcDbMLeaderStyle
170
     2
171
     1
172
     0
 90
        2
 40
0.0
 41
0.0
173
     1
 91
-1056964608
340
E
 92
       -2
290
     1
 42
2.0
291
     1
 43
0.36
  3
Standard
 44
4.0
300

342
C
174
     1
178
     6
175
     1
176
     0
 93
-1056964608
 45
4.0
292
     0
297
     0
 46
4.0
 94
-1056964608
 47
1.0
 49
1.0
140
1.0
293
     1
141
0.0
294
     1
177
     0
142
1.0
295
     0
296
     0
143
0.125
1001
ACAD_MLEADERVER
1070
     2
  0
MLINESTYLE
  5
1C
102
{ACAD_REACTORS
330
19
102
}
330
19
100
AcDbMlineStyle
  2
STANDARD
 70
     0
  3

 62
     0
 51
90.0
 52
90.0
 71
     2
 49
0.5
 62
   256
  6
BYLAYER
 49
-0.5
 62
   256
  6
BYLAYER
  0
PLOTSETTINGS
  5
6F5
102
{ACAD_XDICTIONARY
360
A68
102
}
102
{ACAD_REACTORS
330
46
102
}
330
46
100
AcDbPlotSettings
  1
Kyocera_1010 OR
  2
Kyocera_1010.pc3
  4
A4
  6

 40
4.984749794006347
 41
5.154074668884277
 42
5.111740112304687
 43
4.9847412109375
 44
210.0156707763672
 45
297.0106506347656
 46
0.0
 47
109.7870247470818
 48
0.0
 49
0.0
140
0.0
141
0.0
142
1.0
143
0.6770771918566143
 70
 11956
 72
     1
 73
     1
 74
     1
  7
DIERRE BN.ctb
 75
     0
147
1.476936473458659
148
-222.4649060220283
149
-239.0808115236937
1001
ACAD_PSEXT
1000
Kyocera_1010.pc3
1000
Kyocera Mita FS-1010 KX
1000
\\PC5
1000

1070
     0
  0
PLOTSETTINGS
  5
6F6
102
{ACAD_XDICTIONARY
360
A6A
102
}
102
{ACAD_REACTORS
330
46
102
}
330
46
100
AcDbPlotSettings
  1
Kyocera_1010 VER
  2
Kyocera_1010.pc3
  4
A4
  6

 40
4.984749794006347
 41
5.154074668884277
 42
5.111740112304687
 43
4.9847412109375
 44
210.0156707763672
 45
297.0106506347656
 46
51.67548120477697
 47
0.0
 48
0.0
 49
0.0
140
0.0
141
0.0
142
1.0
143
0.4718508448115938
 70
 11956
 72
     1
 73
     0
 74
     1
  7
DIERRE BN.ctb
 75
     0
147
2.119313785268927
148
-222.4649060220283
149
-239.0808115236937
1001
ACAD_PSEXT
1000
Kyocera_1010.pc3
1000
Kyocera Mita FS-1010 KX
1000
\\PC5
1000

1070
     0
  0
PLOTSETTINGS
  5
6F7
102
{ACAD_XDICTIONARY
360
A6C
102
}
102
{ACAD_REACTORS
330
46
102
}
330
46
100
AcDbPlotSettings
  1
Olivetti_200 A3
  2
Olivetti_200.pc3
  4
A3
  6

 40
4.984749794006347
 41
5.111746788024902
 42
5.154083251953125
 43
4.9847412109375
 44
297.0106506347656
 45
419.9889831542968
 46
0.0
 47
156.6621412366913
 48
0.0
 49
0.0
140
0.0
141
0.0
142
1.0
143
0.4718508730467012
 70
 11956
 72
     1
 73
     1
 74
     1
  7
DIERRE BN.ctb
 75
     0
147
2.119313658451206
148
-222.4649060220283
149
-239.0808115236937
1001
ACAD_PSEXT
1000
Olivetti_200.pc3
1000
Olivetti d-Copia 200MF KX
1000
IP_192.168.1.151
1000

1070
     0
  0
PLOTSETTINGS
  5
6F8
102
{ACAD_XDICTIONARY
360
A6E
102
}
102
{ACAD_REACTORS
330
46
102
}
330
46
100
AcDbPlotSettings
  1
Olivetti_200 A4
  2
Olivetti_200.pc3
  4
A4
  6

 40
4.984749794006347
 41
5.154074668884277
 42
5.111740112304687
 43
4.9847412109375
 44
210.0156707763672
 45
297.0106506347656
 46
51.67548120477697
 47
0.0
 48
0.0
 49
0.0
140
0.0
141
0.0
142
1.0
143
0.4718508448115938
 70
 11956
 72
     1
 73
     0
 74
     1
  7
DIERRE BN.ctb
 75
     0
147
2.119313785268927
148
-222.4649060220283
149
-239.0808115236937
1001
ACAD_PSEXT
1000
Olivetti_200.pc3
1000
Olivetti d-Copia 200MF KX
1000
IP_192.168.1.151
1000

1070
     0
  0
PLOTSETTINGS
  5
6F9
102
{ACAD_XDICTIONARY
360
A70
102
}
102
{ACAD_REACTORS
330
46
102
}
330
46
100
AcDbPlotSettings
  1
PLOTTER
  2
PLOTTER.pc3
  4
User622
  6

 40
0.0
 41
0.0
 42
0.0
 43
0.0
 44
841.0
 45
1189.0
 46
0.0
 47
0.0
 48
0.0
 49
0.0
140
0.0
141
0.0
142
1.0
143
1.0
 70
 11936
 72
     1
 73
     0
 74
     1
  7
DIERRE BN.ctb
 75
     0
147
2.194137304425714
148
-222.4649060220283
149
-239.0808115236937
1001
ACAD_PSEXT
1000
PLOTTER.pc3
1000
HP DesignJet 430 (E/A0) by HP
1000
\\SERVER2003
1000

1070
     0
  0
ACDBPLACEHOLDER
  5
44
102
{ACAD_REACTORS
330
43
102
}
330
43
  0
SCALE
  5
333
102
{ACAD_REACTORS
330
332
102
}
330
332
100
AcDbScale
 70
     0
300
1:1
140
1.0
141
1.0
290
     1
  0
SCALE
  5
334
102
{ACAD_REACTORS
330
332
102
}
330
332
100
AcDbScale
 70
     0
300
1:2
140
1.0
141
2.0
290
     0
  0
SCALE
  5
335
102
{ACAD_REACTORS
330
332
102
}
330
332
100
AcDbScale
 70
     0
300
1:4
140
1.0
141
4.0
290
     0
  0
SCALE
  5
336
102
{ACAD_REACTORS
330
332
102
}
330
332
100
AcDbScale
 70
     0
300
1:5
140
1.0
141
5.0
290
     0
  0
SCALE
  5
337
102
{ACAD_REACTORS
330
332
102
}
330
332
100
AcDbScale
 70
     0
300
1:8
140
1.0
141
8.0
290
     0
  0
SCALE
  5
338
102
{ACAD_REACTORS
330
332
102
}
330
332
100
AcDbScale
 70
     0
300
1:10
140
1.0
141
10.0
290
     0
  0
SCALE
  5
339
102
{ACAD_REACTORS
330
332
102
}
330
332
100
AcDbScale
 70
     0
300
1:16
140
1.0
141
16.0
290
     0
  0
SCALE
  5
33A
102
{ACAD_REACTORS
330
332
102
}
330
332
100
AcDbScale
 70
     0
300
1:20
140
1.0
141
20.0
290
     0
  0
SCALE
  5
33B
102
{ACAD_REACTORS
330
332
102
}
330
332
100
AcDbScale
 70
     0
300
1:30
140
1.0
141
30.0
290
     0
  0
SCALE
  5
33C
102
{ACAD_REACTORS
330
332
102
}
330
332
100
AcDbScale
 70
     0
300
1:40
140
1.0
141
40.0
290
     0
  0
SCALE
  5
33D
102
{ACAD_REACTORS
330
332
102
}
330
332
100
AcDbScale
 70
     0
300
1:50
140
1.0
141
50.0
290
     0
  0
SCALE
  5
33E
102
{ACAD_REACTORS
330
332
102
}
330
332
100
AcDbScale
 70
     0
300
1:100
140
1.0
141
100.0
290
     0
  0
SCALE
  5
33F
102
{ACAD_REACTORS
330
332
102
}
330
332
100
AcDbScale
 70
     0
300
2:1
140
2.0
141
1.0
290
     0
  0
SCALE
  5
340
102
{ACAD_REACTORS
330
332
102
}
330
332
100
AcDbScale
 70
     0
300
4:1
140
4.0
141
1.0
290
     0
  0
SCALE
  5
341
102
{ACAD_REACTORS
330
332
102
}
330
332
100
AcDbScale
 70
     0
300
8:1
140
8.0
141
1.0
290
     0
  0
SCALE
  5
342
102
{ACAD_REACTORS
330
332
102
}
330
332
100
AcDbScale
 70
     0
300
10:1
140
10.0
141
1.0
290
     0
  0
SCALE
  5
343
102
{ACAD_REACTORS
330
332
102
}
330
332
100
AcDbScale
 70
     0
300
100:1
140
100.0
141
1.0
290
     0
  0
SCALE
  5
344
102
{ACAD_REACTORS
330
332
102
}
330
332
100
AcDbScale
 70
     0
300
1/128" = 1'-0"
140
0.0078125
141
12.0
290
     0
  0
SCALE
  5
345
102
{ACAD_REACTORS
330
332
102
}
330
332
100
AcDbScale
 70
     0
300
1/64" = 1'-0"
140
0.015625
141
12.0
290
     0
  0
SCALE
  5
346
102
{ACAD_REACTORS
330
332
102
}
330
332
100
AcDbScale
 70
     0
300
1/32" = 1'-0"
140
0.03125
141
12.0
290
     0
  0
SCALE
  5
347
102
{ACAD_REACTORS
330
332
102
}
330
332
100
AcDbScale
 70
     0
300
1/16" = 1'-0"
140
0.0625
141
12.0
290
     0
  0
SCALE
  5
348
102
{ACAD_REACTORS
330
332
102
}
330
332
100
AcDbScale
 70
     0
300
3/32" = 1'-0"
140
0.09375
141
12.0
290
     0
  0
SCALE
  5
349
102
{ACAD_REACTORS
330
332
102
}
330
332
100
AcDbScale
 70
     0
300
1/8" = 1'-0"
140
0.125
141
12.0
290
     0
  0
SCALE
  5
34A
102
{ACAD_REACTORS
330
332
102
}
330
332
100
AcDbScale
 70
     0
300
3/16" = 1'-0"
140
0.1875
141
12.0
290
     0
  0
SCALE
  5
34B
102
{ACAD_REACTORS
330
332
102
}
330
332
100
AcDbScale
 70
     0
300
1/4" = 1'-0"
140
0.25
141
12.0
290
     0
  0
SCALE
  5
34C
102
{ACAD_REACTORS
330
332
102
}
330
332
100
AcDbScale
 70
     0
300
3/8" = 1'-0"
140
0.375
141
12.0
290
     0
  0
SCALE
  5
34D
102
{ACAD_REACTORS
330
332
102
}
330
332
100
AcDbScale
 70
     0
300
1/2" = 1'-0"
140
0.5
141
12.0
290
     0
  0
SCALE
  5
34E
102
{ACAD_REACTORS
330
332
102
}
330
332
100
AcDbScale
 70
     0
300
3/4" = 1'-0"
140
0.75
141
12.0
290
     0
  0
SCALE
  5
34F
102
{ACAD_REACTORS
330
332
102
}
330
332
100
AcDbScale
 70
     0
300
1" = 1'-0"
140
1.0
141
12.0
290
     0
  0
SCALE
  5
350
102
{ACAD_REACTORS
330
332
102
}
330
332
100
AcDbScale
 70
     0
300
1-1/2" = 1'-0"
140
1.5
141
12.0
290
     0
  0
SCALE
  5
351
102
{ACAD_REACTORS
330
332
102
}
330
332
100
AcDbScale
 70
     0
300
3" = 1'-0"
140
3.0
141
12.0
290
     0
  0
SCALE
  5
352
102
{ACAD_REACTORS
330
332
102
}
330
332
100
AcDbScale
 70
     0
300
6" = 1'-0"
140
6.0
141
12.0
290
     0
  0
SCALE
  5
353
102
{ACAD_REACTORS
330
332
102
}
330
332
100
AcDbScale
 70
     0
300
1'-0" = 1'-0"
140
12.0
141
12.0
290
     0
  0
TABLESTYLE
  5
31A
102
{ACAD_XDICTIONARY
360
366
102
}
102
{ACAD_REACTORS
330
2C6
102
}
330
2C6
100
AcDbTableStyle
  3
Standard
 70
     1
 71
     0
 40
1.5
 41
1.5
280
     1
281
     0
  7
ROMANS
140
3.0
170
     5
 62
     7
 63
     7
283
     0
274
    -2
284
     1
 64
     0
275
    -2
285
     1
 65
     0
276
    -2
286
     1
 66
     0
277
    -2
287
     1
 67
     0
278
    -2
288
     1
 68
     0
279
    -2
289
     1
 69
     0
  7
ROMANS
140
6.0
170
     5
 62
     1
 63
     7
283
     0
274
    -2
284
     1
 64
     0
275
    -2
285
     1
 65
     0
276
    -2
286
     1
 66
     0
277
    -2
287
     1
 67
     0
278
    -2
288
     1
 68
     0
279
    -2
289
     1
 69
     0
  7
ROMANS
140
3.5
170
     5
 62
     3
 63
     7
283
     0
274
    -2
284
     1
 64
     0
275
    -2
285
     1
 65
     0
276
    -2
286
     1
 66
     0
277
    -2
287
     1
 67
     0
278
    -2
288
     1
 68
     0
279
    -2
289
     1
 69
     0
  0
TABLESTYLE
  5
2CC
102
{ACAD_XDICTIONARY
360
364
102
}
102
{ACAD_REACTORS
330
2C6
102
}
330
2C6
100
AcDbTableStyle
  3
Standard
 70
     0
 71
     0
 40
1.5
 41
1.5
280
     0
281
     0
  7
ROMANS
140
4.5
170
     5
 62
     7
 63
     7
283
     0
274
    -2
284
     1
 64
     0
275
    -2
285
     1
 65
     0
276
    -2
286
     1
 66
     0
277
    -2
287
     1
 67
     0
278
    -2
288
     1
 68
     0
279
    -2
289
     1
 69
     0
  7
ROMANS
140
6.0
170
     5
 62
     1
 63
     7
283
     0
274
    -2
284
     1
 64
     0
275
    -2
285
     1
 65
     0
276
    -2
286
     1
 66
     0
277
    -2
287
     1
 67
     0
278
    -2
288
     1
 68
     0
279
    -2
289
     1
 69
     0
  7
ROMANS
140
5.0
170
     5
 62
     3
 63
     7
283
     0
274
    -2
284
     1
 64
     0
275
    -2
285
     1
 65
     0
276
    -2
286
     1
 66
     0
277
    -2
287
     1
 67
     0
278
    -2
288
     1
 68
     0
279
    -2
289
     1
 69
     0
  0
TABLESTYLE
  5
2C7
102
{ACAD_XDICTIONARY
360
362
102
}
102
{ACAD_REACTORS
330
2C6
102
}
330
2C6
100
AcDbTableStyle
  3
Standard
 70
     0
 71
     0
 40
1.5
 41
1.5
280
     0
281
     0
  7
STANDARD
140
4.5
170
     2
 62
     0
 63
     7
283
     0
274
    -2
284
     1
 64
     0
275
    -2
285
     1
 65
     0
276
    -2
286
     1
 66
     0
277
    -2
287
     1
 67
     0
278
    -2
288
     1
 68
     0
279
    -2
289
     1
 69
     0
  7
STANDARD
140
6.0
170
     5
 62
     0
 63
     7
283
     0
274
    -2
284
     1
 64
     0
275
    -2
285
     1
 65
     0
276
    -2
286
     1
 66
     0
277
    -2
287
     1
 67
     0
278
    -2
288
     1
 68
     0
279
    -2
289
     1
 69
     0
  7
STANDARD
140
4.5
170
     5
 62
     0
 63
     7
283
     0
274
    -2
284
     1
 64
     0
275
    -2
285
     1
 65
     0
276
    -2
286
     1
 66
     0
277
    -2
287
     1
 67
     0
278
    -2
288
     1
 68
     0
279
    -2
289
     1
 69
     0
  0
VISUALSTYLE
  5
2BA
102
{ACAD_XDICTIONARY
360
A49
102
}
102
{ACAD_REACTORS
330
2B4
102
}
330
2B4
100
AcDbVisualStyle
  2
2dWireframe
 70
     4
 71
     0
 72
     2
 73
     0
 90
        0
 40
-0.6
 41
-30.0
 62
     5
 63
     7
 74
     1
 91
        4
 64
     7
 65
   257
 75
     1
175
     1
 42
1.0
 92
        0
 66
   257
 43
1.0
 76
     1
 77
     6
 78
     2
 67
     7
 79
     5
170
     0
171
     0
290
     0
174
     0
 93
        1
 44
0.0
173
     0
291
     0
 45
0.0
1001
ACAD
1000
AcDbSavedByObjectVersion
1070
     0
  0
VISUALSTYLE
  5
2BC
102
{ACAD_XDICTIONARY
360
A4D
102
}
102
{ACAD_REACTORS
330
2B4
102
}
330
2B4
100
AcDbVisualStyle
  2
3D Hidden
 70
     6
 71
     1
 72
     2
 73
     2
 90
        0
 40
-0.6
 41
-30.0
 62
     5
 63
     7
 74
     2
 91
        2
 64
     7
 65
   257
 75
     2
175
     1
 42
40.0
 92
        0
 66
   257
 43
1.0
 76
     1
 77
     6
 78
     2
 67
     7
 79
     3
170
     0
171
     0
290
     0
174
     0
 93
        1
 44
0.0
173
     0
291
     0
 45
0.0
1001
ACAD
1000
AcDbSavedByObjectVersion
1070
     0
  0
VISUALSTYLE
  5
2BB
102
{ACAD_XDICTIONARY
360
A4B
102
}
102
{ACAD_REACTORS
330
2B4
102
}
330
2B4
100
AcDbVisualStyle
  2
3dWireframe
 70
     5
 71
     0
 72
     2
 73
     0
 90
        0
 40
-0.6
 41
-30.0
 62
     5
 63
     7
 74
     1
 91
        4
 64
     7
 65
   257
 75
     1
175
     1
 42
1.0
 92
        0
 66
   257
 43
1.0
 76
     1
 77
     6
 78
     2
 67
     7
 79
     5
170
     0
171
     0
290
     0
174
     0
 93
        1
 44
0.0
173
     0
291
     0
 45
0.0
1001
ACAD
1000
AcDbSavedByObjectVersion
1070
     0
  0
VISUALSTYLE
  5
2B9
102
{ACAD_XDICTIONARY
360
A47
102
}
102
{ACAD_REACTORS
330
2B4
102
}
330
2B4
100
AcDbVisualStyle
  2
Basic
 70
     7
 71
     1
 72
     0
 73
     1
 90
        0
 40
-0.6
 41
-30.0
 62
     5
 63
     7
 74
     0
 91
        4
 64
     7
 65
   257
 75
     1
175
     1
 42
1.0
 92
        8
 66
     7
 43
1.0
 76
     1
 77
     6
 78
     2
 67
     7
 79
     5
170
     0
171
     0
290
     0
174
     0
 93
        1
 44
0.0
173
     0
291
     1
 45
0.0
1001
ACAD
1000
AcDbSavedByObjectVersion
1070
     0
  0
VISUALSTYLE
  5
2C0
102
{ACAD_XDICTIONARY
360
A55
102
}
102
{ACAD_REACTORS
330
2B4
102
}
330
2B4
100
AcDbVisualStyle
  2
Brighten
 70
    12
 71
     2
 72
     2
 73
     0
 90
        0
 40
-0.6
 41
-30.0
 62
     5
 63
     7
 74
     1
 91
        4
 64
     7
 65
   257
 75
     1
175
     1
 42
1.0
 92
        8
 66
     7
 43
1.0
 76
     1
 77
     6
 78
     2
 67
     7
 79
     5
170
     0
171
     0
290
     0
174
     0
 93
        1
 44
50.0
173
     0
291
     1
 45
0.0
1001
ACAD
1000
AcDbSavedByObjectVersion
1070
     0
  0
VISUALSTYLE
  5
2C4
102
{ACAD_XDICTIONARY
360
A5D
102
}
102
{ACAD_REACTORS
330
2B4
102
}
330
2B4
100
AcDbVisualStyle
  2
ColorChange
 70
    16
 71
     2
 72
     2
 73
     3
 90
        0
 40
-0.6
 41
-30.0
 62
     5
 63
     8
 74
     1
 91
        4
 64
     7
 65
   257
 75
     1
175
     1
 42
1.0
 92
        8
 66
     8
 43
1.0
 76
     1
 77
     6
 78
     2
 67
     7
 79
     5
170
     0
171
     0
290
     0
174
     0
 93
        1
 44
0.0
173
     0
291
     1
 45
0.0
1001
ACAD
1000
AcDbSavedByObjectVersion
1070
     0
  0
VISUALSTYLE
  5
2BD
102
{ACAD_XDICTIONARY
360
A4F
102
}
102
{ACAD_REACTORS
330
2B4
102
}
330
2B4
100
AcDbVisualStyle
  2
Conceptual
 70
     9
 71
     3
 72
     2
 73
     0
 90
        0
 40
-0.6
 41
-30.0
 62
     5
 63
     7
 74
     2
 91
        2
 64
     7
 65
   257
 75
     1
175
     1
 42
40.0
 92
        8
 66
     7
 43
1.0
 76
     1
 77
     6
 78
     2
 67
     7
 79
     3
170
     0
171
     0
290
     0
174
     0
 93
        1
 44
0.0
173
     0
291
     0
 45
0.0
1001
ACAD
1000
AcDbSavedByObjectVersion
1070
     0
  0
VISUALSTYLE
  5
2BF
102
{ACAD_XDICTIONARY
360
A53
102
}
102
{ACAD_REACTORS
330
2B4
102
}
330
2B4
100
AcDbVisualStyle
  2
Dim
 70
    11
 71
     2
 72
     2
 73
     0
 90
        0
 40
-0.6
 41
-30.0
 62
     5
 63
     7
 74
     1
 91
        4
 64
     7
 65
   257
 75
     1
175
     1
 42
1.0
 92
        8
 66
     7
 43
1.0
 76
     1
 77
     6
 78
     2
 67
     7
 79
     5
170
     0
171
     0
290
     0
174
     0
 93
        1
 44
-50.0
173
     0
291
     1
 45
0.0
1001
ACAD
1000
AcDbSavedByObjectVersion
1070
     0
  0
VISUALSTYLE
  5
6E4
102
{ACAD_XDICTIONARY
360
A66
102
}
102
{ACAD_REACTORS
330
2B4
102
}
330
2B4
100
AcDbVisualStyle
  2
EdgeColorOff
 70
    22
 71
     2
 72
     2
 73
     0
 90
        0
 40
-0.6
 41
-30.0
 62
     5
 63
     7
 74
     1
 91
        4
 64
     7
 65
   257
 75
     1
175
     1
 42
1.0
 92
        8
 66
     7
 43
1.0
 76
     1
 77
     6
 78
     2
 67
     7
 79
     5
170
     0
171
     0
290
     0
174
     0
 93
        1
 44
0.0
173
     0
291
     1
 45
0.0
1001
ACAD
1000
AcDbSavedByObjectVersion
1070
     0
  0
VISUALSTYLE
  5
2C3
102
{ACAD_XDICTIONARY
360
A5B
102
}
102
{ACAD_REACTORS
330
2B4
102
}
330
2B4
100
AcDbVisualStyle
  2
Facepattern
 70
    15
 71
     2
 72
     2
 73
     0
 90
        0
 40
-0.6
 41
-30.0
 62
     5
 63
     7
 74
     1
 91
        4
 64
     7
 65
   257
 75
     1
175
     1
 42
1.0
 92
        8
 66
     7
 43
1.0
 76
     1
 77
     6
 78
     2
 67
     7
 79
     5
170
     0
171
     0
290
     0
174
     0
 93
        1
 44
0.0
173
     0
291
     1
 45
0.0
1001
ACAD
1000
AcDbSavedByObjectVersion
1070
     0
  0
VISUALSTYLE
  5
2B5
102
{ACAD_XDICTIONARY
360
A3F
102
}
102
{ACAD_REACTORS
330
2B4
102
}
330
2B4
100
AcDbVisualStyle
  2
Flat
 70
     0
 71
     2
 72
     1
 73
     1
 90
        2
 40
-0.6
 41
30.0
 62
     5
 63
     7
 74
     0
 91
        4
 64
     7
 65
   257
 75
     1
175
     1
 42
1.0
 92
        8
 66
     7
 43
1.0
 76
     1
 77
     6
 78
     2
 67
     7
 79
     5
170
     0
171
     0
290
     0
174
     0
 93
       13
 44
0.0
173
     0
291
     1
 45
0.0
1001
ACAD
1000
AcDbSavedByObjectVersion
1070
     0
  0
VISUALSTYLE
  5
2B6
102
{ACAD_XDICTIONARY
360
A41
102
}
102
{ACAD_REACTORS
330
2B4
102
}
330
2B4
100
AcDbVisualStyle
  2
FlatWithEdges
 70
     1
 71
     2
 72
     1
 73
     1
 90
        2
 40
-0.6
 41
30.0
 62
     5
 63
     7
 74
     1
 91
        4
 64
     7
 65
   257
 75
     1
175
     1
 42
1.0
 92
        0
 66
   257
 43
1.0
 76
     1
 77
     6
 78
     2
 67
     7
 79
     5
170
     0
171
     0
290
     0
174
     0
 93
       13
 44
0.0
173
     0
291
     1
 45
0.0
1001
ACAD
1000
AcDbSavedByObjectVersion
1070
     0
  0
VISUALSTYLE
  5
2B7
102
{ACAD_XDICTIONARY
360
A43
102
}
102
{ACAD_REACTORS
330
2B4
102
}
330
2B4
100
AcDbVisualStyle
  2
Gouraud
 70
     2
 71
     2
 72
     2
 73
     1
 90
        2
 40
-0.6
 41
30.0
 62
     5
 63
     7
 74
     0
 91
        4
 64
     7
 65
   257
 75
     1
175
     1
 42
1.0
 92
        0
 66
     7
 43
1.0
 76
     1
 77
     6
 78
     2
 67
     7
 79
     5
170
     0
171
     0
290
     0
174
     0
 93
       13
 44
0.0
173
     0
291
     1
 45
0.0
1001
ACAD
1000
AcDbSavedByObjectVersion
1070
     0
  0
VISUALSTYLE
  5
2B8
102
{ACAD_XDICTIONARY
360
A45
102
}
102
{ACAD_REACTORS
330
2B4
102
}
330
2B4
100
AcDbVisualStyle
  2
GouraudWithEdges
 70
     3
 71
     2
 72
     2
 73
     1
 90
        2
 40
-0.6
 41
30.0
 62
     5
 63
     7
 74
     1
 91
        4
 64
     7
 65
   257
 75
     1
175
     1
 42
1.0
 92
        0
 66
   257
 43
1.0
 76
     1
 77
     6
 78
     2
 67
     7
 79
     5
170
     0
171
     0
290
     0
174
     0
 93
       13
 44
0.0
173
     0
291
     1
 45
0.0
1001
ACAD
1000
AcDbSavedByObjectVersion
1070
     0
  0
VISUALSTYLE
  5
A23
102
{ACAD_XDICTIONARY
360
A74
102
}
102
{ACAD_REACTORS
330
2B4
102
}
330
2B4
100
AcDbVisualStyle
  2
Hidden
 70
     6
 71
     1
 72
     2
 73
     2
 90
        0
 40
-0.6
 41
-30.0
 62
     5
 63
     7
 74
     2
 91
        2
 64
     7
 65
   257
 75
     2
175
     1
 42
40.0
 92
        0
 66
   257
 43
1.0
 76
     1
 77
     6
 78
     2
 67
     7
 79
     3
170
     0
171
     0
290
     0
174
     0
 93
        1
 44
0.0
173
     0
291
     0
 45
0.0
1001
ACAD
1000
AcDbSavedByObjectVersion
1070
     0
  0
VISUALSTYLE
  5
6E2
102
{ACAD_XDICTIONARY
360
A62
102
}
102
{ACAD_REACTORS
330
2B4
102
}
330
2B4
100
AcDbVisualStyle
  2
JitterOff
 70
    20
 71
     2
 72
     2
 73
     0
 90
        0
 40
-0.6
 41
-30.0
 62
     5
 63
     7
 74
     1
 91
        4
 64
     7
 65
   257
 75
     1
175
     1
 42
1.0
 92
       10
 66
     7
 43
1.0
 76
     1
 77
     6
 78
     2
 67
     7
 79
     5
170
     0
171
     0
290
     0
174
     0
 93
        1
 44
0.0
173
     0
291
     1
 45
0.0
1001
ACAD
1000
AcDbSavedByObjectVersion
1070
     0
  0
VISUALSTYLE
  5
2C2
102
{ACAD_XDICTIONARY
360
A59
102
}
102
{ACAD_REACTORS
330
2B4
102
}
330
2B4
100
AcDbVisualStyle
  2
Linepattern
 70
    14
 71
     2
 72
     2
 73
     0
 90
        0
 40
-0.6
 41
-30.0
 62
     5
 63
     7
 74
     1
 91
        4
 64
     7
 65
   257
 75
     7
175
     7
 42
1.0
 92
        8
 66
     7
 43
1.0
 76
     1
 77
     6
 78
     2
 67
     7
 79
     5
170
     0
171
     0
290
     0
174
     0
 93
        1
 44
0.0
173
     0
291
     1
 45
0.0
1001
ACAD
1000
AcDbSavedByObjectVersion
1070
     0
  0
VISUALSTYLE
  5
6E3
102
{ACAD_XDICTIONARY
360
A64
102
}
102
{ACAD_REACTORS
330
2B4
102
}
330
2B4
100
AcDbVisualStyle
  2
OverhangOff
 70
    21
 71
     2
 72
     2
 73
     0
 90
        0
 40
-0.6
 41
-30.0
 62
     5
 63
     7
 74
     1
 91
        4
 64
     7
 65
   257
 75
     1
175
     1
 42
1.0
 92
        9
 66
     7
 43
1.0
 76
     1
 77
     6
 78
     2
 67
     7
 79
     5
170
     0
171
     0
290
     0
174
     0
 93
        1
 44
0.0
173
     0
291
     1
 45
0.0
1001
ACAD
1000
AcDbSavedByObjectVersion
1070
     0
  0
VISUALSTYLE
  5
2BE
102
{ACAD_XDICTIONARY
360
A51
102
}
102
{ACAD_REACTORS
330
2B4
102
}
330
2B4
100
AcDbVisualStyle
  2
Realistic
 70
     8
 71
     2
 72
     2
 73
     0
 90
        0
 40
-0.6
 41
-30.0
 62
     5
 63
     7
 74
     1
 91
        0
 64
     7
 65
   257
 75
     1
175
     1
 42
1.0
 92
        8
 66
     8
 43
1.0
 76
     1
 77
     6
 78
     2
 67
     7
 79
     5
170
     0
171
     0
290
     0
174
     0
 93
       13
 44
0.0
173
     0
291
     0
 45
0.0
1001
ACAD
1000
AcDbSavedByObjectVersion
1070
     0
  0
VISUALSTYLE
  5
A28
102
{ACAD_XDICTIONARY
360
A7E
102
}
102
{ACAD_REACTORS
330
2B4
102
}
330
2B4
100
AcDbVisualStyle
  2
Shaded
 70
    27
 71
     2
 72
     2
 73
     1
 90
        2
 40
-0.6
 41
30.0
 62
     5
 63
     7
 74
     0
 91
        4
 64
     7
 65
   257
 75
     1
175
     1
 42
1.0
 92
        8
 66
   257
 43
1.0
 76
     1
 77
     6
 78
     2
 67
     8
 79
     3
170
     0
171
     0
290
     0
174
     0
 93
        5
 44
0.0
173
     0
291
     0
 45
0.0
1001
ACAD
1000
AcDbSavedByObjectVersion
1070
     0
  0
VISUALSTYLE
  5
A27
102
{ACAD_XDICTIONARY
360
A7C
102
}
102
{ACAD_REACTORS
330
2B4
102
}
330
2B4
100
AcDbVisualStyle
  2
Shaded with edges
 70
    26
 71
     2
 72
     2
 73
     1
 90
        2
 40
-0.6
 41
30.0
 62
     5
 63
     7
 74
     1
 91
       10
 64
     7
 65
   257
 75
     2
175
     1
 42
1.0
 92
        8
 66
   257
 43
1.0
 76
     1
 77
     6
 78
     2
 67
     7
 79
     3
170
     0
171
     0
290
     0
174
     0
 93
        5
 44
0.0
173
     0
291
     0
 45
0.0
1001
ACAD
1000
AcDbSavedByObjectVersion
1070
     0
  0
VISUALSTYLE
  5
A24
102
{ACAD_XDICTIONARY
360
A76
102
}
102
{ACAD_REACTORS
330
2B4
102
}
330
2B4
100
AcDbVisualStyle
  2
Shades of Gray
 70
    23
 71
     2
 72
     2
 73
     3
 90
        0
 40
-0.6
 41
-30.0
 62
     5
 63
     7
 74
     2
 91
        2
 64
     7
 65
     7
 75
     1
175
     1
 42
40.0
 92
        8
 66
     7
 43
1.0
 76
     1
 77
     6
 78
     2
 67
     7
 79
     3
170
     0
171
     0
290
     0
174
     0
 93
        1
 44
0.0
173
     0
291
     0
 45
0.0
1001
ACAD
1000
AcDbSavedByObjectVersion
1070
     0
  0
VISUALSTYLE
  5
A25
102
{ACAD_XDICTIONARY
360
A78
102
}
102
{ACAD_REACTORS
330
2B4
102
}
330
2B4
100
AcDbVisualStyle
  2
Sketchy
 70
    24
 71
     1
 72
     2
 73
     2
 90
        0
 40
-0.6
 41
-30.0
 62
     5
 63
     7
 74
     2
 91
        2
 64
     7
 65
     7
 75
     1
175
     1
 42
40.0
 92
       11
 66
     7
 43
1.0
 76
     1
 77
     6
 78
     2
 67
     7
 79
     6
170
     0
171
     0
290
     0
174
     0
 93
        1
 44
0.0
173
     0
291
     0
 45
0.0
1001
ACAD
1000
AcDbSavedByObjectVersion
1070
     0
  0
VISUALSTYLE
  5
2C1
102
{ACAD_XDICTIONARY
360
A57
102
}
102
{ACAD_REACTORS
330
2B4
102
}
330
2B4
100
AcDbVisualStyle
  2
Thicken
 70
    13
 71
     2
 72
     2
 73
     0
 90
        0
 40
-0.6
 41
-30.0
 62
     5
 63
     7
 74
     1
 91
        4
 64
     7
 65
   257
 75
     1
175
     1
 42
1.0
 92
       12
 66
     7
 43
1.0
 76
     1
 77
     6
 78
     2
 67
     7
 79
     5
170
     0
171
     0
290
     0
174
     0
 93
        1
 44
0.0
173
     0
291
     1
 45
0.0
1001
ACAD
1000
AcDbSavedByObjectVersion
1070
     0
  0
VISUALSTYLE
  5
A22
102
{ACAD_XDICTIONARY
360
A72
102
}
102
{ACAD_REACTORS
330
2B4
102
}
330
2B4
100
AcDbVisualStyle
  2
Wireframe
 70
     5
 71
     0
 72
     2
 73
     0
 90
        0
 40
-0.6
 41
-30.0
 62
     5
 63
     7
 74
     1
 91
        4
 64
     7
 65
   257
 75
     1
175
     1
 42
1.0
 92
        0
 66
   257
 43
1.0
 76
     1
 77
     6
 78
     2
 67
     7
 79
     3
170
     0
171
     0
290
     0
174
     0
 93
        1
 44
0.0
173
     0
291
     0
 45
0.0
1001
ACAD
1000
AcDbSavedByObjectVersion
1070
     0
  0
VISUALSTYLE
  5
A26
102
{ACAD_XDICTIONARY
360
A7A
102
}
102
{ACAD_REACTORS
330
2B4
102
}
330
2B4
100
AcDbVisualStyle
  2
X-Ray
 70
    25
 71
     2
 72
     2
 73
     1
 90
        1
 40
0.5
 41
-30.0
 62
     5
 63
     7
 74
     1
 91
        0
 64
     7
 65
   257
 75
     1
175
     1
 42
1.0
 92
        8
 66
     7
 43
1.0
 76
     1
 77
     6
 78
     2
 67
     7
 79
     3
170
     0
171
     0
290
     0
174
     0
 93
       13
 44
0.0
173
     0
291
     0
 45
0.0
1001
ACAD
1000
AcDbSavedByObjectVersion
1070
     0
  0
DICTIONARYVAR
  5
36B
102
{ACAD_REACTORS
330
2AA
102
}
330
2AA
100
DictionaryVariables
280
     0
  1
1:1
  0
DICTIONARYVAR
  5
369
102
{ACAD_REACTORS
330
2AA
102
}
330
2AA
100
DictionaryVariables
280
     0
  1
STANDARD
  0
DICTIONARYVAR
  5
312
102
{ACAD_REACTORS
330
2AA
102
}
330
2AA
100
DictionaryVariables
280
     0
  1
STANDARD
  0
DICTIONARYVAR
  5
2AB
102
{ACAD_REACTORS
330
2AA
102
}
330
2AA
100
DictionaryVariables
280
     0
  1
2
  0
DICTIONARYVAR
  5
A1F
102
{ACAD_REACTORS
330
2AA
102
}
330
2AA
100
DictionaryVariables
280
     0
  1
0
  0
DICTIONARYVAR
  5
314
102
{ACAD_REACTORS
330
2AA
102
}
330
2AA
100
DictionaryVariables
280
     0
  1
0
  0
DICTIONARYVAR
  5
36C
102
{ACAD_REACTORS
330
2AA
102
}
330
2AA
100
DictionaryVariables
280
     0
  1
0
  0
DICTIONARYVAR
  5
36A
102
{ACAD_REACTORS
330
2AA
102
}
330
2AA
100
DictionaryVariables
280
     0
  1
0
  0
DICTIONARYVAR
  5
313
102
{ACAD_REACTORS
330
2AA
102
}
330
2AA
100
DictionaryVariables
280
     0
  1
127
  0
DICTIONARYVAR
  5
A2D
102
{ACAD_REACTORS
330
2AA
102
}
330
2AA
100
DictionaryVariables
280
     0
  1
2
  0
XRECORD
  5
6ED
102
{ACAD_REACTORS
330
6EC
102
}
330
6EC
100
AcDbXrecord
280
     1
 91
        5
  0
ACAD_PROXY_OBJECT
  5
6EB
102
{ACAD_REACTORS
330
6EA
102
}
330
6EA
100
AcDbProxyObject
 90
      499
 91
      512
 95
   983063
 70
     0
 93
       88
310
4050844454641554C5400E00
 94
        0
1001
ACAD
1000
AcRTDxfName
1000
ACDBQSCATEGORY
  0
XRECORD
  5
9DA
102
{ACAD_REACTORS
330
9D8
102
}
330
9D8
100
AcDbXrecord
280
     1
  9
X4718
  0
XRECORD
  5
9D9
102
{ACAD_REACTORS
330
9D8
102
}
330
9D8
100
AcDbXrecord
280
     1
  2
TOP
  3
P-0000
280
     1
310
6465736372697A696F6E6500544F5000444154410032392F31322F313000554D004E520052455600300044495345474E41544F5245004D2E43617075616E6F005343414C4100313A310000
 10
0.0
 20
0.0
 30
0.0
  0
XRECORD
  5
6F4
102
{ACAD_REACTORS
330
6F3
102
}
330
6F3
100
AcDbXrecord
280
     1
 90
      202
 91
      144
  0
DICTIONARY
  5
A37
330
48
100
AcDbDictionary
280
     1
281
     1
  3
ACAD_XREC_ROUNDTRIP
360
A38
  0
DICTIONARY
  5
A35
330
47
100
AcDbDictionary
280
     1
281
     1
  3
ACAD_XREC_ROUNDTRIP
360
A36
  0
DICTIONARY
  5
A3B
330
2B2
100
AcDbDictionary
280
     1
281
     1
  3
ACAD_XREC_ROUNDTRIP
360
A3C
  0
DICTIONARY
  5
A39
330
2B1
100
AcDbDictionary
280
     1
281
     1
  3
ACAD_XREC_ROUNDTRIP
360
A3A
  0
DICTIONARY
  5
A3D
330
2B3
100
AcDbDictionary
280
     1
281
     1
  3
ACAD_XREC_ROUNDTRIP
360
A3E
  0
DICTIONARY
  5
A68
330
6F5
100
AcDbDictionary
280
     1
281
     1
  3
ACAD_XREC_ROUNDTRIP
360
A69
  0
DICTIONARY
  5
A6A
330
6F6
100
AcDbDictionary
280
     1
281
     1
  3
ACAD_XREC_ROUNDTRIP
360
A6B
  0
DICTIONARY
  5
A6C
330
6F7
100
AcDbDictionary
280
     1
281
     1
  3
ACAD_XREC_ROUNDTRIP
360
A6D
  0
DICTIONARY
  5
A6E
330
6F8
100
AcDbDictionary
280
     1
281
     1
  3
ACAD_XREC_ROUNDTRIP
360
A6F
  0
DICTIONARY
  5
A70
330
6F9
100
AcDbDictionary
280
     1
281
     1
  3
ACAD_XREC_ROUNDTRIP
360
A71
  0
DICTIONARY
  5
366
330
31A
100
AcDbDictionary
280
     1
281
     1
  3
ACAD_ROUNDTRIP_2008_TABLESTYLE_CELLSTYLEMAP
360
A30
  3
ACAD_XREC_ROUNDTRIP
360
A61
  0
DICTIONARY
  5
364
330
2CC
100
AcDbDictionary
280
     1
281
     1
  3
ACAD_ROUNDTRIP_2008_TABLESTYLE_CELLSTYLEMAP
360
A2F
  3
ACAD_XREC_ROUNDTRIP
360
A60
  0
DICTIONARY
  5
362
330
2C7
100
AcDbDictionary
280
     1
281
     1
  3
ACAD_ROUNDTRIP_2008_TABLESTYLE_CELLSTYLEMAP
360
A2E
  3
ACAD_XREC_ROUNDTRIP
360
A5F
  0
DICTIONARY
  5
A49
330
2BA
100
AcDbDictionary
280
     1
281
     1
  3
ACAD_XREC_ROUNDTRIP
360
A4A
  0
DICTIONARY
  5
A4D
330
2BC
100
AcDbDictionary
280
     1
281
     1
  3
ACAD_XREC_ROUNDTRIP
360
A4E
  0
DICTIONARY
  5
A4B
330
2BB
100
AcDbDictionary
280
     1
281
     1
  3
ACAD_XREC_ROUNDTRIP
360
A4C
  0
DICTIONARY
  5
A47
330
2B9
100
AcDbDictionary
280
     1
281
     1
  3
ACAD_XREC_ROUNDTRIP
360
A48
  0
DICTIONARY
  5
A55
330
2C0
100
AcDbDictionary
280
     1
281
     1
  3
ACAD_XREC_ROUNDTRIP
360
A56
  0
DICTIONARY
  5
A5D
330
2C4
100
AcDbDictionary
280
     1
281
     1
  3
ACAD_XREC_ROUNDTRIP
360
A5E
  0
DICTIONARY
  5
A4F
330
2BD
100
AcDbDictionary
280
     1
281
     1
  3
ACAD_XREC_ROUNDTRIP
360
A50
  0
DICTIONARY
  5
A53
330
2BF
100
AcDbDictionary
280
     1
281
     1
  3
ACAD_XREC_ROUNDTRIP
360
A54
  0
DICTIONARY
  5
A66
330
6E4
100
AcDbDictionary
280
     1
281
     1
  3
ACAD_XREC_ROUNDTRIP
360
A67
  0
DICTIONARY
  5
A5B
330
2C3
100
AcDbDictionary
280
     1
281
     1
  3
ACAD_XREC_ROUNDTRIP
360
A5C
  0
DICTIONARY
  5
A3F
330
2B5
100
AcDbDictionary
280
     1
281
     1
  3
ACAD_XREC_ROUNDTRIP
360
A40
  0
DICTIONARY
  5
A41
330
2B6
100
AcDbDictionary
280
     1
281
     1
  3
ACAD_XREC_ROUNDTRIP
360
A42
  0
DICTIONARY
  5
A43
330
2B7
100
AcDbDictionary
280
     1
281
     1
  3
ACAD_XREC_ROUNDTRIP
360
A44
  0
DICTIONARY
  5
A45
330
2B8
100
AcDbDictionary
280
     1
281
     1
  3
ACAD_XREC_ROUNDTRIP
360
A46
  0
DICTIONARY
  5
A74
330
A23
100
AcDbDictionary
280
     1
281
     1
  3
ACAD_XREC_ROUNDTRIP
360
A75
  0
DICTIONARY
  5
A62
330
6E2
100
AcDbDictionary
280
     1
281
     1
  3
ACAD_XREC_ROUNDTRIP
360
A63
  0
DICTIONARY
  5
A59
330
2C2
100
AcDbDictionary
280
     1
281
     1
  3
ACAD_XREC_ROUNDTRIP
360
A5A
  0
DICTIONARY
  5
A64
330
6E3
100
AcDbDictionary
280
     1
281
     1
  3
ACAD_XREC_ROUNDTRIP
360
A65
  0
DICTIONARY
  5
A51
330
2BE
100
AcDbDictionary
280
     1
281
     1
  3
ACAD_XREC_ROUNDTRIP
360
A52
  0
DICTIONARY
  5
A7E
330
A28
100
AcDbDictionary
280
     1
281
     1
  3
ACAD_XREC_ROUNDTRIP
360
A7F
  0
DICTIONARY
  5
A7C
330
A27
100
AcDbDictionary
280
     1
281
     1
  3
ACAD_XREC_ROUNDTRIP
360
A7D
  0
DICTIONARY
  5
A76
330
A24
100
AcDbDictionary
280
     1
281
     1
  3
ACAD_XREC_ROUNDTRIP
360
A77
  0
DICTIONARY
  5
A78
330
A25
100
AcDbDictionary
280
     1
281
     1
  3
ACAD_XREC_ROUNDTRIP
360
A79
  0
DICTIONARY
  5
A57
330
2C1
100
AcDbDictionary
280
     1
281
     1
  3
ACAD_XREC_ROUNDTRIP
360
A58
  0
DICTIONARY
  5
A72
330
A22
100
AcDbDictionary
280
     1
281
     1
  3
ACAD_XREC_ROUNDTRIP
360
A73
  0
DICTIONARY
  5
A7A
330
A26
100
AcDbDictionary
280
     1
281
     1
  3
ACAD_XREC_ROUNDTRIP
360
A7B
  0
XRECORD
  5
A38
102
{ACAD_REACTORS
330
A37
102
}
330
A37
100
AcDbXrecord
280
     1
102
SHADEPLOT
 70
     0
102
SHADEPLOTRESLEVEL
 70
     2
102
SHADEPLOTCUSTOMDPI
 70
   300
  0
XRECORD
  5
A36
102
{ACAD_REACTORS
330
A35
102
}
330
A35
100
AcDbXrecord
280
     1
102
SHADEPLOT
 70
     0
102
SHADEPLOTRESLEVEL
 70
     2
102
SHADEPLOTCUSTOMDPI
 70
   300
  0
XRECORD
  5
A3C
102
{ACAD_REACTORS
330
A3B
102
}
330
A3B
100
AcDbXrecord
280
     1
102
MATERIAL
148
0.0
149
0.0
149
0.0
 93
        0
 94
       63
282
     0
 72
     1
 77
     1
171
     1
175
     1
179
     1
273
     0
  0
XRECORD
  5
A3A
102
{ACAD_REACTORS
330
A39
102
}
330
A39
100
AcDbXrecord
280
     1
102
MATERIAL
148
0.0
149
0.0
149
0.0
 93
        0
 94
       63
282
     0
 72
     1
 77
     1
171
     1
175
     1
179
     1
273
     0
  0
XRECORD
  5
A3E
102
{ACAD_REACTORS
330
A3D
102
}
330
A3D
100
AcDbXrecord
280
     1
102
MATERIAL
148
0.0
149
0.0
149
0.0
 93
        0
 94
       63
282
     0
 72
     1
 77
     1
171
     1
175
     1
179
     1
273
     0
  0
XRECORD
  5
A69
102
{ACAD_REACTORS
330
A68
102
}
330
A68
100
AcDbXrecord
280
     1
102
SHADEPLOT
 70
     0
102
SHADEPLOTRESLEVEL
 70
     2
102
SHADEPLOTCUSTOMDPI
 70
   300
  0
XRECORD
  5
A6B
102
{ACAD_REACTORS
330
A6A
102
}
330
A6A
100
AcDbXrecord
280
     1
102
SHADEPLOT
 70
     0
102
SHADEPLOTRESLEVEL
 70
     2
102
SHADEPLOTCUSTOMDPI
 70
   300
  0
XRECORD
  5
A6D
102
{ACAD_REACTORS
330
A6C
102
}
330
A6C
100
AcDbXrecord
280
     1
102
SHADEPLOT
 70
     0
102
SHADEPLOTRESLEVEL
 70
     2
102
SHADEPLOTCUSTOMDPI
 70
   300
  0
XRECORD
  5
A6F
102
{ACAD_REACTORS
330
A6E
102
}
330
A6E
100
AcDbXrecord
280
     1
102
SHADEPLOT
 70
     0
102
SHADEPLOTRESLEVEL
 70
     2
102
SHADEPLOTCUSTOMDPI
 70
   300
  0
XRECORD
  5
A71
102
{ACAD_REACTORS
330
A70
102
}
330
A70
100
AcDbXrecord
280
     1
102
SHADEPLOT
 70
     0
102
SHADEPLOTRESLEVEL
 70
     2
102
SHADEPLOTCUSTOMDPI
 70
   300
  0
CELLSTYLEMAP
  5
A30
102
{ACAD_REACTORS
330
366
102
}
330
366
100
AcDbCellStyleMap
 90
        3
300
CELLSTYLE
  1
TABLEFORMAT_BEGIN
 90
        5
170
     1
 91
        0
 92
    32768
 62
   257
 93
        1
300
CONTENTFORMAT
  1
CONTENTFORMAT_BEGIN
 90
        0
 91
        0
 92
      512
 93
        0
300

 40
0.0
140
1.0
 94
        5
 62
     1
340
1B
144
6.0
309
CONTENTFORMAT_END
171
     1
301
MARGIN
  1
CELLMARGIN_BEGIN
 40
1.5
 40
1.5
 40
1.5
 40
1.5
 40
0.18
 40
0.18
309
CELLMARGIN_END
 94
        6
 95
        1
302
GRIDFORMAT
  1
GRIDFORMAT_BEGIN
 90
        0
 91
        1
 62
     0
 92
       -2
340
0
 93
        0
 40
0.045
309
GRIDFORMAT_END
 95
        2
302
GRIDFORMAT
  1
GRIDFORMAT_BEGIN
 90
        0
 91
        1
 62
     0
 92
       -2
340
0
 93
        0
 40
0.045
309
GRIDFORMAT_END
 95
        4
302
GRIDFORMAT
  1
GRIDFORMAT_BEGIN
 90
        0
 91
        1
 62
     0
 92
       -2
340
0
 93
        0
 40
0.045
309
GRIDFORMAT_END
 95
        8
302
GRIDFORMAT
  1
GRIDFORMAT_BEGIN
 90
        0
 91
        1
 62
     0
 92
       -2
340
0
 93
        0
 40
0.045
309
GRIDFORMAT_END
 95
       16
302
GRIDFORMAT
  1
GRIDFORMAT_BEGIN
 90
        0
 91
        1
 62
     0
 92
       -2
340
0
 93
        0
 40
0.045
309
GRIDFORMAT_END
 95
       32
302
GRIDFORMAT
  1
GRIDFORMAT_BEGIN
 90
        0
 91
        1
 62
     0
 92
       -2
340
0
 93
        0
 40
0.045
309
GRIDFORMAT_END
309
TABLEFORMAT_END
  1
CELLSTYLE_BEGIN
 90
        1
 91
        1
300
_TITLE
309
CELLSTYLE_END
300
CELLSTYLE
  1
TABLEFORMAT_BEGIN
 90
        5
170
     1
 91
        0
 92
        0
 62
   257
 93
        1
300
CONTENTFORMAT
  1
CONTENTFORMAT_BEGIN
 90
        0
 91
        0
 92
      512
 93
        0
300

 40
0.0
140
1.0
 94
        5
 62
     3
340
1B
144
3.5
309
CONTENTFORMAT_END
171
     1
301
MARGIN
  1
CELLMARGIN_BEGIN
 40
1.5
 40
1.5
 40
1.5
 40
1.5
 40
0.18
 40
0.18
309
CELLMARGIN_END
 94
        6
 95
        1
302
GRIDFORMAT
  1
GRIDFORMAT_BEGIN
 90
        0
 91
        1
 62
     0
 92
       -2
340
0
 93
        0
 40
0.045
309
GRIDFORMAT_END
 95
        2
302
GRIDFORMAT
  1
GRIDFORMAT_BEGIN
 90
        0
 91
        1
 62
     0
 92
       -2
340
0
 93
        0
 40
0.045
309
GRIDFORMAT_END
 95
        4
302
GRIDFORMAT
  1
GRIDFORMAT_BEGIN
 90
        0
 91
        1
 62
     0
 92
       -2
340
0
 93
        0
 40
0.045
309
GRIDFORMAT_END
 95
        8
302
GRIDFORMAT
  1
GRIDFORMAT_BEGIN
 90
        0
 91
        1
 62
     0
 92
       -2
340
0
 93
        0
 40
0.045
309
GRIDFORMAT_END
 95
       16
302
GRIDFORMAT
  1
GRIDFORMAT_BEGIN
 90
        0
 91
        1
 62
     0
 92
       -2
340
0
 93
        0
 40
0.045
309
GRIDFORMAT_END
 95
       32
302
GRIDFORMAT
  1
GRIDFORMAT_BEGIN
 90
        0
 91
        1
 62
     0
 92
       -2
340
0
 93
        0
 40
0.045
309
GRIDFORMAT_END
309
TABLEFORMAT_END
  1
CELLSTYLE_BEGIN
 90
        2
 91
        1
300
_HEADER
309
CELLSTYLE_END
300
CELLSTYLE
  1
TABLEFORMAT_BEGIN
 90
        5
170
     1
 91
        0
 92
        0
 62
   257
 93
        1
300
CONTENTFORMAT
  1
CONTENTFORMAT_BEGIN
 90
        0
 91
        0
 92
      512
 93
        0
300

 40
0.0
140
1.0
 94
        5
 62
     7
340
1B
144
3.0
309
CONTENTFORMAT_END
171
     1
301
MARGIN
  1
CELLMARGIN_BEGIN
 40
1.5
 40
1.5
 40
1.5
 40
1.5
 40
0.18
 40
0.18
309
CELLMARGIN_END
 94
        6
 95
        1
302
GRIDFORMAT
  1
GRIDFORMAT_BEGIN
 90
        0
 91
        1
 62
     0
 92
       -2
340
0
 93
        0
 40
0.045
309
GRIDFORMAT_END
 95
        2
302
GRIDFORMAT
  1
GRIDFORMAT_BEGIN
 90
        0
 91
        1
 62
     0
 92
       -2
340
0
 93
        0
 40
0.045
309
GRIDFORMAT_END
 95
        4
302
GRIDFORMAT
  1
GRIDFORMAT_BEGIN
 90
        0
 91
        1
 62
     0
 92
       -2
340
0
 93
        0
 40
0.045
309
GRIDFORMAT_END
 95
        8
302
GRIDFORMAT
  1
GRIDFORMAT_BEGIN
 90
        0
 91
        1
 62
     0
 92
       -2
340
0
 93
        0
 40
0.045
309
GRIDFORMAT_END
 95
       16
302
GRIDFORMAT
  1
GRIDFORMAT_BEGIN
 90
        0
 91
        1
 62
     0
 92
       -2
340
0
 93
        0
 40
0.045
309
GRIDFORMAT_END
 95
       32
302
GRIDFORMAT
  1
GRIDFORMAT_BEGIN
 90
        0
 91
        1
 62
     0
 92
       -2
340
0
 93
        0
 40
0.045
309
GRIDFORMAT_END
309
TABLEFORMAT_END
  1
CELLSTYLE_BEGIN
 90
        3
 91
        2
300
_DATA
309
CELLSTYLE_END
  0
XRECORD
  5
A61
102
{ACAD_REACTORS
330
366
102
}
330
366
100
AcDbXrecord
280
     1
102
ACAD_ROUNDTRIP_PRE2007_TABLESTYLE
 90
      512
 91
        0
  1

 92
      512
 93
        0
  2

 94
      512
 95
        0
  3

  0
CELLSTYLEMAP
  5
A2F
102
{ACAD_REACTORS
330
364
102
}
330
364
100
AcDbCellStyleMap
 90
        3
300
CELLSTYLE
  1
TABLEFORMAT_BEGIN
 90
        5
170
     1
 91
        0
 92
    32768
 62
   257
 93
        1
300
CONTENTFORMAT
  1
CONTENTFORMAT_BEGIN
 90
        0
 91
        0
 92
      512
 93
        0
300

 40
0.0
140
1.0
 94
        5
 62
     1
340
1B
144
6.0
309
CONTENTFORMAT_END
171
     1
301
MARGIN
  1
CELLMARGIN_BEGIN
 40
1.5
 40
1.5
 40
1.5
 40
1.5
 40
0.18
 40
0.18
309
CELLMARGIN_END
 94
        6
 95
        1
302
GRIDFORMAT
  1
GRIDFORMAT_BEGIN
 90
        0
 91
        1
 62
     0
 92
       -2
340
0
 93
        0
 40
0.045
309
GRIDFORMAT_END
 95
        2
302
GRIDFORMAT
  1
GRIDFORMAT_BEGIN
 90
        0
 91
        1
 62
     0
 92
       -2
340
0
 93
        0
 40
0.045
309
GRIDFORMAT_END
 95
        4
302
GRIDFORMAT
  1
GRIDFORMAT_BEGIN
 90
        0
 91
        1
 62
     0
 92
       -2
340
0
 93
        0
 40
0.045
309
GRIDFORMAT_END
 95
        8
302
GRIDFORMAT
  1
GRIDFORMAT_BEGIN
 90
        0
 91
        1
 62
     0
 92
       -2
340
0
 93
        0
 40
0.045
309
GRIDFORMAT_END
 95
       16
302
GRIDFORMAT
  1
GRIDFORMAT_BEGIN
 90
        0
 91
        1
 62
     0
 92
       -2
340
0
 93
        0
 40
0.045
309
GRIDFORMAT_END
 95
       32
302
GRIDFORMAT
  1
GRIDFORMAT_BEGIN
 90
        0
 91
        1
 62
     0
 92
       -2
340
0
 93
        0
 40
0.045
309
GRIDFORMAT_END
309
TABLEFORMAT_END
  1
CELLSTYLE_BEGIN
 90
        1
 91
        1
300
_TITLE
309
CELLSTYLE_END
300
CELLSTYLE
  1
TABLEFORMAT_BEGIN
 90
        5
170
     1
 91
        0
 92
        0
 62
   257
 93
        1
300
CONTENTFORMAT
  1
CONTENTFORMAT_BEGIN
 90
        0
 91
        0
 92
      512
 93
        0
300

 40
0.0
140
1.0
 94
        5
 62
     3
340
1B
144
5.0
309
CONTENTFORMAT_END
171
     1
301
MARGIN
  1
CELLMARGIN_BEGIN
 40
1.5
 40
1.5
 40
1.5
 40
1.5
 40
0.18
 40
0.18
309
CELLMARGIN_END
 94
        6
 95
        1
302
GRIDFORMAT
  1
GRIDFORMAT_BEGIN
 90
        0
 91
        1
 62
     0
 92
       -2
340
0
 93
        0
 40
0.045
309
GRIDFORMAT_END
 95
        2
302
GRIDFORMAT
  1
GRIDFORMAT_BEGIN
 90
        0
 91
        1
 62
     0
 92
       -2
340
0
 93
        0
 40
0.045
309
GRIDFORMAT_END
 95
        4
302
GRIDFORMAT
  1
GRIDFORMAT_BEGIN
 90
        0
 91
        1
 62
     0
 92
       -2
340
0
 93
        0
 40
0.045
309
GRIDFORMAT_END
 95
        8
302
GRIDFORMAT
  1
GRIDFORMAT_BEGIN
 90
        0
 91
        1
 62
     0
 92
       -2
340
0
 93
        0
 40
0.045
309
GRIDFORMAT_END
 95
       16
302
GRIDFORMAT
  1
GRIDFORMAT_BEGIN
 90
        0
 91
        1
 62
     0
 92
       -2
340
0
 93
        0
 40
0.045
309
GRIDFORMAT_END
 95
       32
302
GRIDFORMAT
  1
GRIDFORMAT_BEGIN
 90
        0
 91
        1
 62
     0
 92
       -2
340
0
 93
        0
 40
0.045
309
GRIDFORMAT_END
309
TABLEFORMAT_END
  1
CELLSTYLE_BEGIN
 90
        2
 91
        1
300
_HEADER
309
CELLSTYLE_END
300
CELLSTYLE
  1
TABLEFORMAT_BEGIN
 90
        5
170
     1
 91
        0
 92
        0
 62
   257
 93
        1
300
CONTENTFORMAT
  1
CONTENTFORMAT_BEGIN
 90
        0
 91
        0
 92
      512
 93
        0
300

 40
0.0
140
1.0
 94
        5
 62
     7
340
1B
144
4.5
309
CONTENTFORMAT_END
171
     1
301
MARGIN
  1
CELLMARGIN_BEGIN
 40
1.5
 40
1.5
 40
1.5
 40
1.5
 40
0.18
 40
0.18
309
CELLMARGIN_END
 94
        6
 95
        1
302
GRIDFORMAT
  1
GRIDFORMAT_BEGIN
 90
        0
 91
        1
 62
     0
 92
       -2
340
0
 93
        0
 40
0.045
309
GRIDFORMAT_END
 95
        2
302
GRIDFORMAT
  1
GRIDFORMAT_BEGIN
 90
        0
 91
        1
 62
     0
 92
       -2
340
0
 93
        0
 40
0.045
309
GRIDFORMAT_END
 95
        4
302
GRIDFORMAT
  1
GRIDFORMAT_BEGIN
 90
        0
 91
        1
 62
     0
 92
       -2
340
0
 93
        0
 40
0.045
309
GRIDFORMAT_END
 95
        8
302
GRIDFORMAT
  1
GRIDFORMAT_BEGIN
 90
        0
 91
        1
 62
     0
 92
       -2
340
0
 93
        0
 40
0.045
309
GRIDFORMAT_END
 95
       16
302
GRIDFORMAT
  1
GRIDFORMAT_BEGIN
 90
        0
 91
        1
 62
     0
 92
       -2
340
0
 93
        0
 40
0.045
309
GRIDFORMAT_END
 95
       32
302
GRIDFORMAT
  1
GRIDFORMAT_BEGIN
 90
        0
 91
        1
 62
     0
 92
       -2
340
0
 93
        0
 40
0.045
309
GRIDFORMAT_END
309
TABLEFORMAT_END
  1
CELLSTYLE_BEGIN
 90
        3
 91
        2
300
_DATA
309
CELLSTYLE_END
  0
XRECORD
  5
A60
102
{ACAD_REACTORS
330
364
102
}
330
364
100
AcDbXrecord
280
     1
102
ACAD_ROUNDTRIP_PRE2007_TABLESTYLE
 90
      512
 91
        0
  1

 92
      512
 93
        0
  2

 94
      512
 95
        0
  3

  0
CELLSTYLEMAP
  5
A2E
102
{ACAD_REACTORS
330
362
102
}
330
362
100
AcDbCellStyleMap
 90
        3
300
CELLSTYLE
  1
TABLEFORMAT_BEGIN
 90
        5
170
     1
 91
        0
 92
    32768
 62
   257
 93
        1
300
CONTENTFORMAT
  1
CONTENTFORMAT_BEGIN
 90
        0
 91
        0
 92
      512
 93
        0
300

 40
0.0
140
1.0
 94
        5
 62
     0
340
C
144
6.0
309
CONTENTFORMAT_END
171
     1
301
MARGIN
  1
CELLMARGIN_BEGIN
 40
1.5
 40
1.5
 40
1.5
 40
1.5
 40
0.18
 40
0.18
309
CELLMARGIN_END
 94
        6
 95
        1
302
GRIDFORMAT
  1
GRIDFORMAT_BEGIN
 90
        0
 91
        1
 62
     0
 92
       -2
340
0
 93
        0
 40
0.045
309
GRIDFORMAT_END
 95
        2
302
GRIDFORMAT
  1
GRIDFORMAT_BEGIN
 90
        0
 91
        1
 62
     0
 92
       -2
340
0
 93
        0
 40
0.045
309
GRIDFORMAT_END
 95
        4
302
GRIDFORMAT
  1
GRIDFORMAT_BEGIN
 90
        0
 91
        1
 62
     0
 92
       -2
340
0
 93
        0
 40
0.045
309
GRIDFORMAT_END
 95
        8
302
GRIDFORMAT
  1
GRIDFORMAT_BEGIN
 90
        0
 91
        1
 62
     0
 92
       -2
340
0
 93
        0
 40
0.045
309
GRIDFORMAT_END
 95
       16
302
GRIDFORMAT
  1
GRIDFORMAT_BEGIN
 90
        0
 91
        1
 62
     0
 92
       -2
340
0
 93
        0
 40
0.045
309
GRIDFORMAT_END
 95
       32
302
GRIDFORMAT
  1
GRIDFORMAT_BEGIN
 90
        0
 91
        1
 62
     0
 92
       -2
340
0
 93
        0
 40
0.045
309
GRIDFORMAT_END
309
TABLEFORMAT_END
  1
CELLSTYLE_BEGIN
 90
        1
 91
        1
300
_TITLE
309
CELLSTYLE_END
300
CELLSTYLE
  1
TABLEFORMAT_BEGIN
 90
        5
170
     1
 91
        0
 92
        0
 62
   257
 93
        1
300
CONTENTFORMAT
  1
CONTENTFORMAT_BEGIN
 90
        0
 91
        0
 92
      512
 93
        0
300

 40
0.0
140
1.0
 94
        5
 62
     0
340
C
144
4.5
309
CONTENTFORMAT_END
171
     1
301
MARGIN
  1
CELLMARGIN_BEGIN
 40
1.5
 40
1.5
 40
1.5
 40
1.5
 40
0.18
 40
0.18
309
CELLMARGIN_END
 94
        6
 95
        1
302
GRIDFORMAT
  1
GRIDFORMAT_BEGIN
 90
        0
 91
        1
 62
     0
 92
       -2
340
0
 93
        0
 40
0.045
309
GRIDFORMAT_END
 95
        2
302
GRIDFORMAT
  1
GRIDFORMAT_BEGIN
 90
        0
 91
        1
 62
     0
 92
       -2
340
0
 93
        0
 40
0.045
309
GRIDFORMAT_END
 95
        4
302
GRIDFORMAT
  1
GRIDFORMAT_BEGIN
 90
        0
 91
        1
 62
     0
 92
       -2
340
0
 93
        0
 40
0.045
309
GRIDFORMAT_END
 95
        8
302
GRIDFORMAT
  1
GRIDFORMAT_BEGIN
 90
        0
 91
        1
 62
     0
 92
       -2
340
0
 93
        0
 40
0.045
309
GRIDFORMAT_END
 95
       16
302
GRIDFORMAT
  1
GRIDFORMAT_BEGIN
 90
        0
 91
        1
 62
     0
 92
       -2
340
0
 93
        0
 40
0.045
309
GRIDFORMAT_END
 95
       32
302
GRIDFORMAT
  1
GRIDFORMAT_BEGIN
 90
        0
 91
        1
 62
     0
 92
       -2
340
0
 93
        0
 40
0.045
309
GRIDFORMAT_END
309
TABLEFORMAT_END
  1
CELLSTYLE_BEGIN
 90
        2
 91
        1
300
_HEADER
309
CELLSTYLE_END
300
CELLSTYLE
  1
TABLEFORMAT_BEGIN
 90
        5
170
     1
 91
        0
 92
        0
 62
   257
 93
        1
300
CONTENTFORMAT
  1
CONTENTFORMAT_BEGIN
 90
        0
 91
        0
 92
      512
 93
        0
300

 40
0.0
140
1.0
 94
        2
 62
     0
340
C
144
4.5
309
CONTENTFORMAT_END
171
     1
301
MARGIN
  1
CELLMARGIN_BEGIN
 40
1.5
 40
1.5
 40
1.5
 40
1.5
 40
0.18
 40
0.18
309
CELLMARGIN_END
 94
        6
 95
        1
302
GRIDFORMAT
  1
GRIDFORMAT_BEGIN
 90
        0
 91
        1
 62
     0
 92
       -2
340
0
 93
        0
 40
0.045
309
GRIDFORMAT_END
 95
        2
302
GRIDFORMAT
  1
GRIDFORMAT_BEGIN
 90
        0
 91
        1
 62
     0
 92
       -2
340
0
 93
        0
 40
0.045
309
GRIDFORMAT_END
 95
        4
302
GRIDFORMAT
  1
GRIDFORMAT_BEGIN
 90
        0
 91
        1
 62
     0
 92
       -2
340
0
 93
        0
 40
0.045
309
GRIDFORMAT_END
 95
        8
302
GRIDFORMAT
  1
GRIDFORMAT_BEGIN
 90
        0
 91
        1
 62
     0
 92
       -2
340
0
 93
        0
 40
0.045
309
GRIDFORMAT_END
 95
       16
302
GRIDFORMAT
  1
GRIDFORMAT_BEGIN
 90
        0
 91
        1
 62
     0
 92
       -2
340
0
 93
        0
 40
0.045
309
GRIDFORMAT_END
 95
       32
302
GRIDFORMAT
  1
GRIDFORMAT_BEGIN
 90
        0
 91
        1
 62
     0
 92
       -2
340
0
 93
        0
 40
0.045
309
GRIDFORMAT_END
309
TABLEFORMAT_END
  1
CELLSTYLE_BEGIN
 90
        3
 91
        2
300
_DATA
309
CELLSTYLE_END
  0
XRECORD
  5
A5F
102
{ACAD_REACTORS
330
362
102
}
330
362
100
AcDbXrecord
280
     1
102
ACAD_ROUNDTRIP_PRE2007_TABLESTYLE
 90
      512
 91
        0
  1

 92
      512
 93
        0
  2

 94
      512
 95
        0
  3

  0
XRECORD
  5
A4A
102
{ACAD_REACTORS
330
A49
102
}
330
A49
100
AcDbXrecord
280
     1
102
RTVSPropertyOp0
 70
     1
102
RTVSPropertyOp1
 70
     1
102
RTVSPropertyOp2
 70
     1
102
RTVSPropertyOp3
 70
     1
102
RTVSPropertyOp4
 70
     1
102
RTVSPropertyOp5
 70
     1
102
RTVSPropertyOp6
 70
     1
102
RTVSPropertyOp7
 70
     1
102
RTVSPropertyOp8
 70
     1
102
RTVSPropertyOp9
 70
     1
102
RTVSPropertyOp10
 70
     1
102
RTVSPropertyOp11
 70
     1
102
RTVSPropertyOp12
 70
     1
102
RTVSPropertyOp13
 70
     1
102
RTVSPropertyOp14
 70
     1
102
RTVSPropertyOp15
 70
     1
102
RTVSPropertyOp16
 70
     1
102
RTVSPropertyOp17
 70
     1
102
RTVSPropertyOp18
 70
     1
102
RTVSPropertyOp19
 70
     1
102
RTVSPropertyOp20
 70
     1
102
RTVSPropertyOp21
 70
     1
102
RTVSPropertyOp22
 70
     1
102
RTVSPropertyOp23
 70
     1
102
RTVSPropertyOp24
 70
     1
102
RTVSPropertyOp25
 70
     1
102
RTVSPropertyOp26
 70
     1
102
RTVSPropertyOp27
 70
     1
102
RTVSPropertyOp28
 70
     1
102
RTVSPropertyOp29
 70
     1
102
RTVSPropertyOp30
 70
     1
102
RTVSPropertyOp31
 70
     1
102
RTVSPropertyOp32
 70
     1
  0
XRECORD
  5
A4E
102
{ACAD_REACTORS
330
A4D
102
}
330
A4D
100
AcDbXrecord
280
     1
102
RTVSPropertyOp0
 70
     1
102
RTVSPropertyOp1
 70
     1
102
RTVSPropertyOp2
 70
     1
102
RTVSPropertyOp3
 70
     1
102
RTVSPropertyOp4
 70
     1
102
RTVSPropertyOp5
 70
     1
102
RTVSPropertyOp6
 70
     1
102
RTVSPropertyOp7
 70
     1
102
RTVSPropertyOp8
 70
     1
102
RTVSPropertyOp9
 70
     1
102
RTVSPropertyOp10
 70
     1
102
RTVSPropertyOp11
 70
     1
102
RTVSPropertyOp12
 70
     1
102
RTVSPropertyOp13
 70
     1
102
RTVSPropertyOp14
 70
     1
102
RTVSPropertyOp15
 70
     1
102
RTVSPropertyOp16
 70
     1
102
RTVSPropertyOp17
 70
     1
102
RTVSPropertyOp18
 70
     1
102
RTVSPropertyOp19
 70
     1
102
RTVSPropertyOp20
 70
     1
102
RTVSPropertyOp21
 70
     1
102
RTVSPropertyOp22
 70
     1
102
RTVSPropertyOp23
 70
     1
102
RTVSPropertyOp24
 70
     1
102
RTVSPropertyOp25
 70
     1
102
RTVSPropertyOp26
 70
     1
102
RTVSPropertyOp27
 70
     1
102
RTVSPropertyOp28
 70
     1
102
RTVSPropertyOp29
 70
     1
102
RTVSPropertyOp30
 70
     1
102
RTVSPropertyOp31
 70
     1
102
RTVSPropertyOp32
 70
     1
  0
XRECORD
  5
A4C
102
{ACAD_REACTORS
330
A4B
102
}
330
A4B
100
AcDbXrecord
280
     1
102
RTVSPropertyOp0
 70
     1
102
RTVSPropertyOp1
 70
     1
102
RTVSPropertyOp2
 70
     1
102
RTVSPropertyOp3
 70
     1
102
RTVSPropertyOp4
 70
     1
102
RTVSPropertyOp5
 70
     1
102
RTVSPropertyOp6
 70
     1
102
RTVSPropertyOp7
 70
     1
102
RTVSPropertyOp8
 70
     1
102
RTVSPropertyOp9
 70
     1
102
RTVSPropertyOp10
 70
     1
102
RTVSPropertyOp11
 70
     1
102
RTVSPropertyOp12
 70
     1
102
RTVSPropertyOp13
 70
     1
102
RTVSPropertyOp14
 70
     1
102
RTVSPropertyOp15
 70
     1
102
RTVSPropertyOp16
 70
     1
102
RTVSPropertyOp17
 70
     1
102
RTVSPropertyOp18
 70
     1
102
RTVSPropertyOp19
 70
     1
102
RTVSPropertyOp20
 70
     1
102
RTVSPropertyOp21
 70
     1
102
RTVSPropertyOp22
 70
     1
102
RTVSPropertyOp23
 70
     1
102
RTVSPropertyOp24
 70
     1
102
RTVSPropertyOp25
 70
     1
102
RTVSPropertyOp26
 70
     1
102
RTVSPropertyOp27
 70
     1
102
RTVSPropertyOp28
 70
     1
102
RTVSPropertyOp29
 70
     1
102
RTVSPropertyOp30
 70
     1
102
RTVSPropertyOp31
 70
     1
102
RTVSPropertyOp32
 70
     1
  0
XRECORD
  5
A48
102
{ACAD_REACTORS
330
A47
102
}
330
A47
100
AcDbXrecord
280
     1
102
RTVSPropertyOp0
 70
     1
102
RTVSPropertyOp1
 70
     1
102
RTVSPropertyOp2
 70
     1
102
RTVSPropertyOp3
 70
     1
102
RTVSPropertyOp4
 70
     1
102
RTVSPropertyOp5
 70
     1
102
RTVSPropertyOp6
 70
     1
102
RTVSPropertyOp7
 70
     1
102
RTVSPropertyOp8
 70
     1
102
RTVSPropertyOp9
 70
     1
102
RTVSPropertyOp10
 70
     1
102
RTVSPropertyOp11
 70
     1
102
RTVSPropertyOp12
 70
     1
102
RTVSPropertyOp13
 70
     1
102
RTVSPropertyOp14
 70
     1
102
RTVSPropertyOp15
 70
     1
102
RTVSPropertyOp16
 70
     1
102
RTVSPropertyOp17
 70
     1
102
RTVSPropertyOp18
 70
     1
102
RTVSPropertyOp19
 70
     1
102
RTVSPropertyOp20
 70
     1
102
RTVSPropertyOp21
 70
     1
102
RTVSPropertyOp22
 70
     1
102
RTVSPropertyOp23
 70
     1
102
RTVSPropertyOp24
 70
     1
102
RTVSPropertyOp25
 70
     1
102
RTVSPropertyOp26
 70
     1
102
RTVSPropertyOp27
 70
     1
102
RTVSPropertyOp28
 70
     1
102
RTVSPropertyOp29
 70
     1
102
RTVSPropertyOp30
 70
     1
102
RTVSPropertyOp31
 70
     1
102
RTVSPropertyOp32
 70
     1
  0
XRECORD
  5
A56
102
{ACAD_REACTORS
330
A55
102
}
330
A55
100
AcDbXrecord
280
     1
102
RTVSPropertyOp0
 70
     1
102
RTVSPropertyOp1
 70
     1
102
RTVSPropertyOp2
 70
     1
102
RTVSPropertyOp3
 70
     1
102
RTVSPropertyOp4
 70
     1
102
RTVSPropertyOp5
 70
     1
102
RTVSPropertyOp6
 70
     1
102
RTVSPropertyOp7
 70
     1
102
RTVSPropertyOp8
 70
     1
102
RTVSPropertyOp9
 70
     1
102
RTVSPropertyOp10
 70
     1
102
RTVSPropertyOp11
 70
     1
102
RTVSPropertyOp12
 70
     1
102
RTVSPropertyOp13
 70
     1
102
RTVSPropertyOp14
 70
     1
102
RTVSPropertyOp15
 70
     1
102
RTVSPropertyOp16
 70
     1
102
RTVSPropertyOp17
 70
     1
102
RTVSPropertyOp18
 70
     1
102
RTVSPropertyOp19
 70
     1
102
RTVSPropertyOp20
 70
     1
102
RTVSPropertyOp21
 70
     1
102
RTVSPropertyOp22
 70
     1
102
RTVSPropertyOp23
 70
     1
102
RTVSPropertyOp24
 70
     1
102
RTVSPropertyOp25
 70
     1
102
RTVSPropertyOp26
 70
     1
102
RTVSPropertyOp27
 70
     1
102
RTVSPropertyOp28
 70
     1
102
RTVSPropertyOp29
 70
     1
102
RTVSPropertyOp30
 70
     1
102
RTVSPropertyOp31
 70
     1
102
RTVSPropertyOp32
 70
     1
  0
XRECORD
  5
A5E
102
{ACAD_REACTORS
330
A5D
102
}
330
A5D
100
AcDbXrecord
280
     1
102
RTVSPropertyOp0
 70
     1
102
RTVSPropertyOp1
 70
     1
102
RTVSPropertyOp2
 70
     1
102
RTVSPropertyOp3
 70
     1
102
RTVSPropertyOp4
 70
     1
102
RTVSPropertyOp5
 70
     1
102
RTVSPropertyOp6
 70
     1
102
RTVSPropertyOp7
 70
     1
102
RTVSPropertyOp8
 70
     1
102
RTVSPropertyOp9
 70
     1
102
RTVSPropertyOp10
 70
     1
102
RTVSPropertyOp11
 70
     1
102
RTVSPropertyOp12
 70
     1
102
RTVSPropertyOp13
 70
     1
102
RTVSPropertyOp14
 70
     1
102
RTVSPropertyOp15
 70
     1
102
RTVSPropertyOp16
 70
     1
102
RTVSPropertyOp17
 70
     1
102
RTVSPropertyOp18
 70
     1
102
RTVSPropertyOp19
 70
     1
102
RTVSPropertyOp20
 70
     1
102
RTVSPropertyOp21
 70
     1
102
RTVSPropertyOp22
 70
     1
102
RTVSPropertyOp23
 70
     1
102
RTVSPropertyOp24
 70
     1
102
RTVSPropertyOp25
 70
     1
102
RTVSPropertyOp26
 70
     1
102
RTVSPropertyOp27
 70
     1
102
RTVSPropertyOp28
 70
     1
102
RTVSPropertyOp29
 70
     1
102
RTVSPropertyOp30
 70
     1
102
RTVSPropertyOp31
 70
     1
102
RTVSPropertyOp32
 70
     1
  0
XRECORD
  5
A50
102
{ACAD_REACTORS
330
A4F
102
}
330
A4F
100
AcDbXrecord
280
     1
102
RTVSPropertyOp0
 70
     1
102
RTVSPropertyOp1
 70
     1
102
RTVSPropertyOp2
 70
     1
102
RTVSPropertyOp3
 70
     1
102
RTVSPropertyOp4
 70
     1
102
RTVSPropertyOp5
 70
     1
102
RTVSPropertyOp6
 70
     1
102
RTVSPropertyOp7
 70
     1
102
RTVSPropertyOp8
 70
     1
102
RTVSPropertyOp9
 70
     1
102
RTVSPropertyOp10
 70
     1
102
RTVSPropertyOp11
 70
     1
102
RTVSPropertyOp12
 70
     1
102
RTVSPropertyOp13
 70
     1
102
RTVSPropertyOp14
 70
     1
102
RTVSPropertyOp15
 70
     1
102
RTVSPropertyOp16
 70
     1
102
RTVSPropertyOp17
 70
     1
102
RTVSPropertyOp18
 70
     1
102
RTVSPropertyOp19
 70
     1
102
RTVSPropertyOp20
 70
     1
102
RTVSPropertyOp21
 70
     1
102
RTVSPropertyOp22
 70
     1
102
RTVSPropertyOp23
 70
     1
102
RTVSPropertyOp24
 70
     1
102
RTVSPropertyOp25
 70
     1
102
RTVSPropertyOp26
 70
     1
102
RTVSPropertyOp27
 70
     1
102
RTVSPropertyOp28
 70
     1
102
RTVSPropertyOp29
 70
     1
102
RTVSPropertyOp30
 70
     1
102
RTVSPropertyOp31
 70
     1
102
RTVSPropertyOp32
 70
     1
  0
XRECORD
  5
A54
102
{ACAD_REACTORS
330
A53
102
}
330
A53
100
AcDbXrecord
280
     1
102
RTVSPropertyOp0
 70
     1
102
RTVSPropertyOp1
 70
     1
102
RTVSPropertyOp2
 70
     1
102
RTVSPropertyOp3
 70
     1
102
RTVSPropertyOp4
 70
     1
102
RTVSPropertyOp5
 70
     1
102
RTVSPropertyOp6
 70
     1
102
RTVSPropertyOp7
 70
     1
102
RTVSPropertyOp8
 70
     1
102
RTVSPropertyOp9
 70
     1
102
RTVSPropertyOp10
 70
     1
102
RTVSPropertyOp11
 70
     1
102
RTVSPropertyOp12
 70
     1
102
RTVSPropertyOp13
 70
     1
102
RTVSPropertyOp14
 70
     1
102
RTVSPropertyOp15
 70
     1
102
RTVSPropertyOp16
 70
     1
102
RTVSPropertyOp17
 70
     1
102
RTVSPropertyOp18
 70
     1
102
RTVSPropertyOp19
 70
     1
102
RTVSPropertyOp20
 70
     1
102
RTVSPropertyOp21
 70
     1
102
RTVSPropertyOp22
 70
     1
102
RTVSPropertyOp23
 70
     1
102
RTVSPropertyOp24
 70
     1
102
RTVSPropertyOp25
 70
     1
102
RTVSPropertyOp26
 70
     1
102
RTVSPropertyOp27
 70
     1
102
RTVSPropertyOp28
 70
     1
102
RTVSPropertyOp29
 70
     1
102
RTVSPropertyOp30
 70
     1
102
RTVSPropertyOp31
 70
     1
102
RTVSPropertyOp32
 70
     1
  0
XRECORD
  5
A67
102
{ACAD_REACTORS
330
A66
102
}
330
A66
100
AcDbXrecord
280
     1
102
RTVSPropertyOp0
 70
     0
102
RTVSPropertyOp1
 70
     0
102
RTVSPropertyOp2
 70
     0
102
RTVSPropertyOp3
 70
     0
102
RTVSPropertyOp4
 70
     0
102
RTVSPropertyOp5
 70
     0
102
RTVSPropertyOp6
 70
     0
102
RTVSPropertyOp7
 70
     0
102
RTVSPropertyOp8
 70
     0
102
RTVSPropertyOp9
 70
     0
102
RTVSPropertyOp10
 70
     0
102
RTVSPropertyOp11
 70
     0
102
RTVSPropertyOp12
 70
     0
102
RTVSPropertyOp13
 70
     0
102
RTVSPropertyOp14
 70
     2
102
RTVSPropertyOp15
 70
     0
102
RTVSPropertyOp16
 70
     0
102
RTVSPropertyOp17
 70
     0
102
RTVSPropertyOp18
 70
     0
102
RTVSPropertyOp19
 70
     0
102
RTVSPropertyOp20
 70
     0
102
RTVSPropertyOp21
 70
     0
102
RTVSPropertyOp22
 70
     0
102
RTVSPropertyOp23
 70
     0
102
RTVSPropertyOp24
 70
     0
102
RTVSPropertyOp25
 70
     0
102
RTVSPropertyOp26
 70
     0
102
RTVSPropertyOp27
 70
     0
102
RTVSPropertyOp28
 70
     1
102
RTVSPropertyOp29
 70
     1
102
RTVSPropertyOp30
 70
     1
102
RTVSPropertyOp31
 70
     1
102
RTVSPropertyOp32
 70
     1
  0
XRECORD
  5
A5C
102
{ACAD_REACTORS
330
A5B
102
}
330
A5B
100
AcDbXrecord
280
     1
102
RTVSPropertyOp0
 70
     1
102
RTVSPropertyOp1
 70
     1
102
RTVSPropertyOp2
 70
     1
102
RTVSPropertyOp3
 70
     1
102
RTVSPropertyOp4
 70
     1
102
RTVSPropertyOp5
 70
     1
102
RTVSPropertyOp6
 70
     1
102
RTVSPropertyOp7
 70
     1
102
RTVSPropertyOp8
 70
     1
102
RTVSPropertyOp9
 70
     1
102
RTVSPropertyOp10
 70
     1
102
RTVSPropertyOp11
 70
     1
102
RTVSPropertyOp12
 70
     1
102
RTVSPropertyOp13
 70
     1
102
RTVSPropertyOp14
 70
     1
102
RTVSPropertyOp15
 70
     1
102
RTVSPropertyOp16
 70
     1
102
RTVSPropertyOp17
 70
     1
102
RTVSPropertyOp18
 70
     1
102
RTVSPropertyOp19
 70
     1
102
RTVSPropertyOp20
 70
     1
102
RTVSPropertyOp21
 70
     1
102
RTVSPropertyOp22
 70
     1
102
RTVSPropertyOp23
 70
     1
102
RTVSPropertyOp24
 70
     1
102
RTVSPropertyOp25
 70
     1
102
RTVSPropertyOp26
 70
     1
102
RTVSPropertyOp27
 70
     1
102
RTVSPropertyOp28
 70
     1
102
RTVSPropertyOp29
 70
     1
102
RTVSPropertyOp30
 70
     1
102
RTVSPropertyOp31
 70
     1
102
RTVSPropertyOp32
 70
     1
  0
XRECORD
  5
A40
102
{ACAD_REACTORS
330
A3F
102
}
330
A3F
100
AcDbXrecord
280
     1
102
RTVSPropertyOp0
 70
     1
102
RTVSPropertyOp1
 70
     1
102
RTVSPropertyOp2
 70
     1
102
RTVSPropertyOp3
 70
     1
102
RTVSPropertyOp4
 70
     1
102
RTVSPropertyOp5
 70
     1
102
RTVSPropertyOp6
 70
     1
102
RTVSPropertyOp7
 70
     1
102
RTVSPropertyOp8
 70
     1
102
RTVSPropertyOp9
 70
     1
102
RTVSPropertyOp10
 70
     1
102
RTVSPropertyOp11
 70
     1
102
RTVSPropertyOp12
 70
     1
102
RTVSPropertyOp13
 70
     1
102
RTVSPropertyOp14
 70
     1
102
RTVSPropertyOp15
 70
     1
102
RTVSPropertyOp16
 70
     1
102
RTVSPropertyOp17
 70
     1
102
RTVSPropertyOp18
 70
     1
102
RTVSPropertyOp19
 70
     1
102
RTVSPropertyOp20
 70
     1
102
RTVSPropertyOp21
 70
     1
102
RTVSPropertyOp22
 70
     1
102
RTVSPropertyOp23
 70
     1
102
RTVSPropertyOp24
 70
     1
102
RTVSPropertyOp25
 70
     1
102
RTVSPropertyOp26
 70
     1
102
RTVSPropertyOp27
 70
     1
102
RTVSPropertyOp28
 70
     1
102
RTVSPropertyOp29
 70
     1
102
RTVSPropertyOp30
 70
     1
102
RTVSPropertyOp31
 70
     1
102
RTVSPropertyOp32
 70
     1
  0
XRECORD
  5
A42
102
{ACAD_REACTORS
330
A41
102
}
330
A41
100
AcDbXrecord
280
     1
102
RTVSPropertyOp0
 70
     1
102
RTVSPropertyOp1
 70
     1
102
RTVSPropertyOp2
 70
     1
102
RTVSPropertyOp3
 70
     1
102
RTVSPropertyOp4
 70
     1
102
RTVSPropertyOp5
 70
     1
102
RTVSPropertyOp6
 70
     1
102
RTVSPropertyOp7
 70
     1
102
RTVSPropertyOp8
 70
     1
102
RTVSPropertyOp9
 70
     1
102
RTVSPropertyOp10
 70
     1
102
RTVSPropertyOp11
 70
     1
102
RTVSPropertyOp12
 70
     1
102
RTVSPropertyOp13
 70
     1
102
RTVSPropertyOp14
 70
     1
102
RTVSPropertyOp15
 70
     1
102
RTVSPropertyOp16
 70
     1
102
RTVSPropertyOp17
 70
     1
102
RTVSPropertyOp18
 70
     1
102
RTVSPropertyOp19
 70
     1
102
RTVSPropertyOp20
 70
     1
102
RTVSPropertyOp21
 70
     1
102
RTVSPropertyOp22
 70
     1
102
RTVSPropertyOp23
 70
     1
102
RTVSPropertyOp24
 70
     1
102
RTVSPropertyOp25
 70
     1
102
RTVSPropertyOp26
 70
     1
102
RTVSPropertyOp27
 70
     1
102
RTVSPropertyOp28
 70
     1
102
RTVSPropertyOp29
 70
     1
102
RTVSPropertyOp30
 70
     1
102
RTVSPropertyOp31
 70
     1
102
RTVSPropertyOp32
 70
     1
  0
XRECORD
  5
A44
102
{ACAD_REACTORS
330
A43
102
}
330
A43
100
AcDbXrecord
280
     1
102
RTVSPropertyOp0
 70
     1
102
RTVSPropertyOp1
 70
     1
102
RTVSPropertyOp2
 70
     1
102
RTVSPropertyOp3
 70
     1
102
RTVSPropertyOp4
 70
     1
102
RTVSPropertyOp5
 70
     1
102
RTVSPropertyOp6
 70
     1
102
RTVSPropertyOp7
 70
     1
102
RTVSPropertyOp8
 70
     1
102
RTVSPropertyOp9
 70
     1
102
RTVSPropertyOp10
 70
     1
102
RTVSPropertyOp11
 70
     1
102
RTVSPropertyOp12
 70
     1
102
RTVSPropertyOp13
 70
     1
102
RTVSPropertyOp14
 70
     1
102
RTVSPropertyOp15
 70
     1
102
RTVSPropertyOp16
 70
     1
102
RTVSPropertyOp17
 70
     1
102
RTVSPropertyOp18
 70
     1
102
RTVSPropertyOp19
 70
     1
102
RTVSPropertyOp20
 70
     1
102
RTVSPropertyOp21
 70
     1
102
RTVSPropertyOp22
 70
     1
102
RTVSPropertyOp23
 70
     1
102
RTVSPropertyOp24
 70
     1
102
RTVSPropertyOp25
 70
     1
102
RTVSPropertyOp26
 70
     1
102
RTVSPropertyOp27
 70
     1
102
RTVSPropertyOp28
 70
     1
102
RTVSPropertyOp29
 70
     1
102
RTVSPropertyOp30
 70
     1
102
RTVSPropertyOp31
 70
     1
102
RTVSPropertyOp32
 70
     1
  0
XRECORD
  5
A46
102
{ACAD_REACTORS
330
A45
102
}
330
A45
100
AcDbXrecord
280
     1
102
RTVSPropertyOp0
 70
     1
102
RTVSPropertyOp1
 70
     1
102
RTVSPropertyOp2
 70
     1
102
RTVSPropertyOp3
 70
     1
102
RTVSPropertyOp4
 70
     1
102
RTVSPropertyOp5
 70
     1
102
RTVSPropertyOp6
 70
     1
102
RTVSPropertyOp7
 70
     1
102
RTVSPropertyOp8
 70
     1
102
RTVSPropertyOp9
 70
     1
102
RTVSPropertyOp10
 70
     1
102
RTVSPropertyOp11
 70
     1
102
RTVSPropertyOp12
 70
     1
102
RTVSPropertyOp13
 70
     1
102
RTVSPropertyOp14
 70
     1
102
RTVSPropertyOp15
 70
     1
102
RTVSPropertyOp16
 70
     1
102
RTVSPropertyOp17
 70
     1
102
RTVSPropertyOp18
 70
     1
102
RTVSPropertyOp19
 70
     1
102
RTVSPropertyOp20
 70
     1
102
RTVSPropertyOp21
 70
     1
102
RTVSPropertyOp22
 70
     1
102
RTVSPropertyOp23
 70
     1
102
RTVSPropertyOp24
 70
     1
102
RTVSPropertyOp25
 70
     1
102
RTVSPropertyOp26
 70
     1
102
RTVSPropertyOp27
 70
     1
102
RTVSPropertyOp28
 70
     1
102
RTVSPropertyOp29
 70
     1
102
RTVSPropertyOp30
 70
     1
102
RTVSPropertyOp31
 70
     1
102
RTVSPropertyOp32
 70
     1
  0
XRECORD
  5
A75
102
{ACAD_REACTORS
330
A74
102
}
330
A74
100
AcDbXrecord
280
     1
102
RTVSPropertyOp0
 70
     1
102
RTVSPropertyOp1
 70
     1
102
RTVSPropertyOp2
 70
     1
102
RTVSPropertyOp3
 70
     1
102
RTVSPropertyOp4
 70
     1
102
RTVSPropertyOp5
 70
     1
102
RTVSPropertyOp6
 70
     1
102
RTVSPropertyOp7
 70
     1
102
RTVSPropertyOp8
 70
     1
102
RTVSPropertyOp9
 70
     1
102
RTVSPropertyOp10
 70
     1
102
RTVSPropertyOp11
 70
     1
102
RTVSPropertyOp12
 70
     1
102
RTVSPropertyOp13
 70
     1
102
RTVSPropertyOp14
 70
     1
102
RTVSPropertyOp15
 70
     1
102
RTVSPropertyOp16
 70
     1
102
RTVSPropertyOp17
 70
     1
102
RTVSPropertyOp18
 70
     1
102
RTVSPropertyOp19
 70
     1
102
RTVSPropertyOp20
 70
     1
102
RTVSPropertyOp21
 70
     1
102
RTVSPropertyOp22
 70
     1
102
RTVSPropertyOp23
 70
     1
102
RTVSPropertyOp24
 70
     1
102
RTVSPropertyOp25
 70
     1
102
RTVSPropertyOp26
 70
     1
102
RTVSPropertyOp27
 70
     1
102
RTVSPropertyOp28
 70
     1
102
RTVSPropertyOp29
 70
     1
102
RTVSPropertyOp30
 70
     1
102
RTVSPropertyOp31
 70
     1
102
RTVSPropertyOp32
 70
     1
  0
XRECORD
  5
A63
102
{ACAD_REACTORS
330
A62
102
}
330
A62
100
AcDbXrecord
280
     1
102
RTVSPropertyOp0
 70
     0
102
RTVSPropertyOp1
 70
     0
102
RTVSPropertyOp2
 70
     0
102
RTVSPropertyOp3
 70
     0
102
RTVSPropertyOp4
 70
     0
102
RTVSPropertyOp5
 70
     0
102
RTVSPropertyOp6
 70
     0
102
RTVSPropertyOp7
 70
     0
102
RTVSPropertyOp8
 70
     0
102
RTVSPropertyOp9
 70
     0
102
RTVSPropertyOp10
 70
     0
102
RTVSPropertyOp11
 70
     0
102
RTVSPropertyOp12
 70
     0
102
RTVSPropertyOp13
 70
     0
102
RTVSPropertyOp14
 70
     2
102
RTVSPropertyOp15
 70
     0
102
RTVSPropertyOp16
 70
     0
102
RTVSPropertyOp17
 70
     0
102
RTVSPropertyOp18
 70
     0
102
RTVSPropertyOp19
 70
     0
102
RTVSPropertyOp20
 70
     0
102
RTVSPropertyOp21
 70
     0
102
RTVSPropertyOp22
 70
     0
102
RTVSPropertyOp23
 70
     0
102
RTVSPropertyOp24
 70
     0
102
RTVSPropertyOp25
 70
     0
102
RTVSPropertyOp26
 70
     0
102
RTVSPropertyOp27
 70
     0
102
RTVSPropertyOp28
 70
     1
102
RTVSPropertyOp29
 70
     1
102
RTVSPropertyOp30
 70
     1
102
RTVSPropertyOp31
 70
     1
102
RTVSPropertyOp32
 70
     1
  0
XRECORD
  5
A5A
102
{ACAD_REACTORS
330
A59
102
}
330
A59
100
AcDbXrecord
280
     1
102
RTVSPropertyOp0
 70
     1
102
RTVSPropertyOp1
 70
     1
102
RTVSPropertyOp2
 70
     1
102
RTVSPropertyOp3
 70
     1
102
RTVSPropertyOp4
 70
     1
102
RTVSPropertyOp5
 70
     1
102
RTVSPropertyOp6
 70
     1
102
RTVSPropertyOp7
 70
     1
102
RTVSPropertyOp8
 70
     1
102
RTVSPropertyOp9
 70
     1
102
RTVSPropertyOp10
 70
     1
102
RTVSPropertyOp11
 70
     1
102
RTVSPropertyOp12
 70
     1
102
RTVSPropertyOp13
 70
     1
102
RTVSPropertyOp14
 70
     1
102
RTVSPropertyOp15
 70
     1
102
RTVSPropertyOp16
 70
     1
102
RTVSPropertyOp17
 70
     1
102
RTVSPropertyOp18
 70
     1
102
RTVSPropertyOp19
 70
     1
102
RTVSPropertyOp20
 70
     1
102
RTVSPropertyOp21
 70
     1
102
RTVSPropertyOp22
 70
     1
102
RTVSPropertyOp23
 70
     1
102
RTVSPropertyOp24
 70
     1
102
RTVSPropertyOp25
 70
     1
102
RTVSPropertyOp26
 70
     1
102
RTVSPropertyOp27
 70
     1
102
RTVSPropertyOp28
 70
     1
102
RTVSPropertyOp29
 70
     1
102
RTVSPropertyOp30
 70
     1
102
RTVSPropertyOp31
 70
     1
102
RTVSPropertyOp32
 70
     1
  0
XRECORD
  5
A65
102
{ACAD_REACTORS
330
A64
102
}
330
A64
100
AcDbXrecord
280
     1
102
RTVSPropertyOp0
 70
     0
102
RTVSPropertyOp1
 70
     0
102
RTVSPropertyOp2
 70
     0
102
RTVSPropertyOp3
 70
     0
102
RTVSPropertyOp4
 70
     0
102
RTVSPropertyOp5
 70
     0
102
RTVSPropertyOp6
 70
     0
102
RTVSPropertyOp7
 70
     0
102
RTVSPropertyOp8
 70
     0
102
RTVSPropertyOp9
 70
     0
102
RTVSPropertyOp10
 70
     0
102
RTVSPropertyOp11
 70
     0
102
RTVSPropertyOp12
 70
     0
102
RTVSPropertyOp13
 70
     0
102
RTVSPropertyOp14
 70
     2
102
RTVSPropertyOp15
 70
     0
102
RTVSPropertyOp16
 70
     0
102
RTVSPropertyOp17
 70
     0
102
RTVSPropertyOp18
 70
     0
102
RTVSPropertyOp19
 70
     0
102
RTVSPropertyOp20
 70
     0
102
RTVSPropertyOp21
 70
     0
102
RTVSPropertyOp22
 70
     0
102
RTVSPropertyOp23
 70
     0
102
RTVSPropertyOp24
 70
     0
102
RTVSPropertyOp25
 70
     0
102
RTVSPropertyOp26
 70
     0
102
RTVSPropertyOp27
 70
     0
102
RTVSPropertyOp28
 70
     1
102
RTVSPropertyOp29
 70
     1
102
RTVSPropertyOp30
 70
     1
102
RTVSPropertyOp31
 70
     1
102
RTVSPropertyOp32
 70
     1
  0
XRECORD
  5
A52
102
{ACAD_REACTORS
330
A51
102
}
330
A51
100
AcDbXrecord
280
     1
102
RTVSPropertyOp0
 70
     1
102
RTVSPropertyOp1
 70
     1
102
RTVSPropertyOp2
 70
     1
102
RTVSPropertyOp3
 70
     1
102
RTVSPropertyOp4
 70
     1
102
RTVSPropertyOp5
 70
     1
102
RTVSPropertyOp6
 70
     1
102
RTVSPropertyOp7
 70
     1
102
RTVSPropertyOp8
 70
     1
102
RTVSPropertyOp9
 70
     1
102
RTVSPropertyOp10
 70
     1
102
RTVSPropertyOp11
 70
     1
102
RTVSPropertyOp12
 70
     1
102
RTVSPropertyOp13
 70
     1
102
RTVSPropertyOp14
 70
     1
102
RTVSPropertyOp15
 70
     1
102
RTVSPropertyOp16
 70
     1
102
RTVSPropertyOp17
 70
     1
102
RTVSPropertyOp18
 70
     1
102
RTVSPropertyOp19
 70
     1
102
RTVSPropertyOp20
 70
     1
102
RTVSPropertyOp21
 70
     1
102
RTVSPropertyOp22
 70
     1
102
RTVSPropertyOp23
 70
     1
102
RTVSPropertyOp24
 70
     1
102
RTVSPropertyOp25
 70
     1
102
RTVSPropertyOp26
 70
     1
102
RTVSPropertyOp27
 70
     1
102
RTVSPropertyOp28
 70
     1
102
RTVSPropertyOp29
 70
     1
102
RTVSPropertyOp30
 70
     1
102
RTVSPropertyOp31
 70
     1
102
RTVSPropertyOp32
 70
     1
  0
XRECORD
  5
A7F
102
{ACAD_REACTORS
330
A7E
102
}
330
A7E
100
AcDbXrecord
280
     1
102
RTVSPropertyOp0
 70
     1
102
RTVSPropertyOp1
 70
     1
102
RTVSPropertyOp2
 70
     1
102
RTVSPropertyOp3
 70
     1
102
RTVSPropertyOp4
 70
     1
102
RTVSPropertyOp5
 70
     1
102
RTVSPropertyOp6
 70
     1
102
RTVSPropertyOp7
 70
     1
102
RTVSPropertyOp8
 70
     1
102
RTVSPropertyOp9
 70
     1
102
RTVSPropertyOp10
 70
     1
102
RTVSPropertyOp11
 70
     1
102
RTVSPropertyOp12
 70
     1
102
RTVSPropertyOp13
 70
     1
102
RTVSPropertyOp14
 70
     1
102
RTVSPropertyOp15
 70
     1
102
RTVSPropertyOp16
 70
     1
102
RTVSPropertyOp17
 70
     1
102
RTVSPropertyOp18
 70
     1
102
RTVSPropertyOp19
 70
     1
102
RTVSPropertyOp20
 70
     1
102
RTVSPropertyOp21
 70
     1
102
RTVSPropertyOp22
 70
     1
102
RTVSPropertyOp23
 70
     1
102
RTVSPropertyOp24
 70
     1
102
RTVSPropertyOp25
 70
     1
102
RTVSPropertyOp26
 70
     1
102
RTVSPropertyOp27
 70
     1
102
RTVSPropertyOp28
 70
     1
102
RTVSPropertyOp29
 70
     1
102
RTVSPropertyOp30
 70
     1
102
RTVSPropertyOp31
 70
     1
102
RTVSPropertyOp32
 70
     1
  0
XRECORD
  5
A7D
102
{ACAD_REACTORS
330
A7C
102
}
330
A7C
100
AcDbXrecord
280
     1
102
RTVSPropertyOp0
 70
     1
102
RTVSPropertyOp1
 70
     1
102
RTVSPropertyOp2
 70
     1
102
RTVSPropertyOp3
 70
     1
102
RTVSPropertyOp4
 70
     1
102
RTVSPropertyOp5
 70
     1
102
RTVSPropertyOp6
 70
     1
102
RTVSPropertyOp7
 70
     1
102
RTVSPropertyOp8
 70
     1
102
RTVSPropertyOp9
 70
     1
102
RTVSPropertyOp10
 70
     1
102
RTVSPropertyOp11
 70
     1
102
RTVSPropertyOp12
 70
     1
102
RTVSPropertyOp13
 70
     1
102
RTVSPropertyOp14
 70
     1
102
RTVSPropertyOp15
 70
     1
102
RTVSPropertyOp16
 70
     1
102
RTVSPropertyOp17
 70
     1
102
RTVSPropertyOp18
 70
     1
102
RTVSPropertyOp19
 70
     1
102
RTVSPropertyOp20
 70
     1
102
RTVSPropertyOp21
 70
     1
102
RTVSPropertyOp22
 70
     1
102
RTVSPropertyOp23
 70
     1
102
RTVSPropertyOp24
 70
     1
102
RTVSPropertyOp25
 70
     1
102
RTVSPropertyOp26
 70
     1
102
RTVSPropertyOp27
 70
     1
102
RTVSPropertyOp28
 70
     1
102
RTVSPropertyOp29
 70
     1
102
RTVSPropertyOp30
 70
     1
102
RTVSPropertyOp31
 70
     1
102
RTVSPropertyOp32
 70
     1
  0
XRECORD
  5
A77
102
{ACAD_REACTORS
330
A76
102
}
330
A76
100
AcDbXrecord
280
     1
102
RTVSPropertyOp0
 70
     1
102
RTVSPropertyOp1
 70
     1
102
RTVSPropertyOp2
 70
     1
102
RTVSPropertyOp3
 70
     1
102
RTVSPropertyOp4
 70
     1
102
RTVSPropertyOp5
 70
     1
102
RTVSPropertyOp6
 70
     1
102
RTVSPropertyOp7
 70
     1
102
RTVSPropertyOp8
 70
     1
102
RTVSPropertyOp9
 70
     1
102
RTVSPropertyOp10
 70
     1
102
RTVSPropertyOp11
 70
     1
102
RTVSPropertyOp12
 70
     1
102
RTVSPropertyOp13
 70
     1
102
RTVSPropertyOp14
 70
     1
102
RTVSPropertyOp15
 70
     1
102
RTVSPropertyOp16
 70
     1
102
RTVSPropertyOp17
 70
     1
102
RTVSPropertyOp18
 70
     1
102
RTVSPropertyOp19
 70
     1
102
RTVSPropertyOp20
 70
     1
102
RTVSPropertyOp21
 70
     1
102
RTVSPropertyOp22
 70
     1
102
RTVSPropertyOp23
 70
     1
102
RTVSPropertyOp24
 70
     1
102
RTVSPropertyOp25
 70
     1
102
RTVSPropertyOp26
 70
     1
102
RTVSPropertyOp27
 70
     1
102
RTVSPropertyOp28
 70
     1
102
RTVSPropertyOp29
 70
     1
102
RTVSPropertyOp30
 70
     1
102
RTVSPropertyOp31
 70
     1
102
RTVSPropertyOp32
 70
     1
  0
XRECORD
  5
A79
102
{ACAD_REACTORS
330
A78
102
}
330
A78
100
AcDbXrecord
280
     1
102
RTVSPropertyOp0
 70
     1
102
RTVSPropertyOp1
 70
     1
102
RTVSPropertyOp2
 70
     1
102
RTVSPropertyOp3
 70
     1
102
RTVSPropertyOp4
 70
     1
102
RTVSPropertyOp5
 70
     1
102
RTVSPropertyOp6
 70
     1
102
RTVSPropertyOp7
 70
     1
102
RTVSPropertyOp8
 70
     1
102
RTVSPropertyOp9
 70
     1
102
RTVSPropertyOp10
 70
     1
102
RTVSPropertyOp11
 70
     1
102
RTVSPropertyOp12
 70
     1
102
RTVSPropertyOp13
 70
     1
102
RTVSPropertyOp14
 70
     1
102
RTVSPropertyOp15
 70
     1
102
RTVSPropertyOp16
 70
     1
102
RTVSPropertyOp17
 70
     1
102
RTVSPropertyOp18
 70
     1
102
RTVSPropertyOp19
 70
     1
102
RTVSPropertyOp20
 70
     1
102
RTVSPropertyOp21
 70
     1
102
RTVSPropertyOp22
 70
     1
102
RTVSPropertyOp23
 70
     1
102
RTVSPropertyOp24
 70
     1
102
RTVSPropertyOp25
 70
     1
102
RTVSPropertyOp26
 70
     1
102
RTVSPropertyOp27
 70
     1
102
RTVSPropertyOp28
 70
     1
102
RTVSPropertyOp29
 70
     1
102
RTVSPropertyOp30
 70
     1
102
RTVSPropertyOp31
 70
     1
102
RTVSPropertyOp32
 70
     1
  0
XRECORD
  5
A58
102
{ACAD_REACTORS
330
A57
102
}
330
A57
100
AcDbXrecord
280
     1
102
RTVSPropertyOp0
 70
     1
102
RTVSPropertyOp1
 70
     1
102
RTVSPropertyOp2
 70
     1
102
RTVSPropertyOp3
 70
     1
102
RTVSPropertyOp4
 70
     1
102
RTVSPropertyOp5
 70
     1
102
RTVSPropertyOp6
 70
     1
102
RTVSPropertyOp7
 70
     1
102
RTVSPropertyOp8
 70
     1
102
RTVSPropertyOp9
 70
     1
102
RTVSPropertyOp10
 70
     1
102
RTVSPropertyOp11
 70
     1
102
RTVSPropertyOp12
 70
     1
102
RTVSPropertyOp13
 70
     1
102
RTVSPropertyOp14
 70
     1
102
RTVSPropertyOp15
 70
     1
102
RTVSPropertyOp16
 70
     1
102
RTVSPropertyOp17
 70
     1
102
RTVSPropertyOp18
 70
     1
102
RTVSPropertyOp19
 70
     1
102
RTVSPropertyOp20
 70
     1
102
RTVSPropertyOp21
 70
     1
102
RTVSPropertyOp22
 70
     1
102
RTVSPropertyOp23
 70
     1
102
RTVSPropertyOp24
 70
     1
102
RTVSPropertyOp25
 70
     1
102
RTVSPropertyOp26
 70
     1
102
RTVSPropertyOp27
 70
     1
102
RTVSPropertyOp28
 70
     1
102
RTVSPropertyOp29
 70
     1
102
RTVSPropertyOp30
 70
     1
102
RTVSPropertyOp31
 70
     1
102
RTVSPropertyOp32
 70
     1
  0
XRECORD
  5
A73
102
{ACAD_REACTORS
330
A72
102
}
330
A72
100
AcDbXrecord
280
     1
102
RTVSPropertyOp0
 70
     1
102
RTVSPropertyOp1
 70
     1
102
RTVSPropertyOp2
 70
     1
102
RTVSPropertyOp3
 70
     1
102
RTVSPropertyOp4
 70
     1
102
RTVSPropertyOp5
 70
     1
102
RTVSPropertyOp6
 70
     1
102
RTVSPropertyOp7
 70
     1
102
RTVSPropertyOp8
 70
     1
102
RTVSPropertyOp9
 70
     1
102
RTVSPropertyOp10
 70
     1
102
RTVSPropertyOp11
 70
     1
102
RTVSPropertyOp12
 70
     1
102
RTVSPropertyOp13
 70
     1
102
RTVSPropertyOp14
 70
     1
102
RTVSPropertyOp15
 70
     1
102
RTVSPropertyOp16
 70
     1
102
RTVSPropertyOp17
 70
     1
102
RTVSPropertyOp18
 70
     1
102
RTVSPropertyOp19
 70
     1
102
RTVSPropertyOp20
 70
     1
102
RTVSPropertyOp21
 70
     1
102
RTVSPropertyOp22
 70
     1
102
RTVSPropertyOp23
 70
     1
102
RTVSPropertyOp24
 70
     1
102
RTVSPropertyOp25
 70
     1
102
RTVSPropertyOp26
 70
     1
102
RTVSPropertyOp27
 70
     1
102
RTVSPropertyOp28
 70
     1
102
RTVSPropertyOp29
 70
     1
102
RTVSPropertyOp30
 70
     1
102
RTVSPropertyOp31
 70
     1
102
RTVSPropertyOp32
 70
     1
  0
XRECORD
  5
A7B
102
{ACAD_REACTORS
330
A7A
102
}
330
A7A
100
AcDbXrecord
280
     1
102
RTVSPropertyOp0
 70
     1
102
RTVSPropertyOp1
 70
     1
102
RTVSPropertyOp2
 70
     1
102
RTVSPropertyOp3
 70
     1
102
RTVSPropertyOp4
 70
     1
102
RTVSPropertyOp5
 70
     1
102
RTVSPropertyOp6
 70
     1
102
RTVSPropertyOp7
 70
     1
102
RTVSPropertyOp8
 70
     1
102
RTVSPropertyOp9
 70
     1
102
RTVSPropertyOp10
 70
     1
102
RTVSPropertyOp11
 70
     1
102
RTVSPropertyOp12
 70
     1
102
RTVSPropertyOp13
 70
     1
102
RTVSPropertyOp14
 70
     1
102
RTVSPropertyOp15
 70
     1
102
RTVSPropertyOp16
 70
     1
102
RTVSPropertyOp17
 70
     1
102
RTVSPropertyOp18
 70
     1
102
RTVSPropertyOp19
 70
     1
102
RTVSPropertyOp20
 70
     1
102
RTVSPropertyOp21
 70
     1
102
RTVSPropertyOp22
 70
     1
102
RTVSPropertyOp23
 70
     1
102
RTVSPropertyOp24
 70
     1
102
RTVSPropertyOp25
 70
     1
102
RTVSPropertyOp26
 70
     1
102
RTVSPropertyOp27
 70
     1
102
RTVSPropertyOp28
 70
     1
102
RTVSPropertyOp29
 70
     1
102
RTVSPropertyOp30
 70
     1
102
RTVSPropertyOp31
 70
     1
102
RTVSPropertyOp32
 70
     1
  0
ENDSEC
  0
EOF
