  0
SECTION
  2
HEADER
  9
$ACADVER
  1
AC1015
  9
$ACADMAINTVER
 70
    20
  9
$DWGCODEPAGE
  3
ANSI_1252
  9
$INSBASE
 10
0.0
 20
0.0
 30
0.0
  9
$EXTMIN
 10
-19.99999556000001
 20
-19.99999365000048
 30
0.0
  9
$EXTMAX
 10
234.4946592673818
 20
287.6348267953136
 30
0.0
  9
$LIMMIN
 10
0.0
 20
0.0
  9
$LIMMAX
 10
210.0
 20
297.0
  9
$ORTHOMODE
 70
     0
  9
$REGENMODE
 70
     1
  9
$FILLMODE
 70
     1
  9
$QTEXTMODE
 70
     0
  9
$MIRRTEXT
 70
     1
  9
$LTSCALE
 40
25.4
  9
$ATTMODE
 70
     1
  9
$TEXTSIZE
 40
0.2
  9
$TRACEWID
 40
0.05
  9
$TEXTSTYLE
  7
Standard
  9
$CLAYER
  8
0
  9
$CELTYPE
  6
CONTINUOUS
  9
$CECOLOR
 62
   256
  9
$CELTSCALE
 40
1.0
  9
$DISPSILH
 70
     0
  9
$DIMSCALE
 40
1.0
  9
$DIMASZ
 40
0.18
  9
$DIMEXO
 40
0.0625
  9
$DIMDLI
 40
0.38
  9
$DIMRND
 40
0.0
  9
$DIMDLE
 40
0.0
  9
$DIMEXE
 40
0.18
  9
$DIMTP
 40
0.0
  9
$DIMTM
 40
0.0
  9
$DIMTXT
 40
0.18
  9
$DIMCEN
 40
0.09
  9
$DIMTSZ
 40
0.0
  9
$DIMTOL
 70
     0
  9
$DIMLIM
 70
     0
  9
$DIMTIH
 70
     1
  9
$DIMTOH
 70
     1
  9
$DIMSE1
 70
     0
  9
$DIMSE2
 70
     0
  9
$DIMTAD
 70
     0
  9
$DIMZIN
 70
     0
  9
$DIMBLK
  1

  9
$DIMASO
 70
     1
  9
$DIMSHO
 70
     1
  9
$DIMPOST
  1

  9
$DIMAPOST
  1

  9
$DIMALT
 70
     0
  9
$DIMALTD
 70
     2
  9
$DIMALTF
 40
25.4
  9
$DIMLFAC
 40
1.0
  9
$DIMTOFL
 70
     0
  9
$DIMTVP
 40
0.0
  9
$DIMTIX
 70
     0
  9
$DIMSOXD
 70
     0
  9
$DIMSAH
 70
     0
  9
$DIMBLK1
  1

  9
$DIMBLK2
  1

  9
$DIMSTYLE
  2
Standard
  9
$DIMCLRD
 70
     0
  9
$DIMCLRE
 70
     0
  9
$DIMCLRT
 70
     0
  9
$DIMTFAC
 40
1.0
  9
$DIMGAP
 40
0.09
  9
$DIMJUST
 70
     0
  9
$DIMSD1
 70
     0
  9
$DIMSD2
 70
     0
  9
$DIMTOLJ
 70
     1
  9
$DIMTZIN
 70
     0
  9
$DIMALTZ
 70
     0
  9
$DIMALTTZ
 70
     0
  9
$DIMUPT
 70
     0
  9
$DIMDEC
 70
     4
  9
$DIMTDEC
 70
     4
  9
$DIMALTU
 70
     2
  9
$DIMALTTD
 70
     2
  9
$DIMTXSTY
  7
Standard
  9
$DIMAUNIT
 70
     0
  9
$DIMADEC
 70
     0
  9
$DIMALTRND
 40
0.0
  9
$DIMAZIN
 70
     0
  9
$DIMDSEP
 70
     0
  9
$DIMATFIT
 70
     3
  9
$DIMFRAC
 70
     0
  9
$DIMLDRBLK
  1

  9
$DIMLUNIT
 70
     2
  9
$DIMLWD
 70
     0
  9
$DIMLWE
 70
     0
  9
$DIMTMOVE
 70
     0
  9
$LUNITS
 70
     2
  9
$LUPREC
 70
     4
  9
$SKETCHINC
 40
0.1
  9
$FILLETRAD
 40
0.0
  9
$AUNITS
 70
     0
  9
$AUPREC
 70
     0
  9
$MENU
  1
acad
  9
$ELEVATION
 40
0.0
  9
$PELEVATION
 40
0.0
  9
$THICKNESS
 40
0.0
  9
$LIMCHECK
 70
     0
  9
$CHAMFERA
 40
0.0
  9
$CHAMFERB
 40
0.0
  9
$CHAMFERC
 40
0.0
  9
$CHAMFERD
 40
0.0
  9
$SKPOLY
 70
     0
  9
$TDCREATE
 40
2455681.652664664
  9
$TDUCREATE
 40
2455681.569331332
  9
$TDUPDATE
 40
2455681.653392998
  9
$TDUUPDATE
 40
2455681.570059665
  9
$TDINDWG
 40
0.0007514815
  9
$TDUSRTIMER
 40
0.0007514815
  9
$USRTIMER
 70
     1
  9
$ANGBASE
 50
0.0
  9
$ANGDIR
 70
     0
  9
$PDMODE
 70
     0
  9
$PDSIZE
 40
0.0
  9
$PLINEWID
 40
0.0
  9
$SPLFRAME
 70
     0
  9
$SPLINETYPE
 70
     6
  9
$SPLINESEGS
 70
     8
  9
$HANDSEED
  5
450
  9
$SURFTAB1
 70
     6
  9
$SURFTAB2
 70
     6
  9
$SURFTYPE
 70
     6
  9
$SURFU
 70
     6
  9
$SURFV
 70
     6
  9
$UCSBASE
  2

  9
$UCSNAME
  2

  9
$UCSORG
 10
0.0
 20
0.0
 30
0.0
  9
$UCSXDIR
 10
1.0
 20
0.0
 30
0.0
  9
$UCSYDIR
 10
0.0
 20
1.0
 30
0.0
  9
$UCSORTHOREF
  2

  9
$UCSORTHOVIEW
 70
     0
  9
$UCSORGTOP
 10
0.0
 20
0.0
 30
0.0
  9
$UCSORGBOTTOM
 10
0.0
 20
0.0
 30
0.0
  9
$UCSORGLEFT
 10
0.0
 20
0.0
 30
0.0
  9
$UCSORGRIGHT
 10
0.0
 20
0.0
 30
0.0
  9
$UCSORGFRONT
 10
0.0
 20
0.0
 30
0.0
  9
$UCSORGBACK
 10
0.0
 20
0.0
 30
0.0
  9
$PUCSBASE
  2

  9
$PUCSNAME
  2

  9
$PUCSORG
 10
0.0
 20
0.0
 30
0.0
  9
$PUCSXDIR
 10
1.0
 20
0.0
 30
0.0
  9
$PUCSYDIR
 10
0.0
 20
1.0
 30
0.0
  9
$PUCSORTHOREF
  2

  9
$PUCSORTHOVIEW
 70
     0
  9
$PUCSORGTOP
 10
0.0
 20
0.0
 30
0.0
  9
$PUCSORGBOTTOM
 10
0.0
 20
0.0
 30
0.0
  9
$PUCSORGLEFT
 10
0.0
 20
0.0
 30
0.0
  9
$PUCSORGRIGHT
 10
0.0
 20
0.0
 30
0.0
  9
$PUCSORGFRONT
 10
0.0
 20
0.0
 30
0.0
  9
$PUCSORGBACK
 10
0.0
 20
0.0
 30
0.0
  9
$USERI1
 70
     0
  9
$USERI2
 70
     0
  9
$USERI3
 70
     0
  9
$USERI4
 70
     0
  9
$USERI5
 70
     0
  9
$USERR1
 40
0.0
  9
$USERR2
 40
0.0
  9
$USERR3
 40
0.0
  9
$USERR4
 40
0.0
  9
$USERR5
 40
0.0
  9
$WORLDVIEW
 70
     1
  9
$SHADEDGE
 70
     3
  9
$SHADEDIF
 70
    70
  9
$TILEMODE
 70
     1
  9
$MAXACTVP
 70
    16
  9
$PINSBASE
 10
0.0
 20
0.0
 30
0.0
  9
$PLIMCHECK
 70
     0
  9
$PEXTMIN
 10
1.000000000000000E+20
 20
1.000000000000000E+20
 30
1.000000000000000E+20
  9
$PEXTMAX
 10
-1.000000000000000E+20
 20
-1.000000000000000E+20
 30
-1.000000000000000E+20
  9
$PLIMMIN
 10
0.0
 20
0.0
  9
$PLIMMAX
 10
12.0
 20
9.0
  9
$UNITMODE
 70
     0
  9
$VISRETAIN
 70
     0
  9
$PLINEGEN
 70
     1
  9
$PSLTSCALE
 70
     0
  9
$TREEDEPTH
 70
  3020
  9
$CMLSTYLE
  2
Standard
  9
$CMLJUST
 70
     0
  9
$CMLSCALE
 40
1.0
  9
$PROXYGRAPHICS
 70
     0
  9
$MEASUREMENT
 70
     0
  9
$CELWEIGHT
370
     0
  9
$ENDCAPS
280
     0
  9
$JOINSTYLE
280
     0
  9
$LWDISPLAY
290
     0
  9
$INSUNITS
 70
     0
  9
$HYPERLINKBASE
  1

  9
$STYLESHEET
  1

  9
$XEDIT
290
     1
  9
$CEPSNTYPE
380
     0
  9
$PSTYLEMODE
290
     1
  9
$FINGERPRINTGUID
  2

  9
$VERSIONGUID
  2
{7030B133-162E-409F-AAB0-418F7FE9F93D}
  9
$EXTNAMES
290
     1
  9
$PSVPSCALE
 40
0.0
  9
$OLESTARTUP
290
     0
  0
ENDSEC
  0
SECTION
  2
CLASSES
  0
CLASS
  1
IMAGE
  2
AcDbRasterImage
  3
ISM
 90
    34943
280
     0
281
     1
  0
CLASS
  1
DICTIONARYVAR
  2
AcDbDictionaryVar
  3
ObjectDBX Classes
 90
        0
280
     0
281
     0
  0
CLASS
  1
RASTERVARIABLES
  2
AcDbRasterVariables
  3
ISM
 90
    32768
280
     0
281
     0
  0
CLASS
  1
IMAGEDEF
  2
AcDbRasterImageDef
  3
ISM
 90
    32768
280
     0
281
     0
  0
CLASS
  1
IMAGEDEF_REACTOR
  2
AcDbRasterImageDefReactor
  3
ISM
 90
    32769
280
     0
281
     0
  0
CLASS
  1
IDBUFFER
  2
AcDbIdBuffer
  3
ObjectDBX Classes
 90
    32768
280
     0
281
     0
  0
CLASS
  1
SPATIAL_FILTER
  2
AcDbSpatialFilter
  3
ObjectDBX Classes
 90
    32768
280
     0
281
     0
  0
CLASS
  1
SORTENTSTABLE
  2
AcDbSortentsTable
  3
ObjectDBX Classes
 90
    32768
280
     0
281
     0
  0
CLASS
  1
LAYER_INDEX
  2
AcDbLayerIndex
  3
ObjectDBX Classes
 90
    32768
280
     0
281
     0
  0
CLASS
  1
SPATIAL_INDEX
  2
AcDbSpatialIndex
  3
ObjectDBX Classes
 90
    32768
280
     0
281
     0
  0
CLASS
  1
OBJECT_PTR
  2
CAseDLPNTableRecord
  3
ASE-LPNTableRecord
 90
    32769
280
     0
281
     0
  0
CLASS
  1
LAYOUT
  2
AcDbLayout
  3
ObjectDBX Classes
 90
        0
280
     0
281
     0
  0
CLASS
  1
PLOTSETTINGS
  2
AcDbPlotSettings
  3
ObjectDBX Classes
 90
    32768
280
     0
281
     0
  0
CLASS
  1
ACDBDICTIONARYWDFLT
  2
AcDbDictionaryWithDefault
  3
ObjectDBX Classes
 90
        0
280
     0
281
     0
  0
CLASS
  1
ACDBPLACEHOLDER
  2
AcDbPlaceHolder
  3
ObjectDBX Classes
 90
        0
280
     0
281
     0
  0
CLASS
  1
VBA_PROJECT
  2
AcDbVbaProject
  3
acad
 90
    32768
280
     0
281
     0
  0
CLASS
  1
WIPEOUT
  2
AcDbWipeout
  3
"WipeOut|Product Desc: Object Enabler for WipeOut entity                        |Company: Autodesk, Inc.                        |WEB Address: www.autodesk.com"
 90
    34943
280
     0
281
     1
  0
CLASS
  1
WIPEOUTVARIABLES
  2
AcDbWipeoutVariables
  3
"WipeOut|Product Desc:     WipeOut Dbx Application|Company:          Autodesk, Inc.|WEB Address:      www.autodesk.com"
 90
        0
280
     0
281
     0
  0
CLASS
  1
RTEXT
  2
RText
  3
RText|AutoCAD Express Tool|expresstools@autodesk.com
 90
    32768
280
     0
281
     1
  0
CLASS
  1
ARCALIGNEDTEXT
  2
AcDbArcAlignedText
  3
ATEXT|AutoCAD Express Tool|expresstools@autodesk.com
 90
    32768
280
     0
281
     1
  0
CLASS
  1
MATERIAL
  2
AcDbMaterial
  3
ObjectDBX Classes
 90
     1153
280
     0
281
     0
  0
CLASS
  1
VISUALSTYLE
  2
AcDbVisualStyle
  3
ObjectDBX Classes
 90
     4095
280
     0
281
     0
  0
CLASS
  1
SCALE
  2
AcDbScale
  3
ObjectDBX Classes
 90
     1153
280
     0
281
     0
  0
CLASS
  1
TABLESTYLE
  2
AcDbTableStyle
  3
ObjectDBX Classes
 90
     4095
280
     0
281
     0
  0
CLASS
  1
MLEADERSTYLE
  2
AcDbMLeaderStyle
  3
ACDB_MLEADERSTYLE_CLASS
 90
     4095
280
     0
281
     0
  0
CLASS
  1
CELLSTYLEMAP
  2
AcDbCellStyleMap
  3
ObjectDBX Classes
 90
     1152
280
     0
281
     0
  0
ENDSEC
  0
SECTION
  2
TABLES
  0
TABLE
  2
VPORT
  5
7
330
0
100
AcDbSymbolTable
 70
     1
  0
VPORT
  5
15
330
7
100
AcDbSymbolTableRecord
100
AcDbViewportTableRecord
  2
*ACTIVE
 70
     0
 10
0.0
 20
0.0
 11
1.0
 21
1.0
 12
207.1909124189189
 22
148.5
 13
0.0
 23
0.0
 14
1.0
 24
1.0
 15
0.0
 25
0.0
 16
0.0
 26
0.0
 36
1.0
 17
0.0
 27
0.0
 37
0.0
 40
297.0
 41
2.292383292383292
 42
50.0
 43
0.0
 44
0.0
 50
0.0
 51
0.0
 71
     0
 72
   100
 73
     1
 74
     1
 75
     0
 76
     0
 77
     0
 78
     0
281
     0
 65
     0
110
0.0
120
0.0
130
0.0
111
1.0
121
0.0
131
0.0
112
0.0
122
1.0
132
0.0
 79
     0
146
0.0
  0
ENDTAB
  0
TABLE
  2
LTYPE
  5
4
330
0
100
AcDbSymbolTable
 70
     5
  0
LTYPE
  5
11
330
4
100
AcDbSymbolTableRecord
100
AcDbLinetypeTableRecord
  2
ByBlock
 70
     0
  3

 72
    65
 73
     0
 40
0.0
  0
LTYPE
  5
12
330
4
100
AcDbSymbolTableRecord
100
AcDbLinetypeTableRecord
  2
ByLayer
 70
     0
  3

 72
    65
 73
     0
 40
0.0
  0
LTYPE
  5
13
330
4
100
AcDbSymbolTableRecord
100
AcDbLinetypeTableRecord
  2
CONTINUOUS
 70
     0
  3
Solid line
 72
    65
 73
     0
 40
0.0
  0
LTYPE
  5
28
330
4
100
AcDbSymbolTableRecord
100
AcDbLinetypeTableRecord
  2
HIDDEN2
 70
     0
  3
_ _ _ _ _ _ _ _ _ _ _ _ _ _ _ _ _ _ _ _ _ _ _ _
 72
    65
 73
     2
 40
0.1875
 49
0.125
 74
     0
 49
-0.0625
 74
     0
  0
LTYPE
  5
29
330
4
100
AcDbSymbolTableRecord
100
AcDbLinetypeTableRecord
  2
CENTER2
 70
     0
  3
___ _ ___ _ ___ _ ___ _ ___ _ ___ _ ___ _ ___ _
 72
    65
 73
     4
 40
1.125
 49
0.75
 74
     0
 49
-0.125
 74
     0
 49
0.125
 74
     0
 49
-0.125
 74
     0
  0
LTYPE
  5
2A
330
4
100
AcDbSymbolTableRecord
100
AcDbLinetypeTableRecord
  2
PHANTOM2
 70
     0
  3
___ _ _ ___ _ _ ___ _ _ ___ _ _ ___ _ _ ___ _ _
 72
    65
 73
     6
 40
1.25
 49
0.625
 74
     0
 49
-0.125
 74
     0
 49
0.125
 74
     0
 49
-0.125
 74
     0
 49
0.125
 74
     0
 49
-0.125
 74
     0
  0
LTYPE
  5
2B
330
4
100
AcDbSymbolTableRecord
100
AcDbLinetypeTableRecord
  2
DOT2
 70
     0
  3
...............................................
 72
    65
 73
     2
 40
0.125
 49
0.0
 74
     0
 49
-0.125
 74
     0
  0
ENDTAB
  0
TABLE
  2
LAYER
  5
2
330
0
100
AcDbSymbolTable
 70
    16
  0
LAYER
  5
14
102
{ACAD_XDICTIONARY
360
3EB
102
}
330
2
100
AcDbSymbolTableRecord
100
AcDbLayerTableRecord
  2
0
 70
     0
 62
     7
  6
CONTINUOUS
370
    -3
390
1D
  0
LAYER
  5
2D
102
{ACAD_XDICTIONARY
360
3ED
102
}
330
2
100
AcDbSymbolTableRecord
100
AcDbLayerTableRecord
  2
1
 70
     0
 62
     7
  6
CONTINUOUS
370
    -3
390
1D
  0
LAYER
  5
2F
102
{ACAD_XDICTIONARY
360
3EF
102
}
330
2
100
AcDbSymbolTableRecord
100
AcDbLayerTableRecord
  2
11
 70
     0
 62
     7
  6
CONTINUOUS
370
    -3
390
1D
  0
LAYER
  5
31
102
{ACAD_XDICTIONARY
360
3F1
102
}
330
2
100
AcDbSymbolTableRecord
100
AcDbLayerTableRecord
  2
7
 70
     0
 62
     7
  6
CONTINUOUS
370
    -3
390
1D
  0
LAYER
  5
33
102
{ACAD_XDICTIONARY
360
3F3
102
}
330
2
100
AcDbSymbolTableRecord
100
AcDbLayerTableRecord
  2
AM_0
 70
     0
 62
     7
  6
CONTINUOUS
370
    -3
390
1D
  0
LAYER
  5
35
102
{ACAD_XDICTIONARY
360
3F5
102
}
330
2
100
AcDbSymbolTableRecord
100
AcDbLayerTableRecord
  2
AM_1
 70
     0
 62
     7
  6
CONTINUOUS
370
    -3
390
1D
  0
LAYER
  5
37
102
{ACAD_XDICTIONARY
360
3F7
102
}
330
2
100
AcDbSymbolTableRecord
100
AcDbLayerTableRecord
  2
AM_5
 70
     0
 62
     7
  6
CONTINUOUS
370
    -3
390
1D
  0
LAYER
  5
39
102
{ACAD_XDICTIONARY
360
3F9
102
}
330
2
100
AcDbSymbolTableRecord
100
AcDbLayerTableRecord
  2
AM_6
 70
     0
 62
     7
  6
CONTINUOUS
370
    -3
390
1D
  0
LAYER
  5
3B
102
{ACAD_XDICTIONARY
360
3FB
102
}
330
2
100
AcDbSymbolTableRecord
100
AcDbLayerTableRecord
  2
AM_7
 70
     0
 62
     7
  6
CONTINUOUS
370
    -3
390
1D
  0
LAYER
  5
3D
102
{ACAD_XDICTIONARY
360
3FD
102
}
330
2
100
AcDbSymbolTableRecord
100
AcDbLayerTableRecord
  2
AM_8
 70
     0
 62
     7
  6
CONTINUOUS
370
    -3
390
1D
  0
LAYER
  5
3F
102
{ACAD_XDICTIONARY
360
3FF
102
}
330
2
100
AcDbSymbolTableRecord
100
AcDbLayerTableRecord
  2
AM_BOR
 70
     0
 62
     7
  6
CONTINUOUS
370
    -3
390
1D
  0
LAYER
  5
41
102
{ACAD_XDICTIONARY
360
401
102
}
330
2
100
AcDbSymbolTableRecord
100
AcDbLayerTableRecord
  2
DEFAULT
 70
     0
 62
     7
  6
CONTINUOUS
370
    -3
390
1D
  0
LAYER
  5
43
330
2
100
AcDbSymbolTableRecord
100
AcDbLayerTableRecord
  2
DEFPOINTS
 70
     0
 62
     7
  6
CONTINUOUS
290
     0
370
    -3
390
1D
  0
LAYER
  5
45
102
{ACAD_XDICTIONARY
360
403
102
}
330
2
100
AcDbSymbolTableRecord
100
AcDbLayerTableRecord
  2
PREDEFINITO
 70
     0
 62
     7
  6
CONTINUOUS
370
    -3
390
1D
  0
LAYER
  5
47
102
{ACAD_XDICTIONARY
360
405
102
}
330
2
100
AcDbSymbolTableRecord
100
AcDbLayerTableRecord
  2
PROFILATI-IN-ALLUMINIO
 70
     0
 62
     7
  6
CONTINUOUS
370
    -3
390
1D
  0
LAYER
  5
49
102
{ACAD_XDICTIONARY
360
407
102
}
330
2
100
AcDbSymbolTableRecord
100
AcDbLayerTableRecord
  2
TESTI
 70
     0
 62
     7
  6
CONTINUOUS
370
    -3
390
1D
  0
ENDTAB
  0
TABLE
  2
STYLE
  5
3
330
0
100
AcDbSymbolTable
 70
     5
  0
STYLE
  5
17
330
3
100
AcDbSymbolTableRecord
100
AcDbTextStyleTableRecord
  2
Standard
 70
     0
 40
0.0
 41
1.0
 50
0.0
 71
     0
 42
0.2
  3
txt
  4

  0
STYLE
  5
5C
330
3
100
AcDbSymbolTableRecord
100
AcDbTextStyleTableRecord
  2
seansi_ttf
 70
     0
 40
0.0
 41
1.0
 50
0.0
 71
     0
 42
0.2
  3
seansi.ttf
  4

1001
ACAD
1000
Stencil
1071
        2
  0
STYLE
  5
5E
330
3
100
AcDbSymbolTableRecord
100
AcDbTextStyleTableRecord
  2
arial_ttf
 70
     0
 40
0.0
 41
1.0
 50
0.0
 71
     0
 42
0.2
  3
arial.ttf
  4

1001
ACAD
1000
Arial
1071
        2
  0
STYLE
  5
B8
330
3
100
AcDbSymbolTableRecord
100
AcDbTextStyleTableRecord
  2
seiso_ttfB
 70
     0
 40
0.0
 41
1.0
 50
0.0
 71
     0
 42
0.2
  3
seiso.ttf
  4

1001
ACAD
1000
Solid Edge ISO
1071
 33554434
  0
STYLE
  5
BF
330
3
100
AcDbSymbolTableRecord
100
AcDbTextStyleTableRecord
  2
seiso_ttf
 70
     0
 40
0.0
 41
1.0
 50
0.0
 71
     0
 42
0.2
  3
seiso.ttf
  4

1001
ACAD
1000
Solid Edge ISO
1071
        2
  0
ENDTAB
  0
TABLE
  2
VIEW
  5
5
330
0
100
AcDbSymbolTable
 70
     0
  0
ENDTAB
  0
TABLE
  2
UCS
  5
6
330
0
100
AcDbSymbolTable
 70
     0
  0
ENDTAB
  0
TABLE
  2
APPID
  5
8
330
0
100
AcDbSymbolTable
 70
     3
  0
APPID
  5
16
330
8
100
AcDbSymbolTableRecord
100
AcDbRegAppTableRecord
  2
ACAD
 70
     0
  0
APPID
  5
40B
330
8
100
AcDbSymbolTableRecord
100
AcDbRegAppTableRecord
  2
DCO15
 70
     0
  0
APPID
  5
44F
330
8
100
AcDbSymbolTableRecord
100
AcDbRegAppTableRecord
  2
ACAD_MLEADERVER
 70
     0
  0
ENDTAB
  0
TABLE
  2
DIMSTYLE
  5
9
330
0
100
AcDbSymbolTable
 70
     2
100
AcDbDimStyleTable
 71
     0
  0
DIMSTYLE
105
18
330
9
100
AcDbSymbolTableRecord
100
AcDbDimStyleTableRecord
  2
Standard
 70
     0
289
     0
340
17
  0
DIMSTYLE
105
C0
330
9
100
AcDbSymbolTableRecord
100
AcDbDimStyleTableRecord
  2
ISO
 70
     0
 41
3.0
 42
0.0
 44
1.5
 73
     0
 74
     0
 77
     1
 78
     8
140
3.0
141
1.5
147
1.5
172
     1
173
     1
176
   136
177
   136
178
   136
271
     0
272
     0
278
    44
284
     8
340
BF
343
BE
344
BE
  0
ENDTAB
  0
TABLE
  2
BLOCK_RECORD
  5
1
330
0
100
AcDbSymbolTable
 70
    41
  0
BLOCK_RECORD
  5
A
330
1
100
AcDbSymbolTableRecord
100
AcDbBlockTableRecord
  2
*MODEL_SPACE
340
20
  0
BLOCK_RECORD
  5
B
330
1
100
AcDbSymbolTableRecord
100
AcDbBlockTableRecord
  2
*PAPER_SPACE
340
21
  0
BLOCK_RECORD
  5
BE
330
1
100
AcDbSymbolTableRecord
100
AcDbBlockTableRecord
  2
_SE_FILLED
340
0
102
{BLKREFS
331
337
331
338
331
340
331
341
331
34B
331
34C
331
354
331
355
331
35D
331
35E
331
368
331
369
331
371
331
372
331
37A
331
37B
331
385
331
386
331
38F
331
390
331
398
331
399
331
3A1
331
3A2
331
3AA
331
3AB
331
3B3
331
3B4
331
3BC
331
3BD
331
3C5
331
3C6
331
3CE
331
3CF
331
3D9
331
3DA
331
3E4
331
3E5
102
}
  0
BLOCK_RECORD
  5
C1
330
1
100
AcDbSymbolTableRecord
100
AcDbBlockTableRecord
  2
SE0
340
0
102
{BLKREFS
331
132
102
}
  0
BLOCK_RECORD
  5
C4
330
1
100
AcDbSymbolTableRecord
100
AcDbBlockTableRecord
  2
DMBLK1026
340
0
  0
BLOCK_RECORD
  5
C6
330
1
100
AcDbSymbolTableRecord
100
AcDbBlockTableRecord
  2
SE1
340
0
  0
BLOCK_RECORD
  5
C9
330
1
100
AcDbSymbolTableRecord
100
AcDbBlockTableRecord
  2
DMBLK1027
340
0
  0
BLOCK_RECORD
  5
CB
330
1
100
AcDbSymbolTableRecord
100
AcDbBlockTableRecord
  2
SE2
340
0
  0
BLOCK_RECORD
  5
CE
330
1
100
AcDbSymbolTableRecord
100
AcDbBlockTableRecord
  2
DMBLK1028
340
0
  0
BLOCK_RECORD
  5
D0
330
1
100
AcDbSymbolTableRecord
100
AcDbBlockTableRecord
  2
SE3
340
0
  0
BLOCK_RECORD
  5
D3
330
1
100
AcDbSymbolTableRecord
100
AcDbBlockTableRecord
  2
DMBLK1029
340
0
  0
BLOCK_RECORD
  5
D5
330
1
100
AcDbSymbolTableRecord
100
AcDbBlockTableRecord
  2
SE4
340
0
  0
BLOCK_RECORD
  5
D8
330
1
100
AcDbSymbolTableRecord
100
AcDbBlockTableRecord
  2
DMBLK1030
340
0
  0
BLOCK_RECORD
  5
DA
330
1
100
AcDbSymbolTableRecord
100
AcDbBlockTableRecord
  2
SE5
340
0
  0
BLOCK_RECORD
  5
DD
330
1
100
AcDbSymbolTableRecord
100
AcDbBlockTableRecord
  2
DMBLK1031
340
0
  0
BLOCK_RECORD
  5
DF
330
1
100
AcDbSymbolTableRecord
100
AcDbBlockTableRecord
  2
SE6
340
0
  0
BLOCK_RECORD
  5
E2
330
1
100
AcDbSymbolTableRecord
100
AcDbBlockTableRecord
  2
DMBLK1032
340
0
  0
BLOCK_RECORD
  5
E4
330
1
100
AcDbSymbolTableRecord
100
AcDbBlockTableRecord
  2
SE7
340
0
  0
BLOCK_RECORD
  5
E7
330
1
100
AcDbSymbolTableRecord
100
AcDbBlockTableRecord
  2
DMBLK1033
340
0
  0
BLOCK_RECORD
  5
E9
330
1
100
AcDbSymbolTableRecord
100
AcDbBlockTableRecord
  2
SE8
340
0
  0
BLOCK_RECORD
  5
EC
330
1
100
AcDbSymbolTableRecord
100
AcDbBlockTableRecord
  2
DMBLK1034
340
0
  0
BLOCK_RECORD
  5
EE
330
1
100
AcDbSymbolTableRecord
100
AcDbBlockTableRecord
  2
SE9
340
0
  0
BLOCK_RECORD
  5
F1
330
1
100
AcDbSymbolTableRecord
100
AcDbBlockTableRecord
  2
DMBLK1035
340
0
  0
BLOCK_RECORD
  5
F3
330
1
100
AcDbSymbolTableRecord
100
AcDbBlockTableRecord
  2
SE10
340
0
  0
BLOCK_RECORD
  5
F6
330
1
100
AcDbSymbolTableRecord
100
AcDbBlockTableRecord
  2
DMBLK1036
340
0
  0
BLOCK_RECORD
  5
F8
330
1
100
AcDbSymbolTableRecord
100
AcDbBlockTableRecord
  2
SE11
340
0
  0
BLOCK_RECORD
  5
FB
330
1
100
AcDbSymbolTableRecord
100
AcDbBlockTableRecord
  2
DMBLK1037
340
0
  0
BLOCK_RECORD
  5
FD
330
1
100
AcDbSymbolTableRecord
100
AcDbBlockTableRecord
  2
SE12
340
0
  0
BLOCK_RECORD
  5
100
330
1
100
AcDbSymbolTableRecord
100
AcDbBlockTableRecord
  2
DMBLK1038
340
0
  0
BLOCK_RECORD
  5
102
330
1
100
AcDbSymbolTableRecord
100
AcDbBlockTableRecord
  2
SE13
340
0
  0
BLOCK_RECORD
  5
105
330
1
100
AcDbSymbolTableRecord
100
AcDbBlockTableRecord
  2
DMBLK1039
340
0
  0
BLOCK_RECORD
  5
107
330
1
100
AcDbSymbolTableRecord
100
AcDbBlockTableRecord
  2
SE14
340
0
  0
BLOCK_RECORD
  5
10A
330
1
100
AcDbSymbolTableRecord
100
AcDbBlockTableRecord
  2
DMBLK1040
340
0
  0
BLOCK_RECORD
  5
10C
330
1
100
AcDbSymbolTableRecord
100
AcDbBlockTableRecord
  2
SE15
340
0
  0
BLOCK_RECORD
  5
10F
330
1
100
AcDbSymbolTableRecord
100
AcDbBlockTableRecord
  2
DMBLK1041
340
0
  0
BLOCK_RECORD
  5
111
330
1
100
AcDbSymbolTableRecord
100
AcDbBlockTableRecord
  2
SE16
340
0
  0
BLOCK_RECORD
  5
114
330
1
100
AcDbSymbolTableRecord
100
AcDbBlockTableRecord
  2
DMBLK1042
340
0
  0
BLOCK_RECORD
  5
116
330
1
100
AcDbSymbolTableRecord
100
AcDbBlockTableRecord
  2
SE17
340
0
  0
BLOCK_RECORD
  5
119
330
1
100
AcDbSymbolTableRecord
100
AcDbBlockTableRecord
  2
DMBLK1043
340
0
  0
BLOCK_RECORD
  5
11B
330
1
100
AcDbSymbolTableRecord
100
AcDbBlockTableRecord
  2
SE18
340
0
  0
BLOCK_RECORD
  5
11E
330
1
100
AcDbSymbolTableRecord
100
AcDbBlockTableRecord
  2
DMBLK1044
340
0
  0
BLOCK_RECORD
  5
120
330
1
100
AcDbSymbolTableRecord
100
AcDbBlockTableRecord
  2
SE19
340
0
  0
BLOCK_RECORD
  5
123
330
1
100
AcDbSymbolTableRecord
100
AcDbBlockTableRecord
  2
DMBLK1045
340
0
  0
ENDTAB
  0
ENDSEC
  0
SECTION
  2
BLOCKS
  0
BLOCK
  5
D
330
A
100
AcDbEntity
  8
0
100
AcDbBlockBegin
  2
*MODEL_SPACE
 70
     0
 10
0.0
 20
0.0
 30
0.0
  3
*MODEL_SPACE
  1

  0
ENDBLK
  5
E
330
A
100
AcDbEntity
  8
0
100
AcDbBlockEnd
  0
BLOCK
  5
F
330
B
100
AcDbEntity
 67
     1
  8
0
100
AcDbBlockBegin
  2
*PAPER_SPACE
 70
     0
 10
0.0
 20
0.0
 30
0.0
  3
*PAPER_SPACE
  1

  0
ENDBLK
  5
10
330
B
100
AcDbEntity
 67
     1
  8
0
100
AcDbBlockEnd
  0
BLOCK
  5
125
330
BE
100
AcDbEntity
  8
DEFAULT
  6
Continuous
 62
   136
370
     0
100
AcDbBlockBegin
  2
_SE_FILLED
 70
     0
 10
0.0
 20
0.0
 30
0.0
  3
_SE_FILLED
  1

  0
SOLID
  5
126
330
BE
100
AcDbEntity
  8
DEFAULT
  6
Continuous
 62
   136
370
     0
100
AcDbTrace
 10
0.0
 20
0.0
 30
0.0
 11
-1.0
 21
-0.1665
 31
0.0
 12
-1.0
 22
0.1665
 32
0.0
 13
0.0
 23
0.0
 33
0.0
  0
LINE
  5
127
330
BE
100
AcDbEntity
  8
DEFAULT
  6
Continuous
 62
   136
370
     0
100
AcDbLine
 10
0.0
 20
0.0
 30
0.0
 11
-1.0
 21
0.0
 31
0.0
  0
ENDBLK
  5
128
330
BE
100
AcDbEntity
  8
DEFAULT
  6
Continuous
 62
   136
370
     0
100
AcDbBlockEnd
  0
BLOCK
  5
129
330
C1
100
AcDbEntity
  8
DEFAULT
 62
     1
 48
0.0
370
     0
100
AcDbBlockBegin
  2
SE0
 70
     0
 10
0.0
 20
0.0
 30
0.0
  3
SE0
  1

  0
HATCH
  5
12A
330
C1
100
AcDbEntity
  8
DEFAULT
  6
Continuous
 62
   136
100
AcDbHatch
 10
0.0
 20
0.0
 30
0.0
210
0.0
220
0.0
230
1.0
  2
SOLID
 70
     1
 71
     0
 91
        1
 92
        1
 93
        3
 72
     1
 10
81.47983595164657
 20
190.8628042880553
 11
78.47983592556953
 21
190.3628042837091
 72
     1
 10
78.47983592556953
 20
190.3628042837091
 11
81.47983595164657
 21
189.862804279363
 72
     1
 10
81.47983595164657
 20
189.862804279363
 11
81.47983595164657
 21
190.8628042880553
 97
        0
 75
     0
 76
     1
 98
        1
 10
0.0
 20
0.0
  0
HATCH
  5
12B
330
C1
100
AcDbEntity
  8
DEFAULT
  6
Continuous
 62
   136
100
AcDbHatch
 10
0.0
 20
0.0
 30
0.0
210
0.0
220
0.0
230
1.0
  2
SOLID
 70
     1
 71
     0
 91
        1
 92
        1
 93
        3
 72
     1
 10
95.76593116276708
 20
190.8628042880553
 11
98.76593118884411
 21
190.3628042837091
 72
     1
 10
98.76593118884411
 20
190.3628042837091
 11
95.76593116276708
 21
189.862804279363
 72
     1
 10
95.76593116276708
 20
189.862804279363
 11
95.76593116276708
 21
190.8628042880553
 97
        0
 75
     0
 76
     1
 98
        1
 10
0.0
 20
0.0
  0
LINE
  5
12C
330
C1
100
AcDbEntity
  8
DEFAULT
  6
Continuous
 62
   136
370
     0
100
AcDbLine
 10
78.47983592556953
 20
181.634862621636
 30
0.0
 11
78.47983592556953
 21
191.8628042967477
 31
0.0
  0
LINE
  5
12D
330
C1
100
AcDbEntity
  8
DEFAULT
  6
Continuous
 62
   136
370
     0
100
AcDbLine
 10
98.76593118884411
 20
172.4107043449562
 30
0.0
 11
98.76593118884411
 21
191.8628042967477
 31
0.0
  0
LINE
  5
12E
330
C1
100
AcDbEntity
  8
DEFAULT
  6
Continuous
 62
   136
370
     0
100
AcDbLine
 10
78.47983592556953
 20
190.3628042837091
 30
0.0
 11
98.76593032287598
 21
190.3628042837091
 31
0.0
  0
TEXT
  5
12F
330
C1
100
AcDbEntity
  8
DEFAULT
  6
Continuous
 62
   136
370
     0
100
AcDbText
 10
86.81606494240456
 20
191.1128042837091
 30
0.0
 40
3.0
  1
20
  7
seiso_ttf
 11
86.81606494240456
 21
194.1128042837092
 31
0.0
100
AcDbText
 73
     3
  0
ENDBLK
  5
24C
330
C1
100
AcDbEntity
  8
0
370
     0
100
AcDbBlockEnd
  0
BLOCK
  5
24D
330
C4
100
AcDbEntity
  8
0
370
     0
100
AcDbBlockBegin
  2
DMBLK1026
 70
     0
 10
0.0
 20
0.0
 30
0.0
  3
DMBLK1026
  1

  0
INSERT
  5
132
330
C4
100
AcDbEntity
  8
DEFAULT
 62
     0
 48
0.0
370
     0
100
AcDbBlockReference
  2
SE0
 10
0.0
 20
0.0
 30
0.0
  0
ENDBLK
  5
133
330
C4
100
AcDbEntity
  8
DEFAULT
 62
     0
 48
0.0
370
     0
100
AcDbBlockEnd
  0
BLOCK
  5
134
330
C6
100
AcDbEntity
  8
DEFAULT
 62
     1
 48
0.0
370
     0
100
AcDbBlockBegin
  2
SE1
 70
     0
 10
0.0
 20
0.0
 30
0.0
  3
SE1
  1

  0
HATCH
  5
135
330
C6
100
AcDbEntity
  8
DEFAULT
  6
Continuous
 62
   136
100
AcDbHatch
 10
0.0
 20
0.0
 30
0.0
210
0.0
220
0.0
230
1.0
  2
SOLID
 70
     1
 71
     0
 91
        1
 92
        1
 93
        3
 72
     1
 10
101.7659312149211
 20
190.8628037917843
 11
98.76593118884411
 21
190.3628037874381
 72
     1
 10
98.76593118884411
 20
190.3628037874381
 11
101.7659312149211
 21
189.862803783092
 72
     1
 10
101.7659312149211
 20
189.862803783092
 11
101.7659312149211
 21
190.8628037917843
 97
        0
 75
     0
 76
     1
 98
        1
 10
0.0
 20
0.0
  0
HATCH
  5
136
330
C6
100
AcDbEntity
  8
DEFAULT
  6
Continuous
 62
   136
100
AcDbHatch
 10
0.0
 20
0.0
 30
0.0
210
0.0
220
0.0
230
1.0
  2
SOLID
 70
     1
 71
     0
 91
        1
 92
        1
 93
        3
 72
     1
 10
115.4798251094929
 20
190.8628037917843
 11
118.4798251355699
 21
190.3628037874381
 72
     1
 10
118.4798251355699
 20
190.3628037874381
 11
115.4798251094929
 21
189.862803783092
 72
     1
 10
115.4798251094929
 20
189.862803783092
 11
115.4798251094929
 21
190.8628037917843
 97
        0
 75
     0
 76
     1
 98
        1
 10
0.0
 20
0.0
  0
LINE
  5
137
330
C6
100
AcDbEntity
  8
DEFAULT
  6
Continuous
 62
   136
370
     0
100
AcDbLine
 10
98.76593118884411
 20
172.4107043449562
 30
0.0
 11
98.76593118884411
 21
191.8628038004767
 31
0.0
  0
LINE
  5
138
330
C6
100
AcDbEntity
  8
DEFAULT
  6
Continuous
 62
   136
370
     0
100
AcDbLine
 10
118.4798251355699
 20
173.634864397636
 30
0.0
 11
118.4798251355699
 21
191.8628038004767
 31
0.0
  0
LINE
  5
139
330
C6
100
AcDbEntity
  8
DEFAULT
  6
Continuous
 62
   136
370
     0
100
AcDbLine
 10
98.76593118884411
 20
190.3628037874381
 30
0.0
 11
118.4798247215971
 21
190.3628037874381
 31
0.0
  0
TEXT
  5
13A
330
C6
100
AcDbEntity
  8
DEFAULT
  6
Continuous
 62
   136
370
     0
100
AcDbText
 10
106.8160597734024
 20
191.1128037874382
 30
0.0
 40
3.0
  1
20
  7
seiso_ttf
 11
106.8160597734024
 21
194.1128037874381
 31
0.0
100
AcDbText
 73
     3
  0
ENDBLK
  5
24E
330
C6
100
AcDbEntity
  8
0
370
     0
100
AcDbBlockEnd
  0
BLOCK
  5
24F
330
C9
100
AcDbEntity
  8
0
370
     0
100
AcDbBlockBegin
  2
DMBLK1027
 70
     0
 10
0.0
 20
0.0
 30
0.0
  3
DMBLK1027
  1

  0
LINE
  5
334
330
C9
100
AcDbEntity
  8
DEFAULT
  6
Continuous
 62
   136
370
    -2
100
AcDbLine
 10
98.76593118884411
 20
172.4107043449562
 30
0.0
 11
98.76593118884411
 21
191.8628037874381
 31
0.0
  0
LINE
  5
335
330
C9
100
AcDbEntity
  8
DEFAULT
  6
Continuous
 62
   136
370
    -2
100
AcDbLine
 10
118.4798251355699
 20
173.634864397636
 30
0.0
 11
118.4798251355699
 21
191.8628037874381
 31
0.0
  0
LINE
  5
336
330
C9
100
AcDbEntity
  8
DEFAULT
  6
Continuous
 62
   136
370
    -2
100
AcDbLine
 10
101.7659311888441
 20
190.3628037874381
 30
0.0
 11
115.47982513557
 21
190.3628037874381
 31
0.0
  0
INSERT
  5
337
330
C9
100
AcDbEntity
  8
DEFAULT
  6
Continuous
 62
   136
370
    -2
100
AcDbBlockReference
  2
_SE_FILLED
 10
98.76593118884411
 20
190.3628037874381
 30
0.0
 41
3.0
 42
3.0
 43
3.0
 50
180.0
  0
INSERT
  5
338
330
C9
100
AcDbEntity
  8
DEFAULT
  6
Continuous
 62
   136
370
    -2
100
AcDbBlockReference
  2
_SE_FILLED
 10
118.4798251355699
 20
190.3628037874381
 30
0.0
 41
3.0
 42
3.0
 43
3.0
  0
MTEXT
  5
339
330
C9
100
AcDbEntity
  8
DEFAULT
  6
Continuous
 62
   136
370
     0
100
AcDbMText
 10
108.6228779552206
 20
193.3628037874381
 30
0.0
 40
3.0
 41
0.0
 71
     5
 72
     1
  1
\A1;\A1;20
  7
seiso_ttf
 73
     1
 44
1.0
1001
ACAD
1000
MTEXTBEGIN
1070
    73
1070
     1
1070
    44
1040
1.0
1070
    74
1070
     0
1000
MTEXTEND
  0
POINT
  5
33A
330
C9
100
AcDbEntity
  8
DEFPOINTS
  6
Continuous
 62
     0
370
     0
100
AcDbPoint
 10
98.76593118884411
 20
172.4107043449562
 30
0.0
  0
POINT
  5
33B
330
C9
100
AcDbEntity
  8
DEFPOINTS
  6
Continuous
 62
     0
370
     0
100
AcDbPoint
 10
118.4798251355699
 20
173.634864397636
 30
0.0
  0
POINT
  5
33C
330
C9
100
AcDbEntity
  8
DEFPOINTS
  6
Continuous
 62
     0
370
     0
100
AcDbPoint
 10
118.4798251355699
 20
190.3628037874381
 30
0.0
  0
ENDBLK
  5
13E
330
C9
100
AcDbEntity
  8
DEFAULT
 62
     0
 48
0.0
370
     0
100
AcDbBlockEnd
  0
BLOCK
  5
13F
330
CB
100
AcDbEntity
  8
DEFAULT
 62
     1
 48
0.0
370
     0
100
AcDbBlockBegin
  2
SE2
 70
     0
 10
0.0
 20
0.0
 30
0.0
  3
SE2
  1

  0
HATCH
  5
140
330
CB
100
AcDbEntity
  8
DEFAULT
  6
Continuous
 62
   136
100
AcDbHatch
 10
0.0
 20
0.0
 30
0.0
210
0.0
220
0.0
230
1.0
  2
SOLID
 70
     1
 71
     0
 91
        1
 92
        1
 93
        3
 72
     1
 10
81.47983595164657
 20
196.2199747655648
 11
78.47983592556953
 21
195.7199747612186
 72
     1
 10
78.47983592556953
 20
195.7199747612186
 11
81.47983595164657
 21
195.2199747568725
 72
     1
 10
81.47983595164657
 20
195.2199747568725
 11
81.47983595164657
 21
196.2199747655648
 97
        0
 75
     0
 76
     1
 98
        1
 10
0.0
 20
0.0
  0
HATCH
  5
141
330
CB
100
AcDbEntity
  8
DEFAULT
  6
Continuous
 62
   136
100
AcDbHatch
 10
0.0
 20
0.0
 30
0.0
210
0.0
220
0.0
230
1.0
  2
SOLID
 70
     1
 71
     0
 91
        1
 92
        1
 93
        3
 72
     1
 10
115.4798251094929
 20
196.2199747655648
 11
118.4798251355699
 21
195.7199747612186
 72
     1
 10
118.4798251355699
 20
195.7199747612186
 11
115.4798251094929
 21
195.2199747568725
 72
     1
 10
115.4798251094929
 20
195.2199747568725
 11
115.4798251094929
 21
196.2199747655648
 97
        0
 75
     0
 76
     1
 98
        1
 10
0.0
 20
0.0
  0
LINE
  5
142
330
CB
100
AcDbEntity
  8
DEFAULT
  6
Continuous
 62
   136
370
     0
100
AcDbLine
 10
78.47983592556953
 20
181.634862621636
 30
0.0
 11
78.47983592556953
 21
197.2199747742572
 31
0.0
  0
LINE
  5
143
330
CB
100
AcDbEntity
  8
DEFAULT
  6
Continuous
 62
   136
370
     0
100
AcDbLine
 10
118.4798251355699
 20
173.634864397636
 30
0.0
 11
118.4798251355699
 21
197.2199747742572
 31
0.0
  0
LINE
  5
144
330
CB
100
AcDbEntity
  8
DEFAULT
  6
Continuous
 62
   136
370
     0
100
AcDbLine
 10
78.47983592556953
 20
195.7199747612186
 30
0.0
 11
118.4798238556289
 21
195.7199747612186
 31
0.0
  0
TEXT
  5
145
330
CB
100
AcDbEntity
  8
DEFAULT
  6
Continuous
 62
   136
370
     0
100
AcDbText
 10
96.70710261787199
 20
196.4699747612186
 30
0.0
 40
3.0
  1
40
  7
seiso_ttf
 11
96.70710261787199
 21
199.4699747612187
 31
0.0
100
AcDbText
 73
     3
  0
ENDBLK
  5
250
330
CB
100
AcDbEntity
  8
0
370
     0
100
AcDbBlockEnd
  0
BLOCK
  5
251
330
CE
100
AcDbEntity
  8
0
370
     0
100
AcDbBlockBegin
  2
DMBLK1028
 70
     0
 10
0.0
 20
0.0
 30
0.0
  3
DMBLK1028
  1

  0
LINE
  5
33D
330
CE
100
AcDbEntity
  8
DEFAULT
  6
Continuous
 62
   136
370
    -2
100
AcDbLine
 10
78.47983592556953
 20
181.634862621636
 30
0.0
 11
78.47983592556953
 21
197.2199747612187
 31
0.0
  0
LINE
  5
33E
330
CE
100
AcDbEntity
  8
DEFAULT
  6
Continuous
 62
   136
370
    -2
100
AcDbLine
 10
118.4798251355699
 20
173.634864397636
 30
0.0
 11
118.4798251355699
 21
197.2199747612187
 31
0.0
  0
LINE
  5
33F
330
CE
100
AcDbEntity
  8
DEFAULT
  6
Continuous
 62
   136
370
    -2
100
AcDbLine
 10
81.47983592556952
 20
195.7199747612186
 30
0.0
 11
115.47982513557
 21
195.7199747612186
 31
0.0
  0
INSERT
  5
340
330
CE
100
AcDbEntity
  8
DEFAULT
  6
Continuous
 62
   136
370
    -2
100
AcDbBlockReference
  2
_SE_FILLED
 10
78.47983592556953
 20
195.7199747612186
 30
0.0
 41
3.0
 42
3.0
 43
3.0
 50
180.0
  0
INSERT
  5
341
330
CE
100
AcDbEntity
  8
DEFAULT
  6
Continuous
 62
   136
370
    -2
100
AcDbBlockReference
  2
_SE_FILLED
 10
118.4798251355699
 20
195.7199747612186
 30
0.0
 41
3.0
 42
3.0
 43
3.0
  0
MTEXT
  5
342
330
CE
100
AcDbEntity
  8
DEFAULT
  6
Continuous
 62
   136
370
     0
100
AcDbMText
 10
98.47982989059925
 20
198.7199747612186
 30
0.0
 40
3.0
 41
0.0
 71
     5
 72
     1
  1
\A1;\A1;40
  7
seiso_ttf
 73
     1
 44
1.0
1001
ACAD
1000
MTEXTBEGIN
1070
    73
1070
     1
1070
    44
1040
1.0
1070
    74
1070
     0
1000
MTEXTEND
  0
POINT
  5
343
330
CE
100
AcDbEntity
  8
DEFPOINTS
  6
Continuous
 62
     0
370
     0
100
AcDbPoint
 10
78.47983592556953
 20
181.634862621636
 30
0.0
  0
POINT
  5
344
330
CE
100
AcDbEntity
  8
DEFPOINTS
  6
Continuous
 62
     0
370
     0
100
AcDbPoint
 10
118.4798251355699
 20
173.634864397636
 30
0.0
  0
POINT
  5
345
330
CE
100
AcDbEntity
  8
DEFPOINTS
  6
Continuous
 62
     0
370
     0
100
AcDbPoint
 10
118.4798251355699
 20
195.7199747612186
 30
0.0
  0
ENDBLK
  5
149
330
CE
100
AcDbEntity
  8
DEFAULT
 62
     0
 48
0.0
370
     0
100
AcDbBlockEnd
  0
BLOCK
  5
14A
330
D0
100
AcDbEntity
  8
DEFAULT
 62
     1
 48
0.0
370
     0
100
AcDbBlockBegin
  2
SE3
 70
     0
 10
0.0
 20
0.0
 30
0.0
  3
SE3
  1

  0
HATCH
  5
14B
330
D0
100
AcDbEntity
  8
DEFAULT
  6
Continuous
 62
   136
100
AcDbHatch
 10
0.0
 20
0.0
 30
0.0
210
0.0
220
0.0
230
1.0
  2
SOLID
 70
     1
 71
     0
 91
        1
 92
        1
 93
        3
 72
     1
 10
115.4798251094929
 20
196.2199741275767
 11
118.4798251355699
 21
195.7199741232305
 72
     1
 10
118.4798251355699
 20
195.7199741232305
 11
115.4798251094929
 21
195.2199741188844
 72
     1
 10
115.4798251094929
 20
195.2199741188844
 11
115.4798251094929
 21
196.2199741275767
 97
        0
 75
     0
 76
     1
 98
        1
 10
0.0
 20
0.0
  0
HATCH
  5
14C
330
D0
100
AcDbEntity
  8
DEFAULT
  6
Continuous
 62
   136
100
AcDbHatch
 10
0.0
 20
0.0
 30
0.0
210
0.0
220
0.0
230
1.0
  2
SOLID
 70
     1
 71
     0
 91
        1
 92
        1
 93
        3
 72
     1
 10
124.479824495647
 20
196.2199741275767
 11
121.4798244695699
 21
195.7199741232305
 72
     1
 10
121.4798244695699
 20
195.7199741232305
 11
124.479824495647
 21
195.2199741188844
 72
     1
 10
124.479824495647
 20
195.2199741188844
 11
124.479824495647
 21
196.2199741275767
 97
        0
 75
     0
 76
     1
 98
        1
 10
0.0
 20
0.0
  0
LINE
  5
14D
330
D0
100
AcDbEntity
  8
DEFAULT
  6
Continuous
 62
   136
370
     0
100
AcDbLine
 10
118.4798251355699
 20
173.634864397636
 30
0.0
 11
118.4798251355699
 21
197.2199741362691
 31
0.0
  0
LINE
  5
14E
330
D0
100
AcDbEntity
  8
DEFAULT
  6
Continuous
 62
   136
370
     0
100
AcDbLine
 10
121.4798244695699
 20
184.134862066636
 30
0.0
 11
121.4798244695699
 21
197.2199741362691
 31
0.0
  0
LINE
  5
14F
330
D0
100
AcDbEntity
  8
DEFAULT
  6
Continuous
 62
   136
370
     0
100
AcDbLine
 10
112.4798250834159
 20
195.7199741232305
 30
0.0
 11
129.8858565727881
 21
195.7199741232305
 31
0.0
  0
TEXT
  5
150
330
D0
100
AcDbEntity
  8
DEFAULT
  6
Continuous
 62
   136
370
     0
100
AcDbText
 10
127.2676749746016
 20
196.4699741232306
 30
0.0
 40
3.0
  1
3
  7
seiso_ttf
 11
127.2676749746016
 21
199.4699741232306
 31
0.0
100
AcDbText
 73
     3
  0
ENDBLK
  5
252
330
D0
100
AcDbEntity
  8
0
370
     0
100
AcDbBlockEnd
  0
BLOCK
  5
253
330
D3
100
AcDbEntity
  8
0
370
     0
100
AcDbBlockBegin
  2
DMBLK1029
 70
     0
 10
0.0
 20
0.0
 30
0.0
  3
DMBLK1029
  1

  0
LINE
  5
346
330
D3
100
AcDbEntity
  8
DEFAULT
  6
Continuous
 62
   136
370
    -2
100
AcDbLine
 10
118.4798251355699
 20
173.634864397636
 30
0.0
 11
118.4798251355699
 21
197.2199741232305
 31
0.0
  0
LINE
  5
347
330
D3
100
AcDbEntity
  8
DEFAULT
  6
Continuous
 62
   136
370
    -2
100
AcDbLine
 10
121.4798244695699
 20
184.134862066636
 30
0.0
 11
121.4798244695699
 21
197.2199741232305
 31
0.0
  0
LINE
  5
348
330
D3
100
AcDbEntity
  8
DEFAULT
  6
Continuous
 62
   136
370
    -2
100
AcDbLine
 10
115.47982513557
 20
195.7199741232305
 30
0.0
 11
112.4798251355699
 21
195.7199741232305
 31
0.0
  0
LINE
  5
349
330
D3
100
AcDbEntity
  8
DEFAULT
  6
Continuous
 62
   136
370
    -2
100
AcDbLine
 10
124.4798244695699
 20
195.7199741232305
 30
0.0
 11
132.4798244695699
 21
195.7199741232305
 31
0.0
  0
LINE
  5
34A
330
D3
100
AcDbEntity
  8
DEFAULT
  6
Continuous
 62
   136
370
    -2
100
AcDbLine
 10
118.4798251355699
 20
195.7199741232305
 30
0.0
 11
121.4798244695699
 21
195.7199741232305
 31
0.0
  0
INSERT
  5
34B
330
D3
100
AcDbEntity
  8
DEFAULT
  6
Continuous
 62
   136
370
    -2
100
AcDbBlockReference
  2
_SE_FILLED
 10
118.4798251355699
 20
195.7199741232305
 30
0.0
 41
3.0
 42
3.0
 43
3.0
  0
INSERT
  5
34C
330
D3
100
AcDbEntity
  8
DEFAULT
  6
Continuous
 62
   136
370
    -2
100
AcDbBlockReference
  2
_SE_FILLED
 10
121.4798244695699
 20
195.7199741232305
 30
0.0
 41
3.0
 42
3.0
 43
3.0
 50
180.0
  0
MTEXT
  5
34D
330
D3
100
AcDbEntity
  8
DEFAULT
  6
Continuous
 62
   136
370
     0
100
AcDbMText
 10
129.9798244695699
 20
198.7199741232305
 30
0.0
 40
3.0
 41
0.0
 71
     5
 72
     1
  1
\A1;\A1;3
  7
seiso_ttf
 73
     1
 44
1.0
1001
ACAD
1000
MTEXTBEGIN
1070
    73
1070
     1
1070
    44
1040
1.0
1070
    74
1070
     0
1000
MTEXTEND
  0
POINT
  5
34E
330
D3
100
AcDbEntity
  8
DEFPOINTS
  6
Continuous
 62
     0
370
     0
100
AcDbPoint
 10
118.4798251355699
 20
173.634864397636
 30
0.0
  0
POINT
  5
34F
330
D3
100
AcDbEntity
  8
DEFPOINTS
  6
Continuous
 62
     0
370
     0
100
AcDbPoint
 10
121.4798244695699
 20
184.134862066636
 30
0.0
  0
POINT
  5
350
330
D3
100
AcDbEntity
  8
DEFPOINTS
  6
Continuous
 62
     0
370
     0
100
AcDbPoint
 10
121.4798244695699
 20
195.7199741232305
 30
0.0
  0
ENDBLK
  5
154
330
D3
100
AcDbEntity
  8
DEFAULT
 62
     0
 48
0.0
370
     0
100
AcDbBlockEnd
  0
BLOCK
  5
155
330
D5
100
AcDbEntity
  8
DEFAULT
 62
     1
 48
0.0
370
     0
100
AcDbBlockBegin
  2
SE4
 70
     0
 10
0.0
 20
0.0
 30
0.0
  3
SE4
  1

  0
HATCH
  5
156
330
D5
100
AcDbEntity
  8
DEFAULT
  6
Continuous
 62
   136
100
AcDbHatch
 10
0.0
 20
0.0
 30
0.0
210
0.0
220
0.0
230
1.0
  2
SOLID
 70
     1
 71
     0
 91
        1
 92
        1
 93
        3
 72
     1
 10
81.47983595164657
 20
200.8953239861984
 11
78.47983592556953
 21
200.3953239818522
 72
     1
 10
78.47983592556953
 20
200.3953239818522
 11
81.47983595164657
 21
199.895323977506
 72
     1
 10
81.47983595164657
 20
199.895323977506
 11
81.47983595164657
 21
200.8953239861984
 97
        0
 75
     0
 76
     1
 98
        1
 10
0.0
 20
0.0
  0
HATCH
  5
157
330
D5
100
AcDbEntity
  8
DEFAULT
  6
Continuous
 62
   136
100
AcDbHatch
 10
0.0
 20
0.0
 30
0.0
210
0.0
220
0.0
230
1.0
  2
SOLID
 70
     1
 71
     0
 91
        1
 92
        1
 93
        3
 72
     1
 10
118.4798244434929
 20
200.8953239861984
 11
121.4798244695699
 21
200.3953239818522
 72
     1
 10
121.4798244695699
 20
200.3953239818522
 11
118.4798244434929
 21
199.895323977506
 72
     1
 10
118.4798244434929
 20
199.895323977506
 11
118.4798244434929
 21
200.8953239861984
 97
        0
 75
     0
 76
     1
 98
        1
 10
0.0
 20
0.0
  0
LINE
  5
158
330
D5
100
AcDbEntity
  8
DEFAULT
  6
Continuous
 62
   136
370
     0
100
AcDbLine
 10
78.47983592556953
 20
181.634862621636
 30
0.0
 11
78.47983592556953
 21
201.8953239948907
 31
0.0
  0
LINE
  5
159
330
D5
100
AcDbEntity
  8
DEFAULT
  6
Continuous
 62
   136
370
     0
100
AcDbLine
 10
121.4798244695699
 20
184.134862066636
 30
0.0
 11
121.4798244695699
 21
201.8953239948907
 31
0.0
  0
LINE
  5
15A
330
D5
100
AcDbEntity
  8
DEFAULT
  6
Continuous
 62
   136
370
     0
100
AcDbLine
 10
78.47983592556953
 20
200.3953239818522
 30
0.0
 11
121.4798262100124
 21
200.3953239818522
 31
0.0
  0
TEXT
  5
15B
330
D5
100
AcDbEntity
  8
DEFAULT
  6
Continuous
 62
   136
370
     0
100
AcDbText
 10
98.30937652233643
 20
201.1453239818522
 30
0.0
 40
3.0
  1
43
  7
seiso_ttf
 11
98.30937652233643
 21
204.1453239818522
 31
0.0
100
AcDbText
 73
     3
  0
ENDBLK
  5
254
330
D5
100
AcDbEntity
  8
0
370
     0
100
AcDbBlockEnd
  0
BLOCK
  5
255
330
D8
100
AcDbEntity
  8
0
370
     0
100
AcDbBlockBegin
  2
DMBLK1030
 70
     0
 10
0.0
 20
0.0
 30
0.0
  3
DMBLK1030
  1

  0
LINE
  5
351
330
D8
100
AcDbEntity
  8
DEFAULT
  6
Continuous
 62
   136
370
    -2
100
AcDbLine
 10
78.47983592556953
 20
181.634862621636
 30
0.0
 11
78.47983592556953
 21
201.8953239818522
 31
0.0
  0
LINE
  5
352
330
D8
100
AcDbEntity
  8
DEFAULT
  6
Continuous
 62
   136
370
    -2
100
AcDbLine
 10
121.4798244695699
 20
184.134862066636
 30
0.0
 11
121.4798244695699
 21
201.8953239818522
 31
0.0
  0
LINE
  5
353
330
D8
100
AcDbEntity
  8
DEFAULT
  6
Continuous
 62
   136
370
    -2
100
AcDbLine
 10
81.47983592556952
 20
200.3953239818522
 30
0.0
 11
118.4798244695699
 21
200.3953239818522
 31
0.0
  0
INSERT
  5
354
330
D8
100
AcDbEntity
  8
DEFAULT
  6
Continuous
 62
   136
370
    -2
100
AcDbBlockReference
  2
_SE_FILLED
 10
78.47983592556953
 20
200.3953239818522
 30
0.0
 41
3.0
 42
3.0
 43
3.0
 50
180.0
  0
INSERT
  5
355
330
D8
100
AcDbEntity
  8
DEFAULT
  6
Continuous
 62
   136
370
    -2
100
AcDbBlockReference
  2
_SE_FILLED
 10
121.4798244695699
 20
200.3953239818522
 30
0.0
 41
3.0
 42
3.0
 43
3.0
  0
MTEXT
  5
356
330
D8
100
AcDbEntity
  8
DEFAULT
  6
Continuous
 62
   136
370
     0
100
AcDbMText
 10
99.97983106779098
 20
203.3953239818522
 30
0.0
 40
3.0
 41
0.0
 71
     5
 72
     1
  1
\A1;\A1;43
  7
seiso_ttf
 73
     1
 44
1.0
1001
ACAD
1000
MTEXTBEGIN
1070
    73
1070
     1
1070
    44
1040
1.0
1070
    74
1070
     0
1000
MTEXTEND
  0
POINT
  5
357
330
D8
100
AcDbEntity
  8
DEFPOINTS
  6
Continuous
 62
     0
370
     0
100
AcDbPoint
 10
78.47983592556953
 20
181.634862621636
 30
0.0
  0
POINT
  5
358
330
D8
100
AcDbEntity
  8
DEFPOINTS
  6
Continuous
 62
     0
370
     0
100
AcDbPoint
 10
121.4798244695699
 20
184.134862066636
 30
0.0
  0
POINT
  5
359
330
D8
100
AcDbEntity
  8
DEFPOINTS
  6
Continuous
 62
     0
370
     0
100
AcDbPoint
 10
121.4798244695699
 20
200.3953239818522
 30
0.0
  0
ENDBLK
  5
15F
330
D8
100
AcDbEntity
  8
DEFAULT
 62
     0
 48
0.0
370
     0
100
AcDbBlockEnd
  0
BLOCK
  5
160
330
DA
100
AcDbEntity
  8
DEFAULT
 62
     1
 48
0.0
370
     0
100
AcDbBlockBegin
  2
SE5
 70
     0
 10
0.0
 20
0.0
 30
0.0
  3
SE5
  1

  0
HATCH
  5
161
330
DA
100
AcDbEntity
  8
DEFAULT
  6
Continuous
 62
   136
100
AcDbHatch
 10
0.0
 20
0.0
 30
0.0
210
0.0
220
0.0
230
1.0
  2
SOLID
 70
     1
 71
     0
 91
        1
 92
        1
 93
        3
 72
     1
 10
131.0034109884264
 20
153.634868145559
 11
130.5034109840802
 21
156.6348681716361
 72
     1
 10
130.5034109840802
 20
156.6348681716361
 11
130.0034109797341
 21
153.634868145559
 72
     1
 10
130.0034109797341
 20
153.634868145559
 11
131.0034109884264
 21
153.634868145559
 97
        0
 75
     0
 76
     1
 98
        1
 10
0.0
 20
0.0
  0
HATCH
  5
162
330
DA
100
AcDbEntity
  8
DEFAULT
  6
Continuous
 62
   136
100
AcDbHatch
 10
0.0
 20
0.0
 30
0.0
210
0.0
220
0.0
230
1.0
  2
SOLID
 70
     1
 71
     0
 91
        1
 92
        1
 93
        3
 72
     1
 10
131.0034109884264
 20
147.1348709727131
 11
130.5034109840802
 21
144.1348709466361
 72
     1
 10
130.5034109840802
 20
144.1348709466361
 11
130.0034109797341
 21
147.1348709727131
 72
     1
 10
130.0034109797341
 20
147.1348709727131
 11
131.0034109884264
 21
147.1348709727131
 97
        0
 75
     0
 76
     1
 98
        1
 10
0.0
 20
0.0
  0
LINE
  5
163
330
DA
100
AcDbEntity
  8
DEFAULT
  6
Continuous
 62
   136
370
     0
100
AcDbLine
 10
118.4798251355699
 20
156.6348681716361
 30
0.0
 11
132.0034109971187
 21
156.6348681716361
 31
0.0
  0
LINE
  5
164
330
DA
100
AcDbEntity
  8
DEFAULT
  6
Continuous
 62
   136
370
     0
100
AcDbLine
 10
118.4798251355699
 20
144.1348709466361
 30
0.0
 11
132.0034109971187
 21
144.1348709466361
 31
0.0
  0
LINE
  5
165
330
DA
100
AcDbEntity
  8
DEFAULT
  6
Continuous
 62
   136
370
     0
100
AcDbLine
 10
130.5034109840802
 20
156.6348681716361
 30
0.0
 11
130.5034109840802
 21
144.1348707793393
 31
0.0
  0
TEXT
  5
166
330
DA
100
AcDbEntity
  8
DEFAULT
  6
Continuous
 62
   136
370
     0
100
AcDbText
 10
129.7534109840802
 20
147.7257785663967
 30
0.0
 40
3.0
  1
12,5
 50
90.0
  7
seiso_ttf
 11
126.7534109840802
 21
147.7257785663967
 31
0.0
100
AcDbText
 73
     3
  0
ENDBLK
  5
256
330
DA
100
AcDbEntity
  8
0
370
     0
100
AcDbBlockEnd
  0
BLOCK
  5
257
330
DD
100
AcDbEntity
  8
0
370
     0
100
AcDbBlockBegin
  2
DMBLK1031
 70
     0
 10
0.0
 20
0.0
 30
0.0
  3
DMBLK1031
  1

  0
LINE
  5
35A
330
DD
100
AcDbEntity
  8
DEFAULT
  6
Continuous
 62
   136
370
    -2
100
AcDbLine
 10
118.4798251355699
 20
156.6348681716361
 30
0.0
 11
132.0034109840803
 21
156.6348681716361
 31
0.0
  0
LINE
  5
35B
330
DD
100
AcDbEntity
  8
DEFAULT
  6
Continuous
 62
   136
370
    -2
100
AcDbLine
 10
118.4798251355699
 20
144.1348709466361
 30
0.0
 11
132.0034109840803
 21
144.1348709466361
 31
0.0
  0
LINE
  5
35C
330
DD
100
AcDbEntity
  8
DEFAULT
  6
Continuous
 62
   136
370
    -2
100
AcDbLine
 10
130.5034109840803
 20
153.634868171636
 30
0.0
 11
130.5034109840803
 21
147.1348709466361
 31
0.0
  0
INSERT
  5
35D
330
DD
100
AcDbEntity
  8
DEFAULT
  6
Continuous
 62
   136
370
    -2
100
AcDbBlockReference
  2
_SE_FILLED
 10
130.5034109840803
 20
156.6348681716361
 30
0.0
 41
3.0
 42
3.0
 43
3.0
 50
90.0
  0
INSERT
  5
35E
330
DD
100
AcDbEntity
  8
DEFAULT
  6
Continuous
 62
   136
370
    -2
100
AcDbBlockReference
  2
_SE_FILLED
 10
130.5034109840803
 20
144.1348709466361
 30
0.0
 41
3.0
 42
3.0
 43
3.0
 50
270.0
  0
MTEXT
  5
35F
330
DD
100
AcDbEntity
  8
DEFAULT
  6
Continuous
 62
   136
370
     0
100
AcDbMText
 10
127.217696698366
 20
150.3848694754877
 30
0.0
 40
3.0
 41
0.0
 71
     5
 72
     1
  1
\A1;\A1;12,5
  7
seiso_ttf
 11
0.0000000000000001
 21
1.0
 31
0.0
 73
     1
 44
1.0
1001
ACAD
1000
MTEXTBEGIN
1070
    73
1070
     1
1070
    44
1040
1.0
1070
    74
1070
     0
1000
MTEXTEND
  0
POINT
  5
360
330
DD
100
AcDbEntity
  8
DEFPOINTS
  6
Continuous
 62
     0
370
     0
100
AcDbPoint
 10
118.4798251355699
 20
156.6348681716361
 30
0.0
  0
POINT
  5
361
330
DD
100
AcDbEntity
  8
DEFPOINTS
  6
Continuous
 62
     0
370
     0
100
AcDbPoint
 10
118.4798251355699
 20
144.1348709466361
 30
0.0
  0
POINT
  5
362
330
DD
100
AcDbEntity
  8
DEFPOINTS
  6
Continuous
 62
     0
370
     0
100
AcDbPoint
 10
130.5034109840803
 20
144.1348709466361
 30
0.0
  0
ENDBLK
  5
16A
330
DD
100
AcDbEntity
  8
DEFAULT
 62
     0
 48
0.0
370
     0
100
AcDbBlockEnd
  0
BLOCK
  5
16B
330
DF
100
AcDbEntity
  8
DEFAULT
 62
     1
 48
0.0
370
     0
100
AcDbBlockBegin
  2
SE6
 70
     0
 10
0.0
 20
0.0
 30
0.0
  3
SE6
  1

  0
HATCH
  5
16C
330
DF
100
AcDbEntity
  8
DEFAULT
  6
Continuous
 62
   136
100
AcDbHatch
 10
0.0
 20
0.0
 30
0.0
210
0.0
220
0.0
230
1.0
  2
SOLID
 70
     1
 71
     0
 91
        1
 92
        1
 93
        3
 72
     1
 10
121.479825161647
 20
126.2585840333057
 11
118.4798251355699
 21
126.7585840376519
 72
     1
 10
118.4798251355699
 20
126.7585840376519
 11
121.479825161647
 21
127.258584041998
 72
     1
 10
121.479825161647
 20
127.258584041998
 11
121.479825161647
 21
126.2585840333057
 97
        0
 75
     0
 76
     1
 98
        1
 10
0.0
 20
0.0
  0
HATCH
  5
16D
330
DF
100
AcDbEntity
  8
DEFAULT
  6
Continuous
 62
   136
100
AcDbHatch
 10
0.0
 20
0.0
 30
0.0
210
0.0
220
0.0
230
1.0
  2
SOLID
 70
     1
 71
     0
 91
        1
 92
        1
 93
        3
 72
     1
 10
110.4798262194929
 20
126.2585840333057
 11
113.4798262455699
 21
126.7585840376519
 72
     1
 10
113.4798262455699
 20
126.7585840376519
 11
110.4798262194929
 21
127.258584041998
 72
     1
 10
110.4798262194929
 20
127.258584041998
 11
110.4798262194929
 21
126.2585840333057
 97
        0
 75
     0
 76
     1
 98
        1
 10
0.0
 20
0.0
  0
LINE
  5
16E
330
DF
100
AcDbEntity
  8
DEFAULT
  6
Continuous
 62
   136
370
     0
100
AcDbLine
 10
118.4798251355699
 20
144.1348709466361
 30
0.0
 11
118.4798251355699
 21
125.2585840246134
 31
0.0
  0
LINE
  5
16F
330
DF
100
AcDbEntity
  8
DEFAULT
  6
Continuous
 62
   136
370
     0
100
AcDbLine
 10
113.4798262455699
 20
157.134868060636
 30
0.0
 11
113.4798262455699
 21
125.2585840246133
 31
0.0
  0
LINE
  5
170
330
DF
100
AcDbEntity
  8
DEFAULT
  6
Continuous
 62
   136
370
     0
100
AcDbLine
 10
124.479825187724
 20
126.7585840376519
 30
0.0
 11
107.4798261264972
 21
126.7585840376519
 31
0.0
  0
TEXT
  5
171
330
DF
100
AcDbEntity
  8
DEFAULT
  6
Continuous
 62
   136
370
     0
100
AcDbText
 10
115.1275529298378
 20
127.5085840376519
 30
0.0
 40
3.0
  1
5
  7
seiso_ttf
 11
115.1275529298378
 21
130.5085840376519
 31
0.0
100
AcDbText
 73
     3
  0
ENDBLK
  5
258
330
DF
100
AcDbEntity
  8
0
370
     0
100
AcDbBlockEnd
  0
BLOCK
  5
259
330
E2
100
AcDbEntity
  8
0
370
     0
100
AcDbBlockBegin
  2
DMBLK1032
 70
     0
 10
0.0
 20
0.0
 30
0.0
  3
DMBLK1032
  1

  0
LINE
  5
363
330
E2
100
AcDbEntity
  8
DEFAULT
  6
Continuous
 62
   136
370
    -2
100
AcDbLine
 10
118.4798251355699
 20
144.1348709466361
 30
0.0
 11
118.4798251355699
 21
125.2585840376519
 31
0.0
  0
LINE
  5
364
330
E2
100
AcDbEntity
  8
DEFAULT
  6
Continuous
 62
   136
370
    -2
100
AcDbLine
 10
113.4798262455699
 20
157.134868060636
 30
0.0
 11
113.4798262455699
 21
125.2585840376519
 31
0.0
  0
LINE
  5
365
330
E2
100
AcDbEntity
  8
DEFAULT
  6
Continuous
 62
   136
370
    -2
100
AcDbLine
 10
121.4798251355699
 20
126.7585840376519
 30
0.0
 11
124.4798251355699
 21
126.7585840376519
 31
0.0
  0
LINE
  5
366
330
E2
100
AcDbEntity
  8
DEFAULT
  6
Continuous
 62
   136
370
    -2
100
AcDbLine
 10
110.47982624557
 20
126.7585840376519
 30
0.0
 11
107.4798262455699
 21
126.7585840376519
 31
0.0
  0
LINE
  5
367
330
E2
100
AcDbEntity
  8
DEFAULT
  6
Continuous
 62
   136
370
    -2
100
AcDbLine
 10
118.4798251355699
 20
126.7585840376519
 30
0.0
 11
113.4798262455699
 21
126.7585840376519
 31
0.0
  0
INSERT
  5
368
330
E2
100
AcDbEntity
  8
DEFAULT
  6
Continuous
 62
   136
370
    -2
100
AcDbBlockReference
  2
_SE_FILLED
 10
118.4798251355699
 20
126.7585840376519
 30
0.0
 41
3.0
 42
3.0
 43
3.0
 50
180.0
  0
INSERT
  5
369
330
E2
100
AcDbEntity
  8
DEFAULT
  6
Continuous
 62
   136
370
    -2
100
AcDbBlockReference
  2
_SE_FILLED
 10
113.4798262455699
 20
126.7585840376519
 30
0.0
 41
3.0
 42
3.0
 43
3.0
  0
MTEXT
  5
36A
330
E2
100
AcDbEntity
  8
DEFAULT
  6
Continuous
 62
   136
370
     0
100
AcDbMText
 10
115.9798256905699
 20
129.7585840376519
 30
0.0
 40
3.0
 41
0.0
 71
     5
 72
     1
  1
\A1;\A1;5
  7
seiso_ttf
 73
     1
 44
1.0
1001
ACAD
1000
MTEXTBEGIN
1070
    73
1070
     1
1070
    44
1040
1.0
1070
    74
1070
     0
1000
MTEXTEND
  0
POINT
  5
36B
330
E2
100
AcDbEntity
  8
DEFPOINTS
  6
Continuous
 62
     0
370
     0
100
AcDbPoint
 10
118.4798251355699
 20
144.1348709466361
 30
0.0
  0
POINT
  5
36C
330
E2
100
AcDbEntity
  8
DEFPOINTS
  6
Continuous
 62
     0
370
     0
100
AcDbPoint
 10
113.4798262455699
 20
157.134868060636
 30
0.0
  0
POINT
  5
36D
330
E2
100
AcDbEntity
  8
DEFPOINTS
  6
Continuous
 62
     0
370
     0
100
AcDbPoint
 10
113.4798262455699
 20
126.7585840376519
 30
0.0
  0
ENDBLK
  5
175
330
E2
100
AcDbEntity
  8
DEFAULT
 62
     0
 48
0.0
370
     0
100
AcDbBlockEnd
  0
BLOCK
  5
176
330
E4
100
AcDbEntity
  8
DEFAULT
 62
     1
 48
0.0
370
     0
100
AcDbBlockBegin
  2
SE7
 70
     0
 10
0.0
 20
0.0
 30
0.0
  3
SE7
  1

  0
HATCH
  5
177
330
E4
100
AcDbEntity
  8
DEFAULT
  6
Continuous
 62
   136
100
AcDbHatch
 10
0.0
 20
0.0
 30
0.0
210
0.0
220
0.0
230
1.0
  2
SOLID
 70
     1
 71
     0
 91
        1
 92
        1
 93
        3
 72
     1
 10
110.4798262194929
 20
126.2585846043751
 11
113.4798262455699
 21
126.7585846087213
 72
     1
 10
113.4798262455699
 20
126.7585846087213
 11
110.4798262194929
 21
127.2585846130674
 72
     1
 10
110.4798262194929
 20
127.2585846130674
 11
110.4798262194929
 21
126.2585846043751
 97
        0
 75
     0
 76
     1
 98
        1
 10
0.0
 20
0.0
  0
HATCH
  5
178
330
E4
100
AcDbEntity
  8
DEFAULT
  6
Continuous
 62
   136
100
AcDbHatch
 10
0.0
 20
0.0
 30
0.0
210
0.0
220
0.0
230
1.0
  2
SOLID
 70
     1
 71
     0
 91
        1
 92
        1
 93
        3
 72
     1
 10
81.47983595164657
 20
126.2585846043751
 11
78.47983592556953
 21
126.7585846087213
 72
     1
 10
78.47983592556953
 20
126.7585846087213
 11
81.47983595164657
 21
127.2585846130674
 72
     1
 10
81.47983595164657
 20
127.2585846130674
 11
81.47983595164657
 21
126.2585846043751
 97
        0
 75
     0
 76
     1
 98
        1
 10
0.0
 20
0.0
  0
LINE
  5
179
330
E4
100
AcDbEntity
  8
DEFAULT
  6
Continuous
 62
   136
370
     0
100
AcDbLine
 10
113.4798262455699
 20
157.134868060636
 30
0.0
 11
113.4798262455699
 21
125.2585845956827
 31
0.0
  0
LINE
  5
17A
330
E4
100
AcDbEntity
  8
DEFAULT
  6
Continuous
 62
   136
370
     0
100
AcDbLine
 10
78.47983592556953
 20
144.1348709466361
 30
0.0
 11
78.47983592556953
 21
125.2585845956827
 31
0.0
  0
LINE
  5
17B
330
E4
100
AcDbEntity
  8
DEFAULT
  6
Continuous
 62
   136
370
     0
100
AcDbLine
 10
113.4798262455699
 20
126.7585846087213
 30
0.0
 11
78.47983727242925
 21
126.7585846087213
 31
0.0
  0
TEXT
  5
17C
330
E4
100
AcDbEntity
  8
DEFAULT
  6
Continuous
 62
   136
370
     0
100
AcDbText
 10
94.34346812263596
 20
127.5085846087212
 30
0.0
 40
3.0
  1
35
  7
seiso_ttf
 11
94.34346812263596
 21
130.5085846087212
 31
0.0
100
AcDbText
 73
     3
  0
ENDBLK
  5
25A
330
E4
100
AcDbEntity
  8
0
370
     0
100
AcDbBlockEnd
  0
BLOCK
  5
25B
330
E7
100
AcDbEntity
  8
0
370
     0
100
AcDbBlockBegin
  2
DMBLK1033
 70
     0
 10
0.0
 20
0.0
 30
0.0
  3
DMBLK1033
  1

  0
LINE
  5
36E
330
E7
100
AcDbEntity
  8
DEFAULT
  6
Continuous
 62
   136
370
    -2
100
AcDbLine
 10
113.4798262455699
 20
157.134868060636
 30
0.0
 11
113.4798262455699
 21
125.2585846087213
 31
0.0
  0
LINE
  5
36F
330
E7
100
AcDbEntity
  8
DEFAULT
  6
Continuous
 62
   136
370
    -2
100
AcDbLine
 10
78.47983592556953
 20
144.1348709466361
 30
0.0
 11
78.47983592556953
 21
125.2585846087213
 31
0.0
  0
LINE
  5
370
330
E7
100
AcDbEntity
  8
DEFAULT
  6
Continuous
 62
   136
370
    -2
100
AcDbLine
 10
110.47982624557
 20
126.7585846087213
 30
0.0
 11
81.47983592556952
 21
126.7585846087213
 31
0.0
  0
INSERT
  5
371
330
E7
100
AcDbEntity
  8
DEFAULT
  6
Continuous
 62
   136
370
    -2
100
AcDbBlockReference
  2
_SE_FILLED
 10
113.4798262455699
 20
126.7585846087213
 30
0.0
 41
3.0
 42
3.0
 43
3.0
  0
INSERT
  5
372
330
E7
100
AcDbEntity
  8
DEFAULT
  6
Continuous
 62
   136
370
    -2
100
AcDbBlockReference
  2
_SE_FILLED
 10
78.47983592556953
 20
126.7585846087213
 30
0.0
 41
3.0
 42
3.0
 43
3.0
 50
180.0
  0
MTEXT
  5
373
330
E7
100
AcDbEntity
  8
DEFAULT
  6
Continuous
 62
   136
370
     0
100
AcDbMText
 10
95.9798317589996
 20
129.7585846087212
 30
0.0
 40
3.0
 41
0.0
 71
     5
 72
     1
  1
\A1;\A1;35
  7
seiso_ttf
 73
     1
 44
1.0
1001
ACAD
1000
MTEXTBEGIN
1070
    73
1070
     1
1070
    44
1040
1.0
1070
    74
1070
     0
1000
MTEXTEND
  0
POINT
  5
374
330
E7
100
AcDbEntity
  8
DEFPOINTS
  6
Continuous
 62
     0
370
     0
100
AcDbPoint
 10
113.4798262455699
 20
157.134868060636
 30
0.0
  0
POINT
  5
375
330
E7
100
AcDbEntity
  8
DEFPOINTS
  6
Continuous
 62
     0
370
     0
100
AcDbPoint
 10
78.47983592556953
 20
144.1348709466361
 30
0.0
  0
POINT
  5
376
330
E7
100
AcDbEntity
  8
DEFPOINTS
  6
Continuous
 62
     0
370
     0
100
AcDbPoint
 10
78.47983592556953
 20
126.7585846087213
 30
0.0
  0
ENDBLK
  5
180
330
E7
100
AcDbEntity
  8
DEFAULT
 62
     0
 48
0.0
370
     0
100
AcDbBlockEnd
  0
BLOCK
  5
181
330
E9
100
AcDbEntity
  8
DEFAULT
 62
     1
 48
0.0
370
     0
100
AcDbBlockBegin
  2
SE8
 70
     0
 10
0.0
 20
0.0
 30
0.0
  3
SE8
  1

  0
HATCH
  5
182
330
E9
100
AcDbEntity
  8
DEFAULT
  6
Continuous
 62
   136
100
AcDbHatch
 10
0.0
 20
0.0
 30
0.0
210
0.0
220
0.0
230
1.0
  2
SOLID
 70
     1
 71
     0
 91
        1
 92
        1
 93
        3
 72
     1
 10
81.47983595164658
 20
132.0053667906476
 11
78.47983592556956
 21
132.5053667949937
 72
     1
 10
78.47983592556956
 20
132.5053667949937
 11
81.47983595164658
 21
133.0053667993399
 72
     1
 10
81.47983595164658
 20
133.0053667993399
 11
81.47983595164658
 21
132.0053667906476
 97
        0
 75
     0
 76
     1
 98
        1
 10
0.0
 20
0.0
  0
HATCH
  5
183
330
E9
100
AcDbEntity
  8
DEFAULT
  6
Continuous
 62
   136
100
AcDbHatch
 10
0.0
 20
0.0
 30
0.0
210
0.0
220
0.0
230
1.0
  2
SOLID
 70
     1
 71
     0
 91
        1
 92
        1
 93
        3
 72
     1
 10
91.47983234749252
 20
132.0053667906476
 11
94.47983237356956
 21
132.5053667949937
 72
     1
 10
94.47983237356956
 20
132.5053667949937
 11
91.47983234749252
 21
133.0053667993399
 72
     1
 10
91.47983234749252
 20
133.0053667993399
 11
91.47983234749252
 21
132.0053667906476
 97
        0
 75
     0
 76
     1
 98
        1
 10
0.0
 20
0.0
  0
LINE
  5
184
330
E9
100
AcDbEntity
  8
DEFAULT
  6
Continuous
 62
   136
370
     0
100
AcDbLine
 10
78.47983592556956
 20
144.1348709466361
 30
0.0
 11
78.47983592556956
 21
131.0053667819552
 31
0.0
  0
LINE
  5
185
330
E9
100
AcDbEntity
  8
DEFAULT
  6
Continuous
 62
   136
370
     0
100
AcDbLine
 10
94.47983237356956
 20
141.1348716126361
 30
0.0
 11
94.47983237356956
 21
131.0053667819552
 31
0.0
  0
LINE
  5
186
330
E9
100
AcDbEntity
  8
DEFAULT
  6
Continuous
 62
   136
370
     0
100
AcDbLine
 10
78.47983592556956
 20
132.5053667949937
 30
0.0
 11
94.47983296023847
 21
132.5053667949937
 31
0.0
  0
TEXT
  5
187
330
E9
100
AcDbEntity
  8
DEFAULT
  6
Continuous
 62
   136
370
     0
100
AcDbText
 10
84.94574353381311
 20
133.2553667949937
 30
0.0
 40
3.0
  1
16
  7
seiso_ttf
 11
84.94574353381311
 21
136.2553667949937
 31
0.0
100
AcDbText
 73
     3
  0
ENDBLK
  5
25C
330
E9
100
AcDbEntity
  8
0
370
     0
100
AcDbBlockEnd
  0
BLOCK
  5
25D
330
EC
100
AcDbEntity
  8
0
370
     0
100
AcDbBlockBegin
  2
DMBLK1034
 70
     0
 10
0.0
 20
0.0
 30
0.0
  3
DMBLK1034
  1

  0
LINE
  5
377
330
EC
100
AcDbEntity
  8
DEFAULT
  6
Continuous
 62
   136
370
    -2
100
AcDbLine
 10
78.47983592556956
 20
144.1348709466361
 30
0.0
 11
78.47983592556956
 21
131.0053667949937
 31
0.0
  0
LINE
  5
378
330
EC
100
AcDbEntity
  8
DEFAULT
  6
Continuous
 62
   136
370
    -2
100
AcDbLine
 10
94.47983237356956
 20
141.1348716126361
 30
0.0
 11
94.47983237356956
 21
131.0053667949937
 31
0.0
  0
LINE
  5
379
330
EC
100
AcDbEntity
  8
DEFAULT
  6
Continuous
 62
   136
370
    -2
100
AcDbLine
 10
81.47983592556956
 20
132.5053667949937
 30
0.0
 11
91.47983237356955
 21
132.5053667949937
 31
0.0
  0
INSERT
  5
37A
330
EC
100
AcDbEntity
  8
DEFAULT
  6
Continuous
 62
   136
370
    -2
100
AcDbBlockReference
  2
_SE_FILLED
 10
78.47983592556956
 20
132.5053667949937
 30
0.0
 41
3.0
 42
3.0
 43
3.0
 50
180.0
  0
INSERT
  5
37B
330
EC
100
AcDbEntity
  8
DEFAULT
  6
Continuous
 62
   136
370
    -2
100
AcDbBlockReference
  2
_SE_FILLED
 10
94.47983237356956
 20
132.5053667949937
 30
0.0
 41
3.0
 42
3.0
 43
3.0
  0
MTEXT
  5
37C
330
EC
100
AcDbEntity
  8
DEFAULT
  6
Continuous
 62
   136
370
     0
100
AcDbMText
 10
86.47983444290401
 20
135.5053667949937
 30
0.0
 40
3.0
 41
0.0
 71
     5
 72
     1
  1
\A1;\A1;16
  7
seiso_ttf
 73
     1
 44
1.0
1001
ACAD
1000
MTEXTBEGIN
1070
    73
1070
     1
1070
    44
1040
1.0
1070
    74
1070
     0
1000
MTEXTEND
  0
POINT
  5
37D
330
EC
100
AcDbEntity
  8
DEFPOINTS
  6
Continuous
 62
     0
370
     0
100
AcDbPoint
 10
78.47983592556956
 20
144.1348709466361
 30
0.0
  0
POINT
  5
37E
330
EC
100
AcDbEntity
  8
DEFPOINTS
  6
Continuous
 62
     0
370
     0
100
AcDbPoint
 10
94.47983237356956
 20
141.1348716126361
 30
0.0
  0
POINT
  5
37F
330
EC
100
AcDbEntity
  8
DEFPOINTS
  6
Continuous
 62
     0
370
     0
100
AcDbPoint
 10
94.47983237356956
 20
132.5053667949937
 30
0.0
  0
ENDBLK
  5
18B
330
EC
100
AcDbEntity
  8
DEFAULT
 62
     0
 48
0.0
370
     0
100
AcDbBlockEnd
  0
BLOCK
  5
18C
330
EE
100
AcDbEntity
  8
DEFAULT
 62
     1
 48
0.0
370
     0
100
AcDbBlockBegin
  2
SE9
 70
     0
 10
0.0
 20
0.0
 30
0.0
  3
SE9
  1

  0
HATCH
  5
18D
330
EE
100
AcDbEntity
  8
DEFAULT
  6
Continuous
 62
   136
100
AcDbHatch
 10
0.0
 20
0.0
 30
0.0
210
0.0
220
0.0
230
1.0
  2
SOLID
 70
     1
 71
     0
 91
        1
 92
        1
 93
        3
 72
     1
 10
91.47983234749252
 20
132.0053670170633
 11
94.47983237356956
 21
132.5053670214095
 72
     1
 10
94.47983237356956
 20
132.5053670214095
 11
91.47983234749252
 21
133.0053670257556
 72
     1
 10
91.47983234749252
 20
133.0053670257556
 11
91.47983234749252
 21
132.0053670170633
 97
        0
 75
     0
 76
     1
 98
        1
 10
0.0
 20
0.0
  0
HATCH
  5
18E
330
EE
100
AcDbEntity
  8
DEFAULT
  6
Continuous
 62
   136
100
AcDbHatch
 10
0.0
 20
0.0
 30
0.0
210
0.0
220
0.0
230
1.0
  2
SOLID
 70
     1
 71
     0
 91
        1
 92
        1
 93
        3
 72
     1
 10
105.4798306236466
 20
132.0053670170633
 11
102.4798305975695
 21
132.5053670214095
 72
     1
 10
102.4798305975695
 20
132.5053670214095
 11
105.4798306236466
 21
133.0053670257556
 72
     1
 10
105.4798306236466
 20
133.0053670257556
 11
105.4798306236466
 21
132.0053670170633
 97
        0
 75
     0
 76
     1
 98
        1
 10
0.0
 20
0.0
  0
LINE
  5
18F
330
EE
100
AcDbEntity
  8
DEFAULT
  6
Continuous
 62
   136
370
     0
100
AcDbLine
 10
94.47983237356956
 20
141.1348716126361
 30
0.0
 11
94.47983237356956
 21
131.005367008371
 31
0.0
  0
LINE
  5
190
330
EE
100
AcDbEntity
  8
DEFAULT
  6
Continuous
 62
   136
370
     0
100
AcDbLine
 10
102.4798305975695
 20
142.6348712796361
 30
0.0
 11
102.4798305975695
 21
131.0053670083709
 31
0.0
  0
LINE
  5
191
330
EE
100
AcDbEntity
  8
DEFAULT
  6
Continuous
 62
   136
370
     0
100
AcDbLine
 10
88.47983232141549
 20
132.5053670214095
 30
0.0
 11
108.4798309430581
 21
132.5053670214095
 31
0.0
  0
TEXT
  5
192
330
EE
100
AcDbEntity
  8
DEFAULT
  6
Continuous
 62
   136
370
     0
100
AcDbText
 10
97.52528617769133
 20
133.2553670214095
 30
0.0
 40
3.0
  1
8
  7
seiso_ttf
 11
97.52528617769133
 21
136.2553670214095
 31
0.0
100
AcDbText
 73
     3
  0
ENDBLK
  5
25E
330
EE
100
AcDbEntity
  8
0
370
     0
100
AcDbBlockEnd
  0
BLOCK
  5
25F
330
F1
100
AcDbEntity
  8
0
370
     0
100
AcDbBlockBegin
  2
DMBLK1035
 70
     0
 10
0.0
 20
0.0
 30
0.0
  3
DMBLK1035
  1

  0
LINE
  5
380
330
F1
100
AcDbEntity
  8
DEFAULT
  6
Continuous
 62
   136
370
    -2
100
AcDbLine
 10
94.47983237356956
 20
141.1348716126361
 30
0.0
 11
94.47983237356956
 21
131.0053670214095
 31
0.0
  0
LINE
  5
381
330
F1
100
AcDbEntity
  8
DEFAULT
  6
Continuous
 62
   136
370
    -2
100
AcDbLine
 10
102.4798305975695
 20
142.6348712796361
 30
0.0
 11
102.4798305975695
 21
131.0053670214095
 31
0.0
  0
LINE
  5
382
330
F1
100
AcDbEntity
  8
DEFAULT
  6
Continuous
 62
   136
370
    -2
100
AcDbLine
 10
91.47983237356955
 20
132.5053670214095
 30
0.0
 11
88.47983237356954
 21
132.5053670214095
 31
0.0
  0
LINE
  5
383
330
F1
100
AcDbEntity
  8
DEFAULT
  6
Continuous
 62
   136
370
    -2
100
AcDbLine
 10
105.4798305975695
 20
132.5053670214095
 30
0.0
 11
108.4798305975695
 21
132.5053670214095
 31
0.0
  0
LINE
  5
384
330
F1
100
AcDbEntity
  8
DEFAULT
  6
Continuous
 62
   136
370
    -2
100
AcDbLine
 10
94.47983237356956
 20
132.5053670214095
 30
0.0
 11
102.4798305975695
 21
132.5053670214095
 31
0.0
  0
INSERT
  5
385
330
F1
100
AcDbEntity
  8
DEFAULT
  6
Continuous
 62
   136
370
    -2
100
AcDbBlockReference
  2
_SE_FILLED
 10
94.47983237356956
 20
132.5053670214095
 30
0.0
 41
3.0
 42
3.0
 43
3.0
  0
INSERT
  5
386
330
F1
100
AcDbEntity
  8
DEFAULT
  6
Continuous
 62
   136
370
    -2
100
AcDbBlockReference
  2
_SE_FILLED
 10
102.4798305975695
 20
132.5053670214095
 30
0.0
 41
3.0
 42
3.0
 43
3.0
 50
180.0
  0
MTEXT
  5
387
330
F1
100
AcDbEntity
  8
DEFAULT
  6
Continuous
 62
   136
370
     0
100
AcDbMText
 10
98.47983148556956
 20
135.5053670214095
 30
0.0
 40
3.0
 41
0.0
 71
     5
 72
     1
  1
\A1;\A1;8
  7
seiso_ttf
 73
     1
 44
1.0
1001
ACAD
1000
MTEXTBEGIN
1070
    73
1070
     1
1070
    44
1040
1.0
1070
    74
1070
     0
1000
MTEXTEND
  0
POINT
  5
388
330
F1
100
AcDbEntity
  8
DEFPOINTS
  6
Continuous
 62
     0
370
     0
100
AcDbPoint
 10
94.47983237356956
 20
141.1348716126361
 30
0.0
  0
POINT
  5
389
330
F1
100
AcDbEntity
  8
DEFPOINTS
  6
Continuous
 62
     0
370
     0
100
AcDbPoint
 10
102.4798305975695
 20
142.6348712796361
 30
0.0
  0
POINT
  5
38A
330
F1
100
AcDbEntity
  8
DEFPOINTS
  6
Continuous
 62
     0
370
     0
100
AcDbPoint
 10
102.4798305975695
 20
132.5053670214095
 30
0.0
  0
ENDBLK
  5
196
330
F1
100
AcDbEntity
  8
DEFAULT
 62
     0
 48
0.0
370
     0
100
AcDbBlockEnd
  0
BLOCK
  5
197
330
F3
100
AcDbEntity
  8
DEFAULT
 62
     1
 48
0.0
370
     0
100
AcDbBlockBegin
  2
SE10
 70
     0
 10
0.0
 20
0.0
 30
0.0
  3
SE10
  1

  0
HATCH
  5
198
330
F3
100
AcDbEntity
  8
DEFAULT
  6
Continuous
 62
   136
100
AcDbHatch
 10
0.0
 20
0.0
 30
0.0
210
0.0
220
0.0
230
1.0
  2
SOLID
 70
     1
 71
     0
 91
        1
 92
        1
 93
        3
 72
     1
 10
108.979827936647
 20
135.2196683320952
 11
105.9798279105699
 21
135.7196683364414
 72
     1
 10
105.9798279105699
 20
135.7196683364414
 11
108.979827936647
 21
136.2196683407875
 72
     1
 10
108.979827936647
 20
136.2196683407875
 11
108.979827936647
 21
135.2196683320952
 97
        0
 75
     0
 76
     1
 98
        1
 10
0.0
 20
0.0
  0
HATCH
  5
199
330
F3
100
AcDbEntity
  8
DEFAULT
  6
Continuous
 62
   136
100
AcDbHatch
 10
0.0
 20
0.0
 30
0.0
210
0.0
220
0.0
230
1.0
  2
SOLID
 70
     1
 71
     0
 91
        1
 92
        1
 93
        3
 72
     1
 10
115.4798251094929
 20
135.2196683320952
 11
118.4798251355699
 21
135.7196683364414
 72
     1
 10
118.4798251355699
 20
135.7196683364414
 11
115.4798251094929
 21
136.2196683407875
 72
     1
 10
115.4798251094929
 20
136.2196683407875
 11
115.4798251094929
 21
135.2196683320952
 97
        0
 75
     0
 76
     1
 98
        1
 10
0.0
 20
0.0
  0
LINE
  5
19A
330
F3
100
AcDbEntity
  8
DEFAULT
  6
Continuous
 62
   136
370
     0
100
AcDbLine
 10
105.9798279105699
 20
144.1348709466361
 30
0.0
 11
105.9798279105699
 21
134.2196683234029
 31
0.0
  0
LINE
  5
19B
330
F3
100
AcDbEntity
  8
DEFAULT
  6
Continuous
 62
   136
370
     0
100
AcDbLine
 10
118.4798251355699
 20
144.1348709466361
 30
0.0
 11
118.4798251355699
 21
134.2196683234029
 31
0.0
  0
LINE
  5
19C
330
F3
100
AcDbEntity
  8
DEFAULT
  6
Continuous
 62
   136
370
     0
100
AcDbLine
 10
105.9798279105699
 20
135.7196683364414
 30
0.0
 11
127.2072528748787
 21
135.7196683364414
 31
0.0
  0
TEXT
  5
19D
330
F3
100
AcDbEntity
  8
DEFAULT
  6
Continuous
 62
   136
370
     0
100
AcDbText
 10
120.839070196358
 20
136.4696683364414
 30
0.0
 40
3.0
  1
12,5
  7
seiso_ttf
 11
120.839070196358
 21
139.4696683364414
 31
0.0
100
AcDbText
 73
     3
  0
ENDBLK
  5
260
330
F3
100
AcDbEntity
  8
0
370
     0
100
AcDbBlockEnd
  0
BLOCK
  5
261
330
F6
100
AcDbEntity
  8
0
370
     0
100
AcDbBlockBegin
  2
DMBLK1036
 70
     0
 10
0.0
 20
0.0
 30
0.0
  3
DMBLK1036
  1

  0
LINE
  5
38B
330
F6
100
AcDbEntity
  8
DEFAULT
  6
Continuous
 62
   136
370
    -2
100
AcDbLine
 10
105.9798279105699
 20
144.1348709466361
 30
0.0
 11
105.9798279105699
 21
134.2196683364414
 31
0.0
  0
LINE
  5
38C
330
F6
100
AcDbEntity
  8
DEFAULT
  6
Continuous
 62
   136
370
    -2
100
AcDbLine
 10
118.4798251355699
 20
144.1348709466361
 30
0.0
 11
118.4798251355699
 21
134.2196683364414
 31
0.0
  0
LINE
  5
38D
330
F6
100
AcDbEntity
  8
DEFAULT
  6
Continuous
 62
   136
370
    -2
100
AcDbLine
 10
108.9798279105699
 20
135.7196683364414
 30
0.0
 11
115.47982513557
 21
135.7196683364414
 31
0.0
  0
LINE
  5
38E
330
F6
100
AcDbEntity
  8
DEFAULT
  6
Continuous
 62
   136
370
    -2
100
AcDbLine
 10
118.4798251355699
 20
135.7196683364414
 30
0.0
 11
133.0512537069985
 21
135.7196683364414
 31
0.0
  0
INSERT
  5
38F
330
F6
100
AcDbEntity
  8
DEFAULT
  6
Continuous
 62
   136
370
    -2
100
AcDbBlockReference
  2
_SE_FILLED
 10
105.9798279105699
 20
135.7196683364414
 30
0.0
 41
3.0
 42
3.0
 43
3.0
 50
180.0
  0
INSERT
  5
390
330
F6
100
AcDbEntity
  8
DEFAULT
  6
Continuous
 62
   136
370
    -2
100
AcDbBlockReference
  2
_SE_FILLED
 10
118.4798251355699
 20
135.7196683364414
 30
0.0
 41
3.0
 42
3.0
 43
3.0
  0
MTEXT
  5
391
330
F6
100
AcDbEntity
  8
DEFAULT
  6
Continuous
 62
   136
370
     0
100
AcDbMText
 10
127.2655394212842
 20
139.0053826221556
 30
0.0
 40
3.0
 41
0.0
 71
     5
 72
     1
  1
\A1;\A1;12,5
  7
seiso_ttf
 73
     1
 44
1.0
1001
ACAD
1000
MTEXTBEGIN
1070
    73
1070
     1
1070
    44
1040
1.0
1070
    74
1070
     0
1000
MTEXTEND
  0
POINT
  5
392
330
F6
100
AcDbEntity
  8
DEFPOINTS
  6
Continuous
 62
     0
370
     0
100
AcDbPoint
 10
105.9798279105699
 20
144.1348709466361
 30
0.0
  0
POINT
  5
393
330
F6
100
AcDbEntity
  8
DEFPOINTS
  6
Continuous
 62
     0
370
     0
100
AcDbPoint
 10
118.4798251355699
 20
144.1348709466361
 30
0.0
  0
POINT
  5
394
330
F6
100
AcDbEntity
  8
DEFPOINTS
  6
Continuous
 62
     0
370
     0
100
AcDbPoint
 10
118.4798251355699
 20
135.7196683364414
 30
0.0
  0
ENDBLK
  5
1A1
330
F6
100
AcDbEntity
  8
DEFAULT
 62
     0
 48
0.0
370
     0
100
AcDbBlockEnd
  0
BLOCK
  5
1A2
330
F8
100
AcDbEntity
  8
DEFAULT
 62
     1
 48
0.0
370
     0
100
AcDbBlockBegin
  2
SE11
 70
     0
 10
0.0
 20
0.0
 30
0.0
  3
SE11
  1

  0
HATCH
  5
1A3
330
F8
100
AcDbEntity
  8
DEFAULT
  6
Continuous
 62
   136
100
AcDbHatch
 10
0.0
 20
0.0
 30
0.0
210
0.0
220
0.0
230
1.0
  2
SOLID
 70
     1
 71
     0
 91
        1
 92
        1
 93
        3
 72
     1
 10
131.0034109884264
 20
159.6348681977131
 11
130.5034109840802
 21
156.6348681716361
 72
     1
 10
130.5034109840802
 20
156.6348681716361
 11
130.0034109797341
 21
159.6348681977131
 72
     1
 10
130.0034109797341
 20
159.6348681977131
 11
131.0034109884264
 21
159.6348681977131
 97
        0
 75
     0
 76
     1
 98
        1
 10
0.0
 20
0.0
  0
HATCH
  5
1A4
330
F8
100
AcDbEntity
  8
DEFAULT
  6
Continuous
 62
   136
100
AcDbHatch
 10
0.0
 20
0.0
 30
0.0
210
0.0
220
0.0
230
1.0
  2
SOLID
 70
     1
 71
     0
 91
        1
 92
        1
 93
        3
 72
     1
 10
131.0034109884264
 20
170.634864371559
 11
130.5034109840802
 21
173.634864397636
 72
     1
 10
130.5034109840802
 20
173.634864397636
 11
130.0034109797341
 21
170.634864371559
 72
     1
 10
130.0034109797341
 20
170.634864371559
 11
131.0034109884264
 21
170.634864371559
 97
        0
 75
     0
 76
     1
 98
        1
 10
0.0
 20
0.0
  0
LINE
  5
1A5
330
F8
100
AcDbEntity
  8
DEFAULT
  6
Continuous
 62
   136
370
     0
100
AcDbLine
 10
118.4798251355699
 20
156.6348681716361
 30
0.0
 11
132.0034109971187
 21
156.6348681716361
 31
0.0
  0
LINE
  5
1A6
330
F8
100
AcDbEntity
  8
DEFAULT
  6
Continuous
 62
   136
370
     0
100
AcDbLine
 10
121.4798244695699
 20
173.634864397636
 30
0.0
 11
132.0034109971187
 21
173.634864397636
 31
0.0
  0
LINE
  5
1A7
330
F8
100
AcDbEntity
  8
DEFAULT
  6
Continuous
 62
   136
370
     0
100
AcDbLine
 10
130.5034109840802
 20
156.6348681716361
 30
0.0
 11
130.5034109840802
 21
173.6348635075726
 31
0.0
  0
TEXT
  5
1A8
330
F8
100
AcDbEntity
  8
DEFAULT
  6
Continuous
 62
   136
370
     0
100
AcDbText
 10
129.7534109840802
 20
163.5666840214225
 30
0.0
 40
3.0
  1
17
 50
90.0
  7
seiso_ttf
 11
126.7534109840802
 21
163.5666840214225
 31
0.0
100
AcDbText
 73
     3
  0
ENDBLK
  5
262
330
F8
100
AcDbEntity
  8
0
370
     0
100
AcDbBlockEnd
  0
BLOCK
  5
263
330
FB
100
AcDbEntity
  8
0
370
     0
100
AcDbBlockBegin
  2
DMBLK1037
 70
     0
 10
0.0
 20
0.0
 30
0.0
  3
DMBLK1037
  1

  0
LINE
  5
395
330
FB
100
AcDbEntity
  8
DEFAULT
  6
Continuous
 62
   136
370
    -2
100
AcDbLine
 10
118.4798251355699
 20
156.6348681716361
 30
0.0
 11
132.0034109840803
 21
156.6348681716361
 31
0.0
  0
LINE
  5
396
330
FB
100
AcDbEntity
  8
DEFAULT
  6
Continuous
 62
   136
370
    -2
100
AcDbLine
 10
121.4798244695699
 20
173.634864397636
 30
0.0
 11
132.0034109840803
 21
173.634864397636
 31
0.0
  0
LINE
  5
397
330
FB
100
AcDbEntity
  8
DEFAULT
  6
Continuous
 62
   136
370
    -2
100
AcDbLine
 10
130.5034109840803
 20
159.6348681716361
 30
0.0
 11
130.5034109840803
 21
170.634864397636
 31
0.0
  0
INSERT
  5
398
330
FB
100
AcDbEntity
  8
DEFAULT
  6
Continuous
 62
   136
370
    -2
100
AcDbBlockReference
  2
_SE_FILLED
 10
130.5034109840803
 20
156.6348681716361
 30
0.0
 41
3.0
 42
3.0
 43
3.0
 50
270.0
  0
INSERT
  5
399
330
FB
100
AcDbEntity
  8
DEFAULT
  6
Continuous
 62
   136
370
    -2
100
AcDbBlockReference
  2
_SE_FILLED
 10
130.5034109840803
 20
173.634864397636
 30
0.0
 41
3.0
 42
3.0
 43
3.0
 50
90.0
  0
MTEXT
  5
39A
330
FB
100
AcDbEntity
  8
DEFAULT
  6
Continuous
 62
   136
370
     0
100
AcDbMText
 10
127.5034109840802
 20
165.1348658396043
 30
0.0
 40
3.0
 41
0.0
 71
     5
 72
     1
  1
\A1;\A1;17
  7
seiso_ttf
 11
0.0000000000000001
 21
1.0
 31
0.0
 73
     1
 44
1.0
1001
ACAD
1000
MTEXTBEGIN
1070
    73
1070
     1
1070
    44
1040
1.0
1070
    74
1070
     0
1000
MTEXTEND
  0
POINT
  5
39B
330
FB
100
AcDbEntity
  8
DEFPOINTS
  6
Continuous
 62
     0
370
     0
100
AcDbPoint
 10
118.4798251355699
 20
156.6348681716361
 30
0.0
  0
POINT
  5
39C
330
FB
100
AcDbEntity
  8
DEFPOINTS
  6
Continuous
 62
     0
370
     0
100
AcDbPoint
 10
121.4798244695699
 20
173.634864397636
 30
0.0
  0
POINT
  5
39D
330
FB
100
AcDbEntity
  8
DEFPOINTS
  6
Continuous
 62
     0
370
     0
100
AcDbPoint
 10
130.5034109840803
 20
173.634864397636
 30
0.0
  0
ENDBLK
  5
1AC
330
FB
100
AcDbEntity
  8
DEFAULT
 62
     0
 48
0.0
370
     0
100
AcDbBlockEnd
  0
BLOCK
  5
1AD
330
FD
100
AcDbEntity
  8
DEFAULT
 62
     1
 48
0.0
370
     0
100
AcDbBlockBegin
  2
SE12
 70
     0
 10
0.0
 20
0.0
 30
0.0
  3
SE12
  1

  0
HATCH
  5
1AE
330
FD
100
AcDbEntity
  8
DEFAULT
  6
Continuous
 62
   136
100
AcDbHatch
 10
0.0
 20
0.0
 30
0.0
210
0.0
220
0.0
230
1.0
  2
SOLID
 70
     1
 71
     0
 91
        1
 92
        1
 93
        3
 72
     1
 10
131.0034107620106
 20
176.6348644237131
 11
130.5034107576645
 21
173.634864397636
 72
     1
 10
130.5034107576645
 20
173.634864397636
 11
130.0034107533183
 21
176.6348644237131
 72
     1
 10
130.0034107533183
 20
176.6348644237131
 11
131.0034107620106
 21
176.6348644237131
 97
        0
 75
     0
 76
     1
 98
        1
 10
0.0
 20
0.0
  0
HATCH
  5
1AF
330
FD
100
AcDbEntity
  8
DEFAULT
  6
Continuous
 62
   136
100
AcDbHatch
 10
0.0
 20
0.0
 30
0.0
210
0.0
220
0.0
230
1.0
  2
SOLID
 70
     1
 71
     0
 91
        1
 92
        1
 93
        3
 72
     1
 10
131.0034107620106
 20
181.134862040559
 11
130.5034107576645
 21
184.134862066636
 72
     1
 10
130.5034107576645
 20
184.134862066636
 11
130.0034107533183
 21
181.134862040559
 72
     1
 10
130.0034107533183
 20
181.134862040559
 11
131.0034107620106
 21
181.134862040559
 97
        0
 75
     0
 76
     1
 98
        1
 10
0.0
 20
0.0
  0
LINE
  5
1B0
330
FD
100
AcDbEntity
  8
DEFAULT
  6
Continuous
 62
   136
370
     0
100
AcDbLine
 10
121.4798244695699
 20
173.634864397636
 30
0.0
 11
132.003410770703
 21
173.634864397636
 31
0.0
  0
LINE
  5
1B1
330
FD
100
AcDbEntity
  8
DEFAULT
  6
Continuous
 62
   136
370
     0
100
AcDbLine
 10
121.4798244695699
 20
184.134862066636
 30
0.0
 11
132.003410770703
 21
184.134862066636
 31
0.0
  0
LINE
  5
1B2
330
FD
100
AcDbEntity
  8
DEFAULT
  6
Continuous
 62
   136
370
     0
100
AcDbLine
 10
130.5034107576645
 20
173.634864397636
 30
0.0
 11
130.5034107576645
 21
184.1348623934298
 31
0.0
  0
TEXT
  5
1B3
330
FD
100
AcDbEntity
  8
DEFAULT
  6
Continuous
 62
   136
370
     0
100
AcDbText
 10
129.7534107576645
 20
176.2598633955329
 30
0.0
 40
3.0
  1
10,5
 50
90.0
  7
seiso_ttf
 11
126.7534107576644
 21
176.2598633955329
 31
0.0
100
AcDbText
 73
     3
  0
ENDBLK
  5
264
330
FD
100
AcDbEntity
  8
0
370
     0
100
AcDbBlockEnd
  0
BLOCK
  5
265
330
100
100
AcDbEntity
  8
0
370
     0
100
AcDbBlockBegin
  2
DMBLK1038
 70
     0
 10
0.0
 20
0.0
 30
0.0
  3
DMBLK1038
  1

  0
LINE
  5
39E
330
100
100
AcDbEntity
  8
DEFAULT
  6
Continuous
 62
   136
370
    -2
100
AcDbLine
 10
121.4798244695699
 20
173.634864397636
 30
0.0
 11
132.0034107576645
 21
173.634864397636
 31
0.0
  0
LINE
  5
39F
330
100
100
AcDbEntity
  8
DEFAULT
  6
Continuous
 62
   136
370
    -2
100
AcDbLine
 10
121.4798244695699
 20
184.134862066636
 30
0.0
 11
132.0034107576645
 21
184.134862066636
 31
0.0
  0
LINE
  5
3A0
330
100
100
AcDbEntity
  8
DEFAULT
  6
Continuous
 62
   136
370
    -2
100
AcDbLine
 10
130.5034107576645
 20
176.634864397636
 30
0.0
 11
130.5034107576645
 21
181.134862066636
 31
0.0
  0
INSERT
  5
3A1
330
100
100
AcDbEntity
  8
DEFAULT
  6
Continuous
 62
   136
370
    -2
100
AcDbBlockReference
  2
_SE_FILLED
 10
130.5034107576645
 20
173.634864397636
 30
0.0
 41
3.0
 42
3.0
 43
3.0
 50
270.0
  0
INSERT
  5
3A2
330
100
100
AcDbEntity
  8
DEFAULT
  6
Continuous
 62
   136
370
    -2
100
AcDbBlockReference
  2
_SE_FILLED
 10
130.5034107576645
 20
184.134862066636
 30
0.0
 41
3.0
 42
3.0
 43
3.0
 50
90.0
  0
MTEXT
  5
3A3
330
100
100
AcDbEntity
  8
DEFAULT
  6
Continuous
 62
   136
370
     0
100
AcDbMText
 10
127.2176964719502
 20
178.8848632321361
 30
0.0
 40
3.0
 41
0.0
 71
     5
 72
     1
  1
\A1;\A1;10,5
  7
seiso_ttf
 11
0.0000000000000001
 21
1.0
 31
0.0
 73
     1
 44
1.0
1001
ACAD
1000
MTEXTBEGIN
1070
    73
1070
     1
1070
    44
1040
1.0
1070
    74
1070
     0
1000
MTEXTEND
  0
POINT
  5
3A4
330
100
100
AcDbEntity
  8
DEFPOINTS
  6
Continuous
 62
     0
370
     0
100
AcDbPoint
 10
121.4798244695699
 20
173.634864397636
 30
0.0
  0
POINT
  5
3A5
330
100
100
AcDbEntity
  8
DEFPOINTS
  6
Continuous
 62
     0
370
     0
100
AcDbPoint
 10
121.4798244695699
 20
184.134862066636
 30
0.0
  0
POINT
  5
3A6
330
100
100
AcDbEntity
  8
DEFPOINTS
  6
Continuous
 62
     0
370
     0
100
AcDbPoint
 10
130.5034107576645
 20
184.134862066636
 30
0.0
  0
ENDBLK
  5
1B7
330
100
100
AcDbEntity
  8
DEFAULT
 62
     0
 48
0.0
370
     0
100
AcDbBlockEnd
  0
BLOCK
  5
1B8
330
102
100
AcDbEntity
  8
DEFAULT
 62
     1
 48
0.0
370
     0
100
AcDbBlockBegin
  2
SE13
 70
     0
 10
0.0
 20
0.0
 30
0.0
  3
SE13
  1

  0
HATCH
  5
1B9
330
102
100
AcDbEntity
  8
DEFAULT
  6
Continuous
 62
   136
100
AcDbHatch
 10
0.0
 20
0.0
 30
0.0
210
0.0
220
0.0
230
1.0
  2
SOLID
 70
     1
 71
     0
 91
        1
 92
        1
 93
        3
 72
     1
 10
69.21829117587617
 20
102.8137200678564
 11
69.71829118022235
 21
105.8137200939334
 72
     1
 10
69.71829118022235
 20
105.8137200939334
 11
70.21829118456853
 21
102.8137200678564
 72
     1
 10
70.21829118456853
 20
102.8137200678564
 11
69.21829117587617
 21
102.8137200678564
 97
        0
 75
     0
 76
     1
 98
        1
 10
0.0
 20
0.0
  0
HATCH
  5
1BA
330
102
100
AcDbEntity
  8
DEFAULT
  6
Continuous
 62
   136
100
AcDbHatch
 10
0.0
 20
0.0
 30
0.0
210
0.0
220
0.0
230
1.0
  2
SOLID
 70
     1
 71
     0
 91
        1
 92
        1
 93
        3
 72
     1
 10
69.21829117587617
 20
98.31372245101048
 11
69.71829118022235
 21
95.31372242493345
 72
     1
 10
69.71829118022235
 20
95.31372242493345
 11
70.21829118456853
 21
98.31372245101048
 72
     1
 10
70.21829118456853
 20
98.31372245101048
 11
69.21829117587617
 21
98.31372245101048
 97
        0
 75
     0
 76
     1
 98
        1
 10
0.0
 20
0.0
  0
LINE
  5
1BB
330
102
100
AcDbEntity
  8
DEFAULT
  6
Continuous
 62
   136
370
     0
100
AcDbLine
 10
80.97983537056954
 20
105.8137200939334
 30
0.0
 11
68.21829116718383
 21
105.8137200939334
 31
0.0
  0
LINE
  5
1BC
330
102
100
AcDbEntity
  8
DEFAULT
  6
Continuous
 62
   136
370
     0
100
AcDbLine
 10
94.47983237356956
 20
95.31372242493345
 30
0.0
 11
68.21829116718383
 21
95.31372242493345
 31
0.0
  0
LINE
  5
1BD
330
102
100
AcDbEntity
  8
DEFAULT
  6
Continuous
 62
   136
370
     0
100
AcDbLine
 10
69.71829118022235
 20
105.8137200939334
 30
0.0
 11
69.71829118022235
 21
95.31372209813962
 31
0.0
  0
TEXT
  5
1BE
330
102
100
AcDbEntity
  8
DEFAULT
  6
Continuous
 62
   136
370
     0
100
AcDbText
 10
68.96829118022235
 20
97.93872109603654
 30
0.0
 40
3.0
  1
10,5
 50
90.0
  7
seiso_ttf
 11
65.96829118022235
 21
97.93872109603654
 31
0.0
100
AcDbText
 73
     3
  0
ENDBLK
  5
266
330
102
100
AcDbEntity
  8
0
370
     0
100
AcDbBlockEnd
  0
BLOCK
  5
267
330
105
100
AcDbEntity
  8
0
370
     0
100
AcDbBlockBegin
  2
DMBLK1039
 70
     0
 10
0.0
 20
0.0
 30
0.0
  3
DMBLK1039
  1

  0
LINE
  5
3A7
330
105
100
AcDbEntity
  8
DEFAULT
  6
Continuous
 62
   136
370
    -2
100
AcDbLine
 10
80.97983537056954
 20
105.8137200939334
 30
0.0
 11
68.21829118022238
 21
105.8137200939334
 31
0.0
  0
LINE
  5
3A8
330
105
100
AcDbEntity
  8
DEFAULT
  6
Continuous
 62
   136
370
    -2
100
AcDbLine
 10
94.47983237356956
 20
95.31372242493345
 30
0.0
 11
68.21829118022236
 21
95.31372242493345
 31
0.0
  0
LINE
  5
3A9
330
105
100
AcDbEntity
  8
DEFAULT
  6
Continuous
 62
   136
370
    -2
100
AcDbLine
 10
69.71829118022238
 20
102.8137200939334
 30
0.0
 11
69.71829118022238
 21
98.31372242493344
 31
0.0
  0
INSERT
  5
3AA
330
105
100
AcDbEntity
  8
DEFAULT
  6
Continuous
 62
   136
370
    -2
100
AcDbBlockReference
  2
_SE_FILLED
 10
69.71829118022238
 20
105.8137200939334
 30
0.0
 41
3.0
 42
3.0
 43
3.0
 50
90.0
  0
INSERT
  5
3AB
330
105
100
AcDbEntity
  8
DEFAULT
  6
Continuous
 62
   136
370
    -2
100
AcDbBlockReference
  2
_SE_FILLED
 10
69.71829118022236
 20
95.31372242493345
 30
0.0
 41
3.0
 42
3.0
 43
3.0
 50
270.0
  0
MTEXT
  5
3AC
330
105
100
AcDbEntity
  8
DEFAULT
  6
Continuous
 62
   136
370
     0
100
AcDbMText
 10
66.43257689450805
 20
100.5637212594334
 30
0.0
 40
3.0
 41
0.0
 71
     5
 72
     1
  1
\A1;\A1;10,5
  7
seiso_ttf
 11
0.0000000000000001
 21
1.0
 31
0.0
 73
     1
 44
1.0
1001
ACAD
1000
MTEXTBEGIN
1070
    73
1070
     1
1070
    44
1040
1.0
1070
    74
1070
     0
1000
MTEXTEND
  0
POINT
  5
3AD
330
105
100
AcDbEntity
  8
DEFPOINTS
  6
Continuous
 62
     0
370
     0
100
AcDbPoint
 10
80.97983537056954
 20
105.8137200939334
 30
0.0
  0
POINT
  5
3AE
330
105
100
AcDbEntity
  8
DEFPOINTS
  6
Continuous
 62
     0
370
     0
100
AcDbPoint
 10
94.47983237356956
 20
95.31372242493345
 30
0.0
  0
POINT
  5
3AF
330
105
100
AcDbEntity
  8
DEFPOINTS
  6
Continuous
 62
     0
370
     0
100
AcDbPoint
 10
69.71829118022236
 20
95.31372242493345
 30
0.0
  0
ENDBLK
  5
1C2
330
105
100
AcDbEntity
  8
DEFAULT
 62
     0
 48
0.0
370
     0
100
AcDbBlockEnd
  0
BLOCK
  5
1C3
330
107
100
AcDbEntity
  8
DEFAULT
 62
     1
 48
0.0
370
     0
100
AcDbBlockBegin
  2
SE14
 70
     0
 10
0.0
 20
0.0
 30
0.0
  3
SE14
  1

  0
HATCH
  5
1C4
330
107
100
AcDbEntity
  8
DEFAULT
  6
Continuous
 62
   136
100
AcDbHatch
 10
0.0
 20
0.0
 30
0.0
210
0.0
220
0.0
230
1.0
  2
SOLID
 70
     1
 71
     0
 91
        1
 92
        1
 93
        3
 72
     1
 10
69.21829155398919
 20
92.31372239885642
 11
69.71829155833536
 21
95.31372242493345
 72
     1
 10
69.71829155833536
 20
95.31372242493345
 11
70.21829156268154
 21
92.31372239885642
 72
     1
 10
70.21829156268154
 20
92.31372239885642
 11
69.21829155398919
 21
92.31372239885642
 97
        0
 75
     0
 76
     1
 98
        1
 10
0.0
 20
0.0
  0
HATCH
  5
1C5
330
107
100
AcDbEntity
  8
DEFAULT
  6
Continuous
 62
   136
100
AcDbHatch
 10
0.0
 20
0.0
 30
0.0
210
0.0
220
0.0
230
1.0
  2
SOLID
 70
     1
 71
     0
 91
        1
 92
        1
 93
        3
 72
     1
 10
69.21829155398919
 20
79.31372666901046
 11
69.71829155833536
 21
76.31372664293343
 72
     1
 10
69.71829155833536
 20
76.31372664293343
 11
70.21829156268154
 21
79.31372666901046
 72
     1
 10
70.21829156268154
 20
79.31372666901046
 11
69.21829155398919
 21
79.31372666901046
 97
        0
 75
     0
 76
     1
 98
        1
 10
0.0
 20
0.0
  0
LINE
  5
1C6
330
107
100
AcDbEntity
  8
DEFAULT
  6
Continuous
 62
   136
370
     0
100
AcDbLine
 10
94.47983237356956
 20
95.31372242493345
 30
0.0
 11
68.21829154529685
 21
95.31372242493345
 31
0.0
  0
LINE
  5
1C7
330
107
100
AcDbEntity
  8
DEFAULT
  6
Continuous
 62
   136
370
     0
100
AcDbLine
 10
94.47983237356956
 20
76.31372664293343
 30
0.0
 11
68.21829154529685
 21
76.31372664293343
 31
0.0
  0
LINE
  5
1C8
330
107
100
AcDbEntity
  8
DEFAULT
  6
Continuous
 62
   136
370
     0
100
AcDbLine
 10
69.71829155833536
 20
95.31372242493345
 30
0.0
 11
69.71829155833536
 21
76.31372676117135
 31
0.0
  0
TEXT
  5
1C9
330
107
100
AcDbEntity
  8
DEFAULT
  6
Continuous
 62
   136
370
     0
100
AcDbText
 10
68.96829155833536
 20
84.27963368396147
 30
0.0
 40
3.0
  1
19
 50
90.0
  7
seiso_ttf
 11
65.96829155833536
 21
84.27963368396147
 31
0.0
100
AcDbText
 73
     3
  0
ENDBLK
  5
268
330
107
100
AcDbEntity
  8
0
370
     0
100
AcDbBlockEnd
  0
BLOCK
  5
269
330
10A
100
AcDbEntity
  8
0
370
     0
100
AcDbBlockBegin
  2
DMBLK1040
 70
     0
 10
0.0
 20
0.0
 30
0.0
  3
DMBLK1040
  1

  0
LINE
  5
3B0
330
10A
100
AcDbEntity
  8
DEFAULT
  6
Continuous
 62
   136
370
    -2
100
AcDbLine
 10
94.47983237356956
 20
95.31372242493345
 30
0.0
 11
68.21829155833538
 21
95.31372242493345
 31
0.0
  0
LINE
  5
3B1
330
10A
100
AcDbEntity
  8
DEFAULT
  6
Continuous
 62
   136
370
    -2
100
AcDbLine
 10
94.47983237356956
 20
76.31372664293343
 30
0.0
 11
68.21829155833538
 21
76.31372664293343
 31
0.0
  0
LINE
  5
3B2
330
10A
100
AcDbEntity
  8
DEFAULT
  6
Continuous
 62
   136
370
    -2
100
AcDbLine
 10
69.71829155833538
 20
92.31372242493344
 30
0.0
 11
69.71829155833538
 21
79.31372664293343
 31
0.0
  0
INSERT
  5
3B3
330
10A
100
AcDbEntity
  8
DEFAULT
  6
Continuous
 62
   136
370
    -2
100
AcDbBlockReference
  2
_SE_FILLED
 10
69.71829155833538
 20
95.31372242493345
 30
0.0
 41
3.0
 42
3.0
 43
3.0
 50
90.0
  0
INSERT
  5
3B4
330
10A
100
AcDbEntity
  8
DEFAULT
  6
Continuous
 62
   136
370
    -2
100
AcDbBlockReference
  2
_SE_FILLED
 10
69.71829155833538
 20
76.31372664293343
 30
0.0
 41
3.0
 42
3.0
 43
3.0
 50
270.0
  0
MTEXT
  5
3B5
330
10A
100
AcDbEntity
  8
DEFAULT
  6
Continuous
 62
   136
370
     0
100
AcDbMText
 10
66.71829155833536
 20
85.8137245930524
 30
0.0
 40
3.0
 41
0.0
 71
     5
 72
     1
  1
\A1;\A1;19
  7
seiso_ttf
 11
0.0000000000000001
 21
1.0
 31
0.0
 73
     1
 44
1.0
1001
ACAD
1000
MTEXTBEGIN
1070
    73
1070
     1
1070
    44
1040
1.0
1070
    74
1070
     0
1000
MTEXTEND
  0
POINT
  5
3B6
330
10A
100
AcDbEntity
  8
DEFPOINTS
  6
Continuous
 62
     0
370
     0
100
AcDbPoint
 10
94.47983237356956
 20
95.31372242493345
 30
0.0
  0
POINT
  5
3B7
330
10A
100
AcDbEntity
  8
DEFPOINTS
  6
Continuous
 62
     0
370
     0
100
AcDbPoint
 10
94.47983237356956
 20
76.31372664293343
 30
0.0
  0
POINT
  5
3B8
330
10A
100
AcDbEntity
  8
DEFPOINTS
  6
Continuous
 62
     0
370
     0
100
AcDbPoint
 10
69.71829155833538
 20
76.31372664293343
 30
0.0
  0
ENDBLK
  5
1CD
330
10A
100
AcDbEntity
  8
DEFAULT
 62
     0
 48
0.0
370
     0
100
AcDbBlockEnd
  0
BLOCK
  5
1CE
330
10C
100
AcDbEntity
  8
DEFAULT
 62
     1
 48
0.0
370
     0
100
AcDbBlockBegin
  2
SE15
 70
     0
 10
0.0
 20
0.0
 30
0.0
  3
SE15
  1

  0
HATCH
  5
1CF
330
10C
100
AcDbEntity
  8
DEFAULT
  6
Continuous
 62
   136
100
AcDbHatch
 10
0.0
 20
0.0
 30
0.0
210
0.0
220
0.0
230
1.0
  2
SOLID
 70
     1
 71
     0
 91
        1
 92
        1
 93
        3
 72
     1
 10
69.21829155398919
 20
73.3137266168564
 11
69.71829155833536
 21
76.31372664293343
 72
     1
 10
69.71829155833536
 20
76.31372664293343
 11
70.21829156268154
 21
73.3137266168564
 72
     1
 10
70.21829156268154
 20
73.3137266168564
 11
69.21829155398919
 21
73.3137266168564
 97
        0
 75
     0
 76
     1
 98
        1
 10
0.0
 20
0.0
  0
HATCH
  5
1D0
330
10C
100
AcDbEntity
  8
DEFAULT
  6
Continuous
 62
   136
100
AcDbHatch
 10
0.0
 20
0.0
 30
0.0
210
0.0
220
0.0
230
1.0
  2
SOLID
 70
     1
 71
     0
 91
        1
 92
        1
 93
        3
 72
     1
 10
69.21829155398919
 20
68.81373091001002
 11
69.71829155833536
 21
65.81373088393299
 72
     1
 10
69.71829155833536
 20
65.81373088393299
 11
70.21829156268154
 21
68.81373091001002
 72
     1
 10
70.21829156268154
 20
68.81373091001002
 11
69.21829155398919
 21
68.81373091001002
 97
        0
 75
     0
 76
     1
 98
        1
 10
0.0
 20
0.0
  0
LINE
  5
1D1
330
10C
100
AcDbEntity
  8
DEFAULT
  6
Continuous
 62
   136
370
     0
100
AcDbLine
 10
94.47983237356956
 20
76.31372664293343
 30
0.0
 11
68.21829154529685
 21
76.31372664293343
 31
0.0
  0
LINE
  5
1D2
330
10C
100
AcDbEntity
  8
DEFAULT
  6
Continuous
 62
   136
370
     0
100
AcDbLine
 10
80.97983537056954
 20
65.81373088393299
 30
0.0
 11
68.21829154529685
 21
65.81373088393299
 31
0.0
  0
LINE
  5
1D3
330
10C
100
AcDbEntity
  8
DEFAULT
  6
Continuous
 62
   136
370
     0
100
AcDbLine
 10
69.71829155833536
 20
76.31372664293343
 30
0.0
 11
69.71829155833536
 21
65.81373050978476
 31
0.0
  0
TEXT
  5
1D4
330
10C
100
AcDbEntity
  8
DEFAULT
  6
Continuous
 62
   136
370
     0
100
AcDbText
 10
68.96829155833536
 20
68.4387285763591
 30
0.0
 40
3.0
  1
10,5
 50
90.0
  7
seiso_ttf
 11
65.96829155833536
 21
68.4387285763591
 31
0.0
100
AcDbText
 73
     3
  0
ENDBLK
  5
26A
330
10C
100
AcDbEntity
  8
0
370
     0
100
AcDbBlockEnd
  0
BLOCK
  5
26B
330
10F
100
AcDbEntity
  8
0
370
     0
100
AcDbBlockBegin
  2
DMBLK1041
 70
     0
 10
0.0
 20
0.0
 30
0.0
  3
DMBLK1041
  1

  0
LINE
  5
3B9
330
10F
100
AcDbEntity
  8
DEFAULT
  6
Continuous
 62
   136
370
    -2
100
AcDbLine
 10
94.47983237356956
 20
76.31372664293343
 30
0.0
 11
68.21829155833538
 21
76.31372664293343
 31
0.0
  0
LINE
  5
3BA
330
10F
100
AcDbEntity
  8
DEFAULT
  6
Continuous
 62
   136
370
    -2
100
AcDbLine
 10
80.97983537056954
 20
65.81373088393299
 30
0.0
 11
68.21829155833538
 21
65.81373088393299
 31
0.0
  0
LINE
  5
3BB
330
10F
100
AcDbEntity
  8
DEFAULT
  6
Continuous
 62
   136
370
    -2
100
AcDbLine
 10
69.71829155833538
 20
73.31372664293343
 30
0.0
 11
69.71829155833538
 21
68.81373088393299
 31
0.0
  0
INSERT
  5
3BC
330
10F
100
AcDbEntity
  8
DEFAULT
  6
Continuous
 62
   136
370
    -2
100
AcDbBlockReference
  2
_SE_FILLED
 10
69.71829155833538
 20
76.31372664293343
 30
0.0
 41
3.0
 42
3.0
 43
3.0
 50
90.0
  0
INSERT
  5
3BD
330
10F
100
AcDbEntity
  8
DEFAULT
  6
Continuous
 62
   136
370
    -2
100
AcDbBlockReference
  2
_SE_FILLED
 10
69.71829155833538
 20
65.81373088393299
 30
0.0
 41
3.0
 42
3.0
 43
3.0
 50
270.0
  0
MTEXT
  5
3BE
330
10F
100
AcDbEntity
  8
DEFAULT
  6
Continuous
 62
   136
370
     0
100
AcDbMText
 10
66.43257727262107
 20
71.06372876343323
 30
0.0
 40
3.0
 41
0.0
 71
     5
 72
     1
  1
\A1;\A1;10,5
  7
seiso_ttf
 11
0.0000000000000001
 21
1.0
 31
0.0
 73
     1
 44
1.0
1001
ACAD
1000
MTEXTBEGIN
1070
    73
1070
     1
1070
    44
1040
1.0
1070
    74
1070
     0
1000
MTEXTEND
  0
POINT
  5
3BF
330
10F
100
AcDbEntity
  8
DEFPOINTS
  6
Continuous
 62
     0
370
     0
100
AcDbPoint
 10
94.47983237356956
 20
76.31372664293343
 30
0.0
  0
POINT
  5
3C0
330
10F
100
AcDbEntity
  8
DEFPOINTS
  6
Continuous
 62
     0
370
     0
100
AcDbPoint
 10
80.97983537056954
 20
65.81373088393299
 30
0.0
  0
POINT
  5
3C1
330
10F
100
AcDbEntity
  8
DEFPOINTS
  6
Continuous
 62
     0
370
     0
100
AcDbPoint
 10
69.71829155833538
 20
65.81373088393299
 30
0.0
  0
ENDBLK
  5
1D8
330
10F
100
AcDbEntity
  8
DEFAULT
 62
     0
 48
0.0
370
     0
100
AcDbBlockEnd
  0
BLOCK
  5
1D9
330
111
100
AcDbEntity
  8
DEFAULT
 62
     1
 48
0.0
370
     0
100
AcDbBlockBegin
  2
SE16
 70
     0
 10
0.0
 20
0.0
 30
0.0
  3
SE16
  1

  0
HATCH
  5
1DA
330
111
100
AcDbEntity
  8
DEFAULT
  6
Continuous
 62
   136
100
AcDbHatch
 10
0.0
 20
0.0
 30
0.0
210
0.0
220
0.0
230
1.0
  2
SOLID
 70
     1
 71
     0
 91
        1
 92
        1
 93
        3
 72
     1
 10
63.00924273333362
 20
102.8137200678564
 11
63.50924273767979
 21
105.8137200939334
 72
     1
 10
63.50924273767979
 20
105.8137200939334
 11
64.00924274202598
 21
102.8137200678564
 72
     1
 10
64.00924274202598
 20
102.8137200678564
 11
63.00924273333362
 21
102.8137200678564
 97
        0
 75
     0
 76
     1
 98
        1
 10
0.0
 20
0.0
  0
HATCH
  5
1DB
330
111
100
AcDbEntity
  8
DEFAULT
  6
Continuous
 62
   136
100
AcDbHatch
 10
0.0
 20
0.0
 30
0.0
210
0.0
220
0.0
230
1.0
  2
SOLID
 70
     1
 71
     0
 91
        1
 92
        1
 93
        3
 72
     1
 10
63.00924273333362
 20
68.81373091001002
 11
63.50924273767979
 21
65.81373088393299
 72
     1
 10
63.50924273767979
 20
65.81373088393299
 11
64.00924274202598
 21
68.81373091001002
 72
     1
 10
64.00924274202598
 20
68.81373091001002
 11
63.00924273333362
 21
68.81373091001002
 97
        0
 75
     0
 76
     1
 98
        1
 10
0.0
 20
0.0
  0
LINE
  5
1DC
330
111
100
AcDbEntity
  8
DEFAULT
  6
Continuous
 62
   136
370
     0
100
AcDbLine
 10
80.97983537056954
 20
105.8137200939334
 30
0.0
 11
62.00924272464128
 21
105.8137200939334
 31
0.0
  0
LINE
  5
1DD
330
111
100
AcDbEntity
  8
DEFAULT
  6
Continuous
 62
   136
370
     0
100
AcDbLine
 10
80.97983537056954
 20
65.81373088393299
 30
0.0
 11
62.00924272464128
 21
65.81373088393299
 31
0.0
  0
LINE
  5
1DE
330
111
100
AcDbEntity
  8
DEFAULT
  6
Continuous
 62
   136
370
     0
100
AcDbLine
 10
63.50924273767979
 20
105.8137200939334
 30
0.0
 11
63.50924273767979
 21
65.81373216387401
 31
0.0
  0
TEXT
  5
1DF
330
111
100
AcDbEntity
  8
DEFAULT
  6
Continuous
 62
   136
370
     0
100
AcDbText
 10
62.7592427376798
 20
84.04099885617645
 30
0.0
 40
3.0
  1
40
 50
90.0
  7
seiso_ttf
 11
59.7592427376798
 21
84.04099885617645
 31
0.0
100
AcDbText
 73
     3
  0
ENDBLK
  5
26C
330
111
100
AcDbEntity
  8
0
370
     0
100
AcDbBlockEnd
  0
BLOCK
  5
26D
330
114
100
AcDbEntity
  8
0
370
     0
100
AcDbBlockBegin
  2
DMBLK1042
 70
     0
 10
0.0
 20
0.0
 30
0.0
  3
DMBLK1042
  1

  0
LINE
  5
3C2
330
114
100
AcDbEntity
  8
DEFAULT
  6
Continuous
 62
   136
370
    -2
100
AcDbLine
 10
80.97983537056954
 20
105.8137200939334
 30
0.0
 11
62.00924273767981
 21
105.8137200939334
 31
0.0
  0
LINE
  5
3C3
330
114
100
AcDbEntity
  8
DEFAULT
  6
Continuous
 62
   136
370
    -2
100
AcDbLine
 10
80.97983537056954
 20
65.81373088393299
 30
0.0
 11
62.00924273767981
 21
65.81373088393299
 31
0.0
  0
LINE
  5
3C4
330
114
100
AcDbEntity
  8
DEFAULT
  6
Continuous
 62
   136
370
    -2
100
AcDbLine
 10
63.50924273767981
 20
102.8137200939334
 30
0.0
 11
63.5092427376798
 21
68.81373088393299
 31
0.0
  0
INSERT
  5
3C5
330
114
100
AcDbEntity
  8
DEFAULT
  6
Continuous
 62
   136
370
    -2
100
AcDbBlockReference
  2
_SE_FILLED
 10
63.50924273767981
 20
105.8137200939334
 30
0.0
 41
3.0
 42
3.0
 43
3.0
 50
90.0
  0
INSERT
  5
3C6
330
114
100
AcDbEntity
  8
DEFAULT
  6
Continuous
 62
   136
370
    -2
100
AcDbBlockReference
  2
_SE_FILLED
 10
63.5092427376798
 20
65.81373088393299
 30
0.0
 41
3.0
 42
3.0
 43
3.0
 50
270.0
  0
MTEXT
  5
3C7
330
114
100
AcDbEntity
  8
DEFAULT
  6
Continuous
 62
   136
370
     0
100
AcDbMText
 10
60.5092427376798
 20
85.81372612890373
 30
0.0
 40
3.0
 41
0.0
 71
     5
 72
     1
  1
\A1;\A1;40
  7
seiso_ttf
 11
0.0000000000000001
 21
1.0
 31
0.0
 73
     1
 44
1.0
1001
ACAD
1000
MTEXTBEGIN
1070
    73
1070
     1
1070
    44
1040
1.0
1070
    74
1070
     0
1000
MTEXTEND
  0
POINT
  5
3C8
330
114
100
AcDbEntity
  8
DEFPOINTS
  6
Continuous
 62
     0
370
     0
100
AcDbPoint
 10
80.97983537056954
 20
105.8137200939334
 30
0.0
  0
POINT
  5
3C9
330
114
100
AcDbEntity
  8
DEFPOINTS
  6
Continuous
 62
     0
370
     0
100
AcDbPoint
 10
80.97983537056954
 20
65.81373088393299
 30
0.0
  0
POINT
  5
3CA
330
114
100
AcDbEntity
  8
DEFPOINTS
  6
Continuous
 62
     0
370
     0
100
AcDbPoint
 10
63.5092427376798
 20
65.81373088393299
 30
0.0
  0
ENDBLK
  5
1E3
330
114
100
AcDbEntity
  8
DEFAULT
 62
     0
 48
0.0
370
     0
100
AcDbBlockEnd
  0
BLOCK
  5
1E4
330
116
100
AcDbEntity
  8
DEFAULT
 62
     1
 48
0.0
370
     0
100
AcDbBlockBegin
  2
SE17
 70
     0
 10
0.0
 20
0.0
 30
0.0
  3
SE17
  1

  0
HATCH
  5
1E5
330
116
100
AcDbEntity
  8
DEFAULT
  6
Continuous
 62
   136
100
AcDbHatch
 10
0.0
 20
0.0
 30
0.0
210
0.0
220
0.0
230
1.0
  2
SOLID
 70
     1
 71
     0
 91
        1
 92
        1
 93
        3
 72
     1
 10
81.47983595164658
 20
57.26445139475725
 11
78.47983592556954
 21
57.76445139910341
 72
     1
 10
78.47983592556954
 20
57.76445139910341
 11
81.47983595164658
 21
58.26445140344958
 72
     1
 10
81.47983595164658
 20
58.26445140344958
 11
81.47983595164658
 21
57.26445139475725
 97
        0
 75
     0
 76
     1
 98
        1
 10
0.0
 20
0.0
  0
HATCH
  5
1E6
330
116
100
AcDbEntity
  8
DEFAULT
  6
Continuous
 62
   136
100
AcDbHatch
 10
0.0
 20
0.0
 30
0.0
210
0.0
220
0.0
230
1.0
  2
SOLID
 70
     1
 71
     0
 91
        1
 92
        1
 93
        3
 72
     1
 10
110.4798262194929
 20
57.26445139475725
 11
113.4798262455699
 21
57.76445139910341
 72
     1
 10
113.4798262455699
 20
57.76445139910341
 11
110.4798262194929
 21
58.26445140344958
 72
     1
 10
110.4798262194929
 20
58.26445140344958
 11
110.4798262194929
 21
57.26445139475725
 97
        0
 75
     0
 76
     1
 98
        1
 10
0.0
 20
0.0
  0
LINE
  5
1E7
330
116
100
AcDbEntity
  8
DEFAULT
  6
Continuous
 62
   136
370
     0
100
AcDbLine
 10
78.47983592556954
 20
68.313730328933
 30
0.0
 11
78.47983592556954
 21
56.26445138606489
 31
0.0
  0
LINE
  5
1E8
330
116
100
AcDbEntity
  8
DEFAULT
  6
Continuous
 62
   136
370
     0
100
AcDbLine
 10
113.4798262455699
 20
78.81372608793343
 30
0.0
 11
113.4798262455699
 21
56.26445138606489
 31
0.0
  0
LINE
  5
1E9
330
116
100
AcDbEntity
  8
DEFAULT
  6
Continuous
 62
   136
370
     0
100
AcDbLine
 10
78.47983592556954
 20
57.76445139910341
 30
0.0
 11
113.4798248987102
 21
57.76445139910341
 31
0.0
  0
TEXT
  5
1EA
330
116
100
AcDbEntity
  8
DEFAULT
  6
Continuous
 62
   136
370
     0
100
AcDbText
 10
94.34346677577627
 20
58.51445139910341
 30
0.0
 40
3.0
  1
35
  7
seiso_ttf
 11
94.34346677577627
 21
61.5144513991034
 31
0.0
100
AcDbText
 73
     3
  0
ENDBLK
  5
26E
330
116
100
AcDbEntity
  8
0
370
     0
100
AcDbBlockEnd
  0
BLOCK
  5
26F
330
119
100
AcDbEntity
  8
0
370
     0
100
AcDbBlockBegin
  2
DMBLK1043
 70
     0
 10
0.0
 20
0.0
 30
0.0
  3
DMBLK1043
  1

  0
LINE
  5
3CB
330
119
100
AcDbEntity
  8
DEFAULT
  6
Continuous
 62
   136
370
    -2
100
AcDbLine
 10
78.47983592556954
 20
68.313730328933
 30
0.0
 11
78.47983592556954
 21
56.26445139910341
 31
0.0
  0
LINE
  5
3CC
330
119
100
AcDbEntity
  8
DEFAULT
  6
Continuous
 62
   136
370
    -2
100
AcDbLine
 10
113.4798262455699
 20
78.81372608793343
 30
0.0
 11
113.4798262455699
 21
56.26445139910341
 31
0.0
  0
LINE
  5
3CD
330
119
100
AcDbEntity
  8
DEFAULT
  6
Continuous
 62
   136
370
    -2
100
AcDbLine
 10
81.47983592556954
 20
57.76445139910341
 30
0.0
 11
110.47982624557
 21
57.76445139910341
 31
0.0
  0
INSERT
  5
3CE
330
119
100
AcDbEntity
  8
DEFAULT
  6
Continuous
 62
   136
370
    -2
100
AcDbBlockReference
  2
_SE_FILLED
 10
78.47983592556954
 20
57.76445139910341
 30
0.0
 41
3.0
 42
3.0
 43
3.0
 50
180.0
  0
INSERT
  5
3CF
330
119
100
AcDbEntity
  8
DEFAULT
  6
Continuous
 62
   136
370
    -2
100
AcDbBlockReference
  2
_SE_FILLED
 10
113.4798262455699
 20
57.76445139910341
 30
0.0
 41
3.0
 42
3.0
 43
3.0
  0
MTEXT
  5
3D0
330
119
100
AcDbEntity
  8
DEFAULT
  6
Continuous
 62
   136
370
     0
100
AcDbMText
 10
95.97983041213991
 20
60.76445139910341
 30
0.0
 40
3.0
 41
0.0
 71
     5
 72
     1
  1
\A1;\A1;35
  7
seiso_ttf
 73
     1
 44
1.0
1001
ACAD
1000
MTEXTBEGIN
1070
    73
1070
     1
1070
    44
1040
1.0
1070
    74
1070
     0
1000
MTEXTEND
  0
POINT
  5
3D1
330
119
100
AcDbEntity
  8
DEFPOINTS
  6
Continuous
 62
     0
370
     0
100
AcDbPoint
 10
78.47983592556954
 20
68.313730328933
 30
0.0
  0
POINT
  5
3D2
330
119
100
AcDbEntity
  8
DEFPOINTS
  6
Continuous
 62
     0
370
     0
100
AcDbPoint
 10
113.4798262455699
 20
78.81372608793343
 30
0.0
  0
POINT
  5
3D3
330
119
100
AcDbEntity
  8
DEFPOINTS
  6
Continuous
 62
     0
370
     0
100
AcDbPoint
 10
113.4798262455699
 20
57.76445139910341
 30
0.0
  0
ENDBLK
  5
1EE
330
119
100
AcDbEntity
  8
DEFAULT
 62
     0
 48
0.0
370
     0
100
AcDbBlockEnd
  0
BLOCK
  5
1EF
330
11B
100
AcDbEntity
  8
DEFAULT
 62
     1
 48
0.0
370
     0
100
AcDbBlockBegin
  2
SE18
 70
     0
 10
0.0
 20
0.0
 30
0.0
  3
SE18
  1

  0
HATCH
  5
1F0
330
11B
100
AcDbEntity
  8
DEFAULT
  6
Continuous
 62
   136
100
AcDbHatch
 10
0.0
 20
0.0
 30
0.0
210
0.0
220
0.0
230
1.0
  2
SOLID
 70
     1
 71
     0
 91
        1
 92
        1
 93
        3
 72
     1
 10
110.4798262194929
 20
57.26445195193157
 11
113.4798262455699
 21
57.76445195627775
 72
     1
 10
113.4798262455699
 20
57.76445195627775
 11
110.4798262194929
 21
58.26445196062391
 72
     1
 10
110.4798262194929
 20
58.26445196062391
 11
110.4798262194929
 21
57.26445195193157
 97
        0
 75
     0
 76
     1
 98
        1
 10
0.0
 20
0.0
  0
HATCH
  5
1F1
330
11B
100
AcDbEntity
  8
DEFAULT
  6
Continuous
 62
   136
100
AcDbHatch
 10
0.0
 20
0.0
 30
0.0
210
0.0
220
0.0
230
1.0
  2
SOLID
 70
     1
 71
     0
 91
        1
 92
        1
 93
        3
 72
     1
 10
121.479825161647
 20
57.26445195193157
 11
118.4798251355699
 21
57.76445195627775
 72
     1
 10
118.4798251355699
 20
57.76445195627775
 11
121.479825161647
 21
58.26445196062391
 72
     1
 10
121.479825161647
 20
58.26445196062391
 11
121.479825161647
 21
57.26445195193157
 97
        0
 75
     0
 76
     1
 98
        1
 10
0.0
 20
0.0
  0
LINE
  5
1F2
330
11B
100
AcDbEntity
  8
DEFAULT
  6
Continuous
 62
   136
370
     0
100
AcDbLine
 10
113.4798262455699
 20
78.81372608793343
 30
0.0
 11
113.4798262455699
 21
56.26445194323922
 31
0.0
  0
LINE
  5
1F3
330
11B
100
AcDbEntity
  8
DEFAULT
  6
Continuous
 62
   136
370
     0
100
AcDbLine
 10
118.4798251355699
 20
65.81373088393299
 30
0.0
 11
118.4798251355699
 21
56.26445194323922
 31
0.0
  0
LINE
  5
1F4
330
11B
100
AcDbEntity
  8
DEFAULT
  6
Continuous
 62
   136
370
     0
100
AcDbLine
 10
107.4798261934159
 20
57.76445195627775
 30
0.0
 11
124.4798252546427
 21
57.76445195627775
 31
0.0
  0
TEXT
  5
1F5
330
11B
100
AcDbEntity
  8
DEFAULT
  6
Continuous
 62
   136
370
     0
100
AcDbText
 10
115.1275529967566
 20
58.51445195627774
 30
0.0
 40
3.0
  1
5
  7
seiso_ttf
 11
115.1275529967566
 21
61.51445195627774
 31
0.0
100
AcDbText
 73
     3
  0
ENDBLK
  5
270
330
11B
100
AcDbEntity
  8
0
370
     0
100
AcDbBlockEnd
  0
BLOCK
  5
271
330
11E
100
AcDbEntity
  8
0
370
     0
100
AcDbBlockBegin
  2
DMBLK1044
 70
     0
 10
0.0
 20
0.0
 30
0.0
  3
DMBLK1044
  1

  0
LINE
  5
3D4
330
11E
100
AcDbEntity
  8
DEFAULT
  6
Continuous
 62
   136
370
    -2
100
AcDbLine
 10
113.4798262455699
 20
78.81372608793343
 30
0.0
 11
113.4798262455699
 21
56.26445195627774
 31
0.0
  0
LINE
  5
3D5
330
11E
100
AcDbEntity
  8
DEFAULT
  6
Continuous
 62
   136
370
    -2
100
AcDbLine
 10
118.4798251355699
 20
65.81373088393299
 30
0.0
 11
118.4798251355699
 21
56.26445195627774
 31
0.0
  0
LINE
  5
3D6
330
11E
100
AcDbEntity
  8
DEFAULT
  6
Continuous
 62
   136
370
    -2
100
AcDbLine
 10
110.47982624557
 20
57.76445195627775
 30
0.0
 11
107.4798262455699
 21
57.76445195627775
 31
0.0
  0
LINE
  5
3D7
330
11E
100
AcDbEntity
  8
DEFAULT
  6
Continuous
 62
   136
370
    -2
100
AcDbLine
 10
121.4798251355699
 20
57.76445195627775
 30
0.0
 11
124.4798251355699
 21
57.76445195627775
 31
0.0
  0
LINE
  5
3D8
330
11E
100
AcDbEntity
  8
DEFAULT
  6
Continuous
 62
   136
370
    -2
100
AcDbLine
 10
113.4798262455699
 20
57.76445195627775
 30
0.0
 11
118.4798251355699
 21
57.76445195627775
 31
0.0
  0
INSERT
  5
3D9
330
11E
100
AcDbEntity
  8
DEFAULT
  6
Continuous
 62
   136
370
    -2
100
AcDbBlockReference
  2
_SE_FILLED
 10
113.4798262455699
 20
57.76445195627775
 30
0.0
 41
3.0
 42
3.0
 43
3.0
  0
INSERT
  5
3DA
330
11E
100
AcDbEntity
  8
DEFAULT
  6
Continuous
 62
   136
370
    -2
100
AcDbBlockReference
  2
_SE_FILLED
 10
118.4798251355699
 20
57.76445195627775
 30
0.0
 41
3.0
 42
3.0
 43
3.0
 50
180.0
  0
MTEXT
  5
3DB
330
11E
100
AcDbEntity
  8
DEFAULT
  6
Continuous
 62
   136
370
     0
100
AcDbMText
 10
115.9798256905699
 20
60.76445195627774
 30
0.0
 40
3.0
 41
0.0
 71
     5
 72
     1
  1
\A1;\A1;5
  7
seiso_ttf
 73
     1
 44
1.0
1001
ACAD
1000
MTEXTBEGIN
1070
    73
1070
     1
1070
    44
1040
1.0
1070
    74
1070
     0
1000
MTEXTEND
  0
POINT
  5
3DC
330
11E
100
AcDbEntity
  8
DEFPOINTS
  6
Continuous
 62
     0
370
     0
100
AcDbPoint
 10
113.4798262455699
 20
78.81372608793343
 30
0.0
  0
POINT
  5
3DD
330
11E
100
AcDbEntity
  8
DEFPOINTS
  6
Continuous
 62
     0
370
     0
100
AcDbPoint
 10
118.4798251355699
 20
65.81373088393299
 30
0.0
  0
POINT
  5
3DE
330
11E
100
AcDbEntity
  8
DEFPOINTS
  6
Continuous
 62
     0
370
     0
100
AcDbPoint
 10
118.4798251355699
 20
57.76445195627775
 30
0.0
  0
ENDBLK
  5
1F9
330
11E
100
AcDbEntity
  8
DEFAULT
 62
     0
 48
0.0
370
     0
100
AcDbBlockEnd
  0
BLOCK
  5
1FA
330
120
100
AcDbEntity
  8
DEFAULT
 62
     1
 48
0.0
370
     0
100
AcDbBlockBegin
  2
SE19
 70
     0
 10
0.0
 20
0.0
 30
0.0
  3
SE19
  1

  0
HATCH
  5
1FB
330
120
100
AcDbEntity
  8
DEFAULT
  6
Continuous
 62
   136
100
AcDbHatch
 10
0.0
 20
0.0
 30
0.0
210
0.0
220
0.0
230
1.0
  2
SOLID
 70
     1
 71
     0
 91
        1
 92
        1
 93
        3
 72
     1
 10
131.3127402419434
 20
78.8137253958564
 11
130.8127402375973
 21
81.81372542193344
 72
     1
 10
130.8127402375973
 20
81.81372542193344
 11
130.3127402332511
 21
78.8137253958564
 72
     1
 10
130.3127402332511
 20
78.8137253958564
 11
131.3127402419434
 21
78.8137253958564
 97
        0
 75
     0
 76
     1
 98
        1
 10
0.0
 20
0.0
  0
HATCH
  5
1FC
330
120
100
AcDbEntity
  8
DEFAULT
  6
Continuous
 62
   136
100
AcDbHatch
 10
0.0
 20
0.0
 30
0.0
210
0.0
220
0.0
230
1.0
  2
SOLID
 70
     1
 71
     0
 91
        1
 92
        1
 93
        3
 72
     1
 10
131.3127402419434
 20
92.81372367201047
 11
130.8127402375973
 21
89.81372364593344
 72
     1
 10
130.8127402375973
 20
89.81372364593344
 11
130.3127402332511
 21
92.81372367201047
 72
     1
 10
130.3127402332511
 20
92.81372367201047
 11
131.3127402419434
 21
92.81372367201047
 97
        0
 75
     0
 76
     1
 98
        1
 10
0.0
 20
0.0
  0
LINE
  5
1FD
330
120
100
AcDbEntity
  8
DEFAULT
  6
Continuous
 62
   136
370
     0
100
AcDbLine
 10
121.4798244695699
 20
81.81372542193344
 30
0.0
 11
132.3127402506358
 21
81.81372542193344
 31
0.0
  0
LINE
  5
1FE
330
120
100
AcDbEntity
  8
DEFAULT
  6
Continuous
 62
   136
370
     0
100
AcDbLine
 10
121.4798244695699
 20
89.81372364593344
 30
0.0
 11
132.3127402506358
 21
89.81372364593344
 31
0.0
  0
LINE
  5
1FF
330
120
100
AcDbEntity
  8
DEFAULT
  6
Continuous
 62
   136
370
     0
100
AcDbLine
 10
130.8127402375973
 20
75.81372536977937
 30
0.0
 11
130.8127402375973
 21
95.81372399142196
 31
0.0
  0
TEXT
  5
200
330
120
100
AcDbEntity
  8
DEFAULT
  6
Continuous
 62
   136
370
     0
100
AcDbText
 10
130.0627402375972
 20
84.85917922605521
 30
0.0
 40
3.0
  1
8
 50
90.0
  7
seiso_ttf
 11
127.0627402375972
 21
84.85917922605521
 31
0.0
100
AcDbText
 73
     3
  0
ENDBLK
  5
272
330
120
100
AcDbEntity
  8
0
370
     0
100
AcDbBlockEnd
  0
BLOCK
  5
273
330
123
100
AcDbEntity
  8
0
370
     0
100
AcDbBlockBegin
  2
DMBLK1045
 70
     0
 10
0.0
 20
0.0
 30
0.0
  3
DMBLK1045
  1

  0
LINE
  5
3DF
330
123
100
AcDbEntity
  8
DEFAULT
  6
Continuous
 62
   136
370
    -2
100
AcDbLine
 10
121.4798244695699
 20
81.81372542193344
 30
0.0
 11
132.3127402375973
 21
81.81372542193344
 31
0.0
  0
LINE
  5
3E0
330
123
100
AcDbEntity
  8
DEFAULT
  6
Continuous
 62
   136
370
    -2
100
AcDbLine
 10
121.4798244695699
 20
89.81372364593344
 30
0.0
 11
132.3127402375973
 21
89.81372364593344
 31
0.0
  0
LINE
  5
3E1
330
123
100
AcDbEntity
  8
DEFAULT
  6
Continuous
 62
   136
370
    -2
100
AcDbLine
 10
130.8127402375973
 20
78.81372542193344
 30
0.0
 11
130.8127402375973
 21
75.81372542193344
 31
0.0
  0
LINE
  5
3E2
330
123
100
AcDbEntity
  8
DEFAULT
  6
Continuous
 62
   136
370
    -2
100
AcDbLine
 10
130.8127402375973
 20
92.81372364593343
 30
0.0
 11
130.8127402375973
 21
95.81372364593343
 31
0.0
  0
LINE
  5
3E3
330
123
100
AcDbEntity
  8
DEFAULT
  6
Continuous
 62
   136
370
    -2
100
AcDbLine
 10
130.8127402375973
 20
81.81372542193344
 30
0.0
 11
130.8127402375973
 21
89.81372364593344
 31
0.0
  0
INSERT
  5
3E4
330
123
100
AcDbEntity
  8
DEFAULT
  6
Continuous
 62
   136
370
    -2
100
AcDbBlockReference
  2
_SE_FILLED
 10
130.8127402375973
 20
81.81372542193344
 30
0.0
 41
3.0
 42
3.0
 43
3.0
 50
90.0
  0
INSERT
  5
3E5
330
123
100
AcDbEntity
  8
DEFAULT
  6
Continuous
 62
   136
370
    -2
100
AcDbBlockReference
  2
_SE_FILLED
 10
130.8127402375973
 20
89.81372364593344
 30
0.0
 41
3.0
 42
3.0
 43
3.0
 50
270.0
  0
MTEXT
  5
3E6
330
123
100
AcDbEntity
  8
DEFAULT
  6
Continuous
 62
   136
370
     0
100
AcDbMText
 10
127.8127402375972
 20
85.81372453393345
 30
0.0
 40
3.0
 41
0.0
 71
     5
 72
     1
  1
\A1;\A1;8
  7
seiso_ttf
 11
0.0000000000000001
 21
1.0
 31
0.0
 73
     1
 44
1.0
1001
ACAD
1000
MTEXTBEGIN
1070
    73
1070
     1
1070
    44
1040
1.0
1070
    74
1070
     0
1000
MTEXTEND
  0
POINT
  5
3E7
330
123
100
AcDbEntity
  8
DEFPOINTS
  6
Continuous
 62
     0
370
     0
100
AcDbPoint
 10
121.4798244695699
 20
81.81372542193344
 30
0.0
  0
POINT
  5
3E8
330
123
100
AcDbEntity
  8
DEFPOINTS
  6
Continuous
 62
     0
370
     0
100
AcDbPoint
 10
121.4798244695699
 20
89.81372364593344
 30
0.0
  0
POINT
  5
3E9
330
123
100
AcDbEntity
  8
DEFPOINTS
  6
Continuous
 62
     0
370
     0
100
AcDbPoint
 10
130.8127402375973
 20
89.81372364593344
 30
0.0
  0
ENDBLK
  5
204
330
123
100
AcDbEntity
  8
DEFAULT
 62
     0
 48
0.0
370
     0
100
AcDbBlockEnd
  0
ENDSEC
  0
SECTION
  2
ENTITIES
  0
LINE
  5
6C
330
A
100
AcDbEntity
  8
AM_0
  6
Continuous
 62
     7
370
     0
100
AcDbLine
 10
4.249999056500001
 20
61.18670821654773
 30
0.0
 11
6.384434232655294
 21
63.32114530270259
 31
0.0
  0
LINE
  5
6D
330
A
100
AcDbEntity
  8
AM_0
  6
Continuous
 62
     7
370
     0
100
AcDbLine
 10
4.249999056500001
 20
58.35827866445921
 30
0.0
 11
7.300716689240545
 21
61.40899820719933
 31
0.0
  0
LINE
  5
6E
330
A
100
AcDbEntity
  8
AM_0
  6
Continuous
 62
     7
370
     0
100
AcDbLine
 10
7.041290626833131
 20
58.32114641270262
 30
0.0
 11
7.499996425000418
 21
58.77985603086909
 31
0.0
  0
LINE
  5
6F
330
A
100
AcDbEntity
  8
AM_0
  6
Continuous
 62
     7
370
     0
100
AcDbLine
 10
16.71285829974464
 20
70.8211436377026
 30
0.0
 11
19.96285757824464
 21
74.07114291620262
 31
0.0
  0
LINE
  5
70
330
A
100
AcDbEntity
  8
AM_0
  6
Continuous
 62
     7
370
     0
100
AcDbLine
 10
14.99999476000042
 20
71.9367058300477
 30
0.0
 11
17.13443184615528
 21
74.07114291620256
 31
0.0
  0
LINE
  5
71
330
A
100
AcDbEntity
  8
AM_0
  6
Continuous
 62
     7
370
     0
100
AcDbLine
 10
13.88443256765526
 20
70.8211436377026
 30
0.0
 11
14.38443245665526
 21
71.32114352670258
 31
0.0
  0
LINE
  5
72
330
A
100
AcDbEntity
  8
AM_0
  6
Continuous
 62
     7
370
     0
100
AcDbLine
 10
11.05600683556592
 20
70.8211436377026
 30
0.0
 11
11.55600672456592
 21
71.32114352670258
 31
0.0
  0
LINE
  5
73
330
A
100
AcDbEntity
  8
AM_0
  6
Continuous
 62
     7
370
     0
100
AcDbLine
 10
6.999996536000423
 20
69.59355907022644
 30
0.0
 11
7.499996425000418
 21
70.09355895922642
 31
0.0
  0
LINE
  5
74
330
A
100
AcDbEntity
  8
AM_0
  6
Continuous
 62
     7
370
     0
100
AcDbLine
 10
8.22758110347658
 20
70.8211436377026
 30
0.0
 11
8.727580992476575
 21
71.32114352670258
 31
0.0
  0
LINE
  5
75
330
A
100
AcDbEntity
  8
AM_0
  6
Continuous
 62
     7
370
     0
100
AcDbLine
 10
19.54128785183313
 20
70.8211436377026
 30
0.0
 11
19.99999365000043
 21
71.27985325586907
 31
0.0
  0
LINE
  5
76
330
A
100
AcDbEntity
  8
AM_8
  6
Continuous
 62
     7
370
     0
100
AcDbLine
 10
-4.27241612152342
 20
58.32114641270262
 30
0.0
 11
-4.249999056500001
 21
58.34356156772644
 31
0.0
  0
LINE
  5
77
330
A
100
AcDbEntity
  8
AM_8
  6
Continuous
 62
     7
370
     0
100
AcDbLine
 10
-4.249999056500001
 20
61.17199111981493
 30
0.0
 11
-7.100841853612763
 21
58.32114641270258
 31
0.0
  0
LINE
  5
78
330
A
100
AcDbEntity
  8
AM_8
  6
Continuous
 62
     7
370
     0
100
AcDbLine
 10
-9.929269495701674
 20
58.32114641270262
 30
0.0
 11
-4.929270605701674
 21
63.32114530270262
 31
0.0
  0
LINE
  5
79
330
A
100
AcDbEntity
  8
AM_8
  6
Continuous
 62
     7
370
     0
100
AcDbLine
 10
-6.999998446000006
 20
64.07884319449362
 30
0.0
 11
-12.75769522779103
 21
58.32114641270256
 31
0.0
  0
LINE
  5
7A
330
A
100
AcDbEntity
  8
AM_8
  6
Continuous
 62
     7
370
     0
100
AcDbLine
 10
-15.58612095988039
 20
58.32114641270262
 30
0.0
 11
-6.999998446000006
 21
66.90726511658384
 31
0.0
  0
LINE
  5
7B
330
A
100
AcDbEntity
  8
AM_8
  6
Continuous
 62
     7
370
     0
100
AcDbLine
 10
-6.999998446000006
 20
69.73569465867233
 30
0.0
 11
-18.41454860196933
 21
58.32114641270258
 31
0.0
  0
LINE
  5
7C
330
A
100
AcDbEntity
  8
AM_8
  6
Continuous
 62
     7
370
     0
100
AcDbLine
 10
-19.99999556000001
 20
59.56412709676083
 30
0.0
 11
-8.242977220058662
 21
71.32114352670258
 31
0.0
  0
LINE
  5
7D
330
A
100
AcDbEntity
  8
AM_8
  6
Continuous
 62
     7
370
     0
100
AcDbLine
 10
-11.07140486214759
 20
71.32114352670258
 30
0.0
 11
-19.99999556
 21
62.39254900885099
 31
0.0
  0
LINE
  5
7E
330
A
100
AcDbEntity
  8
AM_8
  6
Continuous
 62
     7
370
     0
100
AcDbLine
 10
-19.99999556000001
 20
65.22097856093951
 30
0.0
 11
-13.89983059423694
 21
71.32114352670258
 31
0.0
  0
LINE
  5
7F
330
A
100
AcDbEntity
  8
AM_8
  6
Continuous
 62
     7
370
     0
100
AcDbLine
 10
-16.72825632632627
 20
71.32114352670258
 30
0.0
 11
-19.99999556
 21
68.04940048302968
 31
0.0
  0
LINE
  5
80
330
A
100
AcDbEntity
  8
AM_8
  6
Continuous
 62
     7
370
     0
100
AcDbLine
 10
-19.99999556000001
 20
70.8778300251182
 30
0.0
 11
-19.55668396841521
 21
71.32114352670256
 31
0.0
  0
LINE
  5
81
330
A
100
AcDbEntity
  8
AM_8
  6
Continuous
 62
     7
370
     0
100
AcDbLine
 10
19.97757849497658
 20
82.5711410292026
 30
0.0
 11
19.99999365000042
 21
82.59355618422642
 31
0.0
  0
LINE
  5
82
330
A
100
AcDbEntity
  8
AM_8
  6
Continuous
 62
     7
370
     0
100
AcDbLine
 10
22.99999298400042
 20
88.42198507031495
 30
0.0
 11
22.39915159738723
 21
87.8211398637026
 31
0.0
  0
LINE
  5
83
330
A
100
AcDbEntity
  8
AM_8
  6
Continuous
 62
     7
370
     0
100
AcDbLine
 10
19.99999365000042
 20
85.42198573631493
 30
0.0
 11
17.14915276288724
 21
82.5711410292026
 31
0.0
  0
LINE
  5
84
330
A
100
AcDbEntity
  8
AM_8
  6
Continuous
 62
     7
370
     0
100
AcDbLine
 10
14.99999476000042
 20
83.25040875840512
 30
0.0
 11
22.99999298400042
 21
91.25040698240512
 31
0.0
  0
LINE
  5
85
330
A
100
AcDbEntity
  8
AM_8
  6
Continuous
 62
     7
370
     0
100
AcDbLine
 10
22.99999298400042
 20
94.07883653449365
 30
0.0
 11
14.24229686820939
 21
85.3211404187026
 31
0.0
  0
LINE
  5
86
330
A
100
AcDbEntity
  8
AM_8
  6
Continuous
 62
     7
370
     0
100
AcDbLine
 10
11.41387113612003
 20
85.3211404187026
 30
0.0
 11
22.99999298400042
 21
96.90725845658382
 31
0.0
  0
LINE
  5
87
330
A
100
AcDbEntity
  8
AM_8
  6
Continuous
 62
     7
370
     0
100
AcDbLine
 10
21.5854425180307
 20
98.3211375327026
 30
0.0
 11
8.585445404030707
 21
85.3211404187026
 31
0.0
  0
LINE
  5
88
330
A
100
AcDbEntity
  8
AM_8
  6
Continuous
 62
     7
370
     0
100
AcDbLine
 10
6.999996536000423
 20
86.56412110276084
 30
0.0
 11
18.75701678594134
 21
98.3211375327026
 31
0.0
  0
LINE
  5
89
330
A
100
AcDbEntity
  8
AM_8
  6
Continuous
 62
     7
370
     0
100
AcDbLine
 10
15.92858723385285
 20
98.3211375327026
 30
0.0
 11
6.999996536000438
 21
89.392543014851
 31
0.0
  0
LINE
  5
8A
330
A
100
AcDbEntity
  8
AM_8
  6
Continuous
 62
     7
370
     0
100
AcDbLine
 10
6.999996536000423
 20
92.22097256693952
 30
0.0
 11
13.10016150176349
 21
98.3211375327026
 31
0.0
  0
LINE
  5
8B
330
A
100
AcDbEntity
  8
AM_8
  6
Continuous
 62
     7
370
     0
100
AcDbLine
 10
10.27173576967416
 20
98.3211375327026
 30
0.0
 11
6.999996536000438
 21
95.0493944890297
 31
0.0
  0
LINE
  5
8C
330
A
100
AcDbEntity
  8
AM_8
  6
Continuous
 62
     7
370
     0
100
AcDbLine
 10
6.999996536000423
 20
97.87782403111824
 30
0.0
 11
7.443310037584808
 21
98.3211375327026
 31
0.0
  0
LINE
  5
8D
330
A
100
AcDbEntity
  8
AM_8
  6
Continuous
 62
     7
370
     0
100
AcDbLine
 10
-8.385112808504544
 20
85.3211404187026
 30
0.0
 11
-6.999998445999992
 21
86.70625669120672
 31
0.0
  0
LINE
  5
8E
330
A
100
AcDbEntity
  8
AM_8
  6
Continuous
 62
     7
370
     0
100
AcDbLine
 10
-6.999998446000006
 20
89.53467860329693
 30
0.0
 11
-11.21354045059347
 21
85.32114041870263
 31
0.0
  0
LINE
  5
8F
330
A
100
AcDbEntity
  8
AM_8
  6
Continuous
 62
     7
370
     0
100
AcDbLine
 10
-14.04196618268281
 20
85.3211404187026
 30
0.0
 11
-6.999998445999992
 21
92.36310815538541
 31
0.0
  0
LINE
  5
90
330
A
100
AcDbEntity
  8
AM_8
  6
Continuous
 62
     7
370
     0
100
AcDbLine
 10
-6.999998446000006
 20
95.1915300774756
 30
0.0
 11
-16.87039191477217
 21
85.3211404187026
 31
0.0
  0
LINE
  5
91
330
A
100
AcDbEntity
  8
AM_8
  6
Continuous
 62
     7
370
     0
100
AcDbLine
 10
-19.69881955686109
 20
85.3211404187026
 30
0.0
 11
-6.999998446000006
 21
98.01995961956409
 31
0.0
  0
LINE
  5
92
330
A
100
AcDbEntity
  8
AM_8
  6
Continuous
 62
     7
370
     0
100
AcDbLine
 10
-9.527248174950443
 20
98.3211375327026
 30
0.0
 11
-19.99999556
 21
87.84839205765258
 31
0.0
  0
LINE
  5
93
330
A
100
AcDbEntity
  8
AM_8
  6
Continuous
 62
     7
370
     0
100
AcDbLine
 10
-19.99999556000001
 20
90.67681396974284
 30
0.0
 11
-12.35567581703937
 21
98.32113753270263
 31
0.0
  0
LINE
  5
94
330
A
100
AcDbEntity
  8
AM_8
  6
Continuous
 62
     7
370
     0
100
AcDbLine
 10
-15.18410154912871
 20
98.3211375327026
 30
0.0
 11
-19.99999556
 21
93.50524352183134
 31
0.0
  0
LINE
  5
95
330
A
100
AcDbEntity
  8
AM_8
  6
Continuous
 62
     7
370
     0
100
AcDbLine
 10
-19.93155227519442
 20
96.4021087287271
 30
0.0
 11
-18.08097056602365
 21
98.25269424789706
 31
0.0
  0
LWPOLYLINE
  5
96
330
A
100
AcDbEntity
  8
PROFILATI-IN-ALLUMINIO
  6
Continuous
 62
     7
370
     0
100
AcDbPolyline
 90
        5
 70
     1
 43
0.0
 10
19.99999365000042
 20
70.8211436377026
 10
7.499996425000418
 20
70.8211436377026
 10
7.499996425000418
 20
58.32114641270262
 10
19.99999365000042
 20
58.32114641270262
 10
19.99999365000042
 20
70.8211436377026
  0
LWPOLYLINE
  5
97
330
A
100
AcDbEntity
  8
PROFILATI-IN-ALLUMINIO
  6
Continuous
 62
     7
370
     0
100
AcDbPolyline
 90
        3
 70
     0
 43
0.0
 10
-19.99999556000001
 20
85.3211404187026
 10
-6.999998446000006
 20
85.3211404187026
 10
-6.999998446000006
 20
98.3211375327026
  0
LINE
  5
98
330
A
100
AcDbEntity
  8
PROFILATI-IN-ALLUMINIO
  6
Continuous
 62
     7
370
     0
100
AcDbLine
 10
4.249999056500001
 20
63.32114530270259
 30
0.0
 11
4.249999056500001
 21
58.32114641270258
 31
0.0
  0
LINE
  5
99
330
A
100
AcDbEntity
  8
PROFILATI-IN-ALLUMINIO
  6
Continuous
 62
     7
370
     0
100
AcDbLine
 10
-4.249999056500001
 20
63.32114530270259
 30
0.0
 11
-4.249999056500001
 21
58.32114641270258
 31
0.0
  0
LINE
  5
9A
330
A
100
AcDbEntity
  8
PROFILATI-IN-ALLUMINIO
  6
Continuous
 62
     7
370
     0
100
AcDbLine
 10
14.99999476000042
 20
74.07114291620262
 30
0.0
 11
19.99999365000042
 21
74.07114291620262
 31
0.0
  0
LINE
  5
9B
330
A
100
AcDbEntity
  8
PROFILATI-IN-ALLUMINIO
  6
Continuous
 62
     7
370
     0
100
AcDbLine
 10
14.99999476000042
 20
82.5711410292026
 30
0.0
 11
19.99999365000042
 21
82.5711410292026
 31
0.0
  0
CIRCLE
  5
9C
330
A
100
AcDbEntity
  8
PROFILATI-IN-ALLUMINIO
  6
Continuous
 62
     7
370
     0
100
AcDbCircle
 10
0.0
 20
0.0
 30
0.0
 40
4.249999056499992
  0
CIRCLE
  5
9D
330
A
100
AcDbEntity
  8
PROFILATI-IN-ALLUMINIO
  6
Continuous
 62
     7
370
     0
100
AcDbCircle
 10
0.0
 20
0.0
 30
0.0
 40
6.999996536000421
  0
LWPOLYLINE
  5
9E
330
A
100
AcDbEntity
  8
PROFILATI-IN-ALLUMINIO
  6
Continuous
 62
     7
370
     0
100
AcDbPolyline
 90
        4
 70
     0
 43
0.0
 10
19.99999365000042
 20
-3.999999112000026
 10
7.499996425000418
 20
-3.999999112000026
 10
7.499996425000418
 20
3.999999111999997
 10
19.99999365000042
 20
3.999999111999997
  0
LWPOLYLINE
  5
9F
330
A
100
AcDbEntity
  8
PROFILATI-IN-ALLUMINIO
  6
Continuous
 62
     7
370
     0
100
AcDbPolyline
 90
        5
 70
     0
 43
0.0
 10
-3.999999111999997
 20
-19.99999365000048
 10
-3.999999111999997
 20
-9.499997891000035
 10
3.999999111999997
 20
-9.499997891000035
 10
3.999999111999997
 20
-18.88816604682623
 10
3.999999111999997
 20
-19.99999365000048
  0
LINE
  5
A0
330
A
100
AcDbEntity
  8
AM_BOR
  6
Continuous
 62
     7
370
     0
100
AcDbLine
 10
19.99999365000042
 20
3.999999111999997
 30
0.0
 11
19.99999365000042
 21
-3.999999111999997
 31
0.0
  0
LINE
  5
A1
330
A
100
AcDbEntity
  8
DEFAULT
  6
HIDDEN2
 62
     7
370
     0
100
AcDbLine
 10
-19.99999556000001
 20
6.999998445999992
 30
0.0
 11
14.99999476000042
 21
6.999998445999992
 31
0.0
  0
LINE
  5
A2
330
A
100
AcDbEntity
  8
DEFAULT
  6
HIDDEN2
 62
     7
370
     0
100
AcDbLine
 10
14.99999476000042
 20
6.999998445999992
 30
0.0
 11
14.99999476000042
 21
3.999999111999997
 31
0.0
  0
LINE
  5
A3
330
A
100
AcDbEntity
  8
DEFAULT
  6
HIDDEN2
 62
     7
370
     0
100
AcDbLine
 10
-19.99999556000001
 20
-6.999998446000034
 30
0.0
 11
14.99999476000042
 21
-6.999998446000034
 31
0.0
  0
LINE
  5
A4
330
A
100
AcDbEntity
  8
DEFAULT
  6
HIDDEN2
 62
     7
370
     0
100
AcDbLine
 10
14.99999476000042
 20
-6.999998446000034
 30
0.0
 11
14.99999476000042
 21
-3.99999911200004
 31
0.0
  0
LINE
  5
A5
330
A
100
AcDbEntity
  8
DEFAULT
  6
Continuous
 62
     7
370
     0
100
AcDbLine
 10
19.99999365000042
 20
-3.999999112000026
 30
0.0
 11
14.99999476000042
 21
-3.999999112000026
 31
0.0
  0
LINE
  5
A6
330
A
100
AcDbEntity
  8
DEFAULT
  6
HIDDEN2
 62
     7
370
     0
100
AcDbLine
 10
14.99999476000042
 20
-3.999999112000026
 30
0.0
 11
14.99999476000042
 21
3.999999111999997
 31
0.0
  0
LINE
  5
A7
330
A
100
AcDbEntity
  8
DEFAULT
  6
Continuous
 62
     7
370
     0
100
AcDbLine
 10
14.99999476000042
 20
3.999999111999997
 30
0.0
 11
19.99999365000042
 21
3.999999111999997
 31
0.0
  0
LINE
  5
A8
330
A
100
AcDbEntity
  8
DEFAULT
  6
Continuous
 62
     7
370
     0
100
AcDbLine
 10
7.499996425000418
 20
58.32114641270262
 30
0.0
 11
19.99999365000042
 21
58.32114641270262
 31
0.0
  0
LINE
  5
A9
330
A
100
AcDbEntity
  8
DEFAULT
  6
Continuous
 62
     7
370
     0
100
AcDbLine
 10
19.99999365000042
 20
58.32114641270262
 30
0.0
 11
19.99999365000042
 21
71.27985325586904
 31
0.0
  0
LINE
  5
AA
330
A
100
AcDbEntity
  8
DEFAULT
  6
Continuous
 62
     7
370
     0
100
AcDbLine
 10
6.999996536000423
 20
98.3211375327026
 30
0.0
 11
6.999996536000423
 21
85.32114041870256
 31
0.0
  0
LINE
  5
AB
330
A
100
AcDbEntity
  8
DEFAULT
  6
Continuous
 62
     7
370
     0
100
AcDbLine
 10
6.999996536000423
 20
85.3211404187026
 30
0.0
 11
14.99999476000043
 21
85.3211404187026
 31
0.0
  0
LINE
  5
AC
330
A
100
AcDbEntity
  8
DEFAULT
  6
Continuous
 62
     7
370
     0
100
AcDbLine
 10
14.99999476000042
 20
85.3211404187026
 30
0.0
 11
14.99999476000042
 21
71.32114352670261
 31
0.0
  0
LINE
  5
AD
330
A
100
AcDbEntity
  8
DEFAULT
  6
Continuous
 62
     7
370
     0
100
AcDbLine
 10
14.99999476000042
 20
71.32114352670258
 30
0.0
 11
6.999996536000409
 21
71.32114352670258
 31
0.0
  0
LINE
  5
AE
330
A
100
AcDbEntity
  8
DEFAULT
  6
Continuous
 62
     7
370
     0
100
AcDbLine
 10
6.999996536000423
 20
71.32114352670258
 30
0.0
 11
6.999996536000423
 21
63.32114530270259
 31
0.0
  0
LINE
  5
AF
330
A
100
AcDbEntity
  8
DEFAULT
  6
Continuous
 62
     7
370
     0
100
AcDbLine
 10
6.999996536000423
 20
63.32114530270259
 30
0.0
 11
-6.999998446000006
 21
63.32114530270259
 31
0.0
  0
LINE
  5
B0
330
A
100
AcDbEntity
  8
DEFAULT
  6
Continuous
 62
     7
370
     0
100
AcDbLine
 10
-6.999998446000006
 20
63.32114530270259
 30
0.0
 11
-6.999998446000006
 21
71.32114352670258
 31
0.0
  0
LINE
  5
B1
330
A
100
AcDbEntity
  8
DEFAULT
  6
Continuous
 62
     7
370
     0
100
AcDbLine
 10
-6.999998446000006
 20
71.32114352670258
 30
0.0
 11
-19.99999556
 21
71.32114352670258
 31
0.0
  0
LINE
  5
B2
330
A
100
AcDbEntity
  8
DEFAULT
  6
Continuous
 62
     7
370
     0
100
AcDbLine
 10
-3.999999111999997
 20
19.99999555999997
 30
0.0
 11
-3.999999111999997
 21
9.499997890999964
 31
0.0
  0
LINE
  5
B3
330
A
100
AcDbEntity
  8
DEFAULT
  6
Continuous
 62
     7
370
     0
100
AcDbLine
 10
-3.999999111999997
 20
9.499997890999978
 30
0.0
 11
3.999999111999997
 21
9.499997890999978
 31
0.0
  0
LINE
  5
B4
330
A
100
AcDbEntity
  8
DEFAULT
  6
Continuous
 62
     7
370
     0
100
AcDbLine
 10
3.999999111999997
 20
9.499997890999978
 30
0.0
 11
3.999999111999997
 21
19.99999555999998
 31
0.0
  0
LINE
  5
B5
330
A
100
AcDbEntity
  8
DEFAULT
  6
Continuous
 62
     7
370
     0
100
AcDbLine
 10
-3.999999111999997
 20
-19.99999365000048
 30
0.0
 11
-3.999999111999997
 21
-9.499997891000049
 31
0.0
  0
LINE
  5
B6
330
A
100
AcDbEntity
  8
DEFAULT
  6
Continuous
 62
     7
370
     0
100
AcDbLine
 10
-3.999999111999997
 20
-9.499997891000035
 30
0.0
 11
3.999999111999997
 21
-9.499997891000035
 31
0.0
  0
LINE
  5
B7
330
A
100
AcDbEntity
  8
DEFAULT
  6
Continuous
 62
     7
370
     0
100
AcDbLine
 10
3.999999111999997
 20
-9.499997891000035
 30
0.0
 11
3.999999111999997
 21
-19.99999365000046
 31
0.0
  0
LWPOLYLINE
  5
BA
330
A
100
AcDbEntity
  8
PROFILATI-IN-ALLUMINIO
  6
Continuous
 62
     7
370
     0
100
AcDbPolyline
 90
       14
 70
     1
 43
0.0
 10
-19.99999556000001
 20
58.32114641270262
 10
-19.99999556
 20
95.82113808770257
 42
-0.414213560000002
 10
-17.499996115
 20
98.3211375327026
 10
22.99999298400042
 20
98.3211375327026
 10
22.99999298400042
 20
87.82113986370259
 10
19.99999365000042
 20
87.82113986370259
 10
19.99999365000042
 20
70.8211436377026
 10
7.499996425000418
 20
70.8211436377026
 10
7.499996425000418
 20
58.32114641270262
 10
3.999999111999997
 20
58.32114641270262
 10
3.999999111999997
 20
55.32114707870262
 10
-3.999999111999997
 20
55.32114707870262
 10
-3.999999111999997
 20
58.32114641270262
 10
-19.99999555999998
 20
58.32114641270262
  0
LWPOLYLINE
  5
BB
330
A
100
AcDbEntity
  8
AM_BOR
  6
Continuous
 62
     7
370
     0
100
AcDbPolyline
 90
        3
 70
     0
 43
0.0
 10
-6.999998445999992
 20
71.32114352670258
 42
-0.3533881600000003
 10
0.0
 20
77.43671986904438
 42
-0.3428041700000014
 10
6.999996536000438
 20
71.32114352670258
 42
-0.3428041700000014
  0
LWPOLYLINE
  5
BC
330
A
100
AcDbEntity
  8
AM_BOR
  6
Continuous
 62
     7
370
     0
100
AcDbPolyline
 90
        3
 70
     0
 43
0.0
 10
-6.99999844600002
 20
85.3211404187026
 42
0.3533881700000014
 10
0.0
 20
79.20555644636253
 42
0.3428041900000003
 10
6.999996536000423
 20
85.3211404187026
 42
0.3428041900000003
  0
LWPOLYLINE
  5
BD
330
A
100
AcDbEntity
  8
PROFILATI-IN-ALLUMINIO
  6
Continuous
 62
     7
370
     0
100
AcDbPolyline
 90
       11
 70
     1
 43
0.0
 10
-17.499996115
 20
19.99999555999997
 42
0.4142135600000003
 10
-19.99999556000001
 20
17.49999611499996
 10
-19.99999556
 20
-17.49999420500046
 42
0.4142135599999952
 10
-17.499996115
 20
-19.99999365000048
 10
19.99999365000042
 20
-19.99999365000048
 10
19.99999365000042
 20
-3.999999112000026
 10
22.99999298400042
 20
-3.999999112000026
 10
22.99999298400042
 20
3.999999111999997
 10
19.99999365000042
 20
3.999999111999997
 10
19.99999365000042
 20
19.99999555999997
 10
-17.499996115
 20
19.99999555999997
  0
ENDSEC
  0
SECTION
  2
OBJECTS
  0
DICTIONARY
  5
19
330
0
100
AcDbDictionary
281
     1
  3
ACAD_COLOR
350
239
  3
ACAD_GROUP
350
1A
  3
ACAD_LAYOUT
350
1E
  3
ACAD_MATERIAL
350
207
  3
ACAD_MLEADERSTYLE
350
27A
  3
ACAD_MLINESTYLE
350
1B
  3
ACAD_PLOTSETTINGS
350
22
  3
ACAD_PLOTSTYLENAME
350
1F
  3
ACAD_SCALELIST
350
23A
  3
ACAD_TABLESTYLE
350
274
  3
ACAD_VISUALSTYLE
350
220
  3
ACAD_WIPEOUT_VARS
350
23
  3
ACDB_RECOMPOSE_DATA
350
415
  3
AcDbVariableDictionary
350
205
  3
ASE_INDEX_DICTIONARY
350
40A
  3
DWGPROPS
350
416
  0
DICTIONARY
  5
3EB
330
14
100
AcDbDictionary
280
     1
281
     1
  3
ADSK_XREC_LAYER_RECONCILED
360
3EC
  0
DICTIONARY
  5
3ED
330
2D
100
AcDbDictionary
280
     1
281
     1
  3
ADSK_XREC_LAYER_RECONCILED
360
3EE
  0
DICTIONARY
  5
3EF
330
2F
100
AcDbDictionary
280
     1
281
     1
  3
ADSK_XREC_LAYER_RECONCILED
360
3F0
  0
DICTIONARY
  5
3F1
330
31
100
AcDbDictionary
280
     1
281
     1
  3
ADSK_XREC_LAYER_RECONCILED
360
3F2
  0
DICTIONARY
  5
3F3
330
33
100
AcDbDictionary
280
     1
281
     1
  3
ADSK_XREC_LAYER_RECONCILED
360
3F4
  0
DICTIONARY
  5
3F5
330
35
100
AcDbDictionary
280
     1
281
     1
  3
ADSK_XREC_LAYER_RECONCILED
360
3F6
  0
DICTIONARY
  5
3F7
330
37
100
AcDbDictionary
280
     1
281
     1
  3
ADSK_XREC_LAYER_RECONCILED
360
3F8
  0
DICTIONARY
  5
3F9
330
39
100
AcDbDictionary
280
     1
281
     1
  3
ADSK_XREC_LAYER_RECONCILED
360
3FA
  0
DICTIONARY
  5
3FB
330
3B
100
AcDbDictionary
280
     1
281
     1
  3
ADSK_XREC_LAYER_RECONCILED
360
3FC
  0
DICTIONARY
  5
3FD
330
3D
100
AcDbDictionary
280
     1
281
     1
  3
ADSK_XREC_LAYER_RECONCILED
360
3FE
  0
DICTIONARY
  5
3FF
330
3F
100
AcDbDictionary
280
     1
281
     1
  3
ADSK_XREC_LAYER_RECONCILED
360
400
  0
DICTIONARY
  5
401
330
41
100
AcDbDictionary
280
     1
281
     1
  3
ADSK_XREC_LAYER_RECONCILED
360
402
  0
DICTIONARY
  5
403
330
45
100
AcDbDictionary
280
     1
281
     1
  3
ADSK_XREC_LAYER_RECONCILED
360
404
  0
DICTIONARY
  5
405
330
47
100
AcDbDictionary
280
     1
281
     1
  3
ADSK_XREC_LAYER_RECONCILED
360
406
  0
DICTIONARY
  5
407
330
49
100
AcDbDictionary
280
     1
281
     1
  3
ADSK_XREC_LAYER_RECONCILED
360
408
  0
DICTIONARY
  5
239
102
{ACAD_REACTORS
330
19
102
}
330
19
100
AcDbDictionary
281
     1
  0
DICTIONARY
  5
1A
102
{ACAD_REACTORS
330
19
102
}
330
19
100
AcDbDictionary
281
     1
  0
DICTIONARY
  5
1E
102
{ACAD_REACTORS
330
19
102
}
330
19
100
AcDbDictionary
281
     1
  3
Layout1
350
21
  3
Model
350
20
  0
DICTIONARY
  5
207
102
{ACAD_REACTORS
330
19
102
}
330
19
100
AcDbDictionary
281
     1
  3
ByBlock
350
210
  3
ByLayer
350
208
  3
Global
350
218
  0
DICTIONARY
  5
27A
102
{ACAD_REACTORS
330
19
102
}
330
19
100
AcDbDictionary
281
     1
  3
Standard
350
27B
  0
DICTIONARY
  5
1B
102
{ACAD_REACTORS
330
19
102
}
330
19
100
AcDbDictionary
281
     1
  3
Standard
350
1C
  0
DICTIONARY
  5
22
102
{ACAD_REACTORS
330
19
102
}
330
19
100
AcDbDictionary
281
     1
  0
ACDBDICTIONARYWDFLT
  5
1F
102
{ACAD_REACTORS
330
19
102
}
330
19
100
AcDbDictionary
281
     1
  3
Normal
350
1D
100
AcDbDictionaryWithDefault
340
1D
  0
DICTIONARY
  5
23A
102
{ACAD_REACTORS
330
19
102
}
330
19
100
AcDbDictionary
281
     1
  3
A0
350
23B
  3
A1
350
23C
  3
A2
350
23D
  3
A3
350
23E
  3
A4
350
23F
  3
A5
350
240
  3
A6
350
241
  3
A7
350
242
  3
A8
350
243
  3
A9
350
244
  3
B0
350
245
  3
B1
350
246
  3
B2
350
247
  3
B3
350
248
  3
B4
350
249
  3
B5
350
24A
  3
B6
350
24B
  0
DICTIONARY
  5
274
102
{ACAD_REACTORS
330
19
102
}
330
19
100
AcDbDictionary
281
     1
  3
Standard
350
275
  0
DICTIONARY
  5
220
102
{ACAD_REACTORS
330
19
102
}
330
19
100
AcDbDictionary
281
     1
  3
2dWireframe
350
226
  3
Basic
350
225
  3
Brighten
350
22C
  3
ColorChange
350
230
  3
Conceptual
350
229
  3
Dim
350
22B
  3
EdgeColorOff
350
238
  3
Facepattern
350
22F
  3
Flat
350
221
  3
FlatWithEdges
350
222
  3
Gouraud
350
223
  3
GouraudWithEdges
350
224
  3
Hidden
350
228
  3
JitterOff
350
236
  3
Linepattern
350
22E
  3
OverhangOff
350
237
  3
Realistic
350
22A
  3
Shaded
350
235
  3
Shaded with edges
350
234
  3
Shades of Gray
350
231
  3
Sketchy
350
232
  3
Thicken
350
22D
  3
Wireframe
350
227
  3
X-Ray
350
233
  0
WIPEOUTVARIABLES
  5
23
330
19
100
AcDbWipeoutVariables
 70
     1
  0
XRECORD
  5
415
102
{ACAD_REACTORS
330
19
102
}
330
19
100
AcDbXrecord
280
     1
 90
        1
330
275
  0
DICTIONARY
  5
205
330
19
100
AcDbDictionary
281
     0
  3
CANNOSCALE
350
40F
  3
CMLEADERSTYLE
350
40E
  3
CTABLESTYLE
350
40D
  3
DIMASSOC
350
206
  3
INDEXCTL
350
411
  3
SORTENTS
350
410
  3
XCLIPFRAME
350
412
  0
DICTIONARY
  5
40A
102
{ACAD_REACTORS
330
19
102
}
330
19
100
AcDbDictionary
281
     1
  3
ASEBlockHierarchyIndexRecord
350
40C
1001
DCO15
1040
1717497349.155
  0
XRECORD
  5
416
102
{ACAD_REACTORS
330
19
102
}
330
19
100
AcDbXrecord
280
     1
  1
DWGPROPS COOKIE
  2

  3

  4

  6

  7

  8
mpistoia
  9

300
=
301
=
302
=
303
=
304
=
305
=
306
=
307
=
308
=
309
=
 40
0.0007511226851852
 41
2455681.652664664
 42
2455681.653392998
  1

 90
        0
  0
XRECORD
  5
3EC
102
{ACAD_REACTORS
330
3EB
102
}
330
3EB
100
AcDbXrecord
280
     1
290
     1
  0
XRECORD
  5
3EE
102
{ACAD_REACTORS
330
3ED
102
}
330
3ED
100
AcDbXrecord
280
     1
290
     1
  0
XRECORD
  5
3F0
102
{ACAD_REACTORS
330
3EF
102
}
330
3EF
100
AcDbXrecord
280
     1
290
     1
  0
XRECORD
  5
3F2
102
{ACAD_REACTORS
330
3F1
102
}
330
3F1
100
AcDbXrecord
280
     1
290
     1
  0
XRECORD
  5
3F4
102
{ACAD_REACTORS
330
3F3
102
}
330
3F3
100
AcDbXrecord
280
     1
290
     1
  0
XRECORD
  5
3F6
102
{ACAD_REACTORS
330
3F5
102
}
330
3F5
100
AcDbXrecord
280
     1
290
     1
  0
XRECORD
  5
3F8
102
{ACAD_REACTORS
330
3F7
102
}
330
3F7
100
AcDbXrecord
280
     1
290
     1
  0
XRECORD
  5
3FA
102
{ACAD_REACTORS
330
3F9
102
}
330
3F9
100
AcDbXrecord
280
     1
290
     1
  0
XRECORD
  5
3FC
102
{ACAD_REACTORS
330
3FB
102
}
330
3FB
100
AcDbXrecord
280
     1
290
     1
  0
XRECORD
  5
3FE
102
{ACAD_REACTORS
330
3FD
102
}
330
3FD
100
AcDbXrecord
280
     1
290
     1
  0
XRECORD
  5
400
102
{ACAD_REACTORS
330
3FF
102
}
330
3FF
100
AcDbXrecord
280
     1
290
     1
  0
XRECORD
  5
402
102
{ACAD_REACTORS
330
401
102
}
330
401
100
AcDbXrecord
280
     1
290
     1
  0
XRECORD
  5
404
102
{ACAD_REACTORS
330
403
102
}
330
403
100
AcDbXrecord
280
     1
290
     1
  0
XRECORD
  5
406
102
{ACAD_REACTORS
330
405
102
}
330
405
100
AcDbXrecord
280
     1
290
     1
  0
XRECORD
  5
408
102
{ACAD_REACTORS
330
407
102
}
330
407
100
AcDbXrecord
280
     1
290
     1
  0
LAYOUT
  5
21
102
{ACAD_XDICTIONARY
360
419
102
}
102
{ACAD_REACTORS
330
1E
102
}
330
1E
100
AcDbPlotSettings
  1

  2

  4

  6

 40
0.0
 41
0.0
 42
0.0
 43
0.0
 44
0.0
 45
0.0
 46
0.0
 47
0.0
 48
0.0
 49
0.0
140
0.0
141
0.0
142
1.0
143
1.0
 70
     0
 72
     0
 73
     0
 74
     0
  7

 75
     0
147
1.0
148
0.0
149
0.0
100
AcDbLayout
  1
Layout1
 70
     0
 71
     1
 10
0.0
 20
0.0
 11
12.0
 21
9.0
 12
0.0
 22
0.0
 32
0.0
 14
1.000000000000000E+20
 24
1.000000000000000E+20
 34
1.000000000000000E+20
 15
-1.000000000000000E+20
 25
-1.000000000000000E+20
 35
-1.000000000000000E+20
146
0.0
 13
0.0
 23
0.0
 33
0.0
 16
1.0
 26
0.0
 36
0.0
 17
0.0
 27
1.0
 37
0.0
 76
     0
330
B
  0
LAYOUT
  5
20
102
{ACAD_XDICTIONARY
360
417
102
}
102
{ACAD_REACTORS
330
1E
102
}
330
1E
100
AcDbPlotSettings
  1

  2

  4

  6

 40
0.0
 41
0.0
 42
0.0
 43
0.0
 44
0.0
 45
0.0
 46
0.0
 47
0.0
 48
0.0
 49
0.0
140
0.0
141
0.0
142
1.0
143
1.0
 70
  1024
 72
     0
 73
     0
 74
     0
  7

 75
     0
147
1.0
148
0.0
149
0.0
100
AcDbLayout
  1
Model
 70
     0
 71
     0
 10
0.0
 20
0.0
 11
0.0
 21
0.0
 12
0.0
 22
0.0
 32
0.0
 14
0.0
 24
0.0
 34
0.0
 15
0.0
 25
0.0
 35
0.0
146
0.0
 13
0.0
 23
0.0
 33
0.0
 16
0.0
 26
0.0
 36
0.0
 17
0.0
 27
0.0
 37
0.0
 76
     0
330
A
331
15
  0
MATERIAL
  5
210
102
{ACAD_XDICTIONARY
360
211
102
}
102
{ACAD_REACTORS
330
207
102
}
330
207
100
AcDbMaterial
  1
ByBlock
 72
     0
 43
0.0208333333333333
 43
0.0
 43
0.0
 43
0.0
 43
0.0
 43
0.0208333333333333
 43
0.0
 43
0.0
 43
0.0
 43
0.0
 43
1.0
 43
0.0
 43
0.0
 43
0.0
 43
0.0
 43
1.0
 77
     0
 47
0.0208333333333333
 47
0.0
 47
0.0
 47
0.0
 47
0.0
 47
0.0208333333333333
 47
0.0
 47
0.0
 47
0.0
 47
0.0
 47
1.0
 47
0.0
 47
0.0
 47
0.0
 47
0.0
 47
1.0
171
     0
 49
0.0208333333333333
 49
0.0
 49
0.0
 49
0.0
 49
0.0
 49
0.0208333333333333
 49
0.0
 49
0.0
 49
0.0
 49
0.0
 49
1.0
 49
0.0
 49
0.0
 49
0.0
 49
0.0
 49
1.0
175
     0
142
0.0208333333333333
142
0.0
142
0.0
142
0.0
142
0.0
142
0.0208333333333333
142
0.0
142
0.0
142
0.0
142
0.0
142
1.0
142
0.0
142
0.0
142
0.0
142
0.0
142
1.0
179
     0
144
0.0208333333333333
144
0.0
144
0.0
144
0.0
144
0.0
144
0.0208333333333333
144
0.0
144
0.0
144
0.0
144
0.0
144
1.0
144
0.0
144
0.0
144
0.0
144
0.0
144
1.0
147
0.0208333333333333
147
0.0
147
0.0
147
0.0
147
0.0
147
0.0208333333333333
147
0.0
147
0.0
147
0.0
147
0.0
147
1.0
147
0.0
147
0.0
147
0.0
147
0.0
147
1.0
  0
MATERIAL
  5
208
102
{ACAD_XDICTIONARY
360
209
102
}
102
{ACAD_REACTORS
330
207
102
}
330
207
100
AcDbMaterial
  1
ByLayer
 72
     0
 43
0.0208333333333333
 43
0.0
 43
0.0
 43
0.0
 43
0.0
 43
0.0208333333333333
 43
0.0
 43
0.0
 43
0.0
 43
0.0
 43
1.0
 43
0.0
 43
0.0
 43
0.0
 43
0.0
 43
1.0
 77
     0
 47
0.0208333333333333
 47
0.0
 47
0.0
 47
0.0
 47
0.0
 47
0.0208333333333333
 47
0.0
 47
0.0
 47
0.0
 47
0.0
 47
1.0
 47
0.0
 47
0.0
 47
0.0
 47
0.0
 47
1.0
171
     0
 49
0.0208333333333333
 49
0.0
 49
0.0
 49
0.0
 49
0.0
 49
0.0208333333333333
 49
0.0
 49
0.0
 49
0.0
 49
0.0
 49
1.0
 49
0.0
 49
0.0
 49
0.0
 49
0.0
 49
1.0
175
     0
142
0.0208333333333333
142
0.0
142
0.0
142
0.0
142
0.0
142
0.0208333333333333
142
0.0
142
0.0
142
0.0
142
0.0
142
1.0
142
0.0
142
0.0
142
0.0
142
0.0
142
1.0
179
     0
144
0.0208333333333333
144
0.0
144
0.0
144
0.0
144
0.0
144
0.0208333333333333
144
0.0
144
0.0
144
0.0
144
0.0
144
1.0
144
0.0
144
0.0
144
0.0
144
0.0
144
1.0
147
0.0208333333333333
147
0.0
147
0.0
147
0.0
147
0.0
147
0.0208333333333333
147
0.0
147
0.0
147
0.0
147
0.0
147
1.0
147
0.0
147
0.0
147
0.0
147
0.0
147
1.0
  0
MATERIAL
  5
218
102
{ACAD_XDICTIONARY
360
219
102
}
102
{ACAD_REACTORS
330
207
102
}
330
207
100
AcDbMaterial
  1
Global
 72
     0
 43
0.0208333333333333
 43
0.0
 43
0.0
 43
0.0
 43
0.0
 43
0.0208333333333333
 43
0.0
 43
0.0
 43
0.0
 43
0.0
 43
1.0
 43
0.0
 43
0.0
 43
0.0
 43
0.0
 43
1.0
 77
     0
 47
0.0208333333333333
 47
0.0
 47
0.0
 47
0.0
 47
0.0
 47
0.0208333333333333
 47
0.0
 47
0.0
 47
0.0
 47
0.0
 47
1.0
 47
0.0
 47
0.0
 47
0.0
 47
0.0
 47
1.0
171
     0
 49
0.0208333333333333
 49
0.0
 49
0.0
 49
0.0
 49
0.0
 49
0.0208333333333333
 49
0.0
 49
0.0
 49
0.0
 49
0.0
 49
1.0
 49
0.0
 49
0.0
 49
0.0
 49
0.0
 49
1.0
175
     0
142
0.0208333333333333
142
0.0
142
0.0
142
0.0
142
0.0
142
0.0208333333333333
142
0.0
142
0.0
142
0.0
142
0.0
142
1.0
142
0.0
142
0.0
142
0.0
142
0.0
142
1.0
179
     0
144
0.0208333333333333
144
0.0
144
0.0
144
0.0
144
0.0
144
0.0208333333333333
144
0.0
144
0.0
144
0.0
144
0.0
144
1.0
144
0.0
144
0.0
144
0.0
144
0.0
144
1.0
147
0.0208333333333333
147
0.0
147
0.0
147
0.0
147
0.0
147
0.0208333333333333
147
0.0
147
0.0
147
0.0
147
0.0
147
1.0
147
0.0
147
0.0
147
0.0
147
0.0
147
1.0
  0
MLEADERSTYLE
  5
27B
102
{ACAD_REACTORS
330
27A
102
}
330
27A
100
AcDbMLeaderStyle
170
     2
171
     1
172
     0
 90
        2
 40
0.0
 41
0.0
173
     1
 91
-1056964608
340
11
 92
       -2
290
     1
 42
0.09
291
     1
 43
0.36
  3
Standard
 44
0.18
300

342
17
174
     1
178
     6
175
     1
176
     0
 93
-1056964608
 45
0.18
292
     0
297
     0
 46
0.18
 94
-1056964608
 47
1.0
 49
1.0
140
1.0
293
     1
141
0.0
294
     1
177
     0
142
1.0
295
     0
296
     0
143
0.125
1001
ACAD_MLEADERVER
1070
     2
  0
MLINESTYLE
  5
1C
102
{ACAD_REACTORS
330
1B
102
}
330
1B
100
AcDbMlineStyle
  2
STANDARD
 70
     0
  3

 62
     0
 51
90.0
 52
90.0
 71
     2
 49
0.5
 62
   256
  6
BYLAYER
 49
-0.5
 62
   256
  6
BYLAYER
  0
ACDBPLACEHOLDER
  5
1D
102
{ACAD_REACTORS
330
1F
102
}
330
1F
  0
SCALE
  5
23B
102
{ACAD_REACTORS
330
23A
102
}
330
23A
100
AcDbScale
 70
     0
300
1:1
140
1.0
141
1.0
290
     1
  0
SCALE
  5
23C
102
{ACAD_REACTORS
330
23A
102
}
330
23A
100
AcDbScale
 70
     0
300
1/128" = 1'-0"
140
0.0078125
141
12.0
290
     0
  0
SCALE
  5
23D
102
{ACAD_REACTORS
330
23A
102
}
330
23A
100
AcDbScale
 70
     0
300
1/64" = 1'-0"
140
0.015625
141
12.0
290
     0
  0
SCALE
  5
23E
102
{ACAD_REACTORS
330
23A
102
}
330
23A
100
AcDbScale
 70
     0
300
1/32" = 1'-0"
140
0.03125
141
12.0
290
     0
  0
SCALE
  5
23F
102
{ACAD_REACTORS
330
23A
102
}
330
23A
100
AcDbScale
 70
     0
300
1/16" = 1'-0"
140
0.0625
141
12.0
290
     0
  0
SCALE
  5
240
102
{ACAD_REACTORS
330
23A
102
}
330
23A
100
AcDbScale
 70
     0
300
3/32" = 1'-0"
140
0.09375
141
12.0
290
     0
  0
SCALE
  5
241
102
{ACAD_REACTORS
330
23A
102
}
330
23A
100
AcDbScale
 70
     0
300
1/8" = 1'-0"
140
0.125
141
12.0
290
     0
  0
SCALE
  5
242
102
{ACAD_REACTORS
330
23A
102
}
330
23A
100
AcDbScale
 70
     0
300
3/16" = 1'-0"
140
0.1875
141
12.0
290
     0
  0
SCALE
  5
243
102
{ACAD_REACTORS
330
23A
102
}
330
23A
100
AcDbScale
 70
     0
300
1/4" = 1'-0"
140
0.25
141
12.0
290
     0
  0
SCALE
  5
244
102
{ACAD_REACTORS
330
23A
102
}
330
23A
100
AcDbScale
 70
     0
300
3/8" = 1'-0"
140
0.375
141
12.0
290
     0
  0
SCALE
  5
245
102
{ACAD_REACTORS
330
23A
102
}
330
23A
100
AcDbScale
 70
     0
300
1/2" = 1'-0"
140
0.5
141
12.0
290
     0
  0
SCALE
  5
246
102
{ACAD_REACTORS
330
23A
102
}
330
23A
100
AcDbScale
 70
     0
300
3/4" = 1'-0"
140
0.75
141
12.0
290
     0
  0
SCALE
  5
247
102
{ACAD_REACTORS
330
23A
102
}
330
23A
100
AcDbScale
 70
     0
300
1" = 1'-0"
140
1.0
141
12.0
290
     0
  0
SCALE
  5
248
102
{ACAD_REACTORS
330
23A
102
}
330
23A
100
AcDbScale
 70
     0
300
1-1/2" = 1'-0"
140
1.5
141
12.0
290
     0
  0
SCALE
  5
249
102
{ACAD_REACTORS
330
23A
102
}
330
23A
100
AcDbScale
 70
     0
300
3" = 1'-0"
140
3.0
141
12.0
290
     0
  0
SCALE
  5
24A
102
{ACAD_REACTORS
330
23A
102
}
330
23A
100
AcDbScale
 70
     0
300
6" = 1'-0"
140
6.0
141
12.0
290
     0
  0
SCALE
  5
24B
102
{ACAD_REACTORS
330
23A
102
}
330
23A
100
AcDbScale
 70
     0
300
1'-0" = 1'-0"
140
12.0
141
12.0
290
     0
  0
TABLESTYLE
  5
275
102
{ACAD_XDICTIONARY
360
413
102
}
102
{ACAD_REACTORS
330
274
102
}
330
274
100
AcDbTableStyle
  3
Standard
 70
     0
 71
     0
 40
0.06
 41
0.06
280
     0
281
     0
  7
Standard
140
0.18
170
     2
 62
     0
 63
     7
283
     0
274
    -2
284
     1
 64
     0
275
    -2
285
     1
 65
     0
276
    -2
286
     1
 66
     0
277
    -2
287
     1
 67
     0
278
    -2
288
     1
 68
     0
279
    -2
289
     1
 69
     0
  7
Standard
140
0.25
170
     5
 62
     0
 63
     7
283
     0
274
    -2
284
     1
 64
     0
275
    -2
285
     1
 65
     0
276
    -2
286
     1
 66
     0
277
    -2
287
     1
 67
     0
278
    -2
288
     1
 68
     0
279
    -2
289
     1
 69
     0
  7
Standard
140
0.18
170
     5
 62
     0
 63
     7
283
     0
274
    -2
284
     1
 64
     0
275
    -2
285
     1
 65
     0
276
    -2
286
     1
 66
     0
277
    -2
287
     1
 67
     0
278
    -2
288
     1
 68
     0
279
    -2
289
     1
 69
     0
  0
VISUALSTYLE
  5
226
102
{ACAD_XDICTIONARY
360
428
102
}
102
{ACAD_REACTORS
330
220
102
}
330
220
100
AcDbVisualStyle
  2
2dWireframe
 70
     4
 71
     0
 72
     2
 73
     0
 90
        0
 40
-0.6
 41
-30.0
 62
     5
 63
     7
 74
     1
 91
        4
 64
     7
 65
   257
 75
     1
175
     1
 42
1.0
 92
        0
 66
   257
 43
1.0
 76
     1
 77
     6
 78
     2
 67
     7
 79
     5
170
     0
171
     0
290
     0
174
     0
 93
        1
 44
0.0
173
     0
291
     0
 45
0.0
1001
ACAD
1000
AcDbSavedByObjectVersion
1070
     0
  0
VISUALSTYLE
  5
225
102
{ACAD_XDICTIONARY
360
426
102
}
102
{ACAD_REACTORS
330
220
102
}
330
220
100
AcDbVisualStyle
  2
Basic
 70
     7
 71
     1
 72
     0
 73
     1
 90
        0
 40
-0.6
 41
-30.0
 62
     5
 63
     7
 74
     0
 91
        4
 64
     7
 65
   257
 75
     1
175
     1
 42
1.0
 92
        8
 66
     7
 43
1.0
 76
     1
 77
     6
 78
     2
 67
     7
 79
     5
170
     0
171
     0
290
     0
174
     0
 93
        1
 44
0.0
173
     0
291
     1
 45
0.0
1001
ACAD
1000
AcDbSavedByObjectVersion
1070
     0
  0
VISUALSTYLE
  5
22C
102
{ACAD_XDICTIONARY
360
434
102
}
102
{ACAD_REACTORS
330
220
102
}
330
220
100
AcDbVisualStyle
  2
Brighten
 70
    12
 71
     2
 72
     2
 73
     0
 90
        0
 40
-0.6
 41
-30.0
 62
     5
 63
     7
 74
     1
 91
        4
 64
     7
 65
   257
 75
     1
175
     1
 42
1.0
 92
        8
 66
     7
 43
1.0
 76
     1
 77
     6
 78
     2
 67
     7
 79
     5
170
     0
171
     0
290
     0
174
     0
 93
        1
 44
50.0
173
     0
291
     1
 45
0.0
1001
ACAD
1000
AcDbSavedByObjectVersion
1070
     0
  0
VISUALSTYLE
  5
230
102
{ACAD_XDICTIONARY
360
43C
102
}
102
{ACAD_REACTORS
330
220
102
}
330
220
100
AcDbVisualStyle
  2
ColorChange
 70
    16
 71
     2
 72
     2
 73
     3
 90
        0
 40
-0.6
 41
-30.0
 62
     5
 63
     8
 74
     1
 91
        4
 64
     7
 65
   257
 75
     1
175
     1
 42
1.0
 92
        8
 66
     8
 43
1.0
 76
     1
 77
     6
 78
     2
 67
     7
 79
     5
170
     0
171
     0
290
     0
174
     0
 93
        1
 44
0.0
173
     0
291
     1
 45
0.0
1001
ACAD
1000
AcDbSavedByObjectVersion
1070
     0
  0
VISUALSTYLE
  5
229
102
{ACAD_XDICTIONARY
360
42E
102
}
102
{ACAD_REACTORS
330
220
102
}
330
220
100
AcDbVisualStyle
  2
Conceptual
 70
     9
 71
     3
 72
     2
 73
     0
 90
        0
 40
-0.6
 41
-30.0
 62
     5
 63
     7
 74
     2
 91
        2
 64
     7
 65
   257
 75
     1
175
     1
 42
179.0
 92
        8
 66
     7
 43
1.0
 76
     1
 77
     6
 78
     2
 67
     7
 79
     3
170
     0
171
     0
290
     0
174
     0
 93
        1
 44
0.0
173
     0
291
     0
 45
0.0
1001
ACAD
1000
AcDbSavedByObjectVersion
1070
     0
  0
VISUALSTYLE
  5
22B
102
{ACAD_XDICTIONARY
360
432
102
}
102
{ACAD_REACTORS
330
220
102
}
330
220
100
AcDbVisualStyle
  2
Dim
 70
    11
 71
     2
 72
     2
 73
     0
 90
        0
 40
-0.6
 41
-30.0
 62
     5
 63
     7
 74
     1
 91
        4
 64
     7
 65
   257
 75
     1
175
     1
 42
1.0
 92
        8
 66
     7
 43
1.0
 76
     1
 77
     6
 78
     2
 67
     7
 79
     5
170
     0
171
     0
290
     0
174
     0
 93
        1
 44
-50.0
173
     0
291
     1
 45
0.0
1001
ACAD
1000
AcDbSavedByObjectVersion
1070
     0
  0
VISUALSTYLE
  5
238
102
{ACAD_XDICTIONARY
360
44C
102
}
102
{ACAD_REACTORS
330
220
102
}
330
220
100
AcDbVisualStyle
  2
EdgeColorOff
 70
    22
 71
     2
 72
     2
 73
     0
 90
        0
 40
-0.6
 41
-30.0
 62
     5
 63
     7
 74
     1
 91
        4
 64
     7
 65
   257
 75
     1
175
     1
 42
1.0
 92
        8
 66
     7
 43
1.0
 76
     1
 77
     6
 78
     2
 67
     7
 79
     5
170
     0
171
     0
290
     0
174
     0
 93
        1
 44
0.0
173
     0
291
     1
 45
0.0
1001
ACAD
1000
AcDbSavedByObjectVersion
1070
     0
  0
VISUALSTYLE
  5
22F
102
{ACAD_XDICTIONARY
360
43A
102
}
102
{ACAD_REACTORS
330
220
102
}
330
220
100
AcDbVisualStyle
  2
Facepattern
 70
    15
 71
     2
 72
     2
 73
     0
 90
        0
 40
-0.6
 41
-30.0
 62
     5
 63
     7
 74
     1
 91
        4
 64
     7
 65
   257
 75
     1
175
     1
 42
1.0
 92
        8
 66
     7
 43
1.0
 76
     1
 77
     6
 78
     2
 67
     7
 79
     5
170
     0
171
     0
290
     0
174
     0
 93
        1
 44
0.0
173
     0
291
     1
 45
0.0
1001
ACAD
1000
AcDbSavedByObjectVersion
1070
     0
  0
VISUALSTYLE
  5
221
102
{ACAD_XDICTIONARY
360
41E
102
}
102
{ACAD_REACTORS
330
220
102
}
330
220
100
AcDbVisualStyle
  2
Flat
 70
     0
 71
     2
 72
     1
 73
     1
 90
        2
 40
-0.6
 41
30.0
 62
     5
 63
     7
 74
     0
 91
        0
 64
     7
 65
   257
 75
     1
175
     1
 42
1.0
 92
        8
 66
     7
 43
1.0
 76
     1
 77
     6
 78
     2
 67
     7
 79
     5
170
     0
171
     0
290
     0
174
     0
 93
       13
 44
0.0
173
     0
291
     1
 45
0.0
1001
ACAD
1000
AcDbSavedByObjectVersion
1070
     0
  0
VISUALSTYLE
  5
222
102
{ACAD_XDICTIONARY
360
420
102
}
102
{ACAD_REACTORS
330
220
102
}
330
220
100
AcDbVisualStyle
  2
FlatWithEdges
 70
     1
 71
     2
 72
     1
 73
     1
 90
        2
 40
-0.6
 41
30.0
 62
     5
 63
     7
 74
     1
 91
        0
 64
     7
 65
   257
 75
     1
175
     1
 42
1.0
 92
        0
 66
   257
 43
1.0
 76
     1
 77
     6
 78
     2
 67
     7
 79
     5
170
     0
171
     0
290
     0
174
     0
 93
       13
 44
0.0
173
     0
291
     1
 45
0.0
1001
ACAD
1000
AcDbSavedByObjectVersion
1070
     0
  0
VISUALSTYLE
  5
223
102
{ACAD_XDICTIONARY
360
422
102
}
102
{ACAD_REACTORS
330
220
102
}
330
220
100
AcDbVisualStyle
  2
Gouraud
 70
     2
 71
     2
 72
     2
 73
     1
 90
        2
 40
-0.6
 41
30.0
 62
     5
 63
     7
 74
     0
 91
        0
 64
     7
 65
   257
 75
     1
175
     1
 42
1.0
 92
        0
 66
     7
 43
1.0
 76
     1
 77
     6
 78
     2
 67
     7
 79
     5
170
     0
171
     0
290
     0
174
     0
 93
       13
 44
0.0
173
     0
291
     1
 45
0.0
1001
ACAD
1000
AcDbSavedByObjectVersion
1070
     0
  0
VISUALSTYLE
  5
224
102
{ACAD_XDICTIONARY
360
424
102
}
102
{ACAD_REACTORS
330
220
102
}
330
220
100
AcDbVisualStyle
  2
GouraudWithEdges
 70
     3
 71
     2
 72
     2
 73
     1
 90
        2
 40
-0.6
 41
30.0
 62
     5
 63
     7
 74
     1
 91
        0
 64
     7
 65
   257
 75
     1
175
     1
 42
1.0
 92
        0
 66
   257
 43
1.0
 76
     1
 77
     6
 78
     2
 67
     7
 79
     5
170
     0
171
     0
290
     0
174
     0
 93
       13
 44
0.0
173
     0
291
     1
 45
0.0
1001
ACAD
1000
AcDbSavedByObjectVersion
1070
     0
  0
VISUALSTYLE
  5
228
102
{ACAD_XDICTIONARY
360
42C
102
}
102
{ACAD_REACTORS
330
220
102
}
330
220
100
AcDbVisualStyle
  2
Hidden
 70
     6
 71
     1
 72
     2
 73
     2
 90
        0
 40
-0.6
 41
-30.0
 62
     5
 63
     7
 74
     2
 91
        2
 64
     7
 65
   257
 75
     2
175
     1
 42
40.0
 92
        0
 66
   257
 43
1.0
 76
     1
 77
     6
 78
     2
 67
     7
 79
     3
170
     0
171
     0
290
     0
174
     0
 93
        1
 44
0.0
173
     0
291
     0
 45
0.0
1001
ACAD
1000
AcDbSavedByObjectVersion
1070
     0
  0
VISUALSTYLE
  5
236
102
{ACAD_XDICTIONARY
360
448
102
}
102
{ACAD_REACTORS
330
220
102
}
330
220
100
AcDbVisualStyle
  2
JitterOff
 70
    20
 71
     2
 72
     2
 73
     0
 90
        0
 40
-0.6
 41
-30.0
 62
     5
 63
     7
 74
     1
 91
        4
 64
     7
 65
   257
 75
     1
175
     1
 42
1.0
 92
       10
 66
     7
 43
1.0
 76
     1
 77
     6
 78
     2
 67
     7
 79
     5
170
     0
171
     0
290
     0
174
     0
 93
        1
 44
0.0
173
     0
291
     1
 45
0.0
1001
ACAD
1000
AcDbSavedByObjectVersion
1070
     0
  0
VISUALSTYLE
  5
22E
102
{ACAD_XDICTIONARY
360
438
102
}
102
{ACAD_REACTORS
330
220
102
}
330
220
100
AcDbVisualStyle
  2
Linepattern
 70
    14
 71
     2
 72
     2
 73
     0
 90
        0
 40
-0.6
 41
-30.0
 62
     5
 63
     7
 74
     1
 91
        4
 64
     7
 65
   257
 75
     7
175
     7
 42
1.0
 92
        8
 66
     7
 43
1.0
 76
     1
 77
     6
 78
     2
 67
     7
 79
     5
170
     0
171
     0
290
     0
174
     0
 93
        1
 44
0.0
173
     0
291
     1
 45
0.0
1001
ACAD
1000
AcDbSavedByObjectVersion
1070
     0
  0
VISUALSTYLE
  5
237
102
{ACAD_XDICTIONARY
360
44A
102
}
102
{ACAD_REACTORS
330
220
102
}
330
220
100
AcDbVisualStyle
  2
OverhangOff
 70
    21
 71
     2
 72
     2
 73
     0
 90
        0
 40
-0.6
 41
-30.0
 62
     5
 63
     7
 74
     1
 91
        4
 64
     7
 65
   257
 75
     1
175
     1
 42
1.0
 92
        9
 66
     7
 43
1.0
 76
     1
 77
     6
 78
     2
 67
     7
 79
     5
170
     0
171
     0
290
     0
174
     0
 93
        1
 44
0.0
173
     0
291
     1
 45
0.0
1001
ACAD
1000
AcDbSavedByObjectVersion
1070
     0
  0
VISUALSTYLE
  5
22A
102
{ACAD_XDICTIONARY
360
430
102
}
102
{ACAD_REACTORS
330
220
102
}
330
220
100
AcDbVisualStyle
  2
Realistic
 70
     8
 71
     2
 72
     3
 73
     0
 90
        2
 40
-0.6
 41
30.0
 62
     5
 63
     7
 74
     0
 91
        0
 64
     7
 65
   257
 75
     1
175
     1
 42
1.0
 92
        8
 66
   257
 43
1.0
 76
     1
 77
     6
 78
     2
 67
     7
 79
     3
170
     0
171
     0
290
     0
174
     0
 93
       13
 44
0.0
173
     0
291
     0
 45
0.0
1001
ACAD
1000
AcDbSavedByObjectVersion
1070
     0
  0
VISUALSTYLE
  5
235
102
{ACAD_XDICTIONARY
360
446
102
}
102
{ACAD_REACTORS
330
220
102
}
330
220
100
AcDbVisualStyle
  2
Shaded
 70
    27
 71
     2
 72
     2
 73
     1
 90
        2
 40
-0.6
 41
30.0
 62
     5
 63
     7
 74
     0
 91
        4
 64
     7
 65
   257
 75
     1
175
     1
 42
1.0
 92
        8
 66
   257
 43
1.0
 76
     1
 77
     6
 78
     2
 67
     8
 79
     3
170
     0
171
     0
290
     0
174
     0
 93
        5
 44
0.0
173
     0
291
     0
 45
0.0
1001
ACAD
1000
AcDbSavedByObjectVersion
1070
     0
  0
VISUALSTYLE
  5
234
102
{ACAD_XDICTIONARY
360
444
102
}
102
{ACAD_REACTORS
330
220
102
}
330
220
100
AcDbVisualStyle
  2
Shaded with edges
 70
    26
 71
     2
 72
     2
 73
     1
 90
        2
 40
-0.6
 41
30.0
 62
     5
 63
     7
 74
     1
 91
       10
 64
     7
 65
   257
 75
     2
175
     1
 42
1.0
 92
        8
 66
   257
 43
1.0
 76
     1
 77
     6
 78
     2
 67
     7
 79
     3
170
     0
171
     0
290
     0
174
     0
 93
        5
 44
0.0
173
     0
291
     0
 45
0.0
1001
ACAD
1000
AcDbSavedByObjectVersion
1070
     0
  0
VISUALSTYLE
  5
231
102
{ACAD_XDICTIONARY
360
43E
102
}
102
{ACAD_REACTORS
330
220
102
}
330
220
100
AcDbVisualStyle
  2
Shades of Gray
 70
    23
 71
     2
 72
     2
 73
     3
 90
        0
 40
-0.6
 41
-30.0
 62
     5
 63
     7
 74
     2
 91
        2
 64
     7
 65
     7
 75
     1
175
     1
 42
40.0
 92
        8
 66
     7
 43
1.0
 76
     1
 77
     6
 78
     2
 67
     7
 79
     3
170
     0
171
     0
290
     0
174
     0
 93
        1
 44
0.0
173
     0
291
     0
 45
0.0
1001
ACAD
1000
AcDbSavedByObjectVersion
1070
     0
  0
VISUALSTYLE
  5
232
102
{ACAD_XDICTIONARY
360
440
102
}
102
{ACAD_REACTORS
330
220
102
}
330
220
100
AcDbVisualStyle
  2
Sketchy
 70
    24
 71
     1
 72
     2
 73
     2
 90
        0
 40
-0.6
 41
-30.0
 62
     5
 63
     7
 74
     2
 91
        2
 64
     7
 65
     7
 75
     1
175
     1
 42
40.0
 92
       11
 66
     7
 43
1.0
 76
     1
 77
     6
 78
     2
 67
     7
 79
     6
170
     0
171
     0
290
     0
174
     0
 93
        1
 44
0.0
173
     0
291
     0
 45
0.0
1001
ACAD
1000
AcDbSavedByObjectVersion
1070
     0
  0
VISUALSTYLE
  5
22D
102
{ACAD_XDICTIONARY
360
436
102
}
102
{ACAD_REACTORS
330
220
102
}
330
220
100
AcDbVisualStyle
  2
Thicken
 70
    13
 71
     2
 72
     2
 73
     0
 90
        0
 40
-0.6
 41
-30.0
 62
     5
 63
     7
 74
     1
 91
        4
 64
     7
 65
   257
 75
     1
175
     1
 42
1.0
 92
       12
 66
     7
 43
1.0
 76
     1
 77
     6
 78
     2
 67
     7
 79
     5
170
     0
171
     0
290
     0
174
     0
 93
        1
 44
0.0
173
     0
291
     1
 45
0.0
1001
ACAD
1000
AcDbSavedByObjectVersion
1070
     0
  0
VISUALSTYLE
  5
227
102
{ACAD_XDICTIONARY
360
42A
102
}
102
{ACAD_REACTORS
330
220
102
}
330
220
100
AcDbVisualStyle
  2
Wireframe
 70
     5
 71
     0
 72
     2
 73
     0
 90
        0
 40
-0.6
 41
-30.0
 62
     5
 63
     7
 74
     1
 91
        4
 64
     7
 65
   257
 75
     1
175
     1
 42
1.0
 92
        0
 66
   257
 43
1.0
 76
     1
 77
     6
 78
     2
 67
     7
 79
     3
170
     0
171
     0
290
     0
174
     0
 93
        1
 44
0.0
173
     0
291
     0
 45
0.0
1001
ACAD
1000
AcDbSavedByObjectVersion
1070
     0
  0
VISUALSTYLE
  5
233
102
{ACAD_XDICTIONARY
360
442
102
}
102
{ACAD_REACTORS
330
220
102
}
330
220
100
AcDbVisualStyle
  2
X-Ray
 70
    25
 71
     2
 72
     2
 73
     1
 90
        1
 40
0.5
 41
-30.0
 62
     5
 63
     7
 74
     1
 91
        0
 64
     7
 65
   257
 75
     1
175
     1
 42
1.0
 92
        8
 66
     7
 43
1.0
 76
     1
 77
     6
 78
     2
 67
     7
 79
     3
170
     0
171
     0
290
     0
174
     0
 93
       13
 44
0.0
173
     0
291
     0
 45
0.0
1001
ACAD
1000
AcDbSavedByObjectVersion
1070
     0
  0
DICTIONARYVAR
  5
40F
102
{ACAD_REACTORS
330
205
102
}
330
205
100
DictionaryVariables
280
     0
  1
1:1
  0
DICTIONARYVAR
  5
40E
102
{ACAD_REACTORS
330
205
102
}
330
205
100
DictionaryVariables
280
     0
  1
STANDARD
  0
DICTIONARYVAR
  5
40D
102
{ACAD_REACTORS
330
205
102
}
330
205
100
DictionaryVariables
280
     0
  1
STANDARD
  0
DICTIONARYVAR
  5
206
330
205
100
DictionaryVariables
280
     0
  1
2
  0
DICTIONARYVAR
  5
411
102
{ACAD_REACTORS
330
205
102
}
330
205
100
DictionaryVariables
280
     0
  1
0
  0
DICTIONARYVAR
  5
410
102
{ACAD_REACTORS
330
205
102
}
330
205
100
DictionaryVariables
280
     0
  1
127
  0
DICTIONARYVAR
  5
412
102
{ACAD_REACTORS
330
205
102
}
330
205
100
DictionaryVariables
280
     0
  1
2
  0
XRECORD
  5
40C
102
{ACAD_REACTORS
330
40A
102
}
330
40A
100
AcDbXrecord
280
     1
330
132
330
337
330
338
330
340
330
341
330
34B
330
34C
330
354
330
355
330
35D
330
35E
330
368
330
369
330
371
330
372
330
37A
330
37B
330
385
330
386
330
38F
330
390
330
398
330
399
330
3A1
330
3A2
330
3AA
330
3AB
330
3B3
330
3B4
330
3BC
330
3BD
330
3C5
330
3C6
330
3CE
330
3CF
330
3D9
330
3DA
330
3E4
330
3E5
  0
DICTIONARY
  5
419
330
21
100
AcDbDictionary
280
     1
281
     1
  3
ACAD_XREC_ROUNDTRIP
360
41A
  0
DICTIONARY
  5
417
330
20
100
AcDbDictionary
280
     1
281
     1
  3
ACAD_XREC_ROUNDTRIP
360
418
  0
DICTIONARY
  5
211
330
210
100
AcDbDictionary
280
     1
281
     1
  3
ACAD_XREC_ROUNDTRIP
360
41C
  3
BUMPTILE
360
213
  3
DIFFUSETILE
360
212
  3
OPACITYTILE
360
216
  3
REFLECTIONTILE
360
215
  3
REFRACTIONTILE
360
217
  3
SPECULARTILE
360
214
  0
DICTIONARY
  5
209
330
208
100
AcDbDictionary
280
     1
281
     1
  3
ACAD_XREC_ROUNDTRIP
360
41B
  3
BUMPTILE
360
20B
  3
DIFFUSETILE
360
20A
  3
OPACITYTILE
360
20E
  3
REFLECTIONTILE
360
20D
  3
REFRACTIONTILE
360
20F
  3
SPECULARTILE
360
20C
  0
DICTIONARY
  5
219
330
218
100
AcDbDictionary
280
     1
281
     1
  3
ACAD_XREC_ROUNDTRIP
360
41D
  3
BUMPTILE
360
21B
  3
DIFFUSETILE
360
21A
  3
OPACITYTILE
360
21E
  3
REFLECTIONTILE
360
21D
  3
REFRACTIONTILE
360
21F
  3
SPECULARTILE
360
21C
  0
DICTIONARY
  5
413
330
275
100
AcDbDictionary
280
     1
281
     1
  3
ACAD_ROUNDTRIP_2008_TABLESTYLE_CELLSTYLEMAP
360
414
  3
ACAD_XREC_ROUNDTRIP
360
44E
  0
DICTIONARY
  5
428
330
226
100
AcDbDictionary
280
     1
281
     1
  3
ACAD_XREC_ROUNDTRIP
360
429
  0
DICTIONARY
  5
426
330
225
100
AcDbDictionary
280
     1
281
     1
  3
ACAD_XREC_ROUNDTRIP
360
427
  0
DICTIONARY
  5
434
330
22C
100
AcDbDictionary
280
     1
281
     1
  3
ACAD_XREC_ROUNDTRIP
360
435
  0
DICTIONARY
  5
43C
330
230
100
AcDbDictionary
280
     1
281
     1
  3
ACAD_XREC_ROUNDTRIP
360
43D
  0
DICTIONARY
  5
42E
330
229
100
AcDbDictionary
280
     1
281
     1
  3
ACAD_XREC_ROUNDTRIP
360
42F
  0
DICTIONARY
  5
432
330
22B
100
AcDbDictionary
280
     1
281
     1
  3
ACAD_XREC_ROUNDTRIP
360
433
  0
DICTIONARY
  5
44C
330
238
100
AcDbDictionary
280
     1
281
     1
  3
ACAD_XREC_ROUNDTRIP
360
44D
  0
DICTIONARY
  5
43A
330
22F
100
AcDbDictionary
280
     1
281
     1
  3
ACAD_XREC_ROUNDTRIP
360
43B
  0
DICTIONARY
  5
41E
330
221
100
AcDbDictionary
280
     1
281
     1
  3
ACAD_XREC_ROUNDTRIP
360
41F
  0
DICTIONARY
  5
420
330
222
100
AcDbDictionary
280
     1
281
     1
  3
ACAD_XREC_ROUNDTRIP
360
421
  0
DICTIONARY
  5
422
330
223
100
AcDbDictionary
280
     1
281
     1
  3
ACAD_XREC_ROUNDTRIP
360
423
  0
DICTIONARY
  5
424
330
224
100
AcDbDictionary
280
     1
281
     1
  3
ACAD_XREC_ROUNDTRIP
360
425
  0
DICTIONARY
  5
42C
330
228
100
AcDbDictionary
280
     1
281
     1
  3
ACAD_XREC_ROUNDTRIP
360
42D
  0
DICTIONARY
  5
448
330
236
100
AcDbDictionary
280
     1
281
     1
  3
ACAD_XREC_ROUNDTRIP
360
449
  0
DICTIONARY
  5
438
330
22E
100
AcDbDictionary
280
     1
281
     1
  3
ACAD_XREC_ROUNDTRIP
360
439
  0
DICTIONARY
  5
44A
330
237
100
AcDbDictionary
280
     1
281
     1
  3
ACAD_XREC_ROUNDTRIP
360
44B
  0
DICTIONARY
  5
430
330
22A
100
AcDbDictionary
280
     1
281
     1
  3
ACAD_XREC_ROUNDTRIP
360
431
  0
DICTIONARY
  5
446
330
235
100
AcDbDictionary
280
     1
281
     1
  3
ACAD_XREC_ROUNDTRIP
360
447
  0
DICTIONARY
  5
444
330
234
100
AcDbDictionary
280
     1
281
     1
  3
ACAD_XREC_ROUNDTRIP
360
445
  0
DICTIONARY
  5
43E
330
231
100
AcDbDictionary
280
     1
281
     1
  3
ACAD_XREC_ROUNDTRIP
360
43F
  0
DICTIONARY
  5
440
330
232
100
AcDbDictionary
280
     1
281
     1
  3
ACAD_XREC_ROUNDTRIP
360
441
  0
DICTIONARY
  5
436
330
22D
100
AcDbDictionary
280
     1
281
     1
  3
ACAD_XREC_ROUNDTRIP
360
437
  0
DICTIONARY
  5
42A
330
227
100
AcDbDictionary
280
     1
281
     1
  3
ACAD_XREC_ROUNDTRIP
360
42B
  0
DICTIONARY
  5
442
330
233
100
AcDbDictionary
280
     1
281
     1
  3
ACAD_XREC_ROUNDTRIP
360
443
  0
XRECORD
  5
41A
102
{ACAD_REACTORS
330
419
102
}
330
419
100
AcDbXrecord
280
     1
102
SHADEPLOT
 70
     0
102
SHADEPLOTRESLEVEL
 70
     2
102
SHADEPLOTCUSTOMDPI
 70
   300
  0
XRECORD
  5
418
102
{ACAD_REACTORS
330
417
102
}
330
417
100
AcDbXrecord
280
     1
102
SHADEPLOT
 70
     0
102
SHADEPLOTRESLEVEL
 70
     2
102
SHADEPLOTCUSTOMDPI
 70
   300
  0
XRECORD
  5
41C
102
{ACAD_REACTORS
330
211
102
}
330
211
100
AcDbXrecord
280
     1
102
MATERIAL
148
0.0
149
0.0
149
0.0
 93
        0
 94
      127
282
     0
 72
     0
 77
     0
171
     0
175
     0
179
     0
273
     0
  0
XRECORD
  5
213
102
{ACAD_REACTORS
330
211
102
}
330
211
100
AcDbXrecord
280
     1
270
     1
271
     1
  0
XRECORD
  5
212
102
{ACAD_REACTORS
330
211
102
}
330
211
100
AcDbXrecord
280
     1
270
     1
271
     1
  0
XRECORD
  5
216
102
{ACAD_REACTORS
330
211
102
}
330
211
100
AcDbXrecord
280
     1
270
     1
271
     1
  0
XRECORD
  5
215
102
{ACAD_REACTORS
330
211
102
}
330
211
100
AcDbXrecord
280
     1
270
     1
271
     1
  0
XRECORD
  5
217
102
{ACAD_REACTORS
330
211
102
}
330
211
100
AcDbXrecord
280
     1
270
     1
271
     1
  0
XRECORD
  5
214
102
{ACAD_REACTORS
330
211
102
}
330
211
100
AcDbXrecord
280
     1
270
     1
271
     1
  0
XRECORD
  5
41B
102
{ACAD_REACTORS
330
209
102
}
330
209
100
AcDbXrecord
280
     1
102
MATERIAL
148
0.0
149
0.0
149
0.0
 93
        0
 94
      127
282
     0
 72
     0
 77
     0
171
     0
175
     0
179
     0
273
     0
  0
XRECORD
  5
20B
102
{ACAD_REACTORS
330
209
102
}
330
209
100
AcDbXrecord
280
     1
270
     1
271
     1
  0
XRECORD
  5
20A
102
{ACAD_REACTORS
330
209
102
}
330
209
100
AcDbXrecord
280
     1
270
     1
271
     1
  0
XRECORD
  5
20E
102
{ACAD_REACTORS
330
209
102
}
330
209
100
AcDbXrecord
280
     1
270
     1
271
     1
  0
XRECORD
  5
20D
102
{ACAD_REACTORS
330
209
102
}
330
209
100
AcDbXrecord
280
     1
270
     1
271
     1
  0
XRECORD
  5
20F
102
{ACAD_REACTORS
330
209
102
}
330
209
100
AcDbXrecord
280
     1
270
     1
271
     1
  0
XRECORD
  5
20C
102
{ACAD_REACTORS
330
209
102
}
330
209
100
AcDbXrecord
280
     1
270
     1
271
     1
  0
XRECORD
  5
41D
102
{ACAD_REACTORS
330
219
102
}
330
219
100
AcDbXrecord
280
     1
102
MATERIAL
148
0.0
149
0.0
149
0.0
 93
        0
 94
      127
282
     0
 72
     0
 77
     0
171
     0
175
     0
179
     0
273
     0
  0
XRECORD
  5
21B
102
{ACAD_REACTORS
330
219
102
}
330
219
100
AcDbXrecord
280
     1
270
     1
271
     1
  0
XRECORD
  5
21A
102
{ACAD_REACTORS
330
219
102
}
330
219
100
AcDbXrecord
280
     1
270
     1
271
     1
  0
XRECORD
  5
21E
102
{ACAD_REACTORS
330
219
102
}
330
219
100
AcDbXrecord
280
     1
270
     1
271
     1
  0
XRECORD
  5
21D
102
{ACAD_REACTORS
330
219
102
}
330
219
100
AcDbXrecord
280
     1
270
     1
271
     1
  0
XRECORD
  5
21F
102
{ACAD_REACTORS
330
219
102
}
330
219
100
AcDbXrecord
280
     1
270
     1
271
     1
  0
XRECORD
  5
21C
102
{ACAD_REACTORS
330
219
102
}
330
219
100
AcDbXrecord
280
     1
270
     1
271
     1
  0
CELLSTYLEMAP
  5
414
102
{ACAD_REACTORS
330
413
102
}
330
413
100
AcDbCellStyleMap
 90
        3
300
CELLSTYLE
  1
TABLEFORMAT_BEGIN
 90
        5
170
     1
 91
        0
 92
    32768
 62
   257
 93
        1
300
CONTENTFORMAT
  1
CONTENTFORMAT_BEGIN
 90
        0
 91
        0
 92
      512
 93
        0
300

 40
0.0
140
1.0
 94
        5
 62
     0
340
17
144
0.25
309
CONTENTFORMAT_END
171
     0
 94
        0
309
TABLEFORMAT_END
  1
CELLSTYLE_BEGIN
 90
        1
 91
        1
300
_TITLE
309
CELLSTYLE_END
300
CELLSTYLE
  1
TABLEFORMAT_BEGIN
 90
        5
170
     1
 91
        0
 92
        0
 62
   257
 93
        1
300
CONTENTFORMAT
  1
CONTENTFORMAT_BEGIN
 90
        0
 91
        0
 92
      512
 93
        0
300

 40
0.0
140
1.0
 94
        5
 62
     0
340
17
144
0.18
309
CONTENTFORMAT_END
171
     0
 94
        0
309
TABLEFORMAT_END
  1
CELLSTYLE_BEGIN
 90
        2
 91
        1
300
_HEADER
309
CELLSTYLE_END
300
CELLSTYLE
  1
TABLEFORMAT_BEGIN
 90
        5
170
     1
 91
        0
 92
        0
 62
   257
 93
        1
300
CONTENTFORMAT
  1
CONTENTFORMAT_BEGIN
 90
        0
 91
        0
 92
      512
 93
        0
300

 40
0.0
140
1.0
 94
        2
 62
     0
340
17
144
0.18
309
CONTENTFORMAT_END
171
     0
 94
        0
309
TABLEFORMAT_END
  1
CELLSTYLE_BEGIN
 90
        3
 91
        2
300
_DATA
309
CELLSTYLE_END
  0
XRECORD
  5
44E
102
{ACAD_REACTORS
330
413
102
}
330
413
100
AcDbXrecord
280
     1
102
ACAD_ROUNDTRIP_PRE2007_TABLESTYLE
 90
      512
 91
        0
  1

 92
      512
 93
        0
  2

 94
      512
 95
        0
  3

  0
XRECORD
  5
429
102
{ACAD_REACTORS
330
428
102
}
330
428
100
AcDbXrecord
280
     1
102
RTVSPropertyOp0
 70
     1
102
RTVSPropertyOp1
 70
     1
102
RTVSPropertyOp2
 70
     1
102
RTVSPropertyOp3
 70
     1
102
RTVSPropertyOp4
 70
     1
102
RTVSPropertyOp5
 70
     1
102
RTVSPropertyOp6
 70
     1
102
RTVSPropertyOp7
 70
     1
102
RTVSPropertyOp8
 70
     1
102
RTVSPropertyOp9
 70
     1
102
RTVSPropertyOp10
 70
     1
102
RTVSPropertyOp11
 70
     1
102
RTVSPropertyOp12
 70
     1
102
RTVSPropertyOp13
 70
     1
102
RTVSPropertyOp14
 70
     1
102
RTVSPropertyOp15
 70
     1
102
RTVSPropertyOp16
 70
     1
102
RTVSPropertyOp17
 70
     1
102
RTVSPropertyOp18
 70
     1
102
RTVSPropertyOp19
 70
     1
102
RTVSPropertyOp20
 70
     1
102
RTVSPropertyOp21
 70
     1
102
RTVSPropertyOp22
 70
     1
102
RTVSPropertyOp23
 70
     1
102
RTVSPropertyOp24
 70
     1
102
RTVSPropertyOp25
 70
     1
102
RTVSPropertyOp26
 70
     1
102
RTVSPropertyOp27
 70
     1
102
RTVSPropertyOp28
 70
     1
102
RTVSPropertyOp29
 70
     1
102
RTVSPropertyOp30
 70
     1
102
RTVSPropertyOp31
 70
     1
102
RTVSPropertyOp32
 70
     1
  0
XRECORD
  5
427
102
{ACAD_REACTORS
330
426
102
}
330
426
100
AcDbXrecord
280
     1
102
RTVSPropertyOp0
 70
     1
102
RTVSPropertyOp1
 70
     1
102
RTVSPropertyOp2
 70
     1
102
RTVSPropertyOp3
 70
     1
102
RTVSPropertyOp4
 70
     1
102
RTVSPropertyOp5
 70
     1
102
RTVSPropertyOp6
 70
     1
102
RTVSPropertyOp7
 70
     1
102
RTVSPropertyOp8
 70
     1
102
RTVSPropertyOp9
 70
     1
102
RTVSPropertyOp10
 70
     1
102
RTVSPropertyOp11
 70
     1
102
RTVSPropertyOp12
 70
     1
102
RTVSPropertyOp13
 70
     1
102
RTVSPropertyOp14
 70
     1
102
RTVSPropertyOp15
 70
     1
102
RTVSPropertyOp16
 70
     1
102
RTVSPropertyOp17
 70
     1
102
RTVSPropertyOp18
 70
     1
102
RTVSPropertyOp19
 70
     1
102
RTVSPropertyOp20
 70
     1
102
RTVSPropertyOp21
 70
     1
102
RTVSPropertyOp22
 70
     1
102
RTVSPropertyOp23
 70
     1
102
RTVSPropertyOp24
 70
     1
102
RTVSPropertyOp25
 70
     1
102
RTVSPropertyOp26
 70
     1
102
RTVSPropertyOp27
 70
     1
102
RTVSPropertyOp28
 70
     1
102
RTVSPropertyOp29
 70
     1
102
RTVSPropertyOp30
 70
     1
102
RTVSPropertyOp31
 70
     1
102
RTVSPropertyOp32
 70
     1
  0
XRECORD
  5
435
102
{ACAD_REACTORS
330
434
102
}
330
434
100
AcDbXrecord
280
     1
102
RTVSPropertyOp0
 70
     1
102
RTVSPropertyOp1
 70
     1
102
RTVSPropertyOp2
 70
     1
102
RTVSPropertyOp3
 70
     1
102
RTVSPropertyOp4
 70
     1
102
RTVSPropertyOp5
 70
     1
102
RTVSPropertyOp6
 70
     1
102
RTVSPropertyOp7
 70
     1
102
RTVSPropertyOp8
 70
     1
102
RTVSPropertyOp9
 70
     1
102
RTVSPropertyOp10
 70
     1
102
RTVSPropertyOp11
 70
     1
102
RTVSPropertyOp12
 70
     1
102
RTVSPropertyOp13
 70
     1
102
RTVSPropertyOp14
 70
     1
102
RTVSPropertyOp15
 70
     1
102
RTVSPropertyOp16
 70
     1
102
RTVSPropertyOp17
 70
     1
102
RTVSPropertyOp18
 70
     1
102
RTVSPropertyOp19
 70
     1
102
RTVSPropertyOp20
 70
     1
102
RTVSPropertyOp21
 70
     1
102
RTVSPropertyOp22
 70
     1
102
RTVSPropertyOp23
 70
     1
102
RTVSPropertyOp24
 70
     1
102
RTVSPropertyOp25
 70
     1
102
RTVSPropertyOp26
 70
     1
102
RTVSPropertyOp27
 70
     1
102
RTVSPropertyOp28
 70
     1
102
RTVSPropertyOp29
 70
     1
102
RTVSPropertyOp30
 70
     1
102
RTVSPropertyOp31
 70
     1
102
RTVSPropertyOp32
 70
     1
  0
XRECORD
  5
43D
102
{ACAD_REACTORS
330
43C
102
}
330
43C
100
AcDbXrecord
280
     1
102
RTVSPropertyOp0
 70
     1
102
RTVSPropertyOp1
 70
     1
102
RTVSPropertyOp2
 70
     1
102
RTVSPropertyOp3
 70
     1
102
RTVSPropertyOp4
 70
     1
102
RTVSPropertyOp5
 70
     1
102
RTVSPropertyOp6
 70
     1
102
RTVSPropertyOp7
 70
     1
102
RTVSPropertyOp8
 70
     1
102
RTVSPropertyOp9
 70
     1
102
RTVSPropertyOp10
 70
     1
102
RTVSPropertyOp11
 70
     1
102
RTVSPropertyOp12
 70
     1
102
RTVSPropertyOp13
 70
     1
102
RTVSPropertyOp14
 70
     1
102
RTVSPropertyOp15
 70
     1
102
RTVSPropertyOp16
 70
     1
102
RTVSPropertyOp17
 70
     1
102
RTVSPropertyOp18
 70
     1
102
RTVSPropertyOp19
 70
     1
102
RTVSPropertyOp20
 70
     1
102
RTVSPropertyOp21
 70
     1
102
RTVSPropertyOp22
 70
     1
102
RTVSPropertyOp23
 70
     1
102
RTVSPropertyOp24
 70
     1
102
RTVSPropertyOp25
 70
     1
102
RTVSPropertyOp26
 70
     1
102
RTVSPropertyOp27
 70
     1
102
RTVSPropertyOp28
 70
     1
102
RTVSPropertyOp29
 70
     1
102
RTVSPropertyOp30
 70
     1
102
RTVSPropertyOp31
 70
     1
102
RTVSPropertyOp32
 70
     1
  0
XRECORD
  5
42F
102
{ACAD_REACTORS
330
42E
102
}
330
42E
100
AcDbXrecord
280
     1
102
RTVSPropertyOp0
 70
     1
102
RTVSPropertyOp1
 70
     1
102
RTVSPropertyOp2
 70
     1
102
RTVSPropertyOp3
 70
     1
102
RTVSPropertyOp4
 70
     1
102
RTVSPropertyOp5
 70
     1
102
RTVSPropertyOp6
 70
     1
102
RTVSPropertyOp7
 70
     1
102
RTVSPropertyOp8
 70
     1
102
RTVSPropertyOp9
 70
     1
102
RTVSPropertyOp10
 70
     1
102
RTVSPropertyOp11
 70
     1
102
RTVSPropertyOp12
 70
     1
102
RTVSPropertyOp13
 70
     1
102
RTVSPropertyOp14
 70
     1
102
RTVSPropertyOp15
 70
     1
102
RTVSPropertyOp16
 70
     1
102
RTVSPropertyOp17
 70
     1
102
RTVSPropertyOp18
 70
     1
102
RTVSPropertyOp19
 70
     1
102
RTVSPropertyOp20
 70
     1
102
RTVSPropertyOp21
 70
     1
102
RTVSPropertyOp22
 70
     1
102
RTVSPropertyOp23
 70
     1
102
RTVSPropertyOp24
 70
     1
102
RTVSPropertyOp25
 70
     1
102
RTVSPropertyOp26
 70
     1
102
RTVSPropertyOp27
 70
     1
102
RTVSPropertyOp28
 70
     1
102
RTVSPropertyOp29
 70
     1
102
RTVSPropertyOp30
 70
     1
102
RTVSPropertyOp31
 70
     1
102
RTVSPropertyOp32
 70
     1
  0
XRECORD
  5
433
102
{ACAD_REACTORS
330
432
102
}
330
432
100
AcDbXrecord
280
     1
102
RTVSPropertyOp0
 70
     1
102
RTVSPropertyOp1
 70
     1
102
RTVSPropertyOp2
 70
     1
102
RTVSPropertyOp3
 70
     1
102
RTVSPropertyOp4
 70
     1
102
RTVSPropertyOp5
 70
     1
102
RTVSPropertyOp6
 70
     1
102
RTVSPropertyOp7
 70
     1
102
RTVSPropertyOp8
 70
     1
102
RTVSPropertyOp9
 70
     1
102
RTVSPropertyOp10
 70
     1
102
RTVSPropertyOp11
 70
     1
102
RTVSPropertyOp12
 70
     1
102
RTVSPropertyOp13
 70
     1
102
RTVSPropertyOp14
 70
     1
102
RTVSPropertyOp15
 70
     1
102
RTVSPropertyOp16
 70
     1
102
RTVSPropertyOp17
 70
     1
102
RTVSPropertyOp18
 70
     1
102
RTVSPropertyOp19
 70
     1
102
RTVSPropertyOp20
 70
     1
102
RTVSPropertyOp21
 70
     1
102
RTVSPropertyOp22
 70
     1
102
RTVSPropertyOp23
 70
     1
102
RTVSPropertyOp24
 70
     1
102
RTVSPropertyOp25
 70
     1
102
RTVSPropertyOp26
 70
     1
102
RTVSPropertyOp27
 70
     1
102
RTVSPropertyOp28
 70
     1
102
RTVSPropertyOp29
 70
     1
102
RTVSPropertyOp30
 70
     1
102
RTVSPropertyOp31
 70
     1
102
RTVSPropertyOp32
 70
     1
  0
XRECORD
  5
44D
102
{ACAD_REACTORS
330
44C
102
}
330
44C
100
AcDbXrecord
280
     1
102
RTVSPropertyOp0
 70
     0
102
RTVSPropertyOp1
 70
     0
102
RTVSPropertyOp2
 70
     0
102
RTVSPropertyOp3
 70
     0
102
RTVSPropertyOp4
 70
     0
102
RTVSPropertyOp5
 70
     0
102
RTVSPropertyOp6
 70
     0
102
RTVSPropertyOp7
 70
     0
102
RTVSPropertyOp8
 70
     0
102
RTVSPropertyOp9
 70
     0
102
RTVSPropertyOp10
 70
     0
102
RTVSPropertyOp11
 70
     0
102
RTVSPropertyOp12
 70
     0
102
RTVSPropertyOp13
 70
     0
102
RTVSPropertyOp14
 70
     2
102
RTVSPropertyOp15
 70
     0
102
RTVSPropertyOp16
 70
     0
102
RTVSPropertyOp17
 70
     0
102
RTVSPropertyOp18
 70
     0
102
RTVSPropertyOp19
 70
     0
102
RTVSPropertyOp20
 70
     0
102
RTVSPropertyOp21
 70
     0
102
RTVSPropertyOp22
 70
     0
102
RTVSPropertyOp23
 70
     0
102
RTVSPropertyOp24
 70
     0
102
RTVSPropertyOp25
 70
     0
102
RTVSPropertyOp26
 70
     0
102
RTVSPropertyOp27
 70
     0
102
RTVSPropertyOp28
 70
     0
102
RTVSPropertyOp29
 70
     0
102
RTVSPropertyOp30
 70
     0
102
RTVSPropertyOp31
 70
     0
102
RTVSPropertyOp32
 70
     0
  0
XRECORD
  5
43B
102
{ACAD_REACTORS
330
43A
102
}
330
43A
100
AcDbXrecord
280
     1
102
RTVSPropertyOp0
 70
     1
102
RTVSPropertyOp1
 70
     1
102
RTVSPropertyOp2
 70
     1
102
RTVSPropertyOp3
 70
     1
102
RTVSPropertyOp4
 70
     1
102
RTVSPropertyOp5
 70
     1
102
RTVSPropertyOp6
 70
     1
102
RTVSPropertyOp7
 70
     1
102
RTVSPropertyOp8
 70
     1
102
RTVSPropertyOp9
 70
     1
102
RTVSPropertyOp10
 70
     1
102
RTVSPropertyOp11
 70
     1
102
RTVSPropertyOp12
 70
     1
102
RTVSPropertyOp13
 70
     1
102
RTVSPropertyOp14
 70
     1
102
RTVSPropertyOp15
 70
     1
102
RTVSPropertyOp16
 70
     1
102
RTVSPropertyOp17
 70
     1
102
RTVSPropertyOp18
 70
     1
102
RTVSPropertyOp19
 70
     1
102
RTVSPropertyOp20
 70
     1
102
RTVSPropertyOp21
 70
     1
102
RTVSPropertyOp22
 70
     1
102
RTVSPropertyOp23
 70
     1
102
RTVSPropertyOp24
 70
     1
102
RTVSPropertyOp25
 70
     1
102
RTVSPropertyOp26
 70
     1
102
RTVSPropertyOp27
 70
     1
102
RTVSPropertyOp28
 70
     1
102
RTVSPropertyOp29
 70
     1
102
RTVSPropertyOp30
 70
     1
102
RTVSPropertyOp31
 70
     1
102
RTVSPropertyOp32
 70
     1
  0
XRECORD
  5
41F
102
{ACAD_REACTORS
330
41E
102
}
330
41E
100
AcDbXrecord
280
     1
102
RTVSPropertyOp0
 70
     1
102
RTVSPropertyOp1
 70
     1
102
RTVSPropertyOp2
 70
     1
102
RTVSPropertyOp3
 70
     1
102
RTVSPropertyOp4
 70
     1
102
RTVSPropertyOp5
 70
     1
102
RTVSPropertyOp6
 70
     1
102
RTVSPropertyOp7
 70
     1
102
RTVSPropertyOp8
 70
     1
102
RTVSPropertyOp9
 70
     1
102
RTVSPropertyOp10
 70
     1
102
RTVSPropertyOp11
 70
     1
102
RTVSPropertyOp12
 70
     1
102
RTVSPropertyOp13
 70
     1
102
RTVSPropertyOp14
 70
     1
102
RTVSPropertyOp15
 70
     1
102
RTVSPropertyOp16
 70
     1
102
RTVSPropertyOp17
 70
     1
102
RTVSPropertyOp18
 70
     1
102
RTVSPropertyOp19
 70
     1
102
RTVSPropertyOp20
 70
     1
102
RTVSPropertyOp21
 70
     1
102
RTVSPropertyOp22
 70
     1
102
RTVSPropertyOp23
 70
     1
102
RTVSPropertyOp24
 70
     1
102
RTVSPropertyOp25
 70
     1
102
RTVSPropertyOp26
 70
     1
102
RTVSPropertyOp27
 70
     1
102
RTVSPropertyOp28
 70
     1
102
RTVSPropertyOp29
 70
     1
102
RTVSPropertyOp30
 70
     1
102
RTVSPropertyOp31
 70
     1
102
RTVSPropertyOp32
 70
     1
  0
XRECORD
  5
421
102
{ACAD_REACTORS
330
420
102
}
330
420
100
AcDbXrecord
280
     1
102
RTVSPropertyOp0
 70
     1
102
RTVSPropertyOp1
 70
     1
102
RTVSPropertyOp2
 70
     1
102
RTVSPropertyOp3
 70
     1
102
RTVSPropertyOp4
 70
     1
102
RTVSPropertyOp5
 70
     1
102
RTVSPropertyOp6
 70
     1
102
RTVSPropertyOp7
 70
     1
102
RTVSPropertyOp8
 70
     1
102
RTVSPropertyOp9
 70
     1
102
RTVSPropertyOp10
 70
     1
102
RTVSPropertyOp11
 70
     1
102
RTVSPropertyOp12
 70
     1
102
RTVSPropertyOp13
 70
     1
102
RTVSPropertyOp14
 70
     1
102
RTVSPropertyOp15
 70
     1
102
RTVSPropertyOp16
 70
     1
102
RTVSPropertyOp17
 70
     1
102
RTVSPropertyOp18
 70
     1
102
RTVSPropertyOp19
 70
     1
102
RTVSPropertyOp20
 70
     1
102
RTVSPropertyOp21
 70
     1
102
RTVSPropertyOp22
 70
     1
102
RTVSPropertyOp23
 70
     1
102
RTVSPropertyOp24
 70
     1
102
RTVSPropertyOp25
 70
     1
102
RTVSPropertyOp26
 70
     1
102
RTVSPropertyOp27
 70
     1
102
RTVSPropertyOp28
 70
     1
102
RTVSPropertyOp29
 70
     1
102
RTVSPropertyOp30
 70
     1
102
RTVSPropertyOp31
 70
     1
102
RTVSPropertyOp32
 70
     1
  0
XRECORD
  5
423
102
{ACAD_REACTORS
330
422
102
}
330
422
100
AcDbXrecord
280
     1
102
RTVSPropertyOp0
 70
     1
102
RTVSPropertyOp1
 70
     1
102
RTVSPropertyOp2
 70
     1
102
RTVSPropertyOp3
 70
     1
102
RTVSPropertyOp4
 70
     1
102
RTVSPropertyOp5
 70
     1
102
RTVSPropertyOp6
 70
     1
102
RTVSPropertyOp7
 70
     1
102
RTVSPropertyOp8
 70
     1
102
RTVSPropertyOp9
 70
     1
102
RTVSPropertyOp10
 70
     1
102
RTVSPropertyOp11
 70
     1
102
RTVSPropertyOp12
 70
     1
102
RTVSPropertyOp13
 70
     1
102
RTVSPropertyOp14
 70
     1
102
RTVSPropertyOp15
 70
     1
102
RTVSPropertyOp16
 70
     1
102
RTVSPropertyOp17
 70
     1
102
RTVSPropertyOp18
 70
     1
102
RTVSPropertyOp19
 70
     1
102
RTVSPropertyOp20
 70
     1
102
RTVSPropertyOp21
 70
     1
102
RTVSPropertyOp22
 70
     1
102
RTVSPropertyOp23
 70
     1
102
RTVSPropertyOp24
 70
     1
102
RTVSPropertyOp25
 70
     1
102
RTVSPropertyOp26
 70
     1
102
RTVSPropertyOp27
 70
     1
102
RTVSPropertyOp28
 70
     1
102
RTVSPropertyOp29
 70
     1
102
RTVSPropertyOp30
 70
     1
102
RTVSPropertyOp31
 70
     1
102
RTVSPropertyOp32
 70
     1
  0
XRECORD
  5
425
102
{ACAD_REACTORS
330
424
102
}
330
424
100
AcDbXrecord
280
     1
102
RTVSPropertyOp0
 70
     1
102
RTVSPropertyOp1
 70
     1
102
RTVSPropertyOp2
 70
     1
102
RTVSPropertyOp3
 70
     1
102
RTVSPropertyOp4
 70
     1
102
RTVSPropertyOp5
 70
     1
102
RTVSPropertyOp6
 70
     1
102
RTVSPropertyOp7
 70
     1
102
RTVSPropertyOp8
 70
     1
102
RTVSPropertyOp9
 70
     1
102
RTVSPropertyOp10
 70
     1
102
RTVSPropertyOp11
 70
     1
102
RTVSPropertyOp12
 70
     1
102
RTVSPropertyOp13
 70
     1
102
RTVSPropertyOp14
 70
     1
102
RTVSPropertyOp15
 70
     1
102
RTVSPropertyOp16
 70
     1
102
RTVSPropertyOp17
 70
     1
102
RTVSPropertyOp18
 70
     1
102
RTVSPropertyOp19
 70
     1
102
RTVSPropertyOp20
 70
     1
102
RTVSPropertyOp21
 70
     1
102
RTVSPropertyOp22
 70
     1
102
RTVSPropertyOp23
 70
     1
102
RTVSPropertyOp24
 70
     1
102
RTVSPropertyOp25
 70
     1
102
RTVSPropertyOp26
 70
     1
102
RTVSPropertyOp27
 70
     1
102
RTVSPropertyOp28
 70
     1
102
RTVSPropertyOp29
 70
     1
102
RTVSPropertyOp30
 70
     1
102
RTVSPropertyOp31
 70
     1
102
RTVSPropertyOp32
 70
     1
  0
XRECORD
  5
42D
102
{ACAD_REACTORS
330
42C
102
}
330
42C
100
AcDbXrecord
280
     1
102
RTVSPropertyOp0
 70
     1
102
RTVSPropertyOp1
 70
     1
102
RTVSPropertyOp2
 70
     1
102
RTVSPropertyOp3
 70
     1
102
RTVSPropertyOp4
 70
     1
102
RTVSPropertyOp5
 70
     1
102
RTVSPropertyOp6
 70
     1
102
RTVSPropertyOp7
 70
     1
102
RTVSPropertyOp8
 70
     1
102
RTVSPropertyOp9
 70
     1
102
RTVSPropertyOp10
 70
     1
102
RTVSPropertyOp11
 70
     1
102
RTVSPropertyOp12
 70
     1
102
RTVSPropertyOp13
 70
     1
102
RTVSPropertyOp14
 70
     1
102
RTVSPropertyOp15
 70
     1
102
RTVSPropertyOp16
 70
     1
102
RTVSPropertyOp17
 70
     1
102
RTVSPropertyOp18
 70
     1
102
RTVSPropertyOp19
 70
     1
102
RTVSPropertyOp20
 70
     1
102
RTVSPropertyOp21
 70
     1
102
RTVSPropertyOp22
 70
     1
102
RTVSPropertyOp23
 70
     1
102
RTVSPropertyOp24
 70
     1
102
RTVSPropertyOp25
 70
     1
102
RTVSPropertyOp26
 70
     1
102
RTVSPropertyOp27
 70
     1
102
RTVSPropertyOp28
 70
     1
102
RTVSPropertyOp29
 70
     1
102
RTVSPropertyOp30
 70
     1
102
RTVSPropertyOp31
 70
     1
102
RTVSPropertyOp32
 70
     1
  0
XRECORD
  5
449
102
{ACAD_REACTORS
330
448
102
}
330
448
100
AcDbXrecord
280
     1
102
RTVSPropertyOp0
 70
     0
102
RTVSPropertyOp1
 70
     0
102
RTVSPropertyOp2
 70
     0
102
RTVSPropertyOp3
 70
     0
102
RTVSPropertyOp4
 70
     0
102
RTVSPropertyOp5
 70
     0
102
RTVSPropertyOp6
 70
     0
102
RTVSPropertyOp7
 70
     0
102
RTVSPropertyOp8
 70
     0
102
RTVSPropertyOp9
 70
     0
102
RTVSPropertyOp10
 70
     0
102
RTVSPropertyOp11
 70
     0
102
RTVSPropertyOp12
 70
     0
102
RTVSPropertyOp13
 70
     0
102
RTVSPropertyOp14
 70
     2
102
RTVSPropertyOp15
 70
     0
102
RTVSPropertyOp16
 70
     0
102
RTVSPropertyOp17
 70
     0
102
RTVSPropertyOp18
 70
     0
102
RTVSPropertyOp19
 70
     0
102
RTVSPropertyOp20
 70
     0
102
RTVSPropertyOp21
 70
     0
102
RTVSPropertyOp22
 70
     0
102
RTVSPropertyOp23
 70
     0
102
RTVSPropertyOp24
 70
     0
102
RTVSPropertyOp25
 70
     0
102
RTVSPropertyOp26
 70
     0
102
RTVSPropertyOp27
 70
     0
102
RTVSPropertyOp28
 70
     0
102
RTVSPropertyOp29
 70
     0
102
RTVSPropertyOp30
 70
     0
102
RTVSPropertyOp31
 70
     0
102
RTVSPropertyOp32
 70
     0
  0
XRECORD
  5
439
102
{ACAD_REACTORS
330
438
102
}
330
438
100
AcDbXrecord
280
     1
102
RTVSPropertyOp0
 70
     1
102
RTVSPropertyOp1
 70
     1
102
RTVSPropertyOp2
 70
     1
102
RTVSPropertyOp3
 70
     1
102
RTVSPropertyOp4
 70
     1
102
RTVSPropertyOp5
 70
     1
102
RTVSPropertyOp6
 70
     1
102
RTVSPropertyOp7
 70
     1
102
RTVSPropertyOp8
 70
     1
102
RTVSPropertyOp9
 70
     1
102
RTVSPropertyOp10
 70
     1
102
RTVSPropertyOp11
 70
     1
102
RTVSPropertyOp12
 70
     1
102
RTVSPropertyOp13
 70
     1
102
RTVSPropertyOp14
 70
     1
102
RTVSPropertyOp15
 70
     1
102
RTVSPropertyOp16
 70
     1
102
RTVSPropertyOp17
 70
     1
102
RTVSPropertyOp18
 70
     1
102
RTVSPropertyOp19
 70
     1
102
RTVSPropertyOp20
 70
     1
102
RTVSPropertyOp21
 70
     1
102
RTVSPropertyOp22
 70
     1
102
RTVSPropertyOp23
 70
     1
102
RTVSPropertyOp24
 70
     1
102
RTVSPropertyOp25
 70
     1
102
RTVSPropertyOp26
 70
     1
102
RTVSPropertyOp27
 70
     1
102
RTVSPropertyOp28
 70
     1
102
RTVSPropertyOp29
 70
     1
102
RTVSPropertyOp30
 70
     1
102
RTVSPropertyOp31
 70
     1
102
RTVSPropertyOp32
 70
     1
  0
XRECORD
  5
44B
102
{ACAD_REACTORS
330
44A
102
}
330
44A
100
AcDbXrecord
280
     1
102
RTVSPropertyOp0
 70
     0
102
RTVSPropertyOp1
 70
     0
102
RTVSPropertyOp2
 70
     0
102
RTVSPropertyOp3
 70
     0
102
RTVSPropertyOp4
 70
     0
102
RTVSPropertyOp5
 70
     0
102
RTVSPropertyOp6
 70
     0
102
RTVSPropertyOp7
 70
     0
102
RTVSPropertyOp8
 70
     0
102
RTVSPropertyOp9
 70
     0
102
RTVSPropertyOp10
 70
     0
102
RTVSPropertyOp11
 70
     0
102
RTVSPropertyOp12
 70
     0
102
RTVSPropertyOp13
 70
     0
102
RTVSPropertyOp14
 70
     2
102
RTVSPropertyOp15
 70
     0
102
RTVSPropertyOp16
 70
     0
102
RTVSPropertyOp17
 70
     0
102
RTVSPropertyOp18
 70
     0
102
RTVSPropertyOp19
 70
     0
102
RTVSPropertyOp20
 70
     0
102
RTVSPropertyOp21
 70
     0
102
RTVSPropertyOp22
 70
     0
102
RTVSPropertyOp23
 70
     0
102
RTVSPropertyOp24
 70
     0
102
RTVSPropertyOp25
 70
     0
102
RTVSPropertyOp26
 70
     0
102
RTVSPropertyOp27
 70
     0
102
RTVSPropertyOp28
 70
     0
102
RTVSPropertyOp29
 70
     0
102
RTVSPropertyOp30
 70
     0
102
RTVSPropertyOp31
 70
     0
102
RTVSPropertyOp32
 70
     0
  0
XRECORD
  5
431
102
{ACAD_REACTORS
330
430
102
}
330
430
100
AcDbXrecord
280
     1
102
RTVSPropertyOp0
 70
     1
102
RTVSPropertyOp1
 70
     1
102
RTVSPropertyOp2
 70
     1
102
RTVSPropertyOp3
 70
     1
102
RTVSPropertyOp4
 70
     1
102
RTVSPropertyOp5
 70
     1
102
RTVSPropertyOp6
 70
     1
102
RTVSPropertyOp7
 70
     1
102
RTVSPropertyOp8
 70
     1
102
RTVSPropertyOp9
 70
     1
102
RTVSPropertyOp10
 70
     1
102
RTVSPropertyOp11
 70
     1
102
RTVSPropertyOp12
 70
     1
102
RTVSPropertyOp13
 70
     1
102
RTVSPropertyOp14
 70
     1
102
RTVSPropertyOp15
 70
     1
102
RTVSPropertyOp16
 70
     1
102
RTVSPropertyOp17
 70
     1
102
RTVSPropertyOp18
 70
     1
102
RTVSPropertyOp19
 70
     1
102
RTVSPropertyOp20
 70
     1
102
RTVSPropertyOp21
 70
     1
102
RTVSPropertyOp22
 70
     1
102
RTVSPropertyOp23
 70
     1
102
RTVSPropertyOp24
 70
     1
102
RTVSPropertyOp25
 70
     1
102
RTVSPropertyOp26
 70
     1
102
RTVSPropertyOp27
 70
     1
102
RTVSPropertyOp28
 70
     1
102
RTVSPropertyOp29
 70
     1
102
RTVSPropertyOp30
 70
     1
102
RTVSPropertyOp31
 70
     1
102
RTVSPropertyOp32
 70
     1
  0
XRECORD
  5
447
102
{ACAD_REACTORS
330
446
102
}
330
446
100
AcDbXrecord
280
     1
102
RTVSPropertyOp0
 70
     1
102
RTVSPropertyOp1
 70
     1
102
RTVSPropertyOp2
 70
     1
102
RTVSPropertyOp3
 70
     1
102
RTVSPropertyOp4
 70
     1
102
RTVSPropertyOp5
 70
     1
102
RTVSPropertyOp6
 70
     1
102
RTVSPropertyOp7
 70
     1
102
RTVSPropertyOp8
 70
     1
102
RTVSPropertyOp9
 70
     1
102
RTVSPropertyOp10
 70
     1
102
RTVSPropertyOp11
 70
     1
102
RTVSPropertyOp12
 70
     1
102
RTVSPropertyOp13
 70
     1
102
RTVSPropertyOp14
 70
     1
102
RTVSPropertyOp15
 70
     1
102
RTVSPropertyOp16
 70
     1
102
RTVSPropertyOp17
 70
     1
102
RTVSPropertyOp18
 70
     1
102
RTVSPropertyOp19
 70
     1
102
RTVSPropertyOp20
 70
     1
102
RTVSPropertyOp21
 70
     1
102
RTVSPropertyOp22
 70
     1
102
RTVSPropertyOp23
 70
     1
102
RTVSPropertyOp24
 70
     1
102
RTVSPropertyOp25
 70
     1
102
RTVSPropertyOp26
 70
     1
102
RTVSPropertyOp27
 70
     1
102
RTVSPropertyOp28
 70
     1
102
RTVSPropertyOp29
 70
     1
102
RTVSPropertyOp30
 70
     1
102
RTVSPropertyOp31
 70
     1
102
RTVSPropertyOp32
 70
     1
  0
XRECORD
  5
445
102
{ACAD_REACTORS
330
444
102
}
330
444
100
AcDbXrecord
280
     1
102
RTVSPropertyOp0
 70
     1
102
RTVSPropertyOp1
 70
     1
102
RTVSPropertyOp2
 70
     1
102
RTVSPropertyOp3
 70
     1
102
RTVSPropertyOp4
 70
     1
102
RTVSPropertyOp5
 70
     1
102
RTVSPropertyOp6
 70
     1
102
RTVSPropertyOp7
 70
     1
102
RTVSPropertyOp8
 70
     1
102
RTVSPropertyOp9
 70
     1
102
RTVSPropertyOp10
 70
     1
102
RTVSPropertyOp11
 70
     1
102
RTVSPropertyOp12
 70
     1
102
RTVSPropertyOp13
 70
     1
102
RTVSPropertyOp14
 70
     1
102
RTVSPropertyOp15
 70
     1
102
RTVSPropertyOp16
 70
     1
102
RTVSPropertyOp17
 70
     1
102
RTVSPropertyOp18
 70
     1
102
RTVSPropertyOp19
 70
     1
102
RTVSPropertyOp20
 70
     1
102
RTVSPropertyOp21
 70
     1
102
RTVSPropertyOp22
 70
     1
102
RTVSPropertyOp23
 70
     1
102
RTVSPropertyOp24
 70
     1
102
RTVSPropertyOp25
 70
     1
102
RTVSPropertyOp26
 70
     1
102
RTVSPropertyOp27
 70
     1
102
RTVSPropertyOp28
 70
     1
102
RTVSPropertyOp29
 70
     1
102
RTVSPropertyOp30
 70
     1
102
RTVSPropertyOp31
 70
     1
102
RTVSPropertyOp32
 70
     1
  0
XRECORD
  5
43F
102
{ACAD_REACTORS
330
43E
102
}
330
43E
100
AcDbXrecord
280
     1
102
RTVSPropertyOp0
 70
     1
102
RTVSPropertyOp1
 70
     1
102
RTVSPropertyOp2
 70
     1
102
RTVSPropertyOp3
 70
     1
102
RTVSPropertyOp4
 70
     1
102
RTVSPropertyOp5
 70
     1
102
RTVSPropertyOp6
 70
     1
102
RTVSPropertyOp7
 70
     1
102
RTVSPropertyOp8
 70
     1
102
RTVSPropertyOp9
 70
     1
102
RTVSPropertyOp10
 70
     1
102
RTVSPropertyOp11
 70
     1
102
RTVSPropertyOp12
 70
     1
102
RTVSPropertyOp13
 70
     1
102
RTVSPropertyOp14
 70
     1
102
RTVSPropertyOp15
 70
     1
102
RTVSPropertyOp16
 70
     1
102
RTVSPropertyOp17
 70
     1
102
RTVSPropertyOp18
 70
     1
102
RTVSPropertyOp19
 70
     1
102
RTVSPropertyOp20
 70
     1
102
RTVSPropertyOp21
 70
     1
102
RTVSPropertyOp22
 70
     1
102
RTVSPropertyOp23
 70
     1
102
RTVSPropertyOp24
 70
     1
102
RTVSPropertyOp25
 70
     1
102
RTVSPropertyOp26
 70
     1
102
RTVSPropertyOp27
 70
     1
102
RTVSPropertyOp28
 70
     1
102
RTVSPropertyOp29
 70
     1
102
RTVSPropertyOp30
 70
     1
102
RTVSPropertyOp31
 70
     1
102
RTVSPropertyOp32
 70
     1
  0
XRECORD
  5
441
102
{ACAD_REACTORS
330
440
102
}
330
440
100
AcDbXrecord
280
     1
102
RTVSPropertyOp0
 70
     1
102
RTVSPropertyOp1
 70
     1
102
RTVSPropertyOp2
 70
     1
102
RTVSPropertyOp3
 70
     1
102
RTVSPropertyOp4
 70
     1
102
RTVSPropertyOp5
 70
     1
102
RTVSPropertyOp6
 70
     1
102
RTVSPropertyOp7
 70
     1
102
RTVSPropertyOp8
 70
     1
102
RTVSPropertyOp9
 70
     1
102
RTVSPropertyOp10
 70
     1
102
RTVSPropertyOp11
 70
     1
102
RTVSPropertyOp12
 70
     1
102
RTVSPropertyOp13
 70
     1
102
RTVSPropertyOp14
 70
     1
102
RTVSPropertyOp15
 70
     1
102
RTVSPropertyOp16
 70
     1
102
RTVSPropertyOp17
 70
     1
102
RTVSPropertyOp18
 70
     1
102
RTVSPropertyOp19
 70
     1
102
RTVSPropertyOp20
 70
     1
102
RTVSPropertyOp21
 70
     1
102
RTVSPropertyOp22
 70
     1
102
RTVSPropertyOp23
 70
     1
102
RTVSPropertyOp24
 70
     1
102
RTVSPropertyOp25
 70
     1
102
RTVSPropertyOp26
 70
     1
102
RTVSPropertyOp27
 70
     1
102
RTVSPropertyOp28
 70
     1
102
RTVSPropertyOp29
 70
     1
102
RTVSPropertyOp30
 70
     1
102
RTVSPropertyOp31
 70
     1
102
RTVSPropertyOp32
 70
     1
  0
XRECORD
  5
437
102
{ACAD_REACTORS
330
436
102
}
330
436
100
AcDbXrecord
280
     1
102
RTVSPropertyOp0
 70
     1
102
RTVSPropertyOp1
 70
     1
102
RTVSPropertyOp2
 70
     1
102
RTVSPropertyOp3
 70
     1
102
RTVSPropertyOp4
 70
     1
102
RTVSPropertyOp5
 70
     1
102
RTVSPropertyOp6
 70
     1
102
RTVSPropertyOp7
 70
     1
102
RTVSPropertyOp8
 70
     1
102
RTVSPropertyOp9
 70
     1
102
RTVSPropertyOp10
 70
     1
102
RTVSPropertyOp11
 70
     1
102
RTVSPropertyOp12
 70
     1
102
RTVSPropertyOp13
 70
     1
102
RTVSPropertyOp14
 70
     1
102
RTVSPropertyOp15
 70
     1
102
RTVSPropertyOp16
 70
     1
102
RTVSPropertyOp17
 70
     1
102
RTVSPropertyOp18
 70
     1
102
RTVSPropertyOp19
 70
     1
102
RTVSPropertyOp20
 70
     1
102
RTVSPropertyOp21
 70
     1
102
RTVSPropertyOp22
 70
     1
102
RTVSPropertyOp23
 70
     1
102
RTVSPropertyOp24
 70
     1
102
RTVSPropertyOp25
 70
     1
102
RTVSPropertyOp26
 70
     1
102
RTVSPropertyOp27
 70
     1
102
RTVSPropertyOp28
 70
     1
102
RTVSPropertyOp29
 70
     1
102
RTVSPropertyOp30
 70
     1
102
RTVSPropertyOp31
 70
     1
102
RTVSPropertyOp32
 70
     1
  0
XRECORD
  5
42B
102
{ACAD_REACTORS
330
42A
102
}
330
42A
100
AcDbXrecord
280
     1
102
RTVSPropertyOp0
 70
     1
102
RTVSPropertyOp1
 70
     1
102
RTVSPropertyOp2
 70
     1
102
RTVSPropertyOp3
 70
     1
102
RTVSPropertyOp4
 70
     1
102
RTVSPropertyOp5
 70
     1
102
RTVSPropertyOp6
 70
     1
102
RTVSPropertyOp7
 70
     1
102
RTVSPropertyOp8
 70
     1
102
RTVSPropertyOp9
 70
     1
102
RTVSPropertyOp10
 70
     1
102
RTVSPropertyOp11
 70
     1
102
RTVSPropertyOp12
 70
     1
102
RTVSPropertyOp13
 70
     1
102
RTVSPropertyOp14
 70
     1
102
RTVSPropertyOp15
 70
     1
102
RTVSPropertyOp16
 70
     1
102
RTVSPropertyOp17
 70
     1
102
RTVSPropertyOp18
 70
     1
102
RTVSPropertyOp19
 70
     1
102
RTVSPropertyOp20
 70
     1
102
RTVSPropertyOp21
 70
     1
102
RTVSPropertyOp22
 70
     1
102
RTVSPropertyOp23
 70
     1
102
RTVSPropertyOp24
 70
     1
102
RTVSPropertyOp25
 70
     1
102
RTVSPropertyOp26
 70
     1
102
RTVSPropertyOp27
 70
     1
102
RTVSPropertyOp28
 70
     1
102
RTVSPropertyOp29
 70
     1
102
RTVSPropertyOp30
 70
     1
102
RTVSPropertyOp31
 70
     1
102
RTVSPropertyOp32
 70
     1
  0
XRECORD
  5
443
102
{ACAD_REACTORS
330
442
102
}
330
442
100
AcDbXrecord
280
     1
102
RTVSPropertyOp0
 70
     1
102
RTVSPropertyOp1
 70
     1
102
RTVSPropertyOp2
 70
     1
102
RTVSPropertyOp3
 70
     1
102
RTVSPropertyOp4
 70
     1
102
RTVSPropertyOp5
 70
     1
102
RTVSPropertyOp6
 70
     1
102
RTVSPropertyOp7
 70
     1
102
RTVSPropertyOp8
 70
     1
102
RTVSPropertyOp9
 70
     1
102
RTVSPropertyOp10
 70
     1
102
RTVSPropertyOp11
 70
     1
102
RTVSPropertyOp12
 70
     1
102
RTVSPropertyOp13
 70
     1
102
RTVSPropertyOp14
 70
     1
102
RTVSPropertyOp15
 70
     1
102
RTVSPropertyOp16
 70
     1
102
RTVSPropertyOp17
 70
     1
102
RTVSPropertyOp18
 70
     1
102
RTVSPropertyOp19
 70
     1
102
RTVSPropertyOp20
 70
     1
102
RTVSPropertyOp21
 70
     1
102
RTVSPropertyOp22
 70
     1
102
RTVSPropertyOp23
 70
     1
102
RTVSPropertyOp24
 70
     1
102
RTVSPropertyOp25
 70
     1
102
RTVSPropertyOp26
 70
     1
102
RTVSPropertyOp27
 70
     1
102
RTVSPropertyOp28
 70
     1
102
RTVSPropertyOp29
 70
     1
102
RTVSPropertyOp30
 70
     1
102
RTVSPropertyOp31
 70
     1
102
RTVSPropertyOp32
 70
     1
  0
ENDSEC
  0
EOF
