  0
SECTION
  2
HEADER
  9
$ACADVER
  1
AC1018
  9
$ACADMAINTVER
 70
     0
  9
$DWGCODEPAGE
  3
ANSI_1252
  9
$INSBASE
 10
0.0
 20
0.0
 30
0.0
  9
$EXTMIN
 10
1.000E+20
 20
1.000E+20
 30
1.000E+20
  9
$EXTMAX
 10
-1.000E+20
 20
-1.000E+20
 30
-1.000E+20
  9
$LIMMIN
 10
0.0
 20
0.0
  9
$LIMMAX
 10
420.0
 20
297.0
  9
$ORTHOMODE
 70
     0
  9
$REGENMODE
 70
     1
  9
$FILLMODE
 70
     1
  9
$QTEXTMODE
 70
     0
  9
$MIRRTEXT
 70
     1
  9
$LTSCALE
 40
1.0
  9
$ATTMODE
 70
     1
  9
$TEXTSIZE
 40
2.5
  9
$TRACEWID
 40
1.0
  9
$TEXTSTYLE
  7
Standard
  9
$CLAYER
  8
0
  9
$CELTYPE
  6
ByLayer
  9
$CECOLOR
 62
   256
  9
$CELTSCALE
 40
1.0
  9
$DISPSILH
 70
     0
  9
$DIMSCALE
 40
1.0
  9
$DIMASZ
 40
2.5
  9
$DIMEXO
 40
0.625
  9
$DIMDLI
 40
3.75
  9
$DIMRND
 40
0.0
  9
$DIMDLE
 40
0.0
  9
$DIMEXE
 40
1.25
  9
$DIMTP
 40
0.0
  9
$DIMTM
 40
0.0
  9
$DIMTXT
 40
2.5
  9
$DIMCEN
 40
2.5
  9
$DIMTSZ
 40
0.0
  9
$DIMTOL
 70
     0
  9
$DIMLIM
 70
     0
  9
$DIMTIH
 70
     0
  9
$DIMTOH
 70
     0
  9
$DIMSE1
 70
     0
  9
$DIMSE2
 70
     0
  9
$DIMTAD
 70
     1
  9
$DIMZIN
 70
     8
  9
$DIMBLK
  1

  9
$DIMASO
 70
     1
  9
$DIMSHO
 70
     1
  9
$DIMPOST
  1

  9
$DIMAPOST
  1

  9
$DIMALT
 70
     0
  9
$DIMALTD
 70
     3
  9
$DIMALTF
 40
0.039
  9
$DIMLFAC
 40
1.0
  9
$DIMTOFL
 70
     1
  9
$DIMTVP
 40
0.0
  9
$DIMTIX
 70
     0
  9
$DIMSOXD
 70
     0
  9
$DIMSAH
 70
     0
  9
$DIMBLK1
  1

  9
$DIMBLK2
  1

  9
$DIMSTYLE
  2
ISO-25
  9
$DIMCLRD
 70
     0
  9
$DIMCLRE
 70
     0
  9
$DIMCLRT
 70
     0
  9
$DIMTFAC
 40
1.0
  9
$DIMGAP
 40
0.625
  9
$DIMJUST
 70
     0
  9
$DIMSD1
 70
     0
  9
$DIMSD2
 70
     0
  9
$DIMTOLJ
 70
     0
  9
$DIMTZIN
 70
     8
  9
$DIMALTZ
 70
     0
  9
$DIMALTTZ
 70
     0
  9
$DIMUPT
 70
     0
  9
$DIMDEC
 70
     2
  9
$DIMTDEC
 70
     2
  9
$DIMALTU
 70
     2
  9
$DIMALTTD
 70
     3
  9
$DIMTXSTY
  7
Standard
  9
$DIMAUNIT
 70
     0
  9
$DIMADEC
 70
     0
  9
$DIMALTRND
 40
0.0
  9
$DIMAZIN
 70
     0
  9
$DIMDSEP
 70
    44
  9
$DIMATFIT
 70
     3
  9
$DIMFRAC
 70
     0
  9
$DIMLDRBLK
  1

  9
$DIMLUNIT
 70
     2
  9
$DIMLWD
 70
    -2
  9
$DIMLWE
 70
    -2
  9
$DIMTMOVE
 70
     0
  9
$LUNITS
 70
     2
  9
$LUPREC
 70
     4
  9
$SKETCHINC
 40
1.0
  9
$FILLETRAD
 40
10.0
  9
$AUNITS
 70
     0
  9
$AUPREC
 70
     0
  9
$MENU
  1
.
  9
$ELEVATION
 40
0.0
  9
$PELEVATION
 40
0.0
  9
$THICKNESS
 40
0.0
  9
$LIMCHECK
 70
     0
  9
$CHAMFERA
 40
10.0
  9
$CHAMFERB
 40
10.0
  9
$CHAMFERC
 40
20.0
  9
$CHAMFERD
 40
0.0
  9
$SKPOLY
 70
     0
  9
$TDCREATE
 40
2455813.758997836
  9
$TDUCREATE
 40
2455813.675664502
  9
$TDUPDATE
 40
2455813.758997847
  9
$TDUUPDATE
 40
2455813.675664514
  9
$TDINDWG
 40
0.0000000116
  9
$TDUSRTIMER
 40
0.0000000116
  9
$USRTIMER
 70
     1
  9
$ANGBASE
 50
0.0
  9
$ANGDIR
 70
     0
  9
$PDMODE
 70
     0
  9
$PDSIZE
 40
0.0
  9
$PLINEWID
 40
0.0
  9
$SPLFRAME
 70
     0
  9
$SPLINETYPE
 70
     6
  9
$SPLINESEGS
 70
     8
  9
$HANDSEED
  5
DD
  9
$SURFTAB1
 70
     6
  9
$SURFTAB2
 70
     6
  9
$SURFTYPE
 70
     6
  9
$SURFU
 70
     6
  9
$SURFV
 70
     6
  9
$UCSBASE
  2

  9
$UCSNAME
  2

  9
$UCSORG
 10
0.0
 20
0.0
 30
0.0
  9
$UCSXDIR
 10
1.0
 20
0.0
 30
0.0
  9
$UCSYDIR
 10
0.0
 20
1.0
 30
0.0
  9
$UCSORTHOREF
  2

  9
$UCSORTHOVIEW
 70
     0
  9
$UCSORGTOP
 10
0.0
 20
0.0
 30
0.0
  9
$UCSORGBOTTOM
 10
0.0
 20
0.0
 30
0.0
  9
$UCSORGLEFT
 10
0.0
 20
0.0
 30
0.0
  9
$UCSORGRIGHT
 10
0.0
 20
0.0
 30
0.0
  9
$UCSORGFRONT
 10
0.0
 20
0.0
 30
0.0
  9
$UCSORGBACK
 10
0.0
 20
0.0
 30
0.0
  9
$PUCSBASE
  2

  9
$PUCSNAME
  2

  9
$PUCSORG
 10
0.0
 20
0.0
 30
0.0
  9
$PUCSXDIR
 10
1.0
 20
0.0
 30
0.0
  9
$PUCSYDIR
 10
0.0
 20
1.0
 30
0.0
  9
$PUCSORTHOREF
  2

  9
$PUCSORTHOVIEW
 70
     0
  9
$PUCSORGTOP
 10
0.0
 20
0.0
 30
0.0
  9
$PUCSORGBOTTOM
 10
0.0
 20
0.0
 30
0.0
  9
$PUCSORGLEFT
 10
0.0
 20
0.0
 30
0.0
  9
$PUCSORGRIGHT
 10
0.0
 20
0.0
 30
0.0
  9
$PUCSORGFRONT
 10
0.0
 20
0.0
 30
0.0
  9
$PUCSORGBACK
 10
0.0
 20
0.0
 30
0.0
  9
$USERI1
 70
     0
  9
$USERI2
 70
     0
  9
$USERI3
 70
     0
  9
$USERI4
 70
     0
  9
$USERI5
 70
     0
  9
$USERR1
 40
0.0
  9
$USERR2
 40
0.0
  9
$USERR3
 40
0.0
  9
$USERR4
 40
0.0
  9
$USERR5
 40
0.0
  9
$WORLDVIEW
 70
     1
  9
$SHADEDGE
 70
     3
  9
$SHADEDIF
 70
    70
  9
$TILEMODE
 70
     1
  9
$MAXACTVP
 70
    64
  9
$PINSBASE
 10
0.0
 20
0.0
 30
0.0
  9
$PLIMCHECK
 70
     0
  9
$PEXTMIN
 10
1.000E+20
 20
1.000E+20
 30
1.000E+20
  9
$PEXTMAX
 10
-1.000E+20
 20
-1.000E+20
 30
-1.000E+20
  9
$PLIMMIN
 10
0.0
 20
0.0
  9
$PLIMMAX
 10
420.0
 20
297.0
  9
$UNITMODE
 70
     0
  9
$VISRETAIN
 70
     1
  9
$PLINEGEN
 70
     0
  9
$PSLTSCALE
 70
     1
  9
$TREEDEPTH
 70
  3020
  9
$CMLSTYLE
  2
Standard
  9
$CMLJUST
 70
     0
  9
$CMLSCALE
 40
20.0
  9
$PROXYGRAPHICS
 70
     1
  9
$MEASUREMENT
 70
     1
  9
$CELWEIGHT
370
    -1
  9
$ENDCAPS
280
     0
  9
$JOINSTYLE
280
     0
  9
$LWDISPLAY
290
     0
  9
$INSUNITS
 70
     4
  9
$HYPERLINKBASE
  1

  9
$STYLESHEET
  1

  9
$XEDIT
290
     1
  9
$CEPSNTYPE
380
     0
  9
$PSTYLEMODE
290
     1
  9
$FINGERPRINTGUID
  2
{B46EAD8F-A57F-43FD-AEF6-200B7AD2E358}
  9
$VERSIONGUID
  2
{FAEB1C32-E019-11D5-929B-00C0DF256EC4}
  9
$EXTNAMES
290
     1
  9
$PSVPSCALE
 40
0.0
  9
$OLESTARTUP
290
     0
  9
$SORTENTS
280
   127
  9
$INDEXCTL
280
     0
  9
$HIDETEXT
280
     1
  9
$XCLIPFRAME
290
     0
  9
$HALOGAP
280
     0
  9
$OBSCOLOR
 70
   257
  9
$OBSLTYPE
280
     0
  9
$INTERSECTIONDISPLAY
280
     0
  9
$INTERSECTIONCOLOR
 70
   257
  9
$DIMASSOC
280
     2
  9
$PROJECTNAME
  1

  0
ENDSEC
  0
SECTION
  2
CLASSES
  0
CLASS
  1
ACDBDICTIONARYWDFLT
  2
AcDbDictionaryWithDefault
  3
ObjectDBX Classes
 90
        0
 91
        4
280
     0
281
     0
  0
CLASS
  1
VISUALSTYLE
  2
AcDbVisualStyle
  3
ObjectDBX Classes
 90
     4095
 91
        4
280
     0
281
     0
  0
ENDSEC
  0
SECTION
  2
TABLES
  0
TABLE
  2
VPORT
  5
8
330
0
100
AcDbSymbolTable
 70
     1
  0
VPORT
  5
29
330
8
100
AcDbSymbolTableRecord
100
AcDbViewportTableRecord
  2
*Active
 70
     0
 10
0.0
 20
0.0
 11
1.0
 21
1.0
 12
344.187
 22
148.5
 13
0.0
 23
0.0
 14
10.0
 24
10.0
 15
10.0
 25
10.0
 16
0.0
 26
0.0
 36
1.0
 17
0.0
 27
0.0
 37
0.0
 40
297.0
 41
1.973
 42
50.0
 43
0.0
 44
0.0
 50
0.0
 51
0.0
 71
     0
 72
   100
 73
     1
 74
     3
 75
     0
 76
     0
 77
     0
 78
     0
281
     0
 65
     1
110
0.0
120
0.0
130
0.0
111
1.0
121
0.0
131
0.0
112
0.0
122
1.0
132
0.0
 79
     0
146
0.0
  0
ENDTAB
  0
TABLE
  2
LTYPE
  5
5
330
0
100
AcDbSymbolTable
 70
     2
  0
LTYPE
  5
14
330
5
100
AcDbSymbolTableRecord
100
AcDbLinetypeTableRecord
  2
ByBlock
 70
     0
  3

 72
    65
 73
     0
 40
0.0
  0
LTYPE
  5
15
330
5
100
AcDbSymbolTableRecord
100
AcDbLinetypeTableRecord
  2
ByLayer
 70
     0
  3

 72
    65
 73
     0
 40
0.0
  0
LTYPE
  5
16
330
5
100
AcDbSymbolTableRecord
100
AcDbLinetypeTableRecord
  2
Continuous
 70
     0
  3
Solid line
 72
    65
 73
     0
 40
0.0
  0
LTYPE
  5
86
330
5
100
AcDbSymbolTableRecord
100
AcDbLinetypeTableRecord
  2
HIDDEN2
 70
     0
  3
Hidden (.5x) _ _ _ _ _ _ _ _ _ _ _ _ _ _ _ _ _ 
 72
    65
 73
     2
 40
4.762
 49
3.175
 74
     0
 49
-1.587
 74
     0
  0
ENDTAB
  0
TABLE
  2
LAYER
  5
2
330
0
100
AcDbSymbolTable
 70
     1
  0
LAYER
  5
10
330
2
100
AcDbSymbolTableRecord
100
AcDbLayerTableRecord
  2
0
 70
     0
 62
    72
  6
Continuous
370
     0
390
F
  0
ENDTAB
  0
TABLE
  2
STYLE
  5
3
330
0
100
AcDbSymbolTable
 70
     3
  0
STYLE
  5
11
330
3
100
AcDbSymbolTableRecord
100
AcDbTextStyleTableRecord
  2
Standard
 70
     0
 40
0.0
 41
1.0
 50
0.0
 71
     0
 42
2.5
  3
txt
  4

  0
STYLE
  5
3B
330
3
100
AcDbSymbolTableRecord
100
AcDbTextStyleTableRecord
  2
Default
 70
     0
 40
0.0
 41
1.0
 50
0.0
 71
     0
 42
0.2
  3

  4

1001
ACAD
1000
txt
1071
        0
  0
STYLE
  5
3C
330
3
100
AcDbSymbolTableRecord
100
AcDbTextStyleTableRecord
  2
ISO
 70
     0
 40
0.0
 41
1.0
 50
0.0
 71
     0
 42
0.2
  3

  4

1001
ACAD
1000
txt
1071
        0
  0
ENDTAB
  0
TABLE
  2
VIEW
  5
6
330
0
100
AcDbSymbolTable
 70
     0
  0
ENDTAB
  0
TABLE
  2
UCS
  5
7
330
0
100
AcDbSymbolTable
 70
     0
  0
ENDTAB
  0
TABLE
  2
APPID
  5
9
330
0
100
AcDbSymbolTable
 70
     1
  0
APPID
  5
12
330
9
100
AcDbSymbolTableRecord
100
AcDbRegAppTableRecord
  2
ACAD
 70
     0
  0
ENDTAB
  0
TABLE
  2
DIMSTYLE
  5
A
330
0
100
AcDbSymbolTable
 70
     3
100
AcDbDimStyleTable
  0
DIMSTYLE
105
27
330
A
100
AcDbSymbolTableRecord
100
AcDbDimStyleTableRecord
  2
ISO-25
 70
     0
 41
2.5
 42
0.625
 43
3.75
 44
1.25
 73
     0
 74
     0
 77
     1
 78
     8
140
2.5
141
2.5
143
0.039
147
0.625
171
     3
172
     1
271
     2
272
     2
274
     3
278
    44
283
     0
284
     8
340
11
  0
DIMSTYLE
105
3D
330
A
100
AcDbSymbolTableRecord
100
AcDbDimStyleTableRecord
  2
Default
 70
     0
  3
<>
 41
4.375
 42
1.05
 44
2.1
 73
     0
 74
     0
 77
     1
 78
     8
140
3.5
146
0.4
147
1.75
178
    12
271
     2
272
     3
284
     8
340
3B
341
3E
342
3E
  0
DIMSTYLE
105
45
330
A
100
AcDbSymbolTableRecord
100
AcDbDimStyleTableRecord
  2
ISO
 70
     0
  3
<>
 41
4.375
 42
1.05
 44
2.1
 73
     0
 74
     0
 77
     1
 78
     8
140
3.5
146
0.4
147
1.75
178
    12
271
     2
272
     3
284
     8
340
3C
341
3E
342
3E
  0
ENDTAB
  0
TABLE
  2
BLOCK_RECORD
  5
1
330
0
100
AcDbSymbolTable
 70
     7
  0
BLOCK_RECORD
  5
1F
330
1
100
AcDbSymbolTableRecord
100
AcDbBlockTableRecord
  2
*Model_Space
340
22
  0
BLOCK_RECORD
  5
1B
330
1
100
AcDbSymbolTableRecord
100
AcDbBlockTableRecord
  2
*Paper_Space
340
1E
  0
BLOCK_RECORD
  5
23
330
1
100
AcDbSymbolTableRecord
100
AcDbBlockTableRecord
  2
*Paper_Space0
340
26
  0
BLOCK_RECORD
  5
3E
330
1
100
AcDbSymbolTableRecord
100
AcDbBlockTableRecord
  2
_CLOSED
340
0
  0
BLOCK_RECORD
  5
46
330
1
100
AcDbSymbolTableRecord
100
AcDbBlockTableRecord
  2
e
340
0
102
{BLKREFS
331
4C
102
}
  0
BLOCK_RECORD
  5
4D
330
1
100
AcDbSymbolTableRecord
100
AcDbBlockTableRecord
  2
f
340
0
102
{BLKREFS
331
83
102
}
  0
BLOCK_RECORD
  5
84
330
1
100
AcDbSymbolTableRecord
100
AcDbBlockTableRecord
  2
b
340
0
102
{BLKREFS
331
A6
102
}
  0
BLOCK_RECORD
  5
A7
330
1
100
AcDbSymbolTableRecord
100
AcDbBlockTableRecord
  2
c
340
0
102
{BLKREFS
331
C8
102
}
  0
BLOCK_RECORD
  5
C9
330
1
100
AcDbSymbolTableRecord
100
AcDbBlockTableRecord
  2
d
340
0
102
{BLKREFS
331
DA
102
}
  0
ENDTAB
  0
ENDSEC
  0
SECTION
  2
BLOCKS
  0
BLOCK
  5
20
330
1F
100
AcDbEntity
  8
0
100
AcDbBlockBegin
  2
*Model_Space
 70
     0
 10
0.0
 20
0.0
 30
0.0
  3
*Model_Space
  1

  0
ENDBLK
  5
21
330
1F
100
AcDbEntity
  8
0
100
AcDbBlockEnd
  0
BLOCK
  5
1C
330
1B
100
AcDbEntity
 67
     1
  8
0
100
AcDbBlockBegin
  2
*Paper_Space
 70
     0
 10
0.0
 20
0.0
 30
0.0
  3
*Paper_Space
  1

  0
ENDBLK
  5
1D
330
1B
100
AcDbEntity
 67
     1
  8
0
100
AcDbBlockEnd
  0
BLOCK
  5
24
330
23
100
AcDbEntity
  8
0
100
AcDbBlockBegin
  2
*Paper_Space0
 70
     0
 10
0.0
 20
0.0
 30
0.0
  3
*Paper_Space0
  1

  0
ENDBLK
  5
25
330
23
100
AcDbEntity
  8
0
100
AcDbBlockEnd
  0
BLOCK
  5
3F
330
3E
100
AcDbEntity
  8
0
100
AcDbBlockBegin
  2
_CLOSED
 70
     0
 10
0.0
 20
0.0
 30
0.0
  3
_CLOSED
  1

  0
LINE
  5
41
330
3E
100
AcDbEntity
  8
0
  6
ByBlock
 62
     0
370
    -2
100
AcDbLine
 10
-1.0
 20
0.167
 30
0.0
 11
0.0
 21
0.0
 31
0.0
  0
LINE
  5
42
330
3E
100
AcDbEntity
  8
0
  6
ByBlock
 62
     0
370
    -2
100
AcDbLine
 10
0.0
 20
0.0
 30
0.0
 11
-1.0
 21
-0.167
 31
0.0
  0
LINE
  5
43
330
3E
100
AcDbEntity
  8
0
  6
ByBlock
 62
     0
370
    -2
100
AcDbLine
 10
-1.0
 20
0.167
 30
0.0
 11
-1.0
 21
-0.167
 31
0.0
  0
LINE
  5
44
330
3E
100
AcDbEntity
  8
0
  6
ByBlock
 62
     0
370
    -2
100
AcDbLine
 10
0.0
 20
0.0
 30
0.0
 11
-1.0
 21
0.0
 31
0.0
  0
ENDBLK
  5
40
330
3E
100
AcDbEntity
  8
0
100
AcDbBlockEnd
  0
BLOCK
  5
4A
330
46
100
AcDbEntity
  8
0
100
AcDbBlockBegin
  2
e
 70
     0
 10
95.378
 20
32.435
 30
0.0
  3
e
  1

  0
ELLIPSE
  5
47
330
46
100
AcDbEntity
  8
0
  6
Continuous
 62
     0
370
    30
100
AcDbEllipse
 10
125.529
 20
67.25
 30
0.0
 11
-20.5
 21
-35.50704155516199
 31
0.0
210
0.0
220
0.0
230
-0.9999999999999999
 40
0.577
 41
0.7853981633974484
 42
2.356194490192345
  0
ELLIPSE
  5
48
330
46
100
AcDbEntity
  8
0
  6
Continuous
 62
     0
370
    30
100
AcDbEllipse
 10
125.529
 20
67.25
 30
0.0
 11
20.5
 21
-35.50704155516199
 31
0.0
210
0.0
220
0.0
230
0.9999999999999999
 40
0.577
 41
0.7853981633974483
 42
2.356194490192345
  0
ELLIPSE
  5
49
330
46
100
AcDbEntity
  8
0
  6
Continuous
 62
     0
370
    30
100
AcDbEllipse
 10
125.529
 20
67.25
 30
0.0
 11
-41.0
 21
-2.275957200481571E-15
 31
0.0
210
0.0
220
0.0
230
1.0
 40
0.577
 41
0.7853981633974483
 42
2.356194490192345
  0
ENDBLK
  5
4B
330
46
100
AcDbEntity
  8
0
100
AcDbBlockEnd
  0
BLOCK
  5
81
330
4D
100
AcDbEntity
  8
0
100
AcDbBlockBegin
  2
f
 70
     0
 10
-2.706
 20
13.911
 30
0.0
  3
f
  1

  0
LINE
  5
4E
330
4D
100
AcDbEntity
  8
0
  6
Continuous
 62
     0
370
    30
100
AcDbLine
 10
82.959
 20
65.503
 30
0.0
 11
60.332
 21
78.567
 31
0.0
  0
LINE
  5
4F
330
4D
100
AcDbEntity
  8
0
  6
Continuous
 62
     0
370
    30
100
AcDbLine
 10
60.332
 20
78.567
 30
0.0
 11
37.704
 21
65.503
 31
0.0
  0
LINE
  5
50
330
4D
100
AcDbEntity
  8
0
  6
Continuous
 62
     0
370
    30
100
AcDbLine
 10
60.332
 20
104.695
 30
0.0
 11
60.332
 21
78.567
 31
0.0
  0
ELLIPSE
  5
51
330
4D
100
AcDbEntity
  8
0
  6
Continuous
 62
     0
370
    30
100
AcDbEllipse
 10
46.19
 20
86.732
 30
0.0
 11
-2.249999999999999
 21
-3.897114317029971
 31
0.0
210
0.0
220
0.0
230
-0.9999999999999997
 40
0.577
 41
4.045377912699259
 42
5.379400093770434
  0
ELLIPSE
  5
52
330
4D
100
AcDbEntity
  8
0
  6
Continuous
 62
     0
370
    30
100
AcDbEllipse
 10
49.725
 20
84.69
 30
0.0
 11
-2.249999999999999
 21
-3.897114317029971
 31
0.0
210
0.0
220
0.0
230
-0.9999999999999997
 40
0.577
 41
0.0
 42
6.283185307179586
  0
ELLIPSE
  5
53
330
4D
100
AcDbEntity
  8
0
  6
Continuous
 62
     0
370
    30
100
AcDbEllipse
 10
74.474
 20
86.732
 30
0.0
 11
-2.249999999999999
 21
3.897114317029971
 31
0.0
210
0.0
220
0.0
230
-0.9999999999999997
 40
0.577
 41
4.045377825442019
 42
5.379400072347672
  0
ELLIPSE
  5
54
330
4D
100
AcDbEntity
  8
0
  6
Continuous
 62
     0
370
    30
100
AcDbEllipse
 10
70.938
 20
84.69
 30
0.0
 11
-2.249999999999999
 21
3.897114317029971
 31
0.0
210
0.0
220
0.0
230
-0.9999999999999997
 40
0.577
 41
0.0
 42
6.283185307179586
  0
ELLIPSE
  5
55
330
4D
100
AcDbEntity
  8
0
  6
Continuous
 62
     0
370
    30
100
AcDbEllipse
 10
60.332
 20
62.237
 30
0.0
 11
4.499999999999996
 21
0.0
 31
0.0
210
0.0
220
0.0
230
-1.0
 40
0.577
 41
4.045377778512371
 42
5.379400199536381
  0
ELLIPSE
  5
56
330
4D
100
AcDbEntity
  8
0
  6
Continuous
 62
     0
370
    30
100
AcDbEllipse
 10
60.332
 20
66.319
 30
0.0
 11
4.499999999999996
 21
0.0
 31
0.0
210
0.0
220
0.0
230
-1.0
 40
0.577
 41
0.0
 42
6.283185307179586
  0
LINE
  5
57
330
4D
100
AcDbEntity
  8
0
  6
Continuous
 62
     0
370
    30
100
AcDbLine
 10
52.554
 20
104.286
 30
0.0
 11
56.089
 21
102.245
 31
0.0
  0
LINE
  5
58
330
4D
100
AcDbEntity
  8
0
  6
Continuous
 62
     0
370
    30
100
AcDbLine
 10
48.932
 20
100.463
 30
0.0
 11
52.468
 21
98.422
 31
0.0
  0
LINE
  5
59
330
4D
100
AcDbEntity
  8
0
  6
Continuous
 62
     0
370
    30
100
AcDbLine
 10
35.669
 20
77.49
 30
0.0
 11
39.204
 21
75.449
 31
0.0
  0
LINE
  5
5A
330
4D
100
AcDbEntity
  8
0
  6
Continuous
 62
     0
370
    30
100
AcDbLine
 10
34.169
 20
72.443
 30
0.0
 11
37.704
 21
70.402
 31
0.0
  0
LINE
  5
5B
330
4D
100
AcDbEntity
  8
0
  6
Continuous
 62
     0
370
    30
100
AcDbLine
 10
47.068
 20
57.746
 30
0.0
 11
47.068
 21
61.828
 31
0.0
  0
LINE
  5
5C
330
4D
100
AcDbEntity
  8
0
  6
Continuous
 62
     0
370
    30
100
AcDbLine
 10
41.947
 20
58.971
 30
0.0
 11
41.947
 21
63.053
 31
0.0
  0
LINE
  5
5D
330
4D
100
AcDbEntity
  8
0
  6
Continuous
 62
     0
370
    30
100
AcDbLine
 10
73.595
 20
57.746
 30
0.0
 11
73.595
 21
61.828
 31
0.0
  0
LINE
  5
5E
330
4D
100
AcDbEntity
  8
0
  6
Continuous
 62
     0
370
    30
100
AcDbLine
 10
78.717
 20
58.971
 30
0.0
 11
78.717
 21
63.053
 31
0.0
  0
LINE
  5
5F
330
4D
100
AcDbEntity
  8
0
  6
Continuous
 62
     0
370
    30
100
AcDbLine
 10
81.459
 20
75.449
 30
0.0
 11
84.995
 21
77.49
 31
0.0
  0
LINE
  5
60
330
4D
100
AcDbEntity
  8
0
  6
Continuous
 62
     0
370
    30
100
AcDbLine
 10
82.959
 20
70.402
 30
0.0
 11
86.495
 21
72.443
 31
0.0
  0
LINE
  5
61
330
4D
100
AcDbEntity
  8
0
  6
Continuous
 62
     0
370
    30
100
AcDbLine
 10
68.196
 20
98.422
 30
0.0
 11
71.731
 21
100.463
 31
0.0
  0
LINE
  5
62
330
4D
100
AcDbEntity
  8
0
  6
Continuous
 62
     0
370
    30
100
AcDbLine
 10
64.575
 20
102.245
 30
0.0
 11
68.11
 21
104.286
 31
0.0
  0
LINE
  5
63
330
4D
100
AcDbEntity
  8
0
  6
Continuous
 62
     0
370
    30
100
AcDbLine
 10
60.332
 20
108.777
 30
0.0
 11
52.554
 21
104.286
 31
0.0
  0
LINE
  5
64
330
4D
100
AcDbEntity
  8
0
  6
Continuous
 62
     0
370
    30
100
AcDbLine
 10
60.332
 20
104.695
 30
0.0
 11
56.089
 21
102.245
 31
0.0
  0
LINE
  5
65
330
4D
100
AcDbEntity
  8
0
  6
Continuous
 62
     0
370
    30
100
AcDbLine
 10
48.932
 20
100.463
 30
0.0
 11
35.669
 21
77.49
 31
0.0
  0
LINE
  5
66
330
4D
100
AcDbEntity
  8
0
  6
Continuous
 62
     0
370
    30
100
AcDbLine
 10
52.468
 20
98.422
 30
0.0
 11
39.204
 21
75.449
 31
0.0
  0
LINE
  5
67
330
4D
100
AcDbEntity
  8
0
  6
Continuous
 62
     0
370
    30
100
AcDbLine
 10
34.169
 20
63.461
 30
0.0
 11
34.169
 21
72.443
 31
0.0
  0
LINE
  5
68
330
4D
100
AcDbEntity
  8
0
  6
Continuous
 62
     0
370
    30
100
AcDbLine
 10
37.704
 20
70.402
 30
0.0
 11
37.704
 21
65.503
 31
0.0
  0
LINE
  5
69
330
4D
100
AcDbEntity
  8
0
  6
Continuous
 62
     0
370
    30
100
AcDbLine
 10
34.169
 20
63.461
 30
0.0
 11
41.947
 21
58.971
 31
0.0
  0
LINE
  5
6A
330
4D
100
AcDbEntity
  8
0
  6
Continuous
 62
     0
370
    30
100
AcDbLine
 10
37.704
 20
65.503
 30
0.0
 11
41.947
 21
63.053
 31
0.0
  0
LINE
  5
6B
330
4D
100
AcDbEntity
  8
0
  6
Continuous
 62
     0
370
    30
100
AcDbLine
 10
47.068
 20
57.746
 30
0.0
 11
73.595
 21
57.746
 31
0.0
  0
LINE
  5
6C
330
4D
100
AcDbEntity
  8
0
  6
Continuous
 62
     0
370
    30
100
AcDbLine
 10
47.068
 20
61.828
 30
0.0
 11
73.595
 21
61.828
 31
0.0
  0
LINE
  5
6D
330
4D
100
AcDbEntity
  8
0
  6
Continuous
 62
     0
370
    30
100
AcDbLine
 10
78.717
 20
58.971
 30
0.0
 11
86.495
 21
63.461
 31
0.0
  0
LINE
  5
6E
330
4D
100
AcDbEntity
  8
0
  6
Continuous
 62
     0
370
    30
100
AcDbLine
 10
78.717
 20
63.053
 30
0.0
 11
82.959
 21
65.503
 31
0.0
  0
LINE
  5
6F
330
4D
100
AcDbEntity
  8
0
  6
Continuous
 62
     0
370
    30
100
AcDbLine
 10
82.959
 20
70.402
 30
0.0
 11
82.959
 21
65.503
 31
0.0
  0
LINE
  5
70
330
4D
100
AcDbEntity
  8
0
  6
Continuous
 62
     0
370
    30
100
AcDbLine
 10
86.495
 20
63.461
 30
0.0
 11
86.495
 21
72.443
 31
0.0
  0
LINE
  5
71
330
4D
100
AcDbEntity
  8
0
  6
Continuous
 62
     0
370
    30
100
AcDbLine
 10
68.196
 20
98.422
 30
0.0
 11
81.459
 21
75.449
 31
0.0
  0
LINE
  5
72
330
4D
100
AcDbEntity
  8
0
  6
Continuous
 62
     0
370
    30
100
AcDbLine
 10
71.731
 20
100.463
 30
0.0
 11
84.995
 21
77.49
 31
0.0
  0
LINE
  5
73
330
4D
100
AcDbEntity
  8
0
  6
Continuous
 62
     0
370
    30
100
AcDbLine
 10
64.575
 20
102.245
 30
0.0
 11
60.332
 21
104.695
 31
0.0
  0
LINE
  5
74
330
4D
100
AcDbEntity
  8
0
  6
Continuous
 62
     0
370
    30
100
AcDbLine
 10
68.11
 20
104.286
 30
0.0
 11
60.332
 21
108.777
 31
0.0
  0
LINE
  5
75
330
4D
100
AcDbEntity
  8
0
  6
Continuous
 62
     0
370
    30
100
AcDbLine
 10
52.554
 20
104.286
 30
0.0
 11
48.932
 21
100.463
 31
0.0
  0
LINE
  5
76
330
4D
100
AcDbEntity
  8
0
  6
Continuous
 62
     0
370
    30
100
AcDbLine
 10
56.089
 20
102.245
 30
0.0
 11
52.468
 21
98.422
 31
0.0
  0
LINE
  5
77
330
4D
100
AcDbEntity
  8
0
  6
Continuous
 62
     0
370
    30
100
AcDbLine
 10
35.669
 20
77.49
 30
0.0
 11
34.169
 21
72.443
 31
0.0
  0
LINE
  5
78
330
4D
100
AcDbEntity
  8
0
  6
Continuous
 62
     0
370
    30
100
AcDbLine
 10
39.204
 20
75.449
 30
0.0
 11
37.704
 21
70.402
 31
0.0
  0
LINE
  5
79
330
4D
100
AcDbEntity
  8
0
  6
Continuous
 62
     0
370
    30
100
AcDbLine
 10
47.068
 20
57.746
 30
0.0
 11
41.947
 21
58.971
 31
0.0
  0
LINE
  5
7A
330
4D
100
AcDbEntity
  8
0
  6
Continuous
 62
     0
370
    30
100
AcDbLine
 10
47.068
 20
61.828
 30
0.0
 11
41.947
 21
63.053
 31
0.0
  0
LINE
  5
7B
330
4D
100
AcDbEntity
  8
0
  6
Continuous
 62
     0
370
    30
100
AcDbLine
 10
73.595
 20
57.746
 30
0.0
 11
78.717
 21
58.971
 31
0.0
  0
LINE
  5
7C
330
4D
100
AcDbEntity
  8
0
  6
Continuous
 62
     0
370
    30
100
AcDbLine
 10
73.595
 20
61.828
 30
0.0
 11
78.717
 21
63.053
 31
0.0
  0
LINE
  5
7D
330
4D
100
AcDbEntity
  8
0
  6
Continuous
 62
     0
370
    30
100
AcDbLine
 10
81.459
 20
75.449
 30
0.0
 11
82.959
 21
70.402
 31
0.0
  0
LINE
  5
7E
330
4D
100
AcDbEntity
  8
0
  6
Continuous
 62
     0
370
    30
100
AcDbLine
 10
84.995
 20
77.49
 30
0.0
 11
86.495
 21
72.443
 31
0.0
  0
LINE
  5
7F
330
4D
100
AcDbEntity
  8
0
  6
Continuous
 62
     0
370
    30
100
AcDbLine
 10
68.196
 20
98.422
 30
0.0
 11
64.575
 21
102.245
 31
0.0
  0
LINE
  5
80
330
4D
100
AcDbEntity
  8
0
  6
Continuous
 62
     0
370
    30
100
AcDbLine
 10
71.731
 20
100.463
 30
0.0
 11
68.11
 21
104.286
 31
0.0
  0
ENDBLK
  5
82
330
4D
100
AcDbEntity
  8
0
100
AcDbBlockEnd
  0
BLOCK
  5
A4
330
84
100
AcDbEntity
  8
0
100
AcDbBlockBegin
  2
b
 70
     0
 10
-56.612
 20
58.705
 30
0.0
  3
b
  1

  0
ARC
  5
85
330
84
100
AcDbEntity
  8
0
  6
Continuous
 62
     0
370
    30
100
AcDbCircle
 10
62.771
 20
122.412
 30
0.0
 40
41.0
100
AcDbArc
 50
90.0
 51
180.0
  0
ARC
  5
87
330
84
100
AcDbEntity
  8
0
  6
HIDDEN2
 62
     0
370
    30
100
AcDbCircle
 10
62.771
 20
122.412
 30
0.0
 40
39.0
100
AcDbArc
 50
90.0
 51
180.0
  0
LINE
  5
88
330
84
100
AcDbEntity
  8
0
  6
Continuous
 62
     0
370
    30
100
AcDbLine
 10
62.771
 20
122.412
 30
0.0
 11
62.771
 21
163.412
 31
0.0
  0
LINE
  5
89
330
84
100
AcDbEntity
  8
0
  6
Continuous
 62
     0
370
    30
100
AcDbLine
 10
21.771
 20
122.412
 30
0.0
 11
62.771
 21
122.412
 31
0.0
  0
CIRCLE
  5
8A
330
84
100
AcDbEntity
  8
0
  6
HIDDEN2
 62
     0
370
    30
100
AcDbCircle
 10
42.771
 20
142.412
 30
0.0
 40
4.499999999999996
  0
LINE
  5
8B
330
84
100
AcDbEntity
  8
0
  6
HIDDEN2
 62
     0
370
    30
100
AcDbLine
 10
47.271
 20
122.412
 30
0.0
 11
47.271
 21
127.412
 31
0.0
  0
LINE
  5
8C
330
84
100
AcDbEntity
  8
0
  6
HIDDEN2
 62
     0
370
    30
100
AcDbLine
 10
27.892
 20
122.412
 30
0.0
 11
27.892
 21
127.412
 31
0.0
  0
LINE
  5
8D
330
84
100
AcDbEntity
  8
0
  6
HIDDEN2
 62
     0
370
    30
100
AcDbLine
 10
25.771
 20
122.412
 30
0.0
 11
25.771
 21
127.412
 31
0.0
  0
LINE
  5
8E
330
84
100
AcDbEntity
  8
0
  6
HIDDEN2
 62
     0
370
    30
100
AcDbLine
 10
46.65
 20
122.412
 30
0.0
 11
46.65
 21
127.412
 31
0.0
  0
LINE
  5
8F
330
84
100
AcDbEntity
  8
0
  6
HIDDEN2
 62
     0
370
    30
100
AcDbLine
 10
51.771
 20
122.412
 30
0.0
 11
51.771
 21
127.412
 31
0.0
  0
LINE
  5
90
330
84
100
AcDbEntity
  8
0
  6
HIDDEN2
 62
     0
370
    30
100
AcDbLine
 10
57.771
 20
138.534
 30
0.0
 11
62.771
 21
138.534
 31
0.0
  0
LINE
  5
91
330
84
100
AcDbEntity
  8
0
  6
HIDDEN2
 62
     0
370
    30
100
AcDbLine
 10
57.771
 20
133.412
 30
0.0
 11
62.771
 21
133.412
 31
0.0
  0
LINE
  5
92
330
84
100
AcDbEntity
  8
0
  6
HIDDEN2
 62
     0
370
    30
100
AcDbLine
 10
57.771
 20
157.291
 30
0.0
 11
62.771
 21
157.291
 31
0.0
  0
LINE
  5
93
330
84
100
AcDbEntity
  8
0
  6
HIDDEN2
 62
     0
370
    30
100
AcDbLine
 10
57.771
 20
159.412
 30
0.0
 11
62.771
 21
159.412
 31
0.0
  0
LINE
  5
94
330
84
100
AcDbEntity
  8
0
  6
HIDDEN2
 62
     0
370
    30
100
AcDbLine
 10
57.771
 20
159.412
 30
0.0
 11
51.771
 21
159.412
 31
0.0
  0
LINE
  5
95
330
84
100
AcDbEntity
  8
0
  6
HIDDEN2
 62
     0
370
    30
100
AcDbLine
 10
46.65
 20
157.291
 30
0.0
 11
27.892
 21
138.534
 31
0.0
  0
LINE
  5
96
330
84
100
AcDbEntity
  8
0
  6
HIDDEN2
 62
     0
370
    30
100
AcDbLine
 10
25.771
 20
133.412
 30
0.0
 11
25.771
 21
127.412
 31
0.0
  0
LINE
  5
97
330
84
100
AcDbEntity
  8
0
  6
HIDDEN2
 62
     0
370
    30
100
AcDbLine
 10
27.892
 20
127.412
 30
0.0
 11
46.65
 21
127.412
 31
0.0
  0
LINE
  5
98
330
84
100
AcDbEntity
  8
0
  6
HIDDEN2
 62
     0
370
    30
100
AcDbLine
 10
51.771
 20
127.412
 30
0.0
 11
57.771
 21
127.412
 31
0.0
  0
LINE
  5
99
330
84
100
AcDbEntity
  8
0
  6
HIDDEN2
 62
     0
370
    30
100
AcDbLine
 10
57.771
 20
133.412
 30
0.0
 11
57.771
 21
127.412
 31
0.0
  0
LINE
  5
9A
330
84
100
AcDbEntity
  8
0
  6
HIDDEN2
 62
     0
370
    30
100
AcDbLine
 10
57.771
 20
157.291
 30
0.0
 11
57.771
 21
138.534
 31
0.0
  0
LINE
  5
9B
330
84
100
AcDbEntity
  8
0
  6
HIDDEN2
 62
     0
370
    30
100
AcDbLine
 10
51.771
 20
159.412
 30
0.0
 11
46.65
 21
157.291
 31
0.0
  0
LINE
  5
9C
330
84
100
AcDbEntity
  8
0
  6
HIDDEN2
 62
     0
370
    30
100
AcDbLine
 10
27.892
 20
138.534
 30
0.0
 11
25.771
 21
133.412
 31
0.0
  0
LINE
  5
9D
330
84
100
AcDbEntity
  8
0
  6
HIDDEN2
 62
     0
370
    30
100
AcDbLine
 10
27.892
 20
127.412
 30
0.0
 11
25.771
 21
127.412
 31
0.0
  0
LINE
  5
9E
330
84
100
AcDbEntity
  8
0
  6
HIDDEN2
 62
     0
370
    30
100
AcDbLine
 10
46.65
 20
127.412
 30
0.0
 11
51.771
 21
127.412
 31
0.0
  0
LINE
  5
9F
330
84
100
AcDbEntity
  8
0
  6
HIDDEN2
 62
     0
370
    30
100
AcDbLine
 10
57.771
 20
138.534
 30
0.0
 11
57.771
 21
133.412
 31
0.0
  0
LINE
  5
A0
330
84
100
AcDbEntity
  8
0
  6
HIDDEN2
 62
     0
370
    30
100
AcDbLine
 10
57.771
 20
157.291
 30
0.0
 11
57.771
 21
159.412
 31
0.0
  0
LINE
  5
A1
330
84
100
AcDbEntity
  8
0
  6
HIDDEN2
 62
     0
370
    30
100
AcDbLine
 10
38.271
 20
122.412
 30
0.0
 11
38.271
 21
127.412
 31
0.0
  0
LINE
  5
A2
330
84
100
AcDbEntity
  8
0
  6
HIDDEN2
 62
     0
370
    30
100
AcDbLine
 10
62.771
 20
146.912
 30
0.0
 11
57.771
 21
146.912
 31
0.0
  0
LINE
  5
A3
330
84
100
AcDbEntity
  8
0
  6
HIDDEN2
 62
     0
370
    30
100
AcDbLine
 10
62.771
 20
137.912
 30
0.0
 11
57.771
 21
137.912
 31
0.0
  0
ENDBLK
  5
A5
330
84
100
AcDbEntity
  8
0
100
AcDbBlockEnd
  0
BLOCK
  5
C6
330
A7
100
AcDbEntity
  8
0
100
AcDbBlockBegin
  2
c
 70
     0
 10
14.349
 20
13.297
 30
0.0
  3
c
  1

  0
LINE
  5
A8
330
A7
100
AcDbEntity
  8
0
  6
Continuous
 62
     0
370
    30
100
AcDbLine
 10
78.056
 20
122.412
 30
0.0
 11
78.056
 21
163.412
 31
0.0
  0
ARC
  5
A9
330
A7
100
AcDbEntity
  8
0
  6
Continuous
 62
     0
370
    30
100
AcDbCircle
 10
78.056
 20
122.412
 30
0.0
 40
41.0
100
AcDbArc
 50
0.0
 51
90.0
  0
LINE
  5
AA
330
A7
100
AcDbEntity
  8
0
  6
Continuous
 62
     0
370
    30
100
AcDbLine
 10
78.056
 20
122.412
 30
0.0
 11
119.056
 21
122.412
 31
0.0
  0
ARC
  5
AB
330
A7
100
AcDbEntity
  8
0
  6
HIDDEN2
 62
     0
370
    30
100
AcDbCircle
 10
78.056
 20
122.412
 30
0.0
 40
39.0
100
AcDbArc
 50
0.0
 51
90.0
  0
CIRCLE
  5
AC
330
A7
100
AcDbEntity
  8
0
  6
HIDDEN2
 62
     0
370
    30
100
AcDbCircle
 10
98.056
 20
142.412
 30
0.0
 40
4.499999999999996
  0
LINE
  5
AD
330
A7
100
AcDbEntity
  8
0
  6
HIDDEN2
 62
     0
370
    30
100
AcDbLine
 10
78.056
 20
159.412
 30
0.0
 11
83.056
 21
159.412
 31
0.0
  0
LINE
  5
AE
330
A7
100
AcDbEntity
  8
0
  6
HIDDEN2
 62
     0
370
    30
100
AcDbLine
 10
78.056
 20
157.291
 30
0.0
 11
83.056
 21
157.291
 31
0.0
  0
LINE
  5
AF
330
A7
100
AcDbEntity
  8
0
  6
HIDDEN2
 62
     0
370
    30
100
AcDbLine
 10
78.056
 20
138.534
 30
0.0
 11
83.056
 21
138.534
 31
0.0
  0
LINE
  5
B0
330
A7
100
AcDbEntity
  8
0
  6
HIDDEN2
 62
     0
370
    30
100
AcDbLine
 10
78.056
 20
133.412
 30
0.0
 11
83.056
 21
133.412
 31
0.0
  0
LINE
  5
B1
330
A7
100
AcDbEntity
  8
0
  6
HIDDEN2
 62
     0
370
    30
100
AcDbLine
 10
94.178
 20
122.412
 30
0.0
 11
94.178
 21
127.412
 31
0.0
  0
LINE
  5
B2
330
A7
100
AcDbEntity
  8
0
  6
HIDDEN2
 62
     0
370
    30
100
AcDbLine
 10
89.056
 20
122.412
 30
0.0
 11
89.056
 21
127.412
 31
0.0
  0
LINE
  5
B3
330
A7
100
AcDbEntity
  8
0
  6
HIDDEN2
 62
     0
370
    30
100
AcDbLine
 10
112.935
 20
122.412
 30
0.0
 11
112.935
 21
127.412
 31
0.0
  0
LINE
  5
B4
330
A7
100
AcDbEntity
  8
0
  6
HIDDEN2
 62
     0
370
    30
100
AcDbLine
 10
115.056
 20
122.412
 30
0.0
 11
115.056
 21
127.412
 31
0.0
  0
LINE
  5
B5
330
A7
100
AcDbEntity
  8
0
  6
HIDDEN2
 62
     0
370
    30
100
AcDbLine
 10
83.056
 20
157.291
 30
0.0
 11
83.056
 21
138.534
 31
0.0
  0
LINE
  5
B6
330
A7
100
AcDbEntity
  8
0
  6
HIDDEN2
 62
     0
370
    30
100
AcDbLine
 10
83.056
 20
133.412
 30
0.0
 11
83.056
 21
127.412
 31
0.0
  0
LINE
  5
B7
330
A7
100
AcDbEntity
  8
0
  6
HIDDEN2
 62
     0
370
    30
100
AcDbLine
 10
83.056
 20
127.412
 30
0.0
 11
89.056
 21
127.412
 31
0.0
  0
LINE
  5
B8
330
A7
100
AcDbEntity
  8
0
  6
HIDDEN2
 62
     0
370
    30
100
AcDbLine
 10
94.178
 20
127.412
 30
0.0
 11
112.935
 21
127.412
 31
0.0
  0
LINE
  5
B9
330
A7
100
AcDbEntity
  8
0
  6
HIDDEN2
 62
     0
370
    30
100
AcDbLine
 10
115.056
 20
133.412
 30
0.0
 11
115.056
 21
127.412
 31
0.0
  0
LINE
  5
BA
330
A7
100
AcDbEntity
  8
0
  6
HIDDEN2
 62
     0
370
    30
100
AcDbLine
 10
94.178
 20
157.291
 30
0.0
 11
112.935
 21
138.534
 31
0.0
  0
LINE
  5
BB
330
A7
100
AcDbEntity
  8
0
  6
HIDDEN2
 62
     0
370
    30
100
AcDbLine
 10
89.056
 20
159.412
 30
0.0
 11
83.056
 21
159.412
 31
0.0
  0
LINE
  5
BC
330
A7
100
AcDbEntity
  8
0
  6
HIDDEN2
 62
     0
370
    30
100
AcDbLine
 10
83.056
 20
159.412
 30
0.0
 11
83.056
 21
157.291
 31
0.0
  0
LINE
  5
BD
330
A7
100
AcDbEntity
  8
0
  6
HIDDEN2
 62
     0
370
    30
100
AcDbLine
 10
83.056
 20
138.534
 30
0.0
 11
83.056
 21
133.412
 31
0.0
  0
LINE
  5
BE
330
A7
100
AcDbEntity
  8
0
  6
HIDDEN2
 62
     0
370
    30
100
AcDbLine
 10
94.178
 20
127.412
 30
0.0
 11
89.056
 21
127.412
 31
0.0
  0
LINE
  5
BF
330
A7
100
AcDbEntity
  8
0
  6
HIDDEN2
 62
     0
370
    30
100
AcDbLine
 10
112.935
 20
127.412
 30
0.0
 11
115.056
 21
127.412
 31
0.0
  0
LINE
  5
C0
330
A7
100
AcDbEntity
  8
0
  6
HIDDEN2
 62
     0
370
    30
100
AcDbLine
 10
112.935
 20
138.534
 30
0.0
 11
115.056
 21
133.412
 31
0.0
  0
LINE
  5
C1
330
A7
100
AcDbEntity
  8
0
  6
HIDDEN2
 62
     0
370
    30
100
AcDbLine
 10
94.178
 20
157.291
 30
0.0
 11
89.056
 21
159.412
 31
0.0
  0
LINE
  5
C2
330
A7
100
AcDbEntity
  8
0
  6
HIDDEN2
 62
     0
370
    30
100
AcDbLine
 10
102.556
 20
122.412
 30
0.0
 11
102.556
 21
127.412
 31
0.0
  0
LINE
  5
C3
330
A7
100
AcDbEntity
  8
0
  6
HIDDEN2
 62
     0
370
    30
100
AcDbLine
 10
93.556
 20
122.412
 30
0.0
 11
93.556
 21
127.412
 31
0.0
  0
LINE
  5
C4
330
A7
100
AcDbEntity
  8
0
  6
HIDDEN2
 62
     0
370
    30
100
AcDbLine
 10
78.056
 20
146.912
 30
0.0
 11
83.056
 21
146.912
 31
0.0
  0
LINE
  5
C5
330
A7
100
AcDbEntity
  8
0
  6
HIDDEN2
 62
     0
370
    30
100
AcDbLine
 10
78.056
 20
137.912
 30
0.0
 11
83.056
 21
137.912
 31
0.0
  0
ENDBLK
  5
C7
330
A7
100
AcDbEntity
  8
0
100
AcDbBlockEnd
  0
BLOCK
  5
D8
330
C9
100
AcDbEntity
  8
0
100
AcDbBlockBegin
  2
d
 70
     0
 10
67.35
 20
13.297
 30
0.0
  3
d
  1

  0
ARC
  5
CA
330
C9
100
AcDbEntity
  8
0
  6
Continuous
 62
     0
370
    30
100
AcDbCircle
 10
131.057
 20
122.412
 30
0.0
 40
41.0
100
AcDbArc
 50
0.0
 51
90.0
  0
ARC
  5
CB
330
C9
100
AcDbEntity
  8
0
  6
Continuous
 62
     0
370
    30
100
AcDbCircle
 10
131.057
 20
122.412
 30
0.0
 40
39.0
100
AcDbArc
 50
0.0
 51
90.0
  0
LINE
  5
CC
330
C9
100
AcDbEntity
  8
0
  6
Continuous
 62
     0
370
    30
100
AcDbLine
 10
170.057
 20
122.412
 30
0.0
 11
172.057
 21
122.412
 31
0.0
  0
LINE
  5
CD
330
C9
100
AcDbEntity
  8
0
  6
Continuous
 62
     0
370
    30
100
AcDbLine
 10
131.057
 20
163.412
 30
0.0
 11
131.057
 21
161.412
 31
0.0
  0
LINE
  5
CE
330
C9
100
AcDbEntity
  8
0
  6
Continuous
 62
     0
370
    30
100
AcDbLine
 10
131.057
 20
161.412
 30
0.0
 11
131.057
 21
159.412
 31
0.0
  0
LINE
  5
CF
330
C9
100
AcDbEntity
  8
0
  6
Continuous
 62
     0
370
    30
100
AcDbLine
 10
170.057
 20
122.412
 30
0.0
 11
168.057
 21
122.412
 31
0.0
  0
LINE
  5
D0
330
C9
100
AcDbEntity
  8
0
  6
Continuous
 62
     0
370
    30
100
AcDbLine
 10
131.057
 20
122.412
 30
0.0
 11
168.057
 21
122.412
 31
0.0
  0
LINE
  5
D1
330
C9
100
AcDbEntity
  8
0
  6
Continuous
 62
     0
370
    30
100
AcDbLine
 10
131.057
 20
122.412
 30
0.0
 11
131.057
 21
159.412
 31
0.0
  0
CIRCLE
  5
D2
330
C9
100
AcDbEntity
  8
0
  6
Continuous
 62
     0
370
    30
100
AcDbCircle
 10
151.057
 20
142.412
 30
0.0
 40
4.499999999999996
  0
LINE
  5
D3
330
C9
100
AcDbEntity
  8
0
  6
Continuous
 62
     0
370
    30
100
AcDbLine
 10
131.057
 20
159.412
 30
0.0
 11
142.057
 21
159.412
 31
0.0
  0
LINE
  5
D4
330
C9
100
AcDbEntity
  8
0
  6
Continuous
 62
     0
370
    30
100
AcDbLine
 10
147.179
 20
157.291
 30
0.0
 11
165.936
 21
138.534
 31
0.0
  0
LINE
  5
D5
330
C9
100
AcDbEntity
  8
0
  6
Continuous
 62
     0
370
    30
100
AcDbLine
 10
168.057
 20
122.412
 30
0.0
 11
168.057
 21
133.412
 31
0.0
  0
LINE
  5
D6
330
C9
100
AcDbEntity
  8
0
  6
Continuous
 62
     0
370
    30
100
AcDbLine
 10
142.057
 20
159.412
 30
0.0
 11
147.179
 21
157.291
 31
0.0
  0
LINE
  5
D7
330
C9
100
AcDbEntity
  8
0
  6
Continuous
 62
     0
370
    30
100
AcDbLine
 10
165.936
 20
138.534
 30
0.0
 11
168.057
 21
133.412
 31
0.0
  0
ENDBLK
  5
D9
330
C9
100
AcDbEntity
  8
0
100
AcDbBlockEnd
  0
ENDSEC
  0
SECTION
  2
ENTITIES
  0
INSERT
  5
4C
330
1F
100
AcDbEntity
  8
0
  6
Continuous
 62
    72
370
     0
100
AcDbBlockReference
  2
e
 10
95.378
 20
32.435
 30
0.0
  0
INSERT
  5
83
330
1F
100
AcDbEntity
  8
0
  6
Continuous
 62
    72
370
     0
100
AcDbBlockReference
  2
f
 10
-2.706
 20
13.911
 30
0.0
  0
INSERT
  5
A6
330
1F
100
AcDbEntity
  8
0
  6
Continuous
 62
    72
370
     0
100
AcDbBlockReference
  2
b
 10
-56.612
 20
58.705
 30
0.0
  0
INSERT
  5
C8
330
1F
100
AcDbEntity
  8
0
  6
Continuous
 62
    72
370
     0
100
AcDbBlockReference
  2
c
 10
14.349
 20
13.297
 30
0.0
  0
INSERT
  5
DA
330
1F
100
AcDbEntity
  8
0
  6
Continuous
 62
    72
370
     0
100
AcDbBlockReference
  2
d
 10
67.35
 20
13.297
 30
0.0
  0
ENDSEC
  0
SECTION
  2
OBJECTS
  0
DICTIONARY
  5
C
330
0
100
AcDbDictionary
281
     1
  3
ACAD_GROUP
350
D
  3
ACAD_LAYOUT
350
1A
  3
ACAD_MLEADERSTYLE
350
DC
  3
ACAD_MLINESTYLE
350
17
  3
ACAD_PLOTSETTINGS
350
19
  3
ACAD_PLOTSTYLENAME
350
E
  3
ACAD_TABLESTYLE
350
DB
  3
ACAD_VISUALSTYLE
350
2A
  0
DICTIONARY
  5
D
102
{ACAD_REACTORS
330
C
102
}
330
C
100
AcDbDictionary
281
     1
  0
DICTIONARY
  5
1A
102
{ACAD_REACTORS
330
C
102
}
330
C
100
AcDbDictionary
281
     1
  3
Layout1
350
1E
  3
Layout2
350
26
  3
Model
350
22
  0
DICTIONARY
  5
DC
102
{ACAD_REACTORS
330
C
102
}
330
C
100
AcDbDictionary
281
     1
  0
DICTIONARY
  5
17
102
{ACAD_REACTORS
330
C
102
}
330
C
100
AcDbDictionary
281
     1
  3
Standard
350
18
  0
DICTIONARY
  5
19
102
{ACAD_REACTORS
330
C
102
}
330
C
100
AcDbDictionary
281
     1
  0
ACDBDICTIONARYWDFLT
  5
E
102
{ACAD_REACTORS
330
C
102
}
330
C
100
AcDbDictionary
281
     1
  3
Normal
350
F
100
AcDbDictionaryWithDefault
340
F
  0
DICTIONARY
  5
DB
102
{ACAD_REACTORS
330
C
102
}
330
C
100
AcDbDictionary
281
     1
  0
DICTIONARY
  5
2A
102
{ACAD_REACTORS
330
C
102
}
330
C
100
AcDbDictionary
281
     1
  3
2dWireframe
350
2F
  3
3D Hidden
350
31
  3
3dWireframe
350
30
  3
Basic
350
32
  3
Brighten
350
36
  3
ColorChange
350
3A
  3
Conceptual
350
34
  3
Dim
350
35
  3
Facepattern
350
39
  3
Flat
350
2B
  3
FlatWithEdges
350
2C
  3
Gouraud
350
2D
  3
GouraudWithEdges
350
2E
  3
Linepattern
350
38
  3
Realistic
350
33
  3
Thicken
350
37
  0
LAYOUT
  5
1E
102
{ACAD_REACTORS
330
1A
102
}
330
1A
100
AcDbPlotSettings
  1

  2
none_device
  4

  6

 40
0.0
 41
0.0
 42
0.0
 43
0.0
 44
0.0
 45
0.0
 46
0.0
 47
0.0
 48
0.0
 49
0.0
140
0.0
141
0.0
142
1.0
143
1.0
 70
   688
 72
     0
 73
     0
 74
     5
  7

 75
    16
 76
     0
 77
     2
 78
   300
147
1.0
148
0.0
149
0.0
100
AcDbLayout
  1
Layout1
 70
     1
 71
     1
 10
0.0
 20
0.0
 11
420.0
 21
297.0
 12
0.0
 22
0.0
 32
0.0
 14
1.000E+20
 24
1.000E+20
 34
1.000E+20
 15
-1.000E+20
 25
-1.000E+20
 35
-1.000E+20
146
0.0
 13
0.0
 23
0.0
 33
0.0
 16
1.0
 26
0.0
 36
0.0
 17
0.0
 27
1.0
 37
0.0
 76
     0
330
1B
  0
LAYOUT
  5
26
102
{ACAD_REACTORS
330
1A
102
}
330
1A
100
AcDbPlotSettings
  1

  2
none_device
  4

  6

 40
0.0
 41
0.0
 42
0.0
 43
0.0
 44
0.0
 45
0.0
 46
0.0
 47
0.0
 48
0.0
 49
0.0
140
0.0
141
0.0
142
1.0
143
1.0
 70
   688
 72
     0
 73
     0
 74
     5
  7

 75
    16
 76
     0
 77
     2
 78
   300
147
1.0
148
0.0
149
0.0
100
AcDbLayout
  1
Layout2
 70
     1
 71
     2
 10
0.0
 20
0.0
 11
0.0
 21
0.0
 12
0.0
 22
0.0
 32
0.0
 14
0.0
 24
0.0
 34
0.0
 15
0.0
 25
0.0
 35
0.0
146
0.0
 13
0.0
 23
0.0
 33
0.0
 16
1.0
 26
0.0
 36
0.0
 17
0.0
 27
1.0
 37
0.0
 76
     0
330
23
  0
LAYOUT
  5
22
102
{ACAD_REACTORS
330
1A
102
}
330
1A
100
AcDbPlotSettings
  1

  2
none_device
  4

  6

 40
0.0
 41
0.0
 42
0.0
 43
0.0
 44
0.0
 45
0.0
 46
0.0
 47
0.0
 48
0.0
 49
0.0
140
0.0
141
0.0
142
1.0
143
1.0
 70
  1712
 72
     0
 73
     0
 74
     0
  7

 75
     0
 76
     0
 77
     2
 78
   300
147
1.0
148
0.0
149
0.0
100
AcDbLayout
  1
Model
 70
     1
 71
     0
 10
0.0
 20
0.0
 11
420.0
 21
297.0
 12
0.0
 22
0.0
 32
0.0
 14
1.000E+20
 24
1.000E+20
 34
1.000E+20
 15
-1.000E+20
 25
-1.000E+20
 35
-1.000E+20
146
0.0
 13
0.0
 23
0.0
 33
0.0
 16
1.0
 26
0.0
 36
0.0
 17
0.0
 27
1.0
 37
0.0
 76
     0
330
1F
331
29
  0
MLINESTYLE
  5
18
102
{ACAD_REACTORS
330
17
102
}
330
17
100
AcDbMlineStyle
  2
Standard
 70
     0
  3

 62
   256
 51
90.0
 52
90.0
 71
     2
 49
0.5
 62
   256
  6
BYLAYER
 49
-0.5
 62
   256
  6
BYLAYER
  0
ACDBPLACEHOLDER
  5
F
102
{ACAD_REACTORS
330
E
102
}
330
E
  0
VISUALSTYLE
  5
2F
102
{ACAD_REACTORS
330
2A
102
}
330
2A
100
AcDbVisualStyle
  2
2dWireframe
 70
     4
 71
     0
 72
     2
 73
     0
 90
        0
 40
-0.6
 41
-30.0
 62
     5
 63
     7
421
 16777215
 74
     1
 91
        4
 64
     7
 65
   257
 75
     1
175
     1
 42
1.0
 92
        0
 66
   257
 43
1.0
 76
     1
 77
     6
 78
     2
 67
     7
 79
     5
170
     0
171
     0
290
     0
174
     0
 93
        1
 44
0.0
173
     0
291
     0
 45
0.0
1001
ACAD
1000
AcDbSavedByObjectVersion
1070
     0
  0
VISUALSTYLE
  5
31
102
{ACAD_REACTORS
330
2A
102
}
330
2A
100
AcDbVisualStyle
  2
3D Hidden
 70
     6
 71
     1
 72
     2
 73
     2
 90
        0
 40
-0.6
 41
-30.0
 62
     5
 63
     7
421
 16777215
 74
     2
 91
        2
 64
     7
 65
   257
 75
     2
175
     1
 42
40.0
 92
        0
 66
   257
 43
1.0
 76
     1
 77
     6
 78
     2
 67
     7
 79
     3
170
     0
171
     0
290
     0
174
     0
 93
        1
 44
0.0
173
     0
291
     0
 45
0.0
1001
ACAD
1000
AcDbSavedByObjectVersion
1070
     0
  0
VISUALSTYLE
  5
30
102
{ACAD_REACTORS
330
2A
102
}
330
2A
100
AcDbVisualStyle
  2
3dWireframe
 70
     5
 71
     0
 72
     2
 73
     0
 90
        0
 40
-0.6
 41
-30.0
 62
     5
 63
     7
421
 16777215
 74
     1
 91
        4
 64
     7
 65
   257
 75
     1
175
     1
 42
1.0
 92
        0
 66
   257
 43
1.0
 76
     1
 77
     6
 78
     2
 67
     7
 79
     5
170
     0
171
     0
290
     0
174
     0
 93
        1
 44
0.0
173
     0
291
     0
 45
0.0
1001
ACAD
1000
AcDbSavedByObjectVersion
1070
     0
  0
VISUALSTYLE
  5
32
102
{ACAD_REACTORS
330
2A
102
}
330
2A
100
AcDbVisualStyle
  2
Basic
 70
     7
 71
     1
 72
     0
 73
     1
 90
        0
 40
-0.6
 41
-30.0
 62
     5
 63
     7
421
 16777215
 74
     0
 91
        4
 64
     7
 65
   257
 75
     1
175
     1
 42
1.0
 92
        8
 66
     7
 43
1.0
 76
     1
 77
     6
 78
     2
 67
     7
 79
     5
170
     0
171
     0
290
     0
174
     0
 93
        1
 44
0.0
173
     0
291
     1
 45
0.0
1001
ACAD
1000
AcDbSavedByObjectVersion
1070
     0
  0
VISUALSTYLE
  5
36
102
{ACAD_REACTORS
330
2A
102
}
330
2A
100
AcDbVisualStyle
  2
Brighten
 70
    12
 71
     2
 72
     2
 73
     0
 90
        0
 40
-0.6
 41
-30.0
 62
     5
 63
     7
421
 16777215
 74
     1
 91
        4
 64
     7
 65
   257
 75
     1
175
     1
 42
1.0
 92
        8
 66
     7
 43
1.0
 76
     1
 77
     6
 78
     2
 67
     7
 79
     5
170
     0
171
     0
290
     0
174
     0
 93
        1
 44
50.0
173
     0
291
     1
 45
0.0
1001
ACAD
1000
AcDbSavedByObjectVersion
1070
     0
  0
VISUALSTYLE
  5
3A
102
{ACAD_REACTORS
330
2A
102
}
330
2A
100
AcDbVisualStyle
  2
ColorChange
 70
    16
 71
     2
 72
     2
 73
     3
 90
        0
 40
-0.6
 41
-30.0
 62
     5
 63
     8
421
  8421504
 74
     1
 91
        4
 64
     7
 65
   257
 75
     1
175
     1
 42
1.0
 92
        8
 66
     8
424
  8421504
 43
1.0
 76
     1
 77
     6
 78
     2
 67
     7
 79
     5
170
     0
171
     0
290
     0
174
     0
 93
        1
 44
0.0
173
     0
291
     1
 45
0.0
1001
ACAD
1000
AcDbSavedByObjectVersion
1070
     0
  0
VISUALSTYLE
  5
34
102
{ACAD_REACTORS
330
2A
102
}
330
2A
100
AcDbVisualStyle
  2
Conceptual
 70
     9
 71
     3
 72
     2
 73
     0
 90
        0
 40
-0.6
 41
-30.0
 62
     5
 63
     7
421
 16777215
 74
     2
 91
        2
 64
     7
 65
   257
 75
     1
175
     1
 42
40.0
 92
        8
 66
     7
 43
1.0
 76
     1
 77
     6
 78
     2
 67
     7
 79
     3
170
     0
171
     0
290
     0
174
     0
 93
        1
 44
0.0
173
     0
291
     0
 45
0.0
1001
ACAD
1000
AcDbSavedByObjectVersion
1070
     0
  0
VISUALSTYLE
  5
35
102
{ACAD_REACTORS
330
2A
102
}
330
2A
100
AcDbVisualStyle
  2
Dim
 70
    11
 71
     2
 72
     2
 73
     0
 90
        0
 40
-0.6
 41
-30.0
 62
     5
 63
     7
421
 16777215
 74
     1
 91
        4
 64
     7
 65
   257
 75
     1
175
     1
 42
1.0
 92
        8
 66
     7
 43
1.0
 76
     1
 77
     6
 78
     2
 67
     7
 79
     5
170
     0
171
     0
290
     0
174
     0
 93
        1
 44
-50.0
173
     0
291
     1
 45
0.0
1001
ACAD
1000
AcDbSavedByObjectVersion
1070
     0
  0
VISUALSTYLE
  5
39
102
{ACAD_REACTORS
330
2A
102
}
330
2A
100
AcDbVisualStyle
  2
Facepattern
 70
    15
 71
     2
 72
     2
 73
     0
 90
        0
 40
-0.6
 41
-30.0
 62
     5
 63
     7
421
 16777215
 74
     1
 91
        4
 64
     7
 65
   257
 75
     1
175
     1
 42
1.0
 92
        8
 66
     7
 43
1.0
 76
     1
 77
     6
 78
     2
 67
     7
 79
     5
170
     0
171
     0
290
     0
174
     0
 93
        1
 44
0.0
173
     0
291
     1
 45
0.0
1001
ACAD
1000
AcDbSavedByObjectVersion
1070
     0
  0
VISUALSTYLE
  5
2B
102
{ACAD_REACTORS
330
2A
102
}
330
2A
100
AcDbVisualStyle
  2
Flat
 70
     0
 71
     2
 72
     1
 73
     1
 90
        2
 40
-0.6
 41
30.0
 62
     5
 63
     7
421
 16777215
 74
     0
 91
        4
 64
     7
 65
   257
 75
     1
175
     1
 42
1.0
 92
        8
 66
     7
 43
1.0
 76
     1
 77
     6
 78
     2
 67
     7
 79
     5
170
     0
171
     0
290
     0
174
     0
 93
       13
 44
0.0
173
     0
291
     1
 45
0.0
1001
ACAD
1000
AcDbSavedByObjectVersion
1070
     0
  0
VISUALSTYLE
  5
2C
102
{ACAD_REACTORS
330
2A
102
}
330
2A
100
AcDbVisualStyle
  2
FlatWithEdges
 70
     1
 71
     2
 72
     1
 73
     1
 90
        2
 40
-0.6
 41
30.0
 62
     5
 63
     7
421
 16777215
 74
     1
 91
        4
 64
     7
 65
   257
 75
     1
175
     1
 42
1.0
 92
        0
 66
   257
 43
1.0
 76
     1
 77
     6
 78
     2
 67
     7
 79
     5
170
     0
171
     0
290
     0
174
     0
 93
       13
 44
0.0
173
     0
291
     1
 45
0.0
1001
ACAD
1000
AcDbSavedByObjectVersion
1070
     0
  0
VISUALSTYLE
  5
2D
102
{ACAD_REACTORS
330
2A
102
}
330
2A
100
AcDbVisualStyle
  2
Gouraud
 70
     2
 71
     2
 72
     2
 73
     1
 90
        2
 40
-0.6
 41
30.0
 62
     5
 63
     7
421
 16777215
 74
     0
 91
        4
 64
     7
 65
   257
 75
     1
175
     1
 42
1.0
 92
        0
 66
     7
 43
1.0
 76
     1
 77
     6
 78
     2
 67
     7
 79
     5
170
     0
171
     0
290
     0
174
     0
 93
       13
 44
0.0
173
     0
291
     1
 45
0.0
1001
ACAD
1000
AcDbSavedByObjectVersion
1070
     0
  0
VISUALSTYLE
  5
2E
102
{ACAD_REACTORS
330
2A
102
}
330
2A
100
AcDbVisualStyle
  2
GouraudWithEdges
 70
     3
 71
     2
 72
     2
 73
     1
 90
        2
 40
-0.6
 41
30.0
 62
     5
 63
     7
421
 16777215
 74
     1
 91
        4
 64
     7
 65
   257
 75
     1
175
     1
 42
1.0
 92
        0
 66
   257
 43
1.0
 76
     1
 77
     6
 78
     2
 67
     7
 79
     5
170
     0
171
     0
290
     0
174
     0
 93
       13
 44
0.0
173
     0
291
     1
 45
0.0
1001
ACAD
1000
AcDbSavedByObjectVersion
1070
     0
  0
VISUALSTYLE
  5
38
102
{ACAD_REACTORS
330
2A
102
}
330
2A
100
AcDbVisualStyle
  2
Linepattern
 70
    14
 71
     2
 72
     2
 73
     0
 90
        0
 40
-0.6
 41
-30.0
 62
     5
 63
     7
421
 16777215
 74
     1
 91
        4
 64
     7
 65
   257
 75
     7
175
     7
 42
1.0
 92
        8
 66
     7
 43
1.0
 76
     1
 77
     6
 78
     2
 67
     7
 79
     5
170
     0
171
     0
290
     0
174
     0
 93
        1
 44
0.0
173
     0
291
     1
 45
0.0
1001
ACAD
1000
AcDbSavedByObjectVersion
1070
     0
  0
VISUALSTYLE
  5
33
102
{ACAD_REACTORS
330
2A
102
}
330
2A
100
AcDbVisualStyle
  2
Realistic
 70
     8
 71
     2
 72
     2
 73
     0
 90
        0
 40
-0.6
 41
-30.0
 62
     5
 63
     7
421
 16777215
 74
     1
 91
        0
 64
     7
 65
   257
 75
     1
175
     1
 42
1.0
 92
        8
 66
     8
424
  7895160
 43
1.0
 76
     1
 77
     6
 78
     2
 67
     7
 79
     5
170
     0
171
     0
290
     0
174
     0
 93
       13
 44
0.0
173
     0
291
     0
 45
0.0
1001
ACAD
1000
AcDbSavedByObjectVersion
1070
     0
  0
VISUALSTYLE
  5
37
102
{ACAD_REACTORS
330
2A
102
}
330
2A
100
AcDbVisualStyle
  2
Thicken
 70
    13
 71
     2
 72
     2
 73
     0
 90
        0
 40
-0.6
 41
-30.0
 62
     5
 63
     7
421
 16777215
 74
     1
 91
        4
 64
     7
 65
   257
 75
     1
175
     1
 42
1.0
 92
       12
 66
     7
 43
1.0
 76
     1
 77
     6
 78
     2
 67
     7
 79
     5
170
     0
171
     0
290
     0
174
     0
 93
        1
 44
0.0
173
     0
291
     1
 45
0.0
1001
ACAD
1000
AcDbSavedByObjectVersion
1070
     0
  0
ENDSEC
  0
EOF
