ISO-10303-21;
HEADER;
/* Generated by software containing ST-Developer
 * from STEP Tools, Inc. (www.steptools.com) 
 */

FILE_DESCRIPTION(
/* description */ ('GIUNZ. ANG. 60\X\B0 X PROF. SERIE 45'),
/* implementation_level */ '2;1');

FILE_NAME(
/* name */ 'C:\\Users\\tecnico7\\Desktop\\CGIPR0000068.stp',
/* time_stamp */ '2023-03-22T08:58:27+01:00',
/* author */ ('tecnico7'),
/* organization */ (''),
/* preprocessor_version */ 'ST-DEVELOPER v18.1',
/* originating_system */ 'Autodesk Inventor 2022',
/* authorisation */ '');

FILE_SCHEMA (('AUTOMOTIVE_DESIGN { 1 0 10303 214 3 1 1 }'));
ENDSEC;

DATA;
#10=MECHANICAL_DESIGN_GEOMETRIC_PRESENTATION_REPRESENTATION('',(#13),#414);
#11=SHAPE_REPRESENTATION_RELATIONSHIP('SRR','None',#421,#12);
#12=ADVANCED_BREP_SHAPE_REPRESENTATION('',(#14),#413);
#13=STYLED_ITEM('',(#430),#14);
#14=MANIFOLD_SOLID_BREP('None',#241);
#15=FACE_BOUND('',#54,.T.);
#16=FACE_BOUND('',#55,.T.);
#17=FACE_BOUND('',#56,.T.);
#18=FACE_BOUND('',#57,.T.);
#19=FACE_BOUND('',#59,.T.);
#20=FACE_BOUND('',#60,.T.);
#21=FACE_BOUND('',#61,.T.);
#22=FACE_BOUND('',#62,.T.);
#23=PLANE('',#276);
#24=PLANE('',#277);
#25=PLANE('',#278);
#26=PLANE('',#279);
#27=PLANE('',#280);
#28=PLANE('',#281);
#29=PLANE('',#282);
#30=PLANE('',#283);
#31=FACE_OUTER_BOUND('',#43,.T.);
#32=FACE_OUTER_BOUND('',#44,.T.);
#33=FACE_OUTER_BOUND('',#45,.T.);
#34=FACE_OUTER_BOUND('',#46,.T.);
#35=FACE_OUTER_BOUND('',#47,.T.);
#36=FACE_OUTER_BOUND('',#48,.T.);
#37=FACE_OUTER_BOUND('',#49,.T.);
#38=FACE_OUTER_BOUND('',#50,.T.);
#39=FACE_OUTER_BOUND('',#51,.T.);
#40=FACE_OUTER_BOUND('',#52,.T.);
#41=FACE_OUTER_BOUND('',#53,.T.);
#42=FACE_OUTER_BOUND('',#58,.T.);
#43=EDGE_LOOP('',(#165,#166,#167,#168));
#44=EDGE_LOOP('',(#169,#170,#171,#172));
#45=EDGE_LOOP('',(#173,#174,#175,#176));
#46=EDGE_LOOP('',(#177,#178,#179,#180));
#47=EDGE_LOOP('',(#181,#182,#183,#184));
#48=EDGE_LOOP('',(#185,#186,#187,#188));
#49=EDGE_LOOP('',(#189,#190,#191,#192));
#50=EDGE_LOOP('',(#193,#194,#195,#196));
#51=EDGE_LOOP('',(#197,#198,#199,#200));
#52=EDGE_LOOP('',(#201,#202,#203,#204));
#53=EDGE_LOOP('',(#205,#206,#207,#208,#209,#210));
#54=EDGE_LOOP('',(#211));
#55=EDGE_LOOP('',(#212));
#56=EDGE_LOOP('',(#213));
#57=EDGE_LOOP('',(#214));
#58=EDGE_LOOP('',(#215,#216,#217,#218,#219,#220));
#59=EDGE_LOOP('',(#221));
#60=EDGE_LOOP('',(#222));
#61=EDGE_LOOP('',(#223));
#62=EDGE_LOOP('',(#224));
#63=LINE('',#353,#85);
#64=LINE('',#359,#86);
#65=LINE('',#365,#87);
#66=LINE('',#371,#88);
#67=LINE('',#376,#89);
#68=LINE('',#378,#90);
#69=LINE('',#380,#91);
#70=LINE('',#381,#92);
#71=LINE('',#384,#93);
#72=LINE('',#386,#94);
#73=LINE('',#387,#95);
#74=LINE('',#390,#96);
#75=LINE('',#392,#97);
#76=LINE('',#393,#98);
#77=LINE('',#396,#99);
#78=LINE('',#398,#100);
#79=LINE('',#399,#101);
#80=LINE('',#402,#102);
#81=LINE('',#404,#103);
#82=LINE('',#405,#104);
#83=LINE('',#407,#105);
#84=LINE('',#408,#106);
#85=VECTOR('',#290,3.3235);
#86=VECTOR('',#297,3.3235);
#87=VECTOR('',#304,3.3235);
#88=VECTOR('',#311,3.3235);
#89=VECTOR('',#316,6.);
#90=VECTOR('',#317,57.7942283114428);
#91=VECTOR('',#318,6.);
#92=VECTOR('',#319,57.7942283114428);
#93=VECTOR('',#322,13.5000000423034);
#94=VECTOR('',#323,6.);
#95=VECTOR('',#324,13.5000000423034);
#96=VECTOR('',#327,49.9999998359291);
#97=VECTOR('',#328,6.);
#98=VECTOR('',#329,49.9999998359291);
#99=VECTOR('',#332,49.9999999997999);
#100=VECTOR('',#333,6.);
#101=VECTOR('',#334,49.9999999997999);
#102=VECTOR('',#337,13.4999999999463);
#103=VECTOR('',#338,6.);
#104=VECTOR('',#339,13.4999999999463);
#105=VECTOR('',#342,57.7942289997691);
#106=VECTOR('',#343,57.7942289997691);
#107=CIRCLE('',#265,3.3235);
#108=CIRCLE('',#266,3.3235);
#109=CIRCLE('',#268,3.3235);
#110=CIRCLE('',#269,3.3235);
#111=CIRCLE('',#271,3.3235);
#112=CIRCLE('',#272,3.3235);
#113=CIRCLE('',#274,3.3235);
#114=CIRCLE('',#275,3.3235);
#115=VERTEX_POINT('',#350);
#116=VERTEX_POINT('',#352);
#117=VERTEX_POINT('',#356);
#118=VERTEX_POINT('',#358);
#119=VERTEX_POINT('',#362);
#120=VERTEX_POINT('',#364);
#121=VERTEX_POINT('',#368);
#122=VERTEX_POINT('',#370);
#123=VERTEX_POINT('',#374);
#124=VERTEX_POINT('',#375);
#125=VERTEX_POINT('',#377);
#126=VERTEX_POINT('',#379);
#127=VERTEX_POINT('',#383);
#128=VERTEX_POINT('',#385);
#129=VERTEX_POINT('',#389);
#130=VERTEX_POINT('',#391);
#131=VERTEX_POINT('',#395);
#132=VERTEX_POINT('',#397);
#133=VERTEX_POINT('',#401);
#134=VERTEX_POINT('',#403);
#135=EDGE_CURVE('',#115,#115,#107,.T.);
#136=EDGE_CURVE('',#115,#116,#63,.T.);
#137=EDGE_CURVE('',#116,#116,#108,.T.);
#138=EDGE_CURVE('',#117,#117,#109,.T.);
#139=EDGE_CURVE('',#117,#118,#64,.T.);
#140=EDGE_CURVE('',#118,#118,#110,.T.);
#141=EDGE_CURVE('',#119,#119,#111,.T.);
#142=EDGE_CURVE('',#119,#120,#65,.T.);
#143=EDGE_CURVE('',#120,#120,#112,.T.);
#144=EDGE_CURVE('',#121,#121,#113,.T.);
#145=EDGE_CURVE('',#121,#122,#66,.T.);
#146=EDGE_CURVE('',#122,#122,#114,.T.);
#147=EDGE_CURVE('',#123,#124,#67,.T.);
#148=EDGE_CURVE('',#124,#125,#68,.T.);
#149=EDGE_CURVE('',#126,#125,#69,.T.);
#150=EDGE_CURVE('',#123,#126,#70,.T.);
#151=EDGE_CURVE('',#125,#127,#71,.T.);
#152=EDGE_CURVE('',#128,#127,#72,.T.);
#153=EDGE_CURVE('',#126,#128,#73,.T.);
#154=EDGE_CURVE('',#127,#129,#74,.T.);
#155=EDGE_CURVE('',#130,#129,#75,.T.);
#156=EDGE_CURVE('',#128,#130,#76,.T.);
#157=EDGE_CURVE('',#129,#131,#77,.T.);
#158=EDGE_CURVE('',#132,#131,#78,.T.);
#159=EDGE_CURVE('',#130,#132,#79,.T.);
#160=EDGE_CURVE('',#131,#133,#80,.T.);
#161=EDGE_CURVE('',#134,#133,#81,.T.);
#162=EDGE_CURVE('',#132,#134,#82,.T.);
#163=EDGE_CURVE('',#133,#124,#83,.T.);
#164=EDGE_CURVE('',#134,#123,#84,.T.);
#165=ORIENTED_EDGE('',*,*,#135,.F.);
#166=ORIENTED_EDGE('',*,*,#136,.T.);
#167=ORIENTED_EDGE('',*,*,#137,.F.);
#168=ORIENTED_EDGE('',*,*,#136,.F.);
#169=ORIENTED_EDGE('',*,*,#138,.F.);
#170=ORIENTED_EDGE('',*,*,#139,.T.);
#171=ORIENTED_EDGE('',*,*,#140,.F.);
#172=ORIENTED_EDGE('',*,*,#139,.F.);
#173=ORIENTED_EDGE('',*,*,#141,.F.);
#174=ORIENTED_EDGE('',*,*,#142,.T.);
#175=ORIENTED_EDGE('',*,*,#143,.F.);
#176=ORIENTED_EDGE('',*,*,#142,.F.);
#177=ORIENTED_EDGE('',*,*,#144,.F.);
#178=ORIENTED_EDGE('',*,*,#145,.T.);
#179=ORIENTED_EDGE('',*,*,#146,.F.);
#180=ORIENTED_EDGE('',*,*,#145,.F.);
#181=ORIENTED_EDGE('',*,*,#147,.T.);
#182=ORIENTED_EDGE('',*,*,#148,.T.);
#183=ORIENTED_EDGE('',*,*,#149,.F.);
#184=ORIENTED_EDGE('',*,*,#150,.F.);
#185=ORIENTED_EDGE('',*,*,#149,.T.);
#186=ORIENTED_EDGE('',*,*,#151,.T.);
#187=ORIENTED_EDGE('',*,*,#152,.F.);
#188=ORIENTED_EDGE('',*,*,#153,.F.);
#189=ORIENTED_EDGE('',*,*,#152,.T.);
#190=ORIENTED_EDGE('',*,*,#154,.T.);
#191=ORIENTED_EDGE('',*,*,#155,.F.);
#192=ORIENTED_EDGE('',*,*,#156,.F.);
#193=ORIENTED_EDGE('',*,*,#155,.T.);
#194=ORIENTED_EDGE('',*,*,#157,.T.);
#195=ORIENTED_EDGE('',*,*,#158,.F.);
#196=ORIENTED_EDGE('',*,*,#159,.F.);
#197=ORIENTED_EDGE('',*,*,#158,.T.);
#198=ORIENTED_EDGE('',*,*,#160,.T.);
#199=ORIENTED_EDGE('',*,*,#161,.F.);
#200=ORIENTED_EDGE('',*,*,#162,.F.);
#201=ORIENTED_EDGE('',*,*,#161,.T.);
#202=ORIENTED_EDGE('',*,*,#163,.T.);
#203=ORIENTED_EDGE('',*,*,#147,.F.);
#204=ORIENTED_EDGE('',*,*,#164,.F.);
#205=ORIENTED_EDGE('',*,*,#150,.T.);
#206=ORIENTED_EDGE('',*,*,#153,.T.);
#207=ORIENTED_EDGE('',*,*,#156,.T.);
#208=ORIENTED_EDGE('',*,*,#159,.T.);
#209=ORIENTED_EDGE('',*,*,#162,.T.);
#210=ORIENTED_EDGE('',*,*,#164,.T.);
#211=ORIENTED_EDGE('',*,*,#135,.T.);
#212=ORIENTED_EDGE('',*,*,#138,.T.);
#213=ORIENTED_EDGE('',*,*,#141,.T.);
#214=ORIENTED_EDGE('',*,*,#144,.T.);
#215=ORIENTED_EDGE('',*,*,#163,.F.);
#216=ORIENTED_EDGE('',*,*,#160,.F.);
#217=ORIENTED_EDGE('',*,*,#157,.F.);
#218=ORIENTED_EDGE('',*,*,#154,.F.);
#219=ORIENTED_EDGE('',*,*,#151,.F.);
#220=ORIENTED_EDGE('',*,*,#148,.F.);
#221=ORIENTED_EDGE('',*,*,#137,.T.);
#222=ORIENTED_EDGE('',*,*,#140,.T.);
#223=ORIENTED_EDGE('',*,*,#143,.T.);
#224=ORIENTED_EDGE('',*,*,#146,.T.);
#225=CYLINDRICAL_SURFACE('',#264,3.3235);
#226=CYLINDRICAL_SURFACE('',#267,3.3235);
#227=CYLINDRICAL_SURFACE('',#270,3.3235);
#228=CYLINDRICAL_SURFACE('',#273,3.3235);
#229=ADVANCED_FACE('',(#31),#225,.F.);
#230=ADVANCED_FACE('',(#32),#226,.F.);
#231=ADVANCED_FACE('',(#33),#227,.F.);
#232=ADVANCED_FACE('',(#34),#228,.F.);
#233=ADVANCED_FACE('',(#35),#23,.F.);
#234=ADVANCED_FACE('',(#36),#24,.F.);
#235=ADVANCED_FACE('',(#37),#25,.F.);
#236=ADVANCED_FACE('',(#38),#26,.F.);
#237=ADVANCED_FACE('',(#39),#27,.F.);
#238=ADVANCED_FACE('',(#40),#28,.F.);
#239=ADVANCED_FACE('',(#41,#15,#16,#17,#18),#29,.T.);
#240=ADVANCED_FACE('',(#42,#19,#20,#21,#22),#30,.F.);
#241=CLOSED_SHELL('',(#229,#230,#231,#232,#233,#234,#235,#236,#237,#238,
#239,#240));
#242=DERIVED_UNIT_ELEMENT(#245,1.);
#243=DERIVED_UNIT_ELEMENT(#416,-3.);
#244=DIMENSIONAL_EXPONENTS(1.,0.,0.,0.,0.,0.,0.);
#245=(
CONVERSION_BASED_UNIT('gram',#247)
MASS_UNIT()
NAMED_UNIT(#244)
);
#246=(
MASS_UNIT()
NAMED_UNIT(*)
SI_UNIT(.KILO.,.GRAM.)
);
#247=MASS_MEASURE_WITH_UNIT(MASS_MEASURE(0.001),#246);
#248=DERIVED_UNIT((#242,#243));
#249=MEASURE_REPRESENTATION_ITEM('density measure',
POSITIVE_RATIO_MEASURE(7.85),#248);
#250=PROPERTY_DEFINITION_REPRESENTATION(#255,#252);
#251=PROPERTY_DEFINITION_REPRESENTATION(#256,#253);
#252=REPRESENTATION('material name',(#254),#413);
#253=REPRESENTATION('density',(#249),#413);
#254=DESCRIPTIVE_REPRESENTATION_ITEM('Acciaio','Acciaio');
#255=PROPERTY_DEFINITION('material property','material name',#423);
#256=PROPERTY_DEFINITION('material property','density of part',#423);
#257=DATE_TIME_ROLE('creation_date');
#258=APPLIED_DATE_AND_TIME_ASSIGNMENT(#259,#257,(#423));
#259=DATE_AND_TIME(#260,#261);
#260=CALENDAR_DATE(2011,22,12);
#261=LOCAL_TIME(0,0,0.,#262);
#262=COORDINATED_UNIVERSAL_TIME_OFFSET(0,0,.BEHIND.);
#263=AXIS2_PLACEMENT_3D('placement',#348,#284,#285);
#264=AXIS2_PLACEMENT_3D('',#349,#286,#287);
#265=AXIS2_PLACEMENT_3D('',#351,#288,#289);
#266=AXIS2_PLACEMENT_3D('',#354,#291,#292);
#267=AXIS2_PLACEMENT_3D('',#355,#293,#294);
#268=AXIS2_PLACEMENT_3D('',#357,#295,#296);
#269=AXIS2_PLACEMENT_3D('',#360,#298,#299);
#270=AXIS2_PLACEMENT_3D('',#361,#300,#301);
#271=AXIS2_PLACEMENT_3D('',#363,#302,#303);
#272=AXIS2_PLACEMENT_3D('',#366,#305,#306);
#273=AXIS2_PLACEMENT_3D('',#367,#307,#308);
#274=AXIS2_PLACEMENT_3D('',#369,#309,#310);
#275=AXIS2_PLACEMENT_3D('',#372,#312,#313);
#276=AXIS2_PLACEMENT_3D('',#373,#314,#315);
#277=AXIS2_PLACEMENT_3D('',#382,#320,#321);
#278=AXIS2_PLACEMENT_3D('',#388,#325,#326);
#279=AXIS2_PLACEMENT_3D('',#394,#330,#331);
#280=AXIS2_PLACEMENT_3D('',#400,#335,#336);
#281=AXIS2_PLACEMENT_3D('',#406,#340,#341);
#282=AXIS2_PLACEMENT_3D('',#409,#344,#345);
#283=AXIS2_PLACEMENT_3D('',#410,#346,#347);
#284=DIRECTION('axis',(0.,0.,1.));
#285=DIRECTION('refdir',(1.,0.,0.));
#286=DIRECTION('center_axis',(0.,0.,1.));
#287=DIRECTION('ref_axis',(1.,0.,0.));
#288=DIRECTION('center_axis',(0.,0.,-1.));
#289=DIRECTION('ref_axis',(1.,0.,0.));
#290=DIRECTION('',(0.,0.,-1.));
#291=DIRECTION('center_axis',(0.,0.,1.));
#292=DIRECTION('ref_axis',(1.,0.,0.));
#293=DIRECTION('center_axis',(0.,0.,1.));
#294=DIRECTION('ref_axis',(1.,0.,0.));
#295=DIRECTION('center_axis',(0.,0.,-1.));
#296=DIRECTION('ref_axis',(1.,0.,0.));
#297=DIRECTION('',(0.,0.,-1.));
#298=DIRECTION('center_axis',(0.,0.,1.));
#299=DIRECTION('ref_axis',(1.,0.,0.));
#300=DIRECTION('center_axis',(0.,0.,1.));
#301=DIRECTION('ref_axis',(1.,0.,0.));
#302=DIRECTION('center_axis',(0.,0.,-1.));
#303=DIRECTION('ref_axis',(1.,0.,0.));
#304=DIRECTION('',(0.,0.,-1.));
#305=DIRECTION('center_axis',(0.,0.,1.));
#306=DIRECTION('ref_axis',(1.,0.,0.));
#307=DIRECTION('center_axis',(0.,0.,1.));
#308=DIRECTION('ref_axis',(1.,0.,0.));
#309=DIRECTION('center_axis',(0.,0.,-1.));
#310=DIRECTION('ref_axis',(1.,0.,0.));
#311=DIRECTION('',(0.,0.,-1.));
#312=DIRECTION('center_axis',(0.,0.,1.));
#313=DIRECTION('ref_axis',(1.,0.,0.));
#314=DIRECTION('center_axis',(-0.866025405341213,0.499999997303588,0.));
#315=DIRECTION('ref_axis',(0.,0.,1.));
#316=DIRECTION('',(0.,0.,-1.));
#317=DIRECTION('',(0.49999999730359,0.866025405341212,0.));
#318=DIRECTION('',(0.,0.,-1.));
#319=DIRECTION('',(0.49999999730359,0.866025405341212,0.));
#320=DIRECTION('center_axis',(-0.499999998431222,-0.866025404690173,0.));
#321=DIRECTION('ref_axis',(0.,0.,-1.));
#322=DIRECTION('',(-0.866025404690181,0.499999998431208,0.));
#323=DIRECTION('',(0.,0.,-1.));
#324=DIRECTION('',(-0.866025404690181,0.499999998431208,0.));
#325=DIRECTION('center_axis',(0.866025402838329,-0.50000000163871,0.));
#326=DIRECTION('ref_axis',(0.,0.,-1.));
#327=DIRECTION('',(-0.50000000163871,-0.866025402838329,0.));
#328=DIRECTION('',(0.,0.,-1.));
#329=DIRECTION('',(-0.50000000163871,-0.866025402838329,0.));
#330=DIRECTION('center_axis',(0.,-1.,0.));
#331=DIRECTION('ref_axis',(0.,0.,-1.));
#332=DIRECTION('',(-1.,0.,0.));
#333=DIRECTION('',(0.,0.,-1.));
#334=DIRECTION('',(-1.,0.,0.));
#335=DIRECTION('center_axis',(1.,0.,0.));
#336=DIRECTION('ref_axis',(0.,0.,-1.));
#337=DIRECTION('',(0.,-1.,0.));
#338=DIRECTION('',(0.,0.,-1.));
#339=DIRECTION('',(0.,-1.,0.));
#340=DIRECTION('center_axis',(0.,1.,0.));
#341=DIRECTION('ref_axis',(0.,0.,1.));
#342=DIRECTION('',(1.,0.,0.));
#343=DIRECTION('',(1.,0.,0.));
#344=DIRECTION('center_axis',(0.,0.,1.));
#345=DIRECTION('ref_axis',(1.,0.,0.));
#346=DIRECTION('center_axis',(0.,0.,1.));
#347=DIRECTION('ref_axis',(1.,0.,0.));
#348=CARTESIAN_POINT('',(0.,0.,0.));
#349=CARTESIAN_POINT('Origin',(4.30144199998267,20.9503179999165,-97.8160547539286));
#350=CARTESIAN_POINT('',(0.977941999982671,20.9503179999165,6.));
#351=CARTESIAN_POINT('Origin',(4.30144199998267,20.9503179999165,6.));
#352=CARTESIAN_POINT('',(0.977941999982671,20.9503179999165,0.));
#353=CARTESIAN_POINT('',(0.977941999982671,20.9503179999165,-97.8160547539286));
#354=CARTESIAN_POINT('Origin',(4.30144199998267,20.9503179999165,0.));
#355=CARTESIAN_POINT('Origin',(-45.2942289998191,6.74999999997317,-97.8160547539286));
#356=CARTESIAN_POINT('',(-48.6177289998191,6.74999999997317,6.));
#357=CARTESIAN_POINT('Origin',(-45.2942289998191,6.74999999997317,6.));
#358=CARTESIAN_POINT('',(-48.6177289998191,6.74999999997317,0.));
#359=CARTESIAN_POINT('',(-48.6177289998191,6.74999999997317,-97.8160547539286));
#360=CARTESIAN_POINT('Origin',(-45.2942289998191,6.74999999997317,0.));
#361=CARTESIAN_POINT('Origin',(-20.2942289999191,6.74999999997317,-97.8160547539286));
#362=CARTESIAN_POINT('',(-23.6177289999192,6.74999999997317,6.));
#363=CARTESIAN_POINT('Origin',(-20.2942289999191,6.74999999997317,6.));
#364=CARTESIAN_POINT('',(-23.6177289999192,6.74999999997317,0.));
#365=CARTESIAN_POINT('',(-23.6177289999192,6.74999999997317,-97.8160547539286));
#366=CARTESIAN_POINT('Origin',(-20.2942289999191,6.74999999997317,0.));
#367=CARTESIAN_POINT('Origin',(16.8014419999326,42.6009529998296,-97.8160547539286));
#368=CARTESIAN_POINT('',(13.4779419999326,42.6009529998296,6.));
#369=CARTESIAN_POINT('Origin',(16.8014419999326,42.6009529998296,6.));
#370=CARTESIAN_POINT('',(13.4779419999326,42.6009529998296,0.));
#371=CARTESIAN_POINT('',(13.4779419999326,42.6009529998296,-97.8160547539286));
#372=CARTESIAN_POINT('Origin',(16.8014419999326,42.6009529998296,0.));
#373=CARTESIAN_POINT('Origin',(0.,0.,6.));
#374=CARTESIAN_POINT('',(0.,0.,6.));
#375=CARTESIAN_POINT('',(0.,0.,0.));
#376=CARTESIAN_POINT('',(0.,0.,6.));
#377=CARTESIAN_POINT('',(28.8971139998844,50.0512699997998,0.));
#378=CARTESIAN_POINT('',(0.,0.,0.));
#379=CARTESIAN_POINT('',(28.8971139998844,50.0512699997998,6.));
#380=CARTESIAN_POINT('',(28.8971139998844,50.0512699997998,6.));
#381=CARTESIAN_POINT('',(0.,0.,6.));
#382=CARTESIAN_POINT('Origin',(28.8971139998844,50.0512699997998,6.));
#383=CARTESIAN_POINT('',(17.2057709999312,56.801269999773,0.));
#384=CARTESIAN_POINT('',(28.8971139998845,50.0512699998,0.));
#385=CARTESIAN_POINT('',(17.2057709999312,56.801269999773,6.));
#386=CARTESIAN_POINT('',(17.2057709999312,56.801269999773,6.));
#387=CARTESIAN_POINT('',(28.8971139998845,50.0512699998,6.));
#388=CARTESIAN_POINT('Origin',(17.2057709999312,56.801269999773,6.));
#389=CARTESIAN_POINT('',(-7.79422899996916,13.4999999999463,0.));
#390=CARTESIAN_POINT('',(17.2057709999312,56.801269999773,0.));
#391=CARTESIAN_POINT('',(-7.79422899996916,13.4999999999463,6.));
#392=CARTESIAN_POINT('',(-7.79422899996916,13.4999999999463,6.));
#393=CARTESIAN_POINT('',(17.2057709999312,56.801269999773,6.));
#394=CARTESIAN_POINT('Origin',(-7.79422899996916,13.4999999999463,6.));
#395=CARTESIAN_POINT('',(-57.7942289997691,13.4999999999463,0.));
#396=CARTESIAN_POINT('',(-7.79422899996916,13.4999999999463,0.));
#397=CARTESIAN_POINT('',(-57.7942289997691,13.4999999999463,6.));
#398=CARTESIAN_POINT('',(-57.7942289997691,13.4999999999463,6.));
#399=CARTESIAN_POINT('',(-7.79422899996916,13.4999999999463,6.));
#400=CARTESIAN_POINT('Origin',(-57.7942289997691,13.4999999999463,6.));
#401=CARTESIAN_POINT('',(-57.7942289997691,0.,0.));
#402=CARTESIAN_POINT('',(-57.7942289997691,13.4999999999463,0.));
#403=CARTESIAN_POINT('',(-57.7942289997691,0.,6.));
#404=CARTESIAN_POINT('',(-57.7942289997691,0.,6.));
#405=CARTESIAN_POINT('',(-57.7942289997691,13.4999999999463,6.));
#406=CARTESIAN_POINT('Origin',(-57.7942289997691,0.,6.));
#407=CARTESIAN_POINT('',(-57.7942289997691,0.,0.));
#408=CARTESIAN_POINT('',(-57.7942289997691,0.,6.));
#409=CARTESIAN_POINT('Origin',(-66.4633680332554,-5.68013173346526,6.));
#410=CARTESIAN_POINT('Origin',(-66.4633680332554,-5.68013173346526,0.));
#411=UNCERTAINTY_MEASURE_WITH_UNIT(LENGTH_MEASURE(0.01),#415,
'DISTANCE_ACCURACY_VALUE',
'Maximum model space distance between geometric entities at asserted c
onnectivities');
#412=UNCERTAINTY_MEASURE_WITH_UNIT(LENGTH_MEASURE(0.01),#415,
'DISTANCE_ACCURACY_VALUE',
'Maximum model space distance between geometric entities at asserted c
onnectivities');
#413=(
GEOMETRIC_REPRESENTATION_CONTEXT(3)
GLOBAL_UNCERTAINTY_ASSIGNED_CONTEXT((#411))
GLOBAL_UNIT_ASSIGNED_CONTEXT((#415,#417,#418))
REPRESENTATION_CONTEXT('','3D')
);
#414=(
GEOMETRIC_REPRESENTATION_CONTEXT(3)
GLOBAL_UNCERTAINTY_ASSIGNED_CONTEXT((#412))
GLOBAL_UNIT_ASSIGNED_CONTEXT((#415,#417,#418))
REPRESENTATION_CONTEXT('','3D')
);
#415=(
LENGTH_UNIT()
NAMED_UNIT(*)
SI_UNIT(.MILLI.,.METRE.)
);
#416=(
LENGTH_UNIT()
NAMED_UNIT(*)
SI_UNIT(.CENTI.,.METRE.)
);
#417=(
NAMED_UNIT(*)
PLANE_ANGLE_UNIT()
SI_UNIT($,.RADIAN.)
);
#418=(
NAMED_UNIT(*)
SI_UNIT($,.STERADIAN.)
SOLID_ANGLE_UNIT()
);
#419=SHAPE_DEFINITION_REPRESENTATION(#420,#421);
#420=PRODUCT_DEFINITION_SHAPE('',$,#423);
#421=SHAPE_REPRESENTATION('',(#263),#413);
#422=PRODUCT_DEFINITION_CONTEXT('part definition',#427,'design');
#423=PRODUCT_DEFINITION('CGIPR0000068','CGIPR0000068',#424,#422);
#424=PRODUCT_DEFINITION_FORMATION('A',$,#429);
#425=PRODUCT_RELATED_PRODUCT_CATEGORY('CGIPR0000068','CGIPR0000068',(#429));
#426=APPLICATION_PROTOCOL_DEFINITION('international standard',
'automotive_design',2009,#427);
#427=APPLICATION_CONTEXT(
'Core Data for Automotive Mechanical Design Process');
#428=PRODUCT_CONTEXT('part definition',#427,'mechanical');
#429=PRODUCT('CGIPR0000068','CGIPR0000068',
'GIUNZ. ANG. 60\X\B0 X PROF. SERIE 45',(#428));
#430=PRESENTATION_STYLE_ASSIGNMENT((#431));
#431=SURFACE_STYLE_USAGE(.BOTH.,#434);
#432=SURFACE_STYLE_RENDERING_WITH_PROPERTIES($,#438,(#433));
#433=SURFACE_STYLE_TRANSPARENT(0.);
#434=SURFACE_SIDE_STYLE('',(#435,#432));
#435=SURFACE_STYLE_FILL_AREA(#436);
#436=FILL_AREA_STYLE('',(#437));
#437=FILL_AREA_STYLE_COLOUR('',#438);
#438=COLOUR_RGB('',0.63921568627451,0.63921568627451,0.662745098039216);
ENDSEC;
END-ISO-10303-21;
