  0
SECTION
  2
HEADER
  9
$ACADVER
  1
AC1015
  9
$ACADMAINTVER
 70
    20
  9
$DWGCODEPAGE
  3
ANSI_1252
  9
$INSBASE
 10
0.0
 20
0.0
 30
0.0
  9
$EXTMIN
 10
-38.51040409556276
 20
-47.59359677600855
 30
-0.0015258207003583
  9
$EXTMAX
 10
57.26970429487057
 20
42.04660073649904
 30
0.0000000349246037
  9
$LIMMIN
 10
0.0
 20
0.0
  9
$LIMMAX
 10
210.0
 20
297.0
  9
$ORTHOMODE
 70
     0
  9
$REGENMODE
 70
     1
  9
$FILLMODE
 70
     1
  9
$QTEXTMODE
 70
     0
  9
$MIRRTEXT
 70
     1
  9
$LTSCALE
 40
25.4
  9
$ATTMODE
 70
     1
  9
$TEXTSIZE
 40
0.2
  9
$TRACEWID
 40
0.05
  9
$TEXTSTYLE
  7
Standard
  9
$CLAYER
  8
P-0000
  9
$CELTYPE
  6
CONTINUOUS
  9
$CECOLOR
 62
   256
  9
$CELTSCALE
 40
1.0
  9
$DISPSILH
 70
     0
  9
$DIMSCALE
 40
1.0
  9
$DIMASZ
 40
0.18
  9
$DIMEXO
 40
0.0625
  9
$DIMDLI
 40
0.38
  9
$DIMRND
 40
0.0
  9
$DIMDLE
 40
0.0
  9
$DIMEXE
 40
0.18
  9
$DIMTP
 40
0.0
  9
$DIMTM
 40
0.0
  9
$DIMTXT
 40
0.18
  9
$DIMCEN
 40
0.09
  9
$DIMTSZ
 40
0.0
  9
$DIMTOL
 70
     0
  9
$DIMLIM
 70
     0
  9
$DIMTIH
 70
     1
  9
$DIMTOH
 70
     1
  9
$DIMSE1
 70
     0
  9
$DIMSE2
 70
     0
  9
$DIMTAD
 70
     0
  9
$DIMZIN
 70
     0
  9
$DIMBLK
  1

  9
$DIMASO
 70
     1
  9
$DIMSHO
 70
     1
  9
$DIMPOST
  1

  9
$DIMAPOST
  1

  9
$DIMALT
 70
     0
  9
$DIMALTD
 70
     2
  9
$DIMALTF
 40
25.4
  9
$DIMLFAC
 40
1.0
  9
$DIMTOFL
 70
     0
  9
$DIMTVP
 40
0.0
  9
$DIMTIX
 70
     0
  9
$DIMSOXD
 70
     0
  9
$DIMSAH
 70
     0
  9
$DIMBLK1
  1

  9
$DIMBLK2
  1

  9
$DIMSTYLE
  2
Standard
  9
$DIMCLRD
 70
     0
  9
$DIMCLRE
 70
     0
  9
$DIMCLRT
 70
     0
  9
$DIMTFAC
 40
1.0
  9
$DIMGAP
 40
0.09
  9
$DIMJUST
 70
     0
  9
$DIMSD1
 70
     0
  9
$DIMSD2
 70
     0
  9
$DIMTOLJ
 70
     1
  9
$DIMTZIN
 70
     0
  9
$DIMALTZ
 70
     0
  9
$DIMALTTZ
 70
     0
  9
$DIMUPT
 70
     0
  9
$DIMDEC
 70
     4
  9
$DIMTDEC
 70
     4
  9
$DIMALTU
 70
     2
  9
$DIMALTTD
 70
     2
  9
$DIMTXSTY
  7
Standard
  9
$DIMAUNIT
 70
     0
  9
$DIMADEC
 70
     0
  9
$DIMALTRND
 40
0.0
  9
$DIMAZIN
 70
     0
  9
$DIMDSEP
 70
     0
  9
$DIMATFIT
 70
     3
  9
$DIMFRAC
 70
     0
  9
$DIMLDRBLK
  1

  9
$DIMLUNIT
 70
     2
  9
$DIMLWD
 70
     0
  9
$DIMLWE
 70
     0
  9
$DIMTMOVE
 70
     0
  9
$LUNITS
 70
     2
  9
$LUPREC
 70
     4
  9
$SKETCHINC
 40
0.1
  9
$FILLETRAD
 40
0.0
  9
$AUNITS
 70
     0
  9
$AUPREC
 70
     0
  9
$MENU
  1
acad
  9
$ELEVATION
 40
0.0
  9
$PELEVATION
 40
0.0
  9
$THICKNESS
 40
0.0
  9
$LIMCHECK
 70
     0
  9
$CHAMFERA
 40
0.0
  9
$CHAMFERB
 40
0.0
  9
$CHAMFERC
 40
0.0
  9
$CHAMFERD
 40
0.0
  9
$SKPOLY
 70
     0
  9
$TDCREATE
 40
2455558.518682917
  9
$TDUCREATE
 40
2455558.477016250
  9
$TDUPDATE
 40
2455631.683642327
  9
$TDUUPDATE
 40
2455631.641975660
  9
$TDINDWG
 40
0.0017842361
  9
$TDUSRTIMER
 40
0.0017842361
  9
$USRTIMER
 70
     1
  9
$ANGBASE
 50
0.0
  9
$ANGDIR
 70
     0
  9
$PDMODE
 70
     0
  9
$PDSIZE
 40
0.0
  9
$PLINEWID
 40
0.0
  9
$SPLFRAME
 70
     0
  9
$SPLINETYPE
 70
     6
  9
$SPLINESEGS
 70
     8
  9
$HANDSEED
  5
36F
  9
$SURFTAB1
 70
     6
  9
$SURFTAB2
 70
     6
  9
$SURFTYPE
 70
     6
  9
$SURFU
 70
     6
  9
$SURFV
 70
     6
  9
$UCSBASE
  2

  9
$UCSNAME
  2

  9
$UCSORG
 10
0.0
 20
0.0
 30
0.0
  9
$UCSXDIR
 10
1.0
 20
0.0
 30
0.0
  9
$UCSYDIR
 10
0.0
 20
1.0
 30
0.0
  9
$UCSORTHOREF
  2

  9
$UCSORTHOVIEW
 70
     0
  9
$UCSORGTOP
 10
0.0
 20
0.0
 30
0.0
  9
$UCSORGBOTTOM
 10
0.0
 20
0.0
 30
0.0
  9
$UCSORGLEFT
 10
0.0
 20
0.0
 30
0.0
  9
$UCSORGRIGHT
 10
0.0
 20
0.0
 30
0.0
  9
$UCSORGFRONT
 10
0.0
 20
0.0
 30
0.0
  9
$UCSORGBACK
 10
0.0
 20
0.0
 30
0.0
  9
$PUCSBASE
  2

  9
$PUCSNAME
  2

  9
$PUCSORG
 10
0.0
 20
0.0
 30
0.0
  9
$PUCSXDIR
 10
1.0
 20
0.0
 30
0.0
  9
$PUCSYDIR
 10
0.0
 20
1.0
 30
0.0
  9
$PUCSORTHOREF
  2

  9
$PUCSORTHOVIEW
 70
     0
  9
$PUCSORGTOP
 10
0.0
 20
0.0
 30
0.0
  9
$PUCSORGBOTTOM
 10
0.0
 20
0.0
 30
0.0
  9
$PUCSORGLEFT
 10
0.0
 20
0.0
 30
0.0
  9
$PUCSORGRIGHT
 10
0.0
 20
0.0
 30
0.0
  9
$PUCSORGFRONT
 10
0.0
 20
0.0
 30
0.0
  9
$PUCSORGBACK
 10
0.0
 20
0.0
 30
0.0
  9
$USERI1
 70
     0
  9
$USERI2
 70
     0
  9
$USERI3
 70
     0
  9
$USERI4
 70
     0
  9
$USERI5
 70
     0
  9
$USERR1
 40
0.0
  9
$USERR2
 40
0.0
  9
$USERR3
 40
0.0
  9
$USERR4
 40
0.0
  9
$USERR5
 40
0.0
  9
$WORLDVIEW
 70
     1
  9
$SHADEDGE
 70
     3
  9
$SHADEDIF
 70
    70
  9
$TILEMODE
 70
     1
  9
$MAXACTVP
 70
    16
  9
$PINSBASE
 10
0.0
 20
0.0
 30
0.0
  9
$PLIMCHECK
 70
     0
  9
$PEXTMIN
 10
1.000000000000000E+20
 20
1.000000000000000E+20
 30
1.000000000000000E+20
  9
$PEXTMAX
 10
-1.000000000000000E+20
 20
-1.000000000000000E+20
 30
-1.000000000000000E+20
  9
$PLIMMIN
 10
0.0
 20
0.0
  9
$PLIMMAX
 10
12.0
 20
9.0
  9
$UNITMODE
 70
     0
  9
$VISRETAIN
 70
     0
  9
$PLINEGEN
 70
     1
  9
$PSLTSCALE
 70
     0
  9
$TREEDEPTH
 70
  3020
  9
$CMLSTYLE
  2
Standard
  9
$CMLJUST
 70
     0
  9
$CMLSCALE
 40
1.0
  9
$PROXYGRAPHICS
 70
     0
  9
$MEASUREMENT
 70
     0
  9
$CELWEIGHT
370
     0
  9
$ENDCAPS
280
     0
  9
$JOINSTYLE
280
     0
  9
$LWDISPLAY
290
     0
  9
$INSUNITS
 70
     0
  9
$HYPERLINKBASE
  1

  9
$STYLESHEET
  1

  9
$XEDIT
290
     1
  9
$CEPSNTYPE
380
     0
  9
$PSTYLEMODE
290
     1
  9
$FINGERPRINTGUID
  2

  9
$VERSIONGUID
  2
{A4CE66E3-04DC-4ED3-8697-A2DC15309E0A}
  9
$EXTNAMES
290
     1
  9
$PSVPSCALE
 40
0.0
  9
$OLESTARTUP
290
     0
  0
ENDSEC
  0
SECTION
  2
CLASSES
  0
CLASS
  1
LWPOLYLINE
  2
AcDbPolyline
  3
ObjectDBX Classes
 90
    32768
280
     0
281
     1
  0
CLASS
  1
IMAGE
  2
AcDbRasterImage
  3
ISM
 90
    34943
280
     0
281
     1
  0
CLASS
  1
OLE2FRAME
  2
AcDbOle2Frame
  3
ObjectDBX Classes
 90
    32768
280
     0
281
     1
  0
CLASS
  1
HATCH
  2
AcDbHatch
  3
ObjectDBX Classes
 90
        0
280
     0
281
     1
  0
CLASS
  1
DICTIONARYVAR
  2
AcDbDictionaryVar
  3
ObjectDBX Classes
 90
        0
280
     0
281
     0
  0
CLASS
  1
RASTERVARIABLES
  2
AcDbRasterVariables
  3
ISM
 90
    32768
280
     0
281
     0
  0
CLASS
  1
IMAGEDEF
  2
AcDbRasterImageDef
  3
ISM
 90
    32768
280
     0
281
     0
  0
CLASS
  1
IMAGEDEF_REACTOR
  2
AcDbRasterImageDefReactor
  3
ISM
 90
    32769
280
     0
281
     0
  0
CLASS
  1
IDBUFFER
  2
AcDbIdBuffer
  3
ObjectDBX Classes
 90
    32768
280
     0
281
     0
  0
CLASS
  1
SPATIAL_FILTER
  2
AcDbSpatialFilter
  3
ObjectDBX Classes
 90
    32768
280
     0
281
     0
  0
CLASS
  1
XRECORD
  2
AcDbXrecord
  3
ObjectDBX Classes
 90
        0
280
     0
281
     0
  0
CLASS
  1
SORTENTSTABLE
  2
AcDbSortentsTable
  3
ObjectDBX Classes
 90
    32768
280
     0
281
     0
  0
CLASS
  1
LAYER_INDEX
  2
AcDbLayerIndex
  3
ObjectDBX Classes
 90
    32768
280
     0
281
     0
  0
CLASS
  1
SPATIAL_INDEX
  2
AcDbSpatialIndex
  3
ObjectDBX Classes
 90
    32768
280
     0
281
     0
  0
CLASS
  1
OBJECT_PTR
  2
CAseDLPNTableRecord
  3
ASE-LPNTableRecord
 90
    32769
280
     0
281
     0
  0
CLASS
  1
LAYOUT
  2
AcDbLayout
  3
ObjectDBX Classes
 90
        0
280
     0
281
     0
  0
CLASS
  1
PLOTSETTINGS
  2
AcDbPlotSettings
  3
ObjectDBX Classes
 90
        0
280
     0
281
     0
  0
CLASS
  1
ACDBDICTIONARYWDFLT
  2
AcDbDictionaryWithDefault
  3
ObjectDBX Classes
 90
        0
280
     0
281
     0
  0
CLASS
  1
ACDBPLACEHOLDER
  2
AcDbPlaceHolder
  3
ObjectDBX Classes
 90
        0
280
     0
281
     0
  0
CLASS
  1
VBA_PROJECT
  2
AcDbVbaProject
  3
acad
 90
    32768
280
     0
281
     0
  0
CLASS
  1
WIPEOUT
  2
AcDbWipeout
  3
"WipeOut|Product Desc: Object Enabler for WipeOut entity                        |Company: Autodesk, Inc.                        |WEB Address: www.autodesk.com"
 90
    34943
280
     0
281
     1
  0
CLASS
  1
WIPEOUTVARIABLES
  2
AcDbWipeoutVariables
  3
"WipeOut|Product Desc:     WipeOut Dbx Application|Company:          Autodesk, Inc.|WEB Address:      www.autodesk.com"
 90
        0
280
     0
281
     0
  0
CLASS
  1
RTEXT
  2
RText
  3
RText|AutoCAD Express Tool|expresstools@autodesk.com
 90
    35839
280
     0
281
     1
  0
CLASS
  1
ARCALIGNEDTEXT
  2
AcDbArcAlignedText
  3
ATEXT|AutoCAD Express Tool|expresstools@autodesk.com
 90
    32768
280
     0
281
     1
  0
CLASS
  1
MATERIAL
  2
AcDbMaterial
  3
ObjectDBX Classes
 90
     1153
280
     0
281
     0
  0
CLASS
  1
VISUALSTYLE
  2
AcDbVisualStyle
  3
ObjectDBX Classes
 90
     4095
280
     0
281
     0
  0
CLASS
  1
SCALE
  2
AcDbScale
  3
ObjectDBX Classes
 90
     1153
280
     0
281
     0
  0
CLASS
  1
TABLESTYLE
  2
AcDbTableStyle
  3
ObjectDBX Classes
 90
     4095
280
     0
281
     0
  0
CLASS
  1
MLEADERSTYLE
  2
AcDbMLeaderStyle
  3
ACDB_MLEADERSTYLE_CLASS
 90
     4095
280
     0
281
     0
  0
CLASS
  1
ACDBQSCATEGORY
  2
AcQsCategory
  3
categories
 90
     1024
280
     0
281
     0
  0
CLASS
  1
CELLSTYLEMAP
  2
AcDbCellStyleMap
  3
ObjectDBX Classes
 90
     1152
280
     0
281
     0
  0
ENDSEC
  0
SECTION
  2
TABLES
  0
TABLE
  2
VPORT
  5
7
102
{ACAD_XDICTIONARY
360
2CD
102
}
330
0
100
AcDbSymbolTable
 70
     1
  0
VPORT
  5
15
330
7
100
AcDbSymbolTableRecord
100
AcDbViewportTableRecord
  2
*ACTIVE
 70
     0
 10
0.0
 20
0.0
 11
1.0
 21
1.0
 12
9.379650099653893
 22
-2.773498019754754
 13
0.0
 23
0.0
 14
1.0
 24
1.0
 15
0.0
 25
0.0
 16
0.0
 26
0.0
 36
1.0
 17
0.0
 27
0.0
 37
0.0
 40
90.35636420368609
 41
1.579999999999999
 42
50.0
 43
0.0
 44
0.0
 50
0.0
 51
0.0
 71
     0
 72
   100
 73
     1
 74
     1
 75
     0
 76
     0
 77
     0
 78
     0
281
     0
 65
     0
110
0.0
120
0.0
130
0.0
111
1.0
121
0.0
131
0.0
112
0.0
122
1.0
132
0.0
 79
     0
146
0.0
  0
ENDTAB
  0
TABLE
  2
LTYPE
  5
4
330
0
100
AcDbSymbolTable
 70
     9
  0
LTYPE
  5
11
330
4
100
AcDbSymbolTableRecord
100
AcDbLinetypeTableRecord
  2
ByBlock
 70
     0
  3

 72
    65
 73
     0
 40
0.0
  0
LTYPE
  5
12
330
4
100
AcDbSymbolTableRecord
100
AcDbLinetypeTableRecord
  2
ByLayer
 70
     0
  3

 72
    65
 73
     0
 40
0.0
  0
LTYPE
  5
13
330
4
100
AcDbSymbolTableRecord
100
AcDbLinetypeTableRecord
  2
CONTINUOUS
 70
     0
  3
Solid line
 72
    65
 73
     0
 40
0.0
  0
LTYPE
  5
28
330
4
100
AcDbSymbolTableRecord
100
AcDbLinetypeTableRecord
  2
HIDDEN2
 70
     0
  3
_ _ _ _ _ _ _ _ _ _ _ _ _ _ _ _ _ _ _ _ _ _ _ _
 72
    65
 73
     2
 40
0.1875
 49
0.125
 74
     0
 49
-0.0625
 74
     0
  0
LTYPE
  5
29
330
4
100
AcDbSymbolTableRecord
100
AcDbLinetypeTableRecord
  2
CENTER2
 70
     0
  3
___ _ ___ _ ___ _ ___ _ ___ _ ___ _ ___ _ ___ _
 72
    65
 73
     4
 40
1.125
 49
0.75
 74
     0
 49
-0.125
 74
     0
 49
0.125
 74
     0
 49
-0.125
 74
     0
  0
LTYPE
  5
2A
330
4
100
AcDbSymbolTableRecord
100
AcDbLinetypeTableRecord
  2
PHANTOM2
 70
     0
  3
___ _ _ ___ _ _ ___ _ _ ___ _ _ ___ _ _ ___ _ _
 72
    65
 73
     6
 40
1.25
 49
0.625
 74
     0
 49
-0.125
 74
     0
 49
0.125
 74
     0
 49
-0.125
 74
     0
 49
0.125
 74
     0
 49
-0.125
 74
     0
  0
LTYPE
  5
2B
330
4
100
AcDbSymbolTableRecord
100
AcDbLinetypeTableRecord
  2
DOT2
 70
     0
  3
...............................................
 72
    65
 73
     2
 40
0.125
 49
0.0
 74
     0
 49
-0.125
 74
     0
  0
LTYPE
  5
283
330
4
100
AcDbSymbolTableRecord
100
AcDbLinetypeTableRecord
  2
ASSI
 70
     0
  3
-.-.-.-.-.-.-.-.-.-.-.-.-.-.-.-.-.-.-.-.-.-.-.-
 72
    65
 73
     4
 40
16.0
 49
10.0
 74
     0
 49
-2.0
 74
     0
 49
2.0
 74
     0
 49
-2.0
 74
     0
  0
LTYPE
  5
284
330
4
100
AcDbSymbolTableRecord
100
AcDbLinetypeTableRecord
  2
INGOMBRI
 70
     0
  3
--..--..--..--..--..--..--..--..--..--..--..--
 72
    65
 73
     6
 40
20.0
 49
10.0
 74
     0
 49
-2.0
 74
     0
 49
2.0
 74
     0
 49
-2.0
 74
     0
 49
2.0
 74
     0
 49
-2.0
 74
     0
  0
LTYPE
  5
285
330
4
100
AcDbSymbolTableRecord
100
AcDbLinetypeTableRecord
  2
TRATTEGGIO
 70
     0
  3
- - - - - - - - - - - - - - - - - - - - - -
 72
    65
 73
     2
 40
5.5
 49
4.0
 74
     0
 49
-1.5
 74
     0
  0
LTYPE
  5
286
330
4
100
AcDbSymbolTableRecord
100
AcDbLinetypeTableRecord
  2
PUNTO
 70
     0
  3
Punto . . . . . . . . . . . . . . . . . . . . .
 72
    65
 73
     2
 40
6.349999999999999
 49
0.0
 74
     0
 49
-6.349999999999999
 74
     0
  0
ENDTAB
  0
TABLE
  2
LAYER
  5
2
330
0
100
AcDbSymbolTable
 70
    16
  0
LAYER
  5
14
102
{ACAD_XDICTIONARY
360
2A2
102
}
330
2
100
AcDbSymbolTableRecord
100
AcDbLayerTableRecord
  2
0
 70
     0
 62
     7
  6
CONTINUOUS
370
    -3
390
1D
  0
LAYER
  5
2D
102
{ACAD_XDICTIONARY
360
2A4
102
}
330
2
100
AcDbSymbolTableRecord
100
AcDbLayerTableRecord
  2
1
 70
     0
 62
     7
  6
CONTINUOUS
370
    -3
390
1D
  0
LAYER
  5
2F
102
{ACAD_XDICTIONARY
360
2A6
102
}
330
2
100
AcDbSymbolTableRecord
100
AcDbLayerTableRecord
  2
11
 70
     0
 62
     7
  6
CONTINUOUS
370
    -3
390
1D
  0
LAYER
  5
31
102
{ACAD_XDICTIONARY
360
2A8
102
}
330
2
100
AcDbSymbolTableRecord
100
AcDbLayerTableRecord
  2
14
 70
     0
 62
     7
  6
CONTINUOUS
370
    -3
390
1D
  0
LAYER
  5
33
102
{ACAD_XDICTIONARY
360
2AA
102
}
330
2
100
AcDbSymbolTableRecord
100
AcDbLayerTableRecord
  2
2
 70
     0
 62
     7
  6
CONTINUOUS
370
    -3
390
1D
  0
LAYER
  5
35
102
{ACAD_XDICTIONARY
360
2AC
102
}
330
2
100
AcDbSymbolTableRecord
100
AcDbLayerTableRecord
  2
7
 70
     0
 62
     7
  6
CONTINUOUS
370
    -3
390
1D
  0
LAYER
  5
37
102
{ACAD_XDICTIONARY
360
2AE
102
}
330
2
100
AcDbSymbolTableRecord
100
AcDbLayerTableRecord
  2
AM_0
 70
     0
 62
     7
  6
CONTINUOUS
370
    -3
390
1D
  0
LAYER
  5
39
102
{ACAD_XDICTIONARY
360
2B0
102
}
330
2
100
AcDbSymbolTableRecord
100
AcDbLayerTableRecord
  2
AM_1
 70
     0
 62
     7
  6
CONTINUOUS
370
    -3
390
1D
  0
LAYER
  5
3B
102
{ACAD_XDICTIONARY
360
2B2
102
}
330
2
100
AcDbSymbolTableRecord
100
AcDbLayerTableRecord
  2
ASSE
 70
     0
 62
     7
  6
CONTINUOUS
370
    -3
390
1D
  0
LAYER
  5
3D
102
{ACAD_XDICTIONARY
360
2B4
102
}
330
2
100
AcDbSymbolTableRecord
100
AcDbLayerTableRecord
  2
CONTORNO
 70
     0
 62
     7
  6
CONTINUOUS
370
    -3
390
1D
  0
LAYER
  5
3F
102
{ACAD_XDICTIONARY
360
2B6
102
}
330
2
100
AcDbSymbolTableRecord
100
AcDbLayerTableRecord
  2
DEFAULT
 70
     0
 62
     7
  6
CONTINUOUS
370
    -3
390
1D
  0
LAYER
  5
41
102
{ACAD_XDICTIONARY
360
2B8
102
}
330
2
100
AcDbSymbolTableRecord
100
AcDbLayerTableRecord
  2
PREDEFINITO
 70
     0
 62
     7
  6
CONTINUOUS
370
    -3
390
1D
  0
LAYER
  5
43
102
{ACAD_XDICTIONARY
360
2BA
102
}
330
2
100
AcDbSymbolTableRecord
100
AcDbLayerTableRecord
  2
PROFILATI-IN-ALLUMINIO
 70
     0
 62
     7
  6
CONTINUOUS
370
    -3
390
1D
  0
LAYER
  5
45
102
{ACAD_XDICTIONARY
360
2BC
102
}
330
2
100
AcDbSymbolTableRecord
100
AcDbLayerTableRecord
  2
TESTI
 70
     0
 62
     7
  6
CONTINUOUS
370
    -3
390
1D
  0
LAYER
  5
1BF
330
2
100
AcDbSymbolTableRecord
100
AcDbLayerTableRecord
  2
Defpoints
 70
     0
 62
     7
  6
CONTINUOUS
290
     0
370
    -3
390
1D
  0
LAYER
  5
27B
102
{ACAD_XDICTIONARY
360
2BE
102
}
330
2
100
AcDbSymbolTableRecord
100
AcDbLayerTableRecord
  2
P-0000
 70
     0
 62
     7
  6
CONTINUOUS
370
    -3
390
1D
1001
AcAecLayerStandard
1000

1000
TOP
  0
ENDTAB
  0
TABLE
  2
STYLE
  5
3
330
0
100
AcDbSymbolTable
 70
     9
  0
STYLE
  5
17
330
3
100
AcDbSymbolTableRecord
100
AcDbTextStyleTableRecord
  2
Standard
 70
     0
 40
0.0
 41
1.0
 50
0.0
 71
     0
 42
0.2
  3
txt
  4

  0
STYLE
  5
58
330
3
100
AcDbSymbolTableRecord
100
AcDbTextStyleTableRecord
  2
seansi_ttf
 70
     0
 40
0.0
 41
1.0
 50
0.0
 71
     0
 42
0.2
  3
STENCIL.TTF
  4

1001
ACAD
1000
Stencil
1071
        2
  0
STYLE
  5
5A
330
3
100
AcDbSymbolTableRecord
100
AcDbTextStyleTableRecord
  2
arial_ttf
 70
     0
 40
0.0
 41
1.0
 50
0.0
 71
     0
 42
0.2
  3
arial.ttf
  4

1001
ACAD
1000
Arial
1071
        2
  0
STYLE
  5
68
330
3
100
AcDbSymbolTableRecord
100
AcDbTextStyleTableRecord
  2
seiso_ttfB
 70
     0
 40
0.0
 41
1.0
 50
0.0
 71
     0
 42
0.2
  3

  4

1001
ACAD
1000
Solid Edge ISO
1071
 33554434
  0
STYLE
  5
9C
330
3
100
AcDbSymbolTableRecord
100
AcDbTextStyleTableRecord
  2
seiso_ttf
 70
     0
 40
0.0
 41
1.0
 50
0.0
 71
     0
 42
0.2
  3

  4

1001
ACAD
1000
Solid Edge ISO
1071
        2
  0
STYLE
  5
287
330
3
100
AcDbSymbolTableRecord
100
AcDbTextStyleTableRecord
  2
ROMANS
 70
     0
 40
0.0
 41
0.8
 50
0.0
 71
     0
 42
3.0
  3
ROMANS.shx
  4

  0
STYLE
  5
288
330
3
100
AcDbSymbolTableRecord
100
AcDbTextStyleTableRecord
  2

 70
     1
 40
0.0
 41
1.0
 50
0.0
 71
     0
 42
0.2
  3
ltypeshp.shx
  4

  0
STYLE
  5
289
330
3
100
AcDbSymbolTableRecord
100
AcDbTextStyleTableRecord
  2
Stile_Quota
 70
     0
 40
0.0
 41
1.0
 50
0.0
 71
     0
 42
3.0
  3
BOD_I.TTF
  4

1001
ACAD
1000
Bodoni MT
1071
 16777234
  0
STYLE
  5
28A
330
3
100
AcDbSymbolTableRecord
100
AcDbTextStyleTableRecord
  2
Stile_Quota_FISSO
 70
     0
 40
20.0
 41
1.0
 50
0.0
 71
     0
 42
3.0
  3
BOD_I.TTF
  4

1001
ACAD
1000
Bodoni MT
1071
 16777234
  0
ENDTAB
  0
TABLE
  2
VIEW
  5
5
330
0
100
AcDbSymbolTable
 70
     0
  0
ENDTAB
  0
TABLE
  2
UCS
  5
6
330
0
100
AcDbSymbolTable
 70
     0
  0
ENDTAB
  0
TABLE
  2
APPID
  5
8
330
0
100
AcDbSymbolTable
 70
    11
  0
APPID
  5
16
330
8
100
AcDbSymbolTableRecord
100
AcDbRegAppTableRecord
  2
ACAD
 70
     0
  0
APPID
  5
27C
330
8
100
AcDbSymbolTableRecord
100
AcDbRegAppTableRecord
  2
AcAecLayerStandard
 70
     0
  0
APPID
  5
282
330
8
100
AcDbSymbolTableRecord
100
AcDbRegAppTableRecord
  2
TOP
 70
     0
  0
APPID
  5
28E
330
8
100
AcDbSymbolTableRecord
100
AcDbRegAppTableRecord
  2
ACAD_MLEADERVER
 70
     0
  0
APPID
  5
28F
330
8
100
AcDbSymbolTableRecord
100
AcDbRegAppTableRecord
  2
ACAD_DSTYLE_DIMJAG
 70
     0
  0
APPID
  5
290
330
8
100
AcDbSymbolTableRecord
100
AcDbRegAppTableRecord
  2
ACAD_DSTYLE_DIMTALN
 70
     0
  0
APPID
  5
291
330
8
100
AcDbSymbolTableRecord
100
AcDbRegAppTableRecord
  2
AcadAnnoPO
 70
     0
  0
APPID
  5
292
330
8
100
AcDbSymbolTableRecord
100
AcDbRegAppTableRecord
  2
ACAD_EXEMPT_FROM_CAD_STANDARDS
 70
     0
  0
APPID
  5
293
330
8
100
AcDbSymbolTableRecord
100
AcDbRegAppTableRecord
  2
ACAD_PSEXT
 70
     0
  0
APPID
  5
294
330
8
100
AcDbSymbolTableRecord
100
AcDbRegAppTableRecord
  2
ACAD_DSTYLE_DIMBREAK
 70
     0
  0
APPID
  5
2C5
330
8
100
AcDbSymbolTableRecord
100
AcDbRegAppTableRecord
  2
DCO15
 70
     0
  0
ENDTAB
  0
TABLE
  2
DIMSTYLE
  5
9
330
0
100
AcDbSymbolTable
 70
     5
100
AcDbDimStyleTable
 71
     0
  0
DIMSTYLE
105
18
330
9
100
AcDbSymbolTableRecord
100
AcDbDimStyleTableRecord
  2
Standard
 70
     0
289
     0
340
17
  0
DIMSTYLE
105
9D
330
9
100
AcDbSymbolTableRecord
100
AcDbDimStyleTableRecord
  2
ISO
 70
     0
 41
3.0
 42
0.0
 44
1.5
 73
     0
 74
     0
 77
     1
 78
     8
140
3.0
141
1.5
147
1.5
172
     1
173
     1
176
   136
177
   136
178
   136
271
     2
272
     2
278
    44
284
     8
340
9C
343
9B
344
9B
  0
DIMSTYLE
105
28B
330
9
100
AcDbSymbolTableRecord
100
AcDbDimStyleTableRecord
  2
ACADTOP
 70
     0
 41
2.0
 42
1.0
 43
10.0
 44
1.5
 73
     0
 74
     0
 77
     1
 78
     8
 79
     2
140
2.0
141
2.0
146
0.6
147
1.0
172
     1
176
     2
177
     2
178
     1
179
     1
271
     2
272
     2
284
     8
289
     0
340
289
1001
ACAD_DSTYLE_DIMJAG
1070
   388
1040
1.5
1001
ACAD_DSTYLE_DIMTALN
1070
   392
1070
     0
  0
DIMSTYLE
105
28C
330
9
100
AcDbSymbolTableRecord
100
AcDbDimStyleTableRecord
  2
DIERRE_LUNG-ALT
 70
     0
 41
3.0
 42
1.0
 43
10.0
 44
1.5
 73
     0
 74
     0
 75
     1
 76
     1
 78
     8
 79
     2
140
20.0
141
2.0
146
0.6
147
1.0
172
     1
176
     3
177
     3
178
    30
179
     1
271
     1
272
     1
281
     1
282
     1
284
     8
340
28A
1001
ACAD_DSTYLE_DIMBREAK
1070
   391
1040
3.75
1001
ACAD_DSTYLE_DIMJAG
1070
   388
1040
1.5
1001
ACAD_DSTYLE_DIMTALN
1070
   392
1070
     0
  0
DIMSTYLE
105
28D
330
9
100
AcDbSymbolTableRecord
100
AcDbDimStyleTableRecord
  2
DIERRE_LARG
 70
     0
 41
3.0
 42
1.0
 43
10.0
 44
1.5
 73
     0
 74
     0
 75
     1
 76
     1
 78
     8
 79
     2
140
20.0
141
2.0
146
0.6
147
1.0
172
     1
176
     4
177
     4
178
     4
179
     1
271
     1
272
     1
281
     1
282
     1
284
     8
340
28A
1001
ACAD_DSTYLE_DIMBREAK
1070
   391
1040
3.75
1001
ACAD_DSTYLE_DIMJAG
1070
   388
1040
1.5
1001
ACAD_DSTYLE_DIMTALN
1070
   392
1070
     0
  0
ENDTAB
  0
TABLE
  2
BLOCK_RECORD
  5
1
330
0
100
AcDbSymbolTable
 70
    23
  0
BLOCK_RECORD
  5
A
330
1
100
AcDbSymbolTableRecord
100
AcDbBlockTableRecord
  2
*MODEL_SPACE
340
20
  0
BLOCK_RECORD
  5
B
330
1
100
AcDbSymbolTableRecord
100
AcDbBlockTableRecord
  2
*PAPER_SPACE
340
21
  0
BLOCK_RECORD
  5
9B
330
1
100
AcDbSymbolTableRecord
100
AcDbBlockTableRecord
  2
_SE_FILLED
340
0
102
{BLKREFS
331
21D
331
21E
331
226
331
227
331
22F
331
230
331
238
331
239
331
241
331
242
331
24A
331
24B
331
253
331
254
331
25E
331
25F
331
267
331
268
331
271
102
}
  0
BLOCK_RECORD
  5
9E
330
1
100
AcDbSymbolTableRecord
100
AcDbBlockTableRecord
  2
SE0
340
0
102
{BLKREFS
331
E1
102
}
  0
BLOCK_RECORD
  5
A1
330
1
100
AcDbSymbolTableRecord
100
AcDbBlockTableRecord
  2
DMBLK921
340
0
  0
BLOCK_RECORD
  5
A3
330
1
100
AcDbSymbolTableRecord
100
AcDbBlockTableRecord
  2
SE1
340
0
  0
BLOCK_RECORD
  5
A6
330
1
100
AcDbSymbolTableRecord
100
AcDbBlockTableRecord
  2
DMBLK922
340
0
  0
BLOCK_RECORD
  5
A8
330
1
100
AcDbSymbolTableRecord
100
AcDbBlockTableRecord
  2
SE2
340
0
  0
BLOCK_RECORD
  5
AB
330
1
100
AcDbSymbolTableRecord
100
AcDbBlockTableRecord
  2
DMBLK923
340
0
  0
BLOCK_RECORD
  5
AD
330
1
100
AcDbSymbolTableRecord
100
AcDbBlockTableRecord
  2
SE3
340
0
  0
BLOCK_RECORD
  5
B0
330
1
100
AcDbSymbolTableRecord
100
AcDbBlockTableRecord
  2
DMBLK924
340
0
  0
BLOCK_RECORD
  5
B2
330
1
100
AcDbSymbolTableRecord
100
AcDbBlockTableRecord
  2
SE4
340
0
  0
BLOCK_RECORD
  5
B5
330
1
100
AcDbSymbolTableRecord
100
AcDbBlockTableRecord
  2
DMBLK925
340
0
  0
BLOCK_RECORD
  5
B7
330
1
100
AcDbSymbolTableRecord
100
AcDbBlockTableRecord
  2
SE5
340
0
  0
BLOCK_RECORD
  5
BA
330
1
100
AcDbSymbolTableRecord
100
AcDbBlockTableRecord
  2
DMBLK926
340
0
  0
BLOCK_RECORD
  5
BC
330
1
100
AcDbSymbolTableRecord
100
AcDbBlockTableRecord
  2
SE6
340
0
  0
BLOCK_RECORD
  5
BF
330
1
100
AcDbSymbolTableRecord
100
AcDbBlockTableRecord
  2
DMBLK927
340
0
  0
BLOCK_RECORD
  5
C1
330
1
100
AcDbSymbolTableRecord
100
AcDbBlockTableRecord
  2
SE7
340
0
  0
BLOCK_RECORD
  5
C4
330
1
100
AcDbSymbolTableRecord
100
AcDbBlockTableRecord
  2
DMBLK928
340
0
  0
BLOCK_RECORD
  5
C6
330
1
100
AcDbSymbolTableRecord
100
AcDbBlockTableRecord
  2
SE8
340
0
  0
BLOCK_RECORD
  5
C9
330
1
100
AcDbSymbolTableRecord
100
AcDbBlockTableRecord
  2
DMBLK929
340
0
  0
BLOCK_RECORD
  5
CB
330
1
100
AcDbSymbolTableRecord
100
AcDbBlockTableRecord
  2
SE9
340
0
  0
BLOCK_RECORD
  5
CE
330
1
100
AcDbSymbolTableRecord
100
AcDbBlockTableRecord
  2
DMBLK930
340
0
  0
BLOCK_RECORD
  5
D0
330
1
100
AcDbSymbolTableRecord
100
AcDbBlockTableRecord
  2
SE10
340
0
  0
BLOCK_RECORD
  5
D2
330
1
100
AcDbSymbolTableRecord
100
AcDbBlockTableRecord
  2
DMBLK931
340
0
  0
ENDTAB
  0
ENDSEC
  0
SECTION
  2
BLOCKS
  0
BLOCK
  5
D
330
A
100
AcDbEntity
  8
0
100
AcDbBlockBegin
  2
*MODEL_SPACE
 70
     0
 10
0.0
 20
0.0
 30
0.0
  3
*MODEL_SPACE
  1

  0
ENDBLK
  5
E
330
A
100
AcDbEntity
  8
0
100
AcDbBlockEnd
  0
BLOCK
  5
F
330
B
100
AcDbEntity
 67
     1
  8
0
100
AcDbBlockBegin
  2
*PAPER_SPACE
 70
     0
 10
0.0
 20
0.0
 30
0.0
  3
*PAPER_SPACE
  1

  0
ENDBLK
  5
10
330
B
100
AcDbEntity
 67
     1
  8
0
100
AcDbBlockEnd
  0
BLOCK
  5
D4
330
9B
100
AcDbEntity
  8
DEFAULT
  6
Continuous
 62
   136
370
     0
100
AcDbBlockBegin
  2
_SE_FILLED
 70
     0
 10
0.0
 20
0.0
 30
0.0
  3
_SE_FILLED
  1

  0
SOLID
  5
D5
330
9B
100
AcDbEntity
  8
DEFAULT
  6
Continuous
 62
   136
370
     0
100
AcDbTrace
 10
0.0
 20
0.0
 30
0.0
 11
-1.0
 21
-0.1665
 31
0.0
 12
-1.0
 22
0.1665
 32
0.0
 13
0.0
 23
0.0
 33
0.0
  0
LINE
  5
D6
330
9B
100
AcDbEntity
  8
DEFAULT
  6
Continuous
 62
   136
370
     0
100
AcDbLine
 10
0.0
 20
0.0
 30
0.0
 11
-1.0
 21
0.0
 31
0.0
  0
ENDBLK
  5
D7
330
9B
100
AcDbEntity
  8
DEFAULT
  6
Continuous
 62
   136
370
     0
100
AcDbBlockEnd
  0
BLOCK
  5
D8
330
9E
100
AcDbEntity
  8
DEFAULT
 62
     1
 48
0.0
370
     0
100
AcDbBlockBegin
  2
SE0
 70
     0
 10
0.0
 20
0.0
 30
0.0
  3
SE0
  1

  0
HATCH
  5
D9
330
9E
100
AcDbEntity
  8
DEFAULT
  6
Continuous
 62
   136
100
AcDbHatch
 10
0.0
 20
0.0
 30
0.0
210
0.0
220
0.0
230
1.0
  2
SOLID
 70
     1
 71
     0
 91
        1
 92
        1
 93
        3
 72
     1
 10
57.84969293264079
 20
128.0261494233735
 11
54.84969290656375
 21
128.5261494277197
 72
     1
 10
54.84969290656375
 20
128.5261494277197
 11
57.84969293264079
 21
129.0261494320658
 72
     1
 10
57.84969293264079
 20
129.0261494320658
 11
57.84969293264079
 21
128.0261494233735
 97
        0
 75
     0
 76
     1
 98
        1
 10
0.0
 20
0.0
  0
HATCH
  5
DA
330
9E
100
AcDbEntity
  8
DEFAULT
  6
Continuous
 62
   136
100
AcDbHatch
 10
0.0
 20
0.0
 30
0.0
210
0.0
220
0.0
230
1.0
  2
SOLID
 70
     1
 71
     0
 91
        1
 92
        1
 93
        3
 72
     1
 10
107.3497218804867
 20
128.0261494233735
 11
110.3497219065637
 21
128.5261494277197
 72
     1
 10
110.3497219065637
 20
128.5261494277197
 11
107.3497218804867
 21
129.0261494320658
 72
     1
 10
107.3497218804867
 20
129.0261494320658
 11
107.3497218804867
 21
128.0261494233735
 97
        0
 75
     0
 76
     1
 98
        1
 10
0.0
 20
0.0
  0
LINE
  5
DB
330
9E
100
AcDbEntity
  8
DEFAULT
  6
Continuous
 62
   136
370
     0
100
AcDbLine
 10
54.84969290656375
 20
143.9497974870878
 30
0.0
 11
54.84969290656375
 21
127.0261494146811
 31
0.0
  0
LINE
  5
DC
330
9E
100
AcDbEntity
  8
DEFAULT
  6
Continuous
 62
   136
370
     0
100
AcDbLine
 10
110.3497219065637
 20
143.9497974870878
 30
0.0
 11
110.3497219065637
 21
127.0261494146811
 31
0.0
  0
LINE
  5
DD
330
9E
100
AcDbEntity
  8
DEFAULT
  6
Continuous
 62
   136
370
     0
100
AcDbLine
 10
54.84969290656375
 20
128.5261494277197
 30
0.0
 11
110.3497234241418
 21
128.5261494277197
 31
0.0
  0
TEXT
  5
DE
330
9E
100
AcDbEntity
  8
DEFAULT
  6
Continuous
 62
   136
370
     0
100
AcDbText
 10
79.77016271080735
 20
129.2761494277197
 30
0.0
 40
3.0
  1
55,5
  7
seiso_ttf
 11
79.77016271080735
 21
132.2761494277197
 31
0.0
100
AcDbText
 73
     3
  0
ENDBLK
  5
1A0
330
9E
100
AcDbEntity
  8
0
370
     0
100
AcDbBlockEnd
  0
BLOCK
  5
1A1
330
A1
100
AcDbEntity
  8
0
370
     0
100
AcDbBlockBegin
  2
DMBLK921
 70
     0
 10
0.0
 20
0.0
 30
0.0
  3
DMBLK921
  1

  0
INSERT
  5
E1
330
A1
100
AcDbEntity
  8
DEFAULT
 62
     0
 48
0.0
370
     0
100
AcDbBlockReference
  2
SE0
 10
0.0
 20
0.0
 30
0.0
  0
ENDBLK
  5
E2
330
A1
100
AcDbEntity
  8
DEFAULT
 62
     0
 48
0.0
370
     0
100
AcDbBlockEnd
  0
BLOCK
  5
E3
330
A3
100
AcDbEntity
  8
DEFAULT
 62
     1
 48
0.0
370
     0
100
AcDbBlockBegin
  2
SE1
 70
     0
 10
0.0
 20
0.0
 30
0.0
  3
SE1
  1

  0
HATCH
  5
E4
330
A3
100
AcDbEntity
  8
DEFAULT
  6
Continuous
 62
   136
100
AcDbHatch
 10
0.0
 20
0.0
 30
0.0
210
0.0
220
0.0
230
1.0
  2
SOLID
 70
     1
 71
     0
 91
        1
 92
        1
 93
        3
 72
     1
 10
123.5058504069207
 20
135.0363097107285
 11
121.0309766512553
 21
133.2685427423962
 72
     1
 10
121.0309766512553
 20
133.2685427423962
 11
122.7987436195878
 21
135.7434164980616
 72
     1
 10
122.7987436195877
 20
135.7434164980616
 11
123.5058504069207
 21
135.0363097107285
 97
        0
 75
     0
 76
     1
 98
        1
 10
0.0
 20
0.0
  0
HATCH
  5
E5
330
A3
100
AcDbEntity
  8
DEFAULT
  6
Continuous
 62
   136
100
AcDbHatch
 10
0.0
 20
0.0
 30
0.0
210
0.0
220
0.0
230
1.0
  2
SOLID
 70
     1
 71
     0
 91
        1
 92
        1
 93
        3
 72
     1
 10
158.507635682923
 20
170.0380949867308
 11
160.2754026512553
 21
172.5129687423961
 72
     1
 10
160.2754026512554
 20
172.5129687423961
 11
157.80052889559
 21
170.7452017740638
 72
     1
 10
157.80052889559
 20
170.7452017740637
 11
158.507635682923
 21
170.0380949867307
 97
        0
 75
     0
 76
     1
 98
        1
 10
0.0
 20
0.0
  0
LINE
  5
E6
330
A3
100
AcDbEntity
  8
DEFAULT
  6
Continuous
 62
   136
370
     0
100
AcDbLine
 10
110.3497219065637
 20
143.9497974870878
 30
0.0
 11
122.0916368322548
 21
132.2078825613967
 31
0.0
  0
LINE
  5
E7
330
A3
100
AcDbEntity
  8
DEFAULT
  6
Continuous
 62
   136
370
     0
100
AcDbLine
 10
149.5941479065638
 20
183.1942234870878
 30
0.0
 11
161.3360628322548
 21
171.4523085613967
 31
0.0
  0
LINE
  5
E8
330
A3
100
AcDbEntity
  8
DEFAULT
  6
Continuous
 62
   136
370
     0
100
AcDbLine
 10
121.0309766512553
 20
133.2685427423962
 30
0.0
 11
160.2754035128709
 21
172.5129696040117
 31
0.0
  0
TEXT
  5
E9
330
A3
100
AcDbEntity
  8
DEFAULT
  6
Continuous
 62
   136
370
     0
100
AcDbText
 10
138.1220692175886
 20
151.4202954805092
 30
0.0
 40
3.0
  1
55,5
 50
44.99999999999995
  7
seiso_ttf
 11
136.0007488740289
 21
153.5416158240688
 31
0.0
100
AcDbText
 73
     3
  0
ENDBLK
  5
1A2
330
A3
100
AcDbEntity
  8
0
370
     0
100
AcDbBlockEnd
  0
BLOCK
  5
1A3
330
A6
100
AcDbEntity
  8
0
370
     0
100
AcDbBlockBegin
  2
DMBLK922
 70
     0
 10
0.0
 20
0.0
 30
0.0
  3
DMBLK922
  1

  0
LINE
  5
21A
330
A6
100
AcDbEntity
  8
DEFAULT
  6
Continuous
 62
   136
370
    -2
100
AcDbLine
 10
110.3497219065637
 20
143.9497974870878
 30
0.0
 11
122.0916368230351
 21
132.2078825706164
 31
0.0
  0
LINE
  5
21B
330
A6
100
AcDbEntity
  8
DEFAULT
  6
Continuous
 62
   136
370
    -2
100
AcDbLine
 10
149.5941479065638
 20
183.1942234870878
 30
0.0
 11
161.3360628230352
 21
171.4523085706164
 31
0.0
  0
LINE
  5
21C
330
A6
100
AcDbEntity
  8
DEFAULT
  6
Continuous
 62
   136
370
    -2
100
AcDbLine
 10
123.152296994815
 20
135.3898630859558
 30
0.0
 11
158.1540823076957
 21
170.3916483988365
 31
0.0
  0
INSERT
  5
21D
330
A6
100
AcDbEntity
  8
DEFAULT
  6
Continuous
 62
   136
370
    -2
100
AcDbBlockReference
  2
_SE_FILLED
 10
121.0309766512553
 20
133.2685427423962
 30
0.0
 41
3.0
 42
3.0
 43
3.0
 50
225.0
  0
INSERT
  5
21E
330
A6
100
AcDbEntity
  8
DEFAULT
  6
Continuous
 62
   136
370
    -2
100
AcDbBlockReference
  2
_SE_FILLED
 10
160.2754026512553
 20
172.5129687423962
 30
0.0
 41
3.0
 42
3.0
 43
3.0
 50
44.99999999999995
  0
MTEXT
  5
21F
330
A6
100
AcDbEntity
  8
DEFAULT
  6
Continuous
 62
   136
370
     0
100
AcDbMText
 10
138.3298392295931
 20
155.2141070256741
 30
0.0
 40
3.0
 41
0.0
 71
     5
 72
     1
  1
\A1;\A1;55,5
  7
seiso_ttf
 11
0.7071067811865483
 21
0.707106781186547
 31
0.0
 73
     1
 44
1.0
1001
ACAD
1000
MTEXTBEGIN
1070
    73
1070
     1
1070
    44
1040
1.0
1070
    74
1070
     0
1000
MTEXTEND
  0
POINT
  5
220
330
A6
100
AcDbEntity
  8
Defpoints
  6
Continuous
 62
     0
370
     0
100
AcDbPoint
 10
110.3497219065637
 20
143.9497974870878
 30
0.0
  0
POINT
  5
221
330
A6
100
AcDbEntity
  8
Defpoints
  6
Continuous
 62
     0
370
     0
100
AcDbPoint
 10
149.5941479065638
 20
183.1942234870878
 30
0.0
  0
POINT
  5
222
330
A6
100
AcDbEntity
  8
Defpoints
  6
Continuous
 62
     0
370
     0
100
AcDbPoint
 10
160.2754026512553
 20
172.5129687423962
 30
0.0
  0
ENDBLK
  5
ED
330
A6
100
AcDbEntity
  8
DEFAULT
 62
     0
 48
0.0
370
     0
100
AcDbBlockEnd
  0
BLOCK
  5
EE
330
A8
100
AcDbEntity
  8
DEFAULT
 62
     1
 48
0.0
370
     0
100
AcDbBlockBegin
  2
SE2
 70
     0
 10
0.0
 20
0.0
 30
0.0
  3
SE2
  1

  0
HATCH
  5
EF
330
A8
100
AcDbEntity
  8
DEFAULT
  6
Continuous
 62
   136
100
AcDbHatch
 10
0.0
 20
0.0
 30
0.0
210
0.0
220
0.0
230
1.0
  2
SOLID
 70
     1
 71
     0
 91
        1
 92
        1
 93
        3
 72
     1
 10
57.84969293264079
 20
135.9112958438225
 11
54.84969290656375
 21
136.4112958481687
 72
     1
 10
54.84969290656375
 20
136.4112958481687
 11
57.84969293264079
 21
136.9112958525148
 72
     1
 10
57.84969293264079
 20
136.9112958525148
 11
57.84969293264079
 21
135.9112958438225
 97
        0
 75
     0
 76
     1
 98
        1
 10
0.0
 20
0.0
  0
HATCH
  5
F0
330
A8
100
AcDbEntity
  8
DEFAULT
  6
Continuous
 62
   136
100
AcDbHatch
 10
0.0
 20
0.0
 30
0.0
210
0.0
220
0.0
230
1.0
  2
SOLID
 70
     1
 71
     0
 91
        1
 92
        1
 93
        3
 72
     1
 10
64.34969288048673
 20
135.9112958438225
 11
67.34969290656376
 21
136.4112958481687
 72
     1
 10
67.34969290656376
 20
136.4112958481687
 11
64.34969288048673
 21
136.9112958525148
 72
     1
 10
64.34969288048673
 20
136.9112958525148
 11
64.34969288048673
 21
135.9112958438225
 97
        0
 75
     0
 76
     1
 98
        1
 10
0.0
 20
0.0
  0
LINE
  5
F1
330
A8
100
AcDbEntity
  8
DEFAULT
  6
Continuous
 62
   136
370
     0
100
AcDbLine
 10
54.84969290656375
 20
143.9497974870878
 30
0.0
 11
54.84969290656375
 21
134.9112958351301
 31
0.0
  0
LINE
  5
F2
330
A8
100
AcDbEntity
  8
DEFAULT
  6
Continuous
 62
   136
370
     0
100
AcDbLine
 10
67.34969290656376
 20
142.9497974870878
 30
0.0
 11
67.34969290656376
 21
134.9112958351301
 31
0.0
  0
LINE
  5
F3
330
A8
100
AcDbEntity
  8
DEFAULT
  6
Continuous
 62
   136
370
     0
100
AcDbLine
 10
54.84969290656375
 20
136.4112958481687
 30
0.0
 11
67.34969309282826
 21
136.4112958481687
 31
0.0
  0
TEXT
  5
F4
330
A8
100
AcDbEntity
  8
DEFAULT
  6
Continuous
 62
   136
370
     0
100
AcDbText
 10
58.4406020906051
 20
137.1612958481687
 30
0.0
 40
3.0
  1
12,5
  7
seiso_ttf
 11
58.4406020906051
 21
140.1612958481687
 31
0.0
100
AcDbText
 73
     3
  0
ENDBLK
  5
1A4
330
A8
100
AcDbEntity
  8
0
370
     0
100
AcDbBlockEnd
  0
BLOCK
  5
1A5
330
AB
100
AcDbEntity
  8
0
370
     0
100
AcDbBlockBegin
  2
DMBLK923
 70
     0
 10
0.0
 20
0.0
 30
0.0
  3
DMBLK923
  1

  0
LINE
  5
223
330
AB
100
AcDbEntity
  8
DEFAULT
  6
Continuous
 62
   136
370
    -2
100
AcDbLine
 10
54.84969290656375
 20
143.9497974870878
 30
0.0
 11
54.84969290656375
 21
134.9112958481687
 31
0.0
  0
LINE
  5
224
330
AB
100
AcDbEntity
  8
DEFAULT
  6
Continuous
 62
   136
370
    -2
100
AcDbLine
 10
67.34969290656376
 20
142.9497974870878
 30
0.0
 11
67.34969290656376
 21
134.9112958481687
 31
0.0
  0
LINE
  5
225
330
AB
100
AcDbEntity
  8
DEFAULT
  6
Continuous
 62
   136
370
    -2
100
AcDbLine
 10
57.84969290656375
 20
136.4112958481687
 30
0.0
 11
64.34969290656376
 21
136.4112958481687
 31
0.0
  0
INSERT
  5
226
330
AB
100
AcDbEntity
  8
DEFAULT
  6
Continuous
 62
   136
370
    -2
100
AcDbBlockReference
  2
_SE_FILLED
 10
54.84969290656375
 20
136.4112958481687
 30
0.0
 41
3.0
 42
3.0
 43
3.0
 50
180.0
  0
INSERT
  5
227
330
AB
100
AcDbEntity
  8
DEFAULT
  6
Continuous
 62
   136
370
    -2
100
AcDbBlockReference
  2
_SE_FILLED
 10
67.34969290656376
 20
136.4112958481687
 30
0.0
 41
3.0
 42
3.0
 43
3.0
  0
MTEXT
  5
228
330
AB
100
AcDbEntity
  8
DEFAULT
  6
Continuous
 62
   136
370
     0
100
AcDbMText
 10
61.09969299969601
 20
139.697010133883
 30
0.0
 40
3.0
 41
0.0
 71
     5
 72
     1
  1
\A1;\A1;12,5
  7
seiso_ttf
 73
     1
 44
1.0
1001
ACAD
1000
MTEXTBEGIN
1070
    73
1070
     1
1070
    44
1040
1.0
1070
    74
1070
     0
1000
MTEXTEND
  0
POINT
  5
229
330
AB
100
AcDbEntity
  8
Defpoints
  6
Continuous
 62
     0
370
     0
100
AcDbPoint
 10
54.84969290656375
 20
143.9497974870878
 30
0.0
  0
POINT
  5
22A
330
AB
100
AcDbEntity
  8
Defpoints
  6
Continuous
 62
     0
370
     0
100
AcDbPoint
 10
67.34969290656376
 20
142.9497974870878
 30
0.0
  0
POINT
  5
22B
330
AB
100
AcDbEntity
  8
Defpoints
  6
Continuous
 62
     0
370
     0
100
AcDbPoint
 10
67.34969290656376
 20
136.4112958481687
 30
0.0
  0
ENDBLK
  5
F8
330
AB
100
AcDbEntity
  8
DEFAULT
 62
     0
 48
0.0
370
     0
100
AcDbBlockEnd
  0
BLOCK
  5
F9
330
AD
100
AcDbEntity
  8
DEFAULT
 62
     1
 48
0.0
370
     0
100
AcDbBlockBegin
  2
SE3
 70
     0
 10
0.0
 20
0.0
 30
0.0
  3
SE3
  1

  0
HATCH
  5
FA
330
AD
100
AcDbEntity
  8
DEFAULT
  6
Continuous
 62
   136
100
AcDbHatch
 10
0.0
 20
0.0
 30
0.0
210
0.0
220
0.0
230
1.0
  2
SOLID
 70
     1
 71
     0
 91
        1
 92
        1
 93
        3
 72
     1
 10
70.34969293264079
 20
135.9112960077353
 11
67.34969290656376
 21
136.4112960120814
 72
     1
 10
67.34969290656376
 20
136.4112960120814
 11
70.34969293264079
 21
136.9112960164276
 72
     1
 10
70.34969293264079
 20
136.9112960164276
 11
70.34969293264079
 21
135.9112960077353
 97
        0
 75
     0
 76
     1
 98
        1
 10
0.0
 20
0.0
  0
HATCH
  5
FB
330
AD
100
AcDbEntity
  8
DEFAULT
  6
Continuous
 62
   136
100
AcDbHatch
 10
0.0
 20
0.0
 30
0.0
210
0.0
220
0.0
230
1.0
  2
SOLID
 70
     1
 71
     0
 91
        1
 92
        1
 93
        3
 72
     1
 10
89.34969288048671
 20
135.9112960077353
 11
92.34969290656374
 21
136.4112960120814
 72
     1
 10
92.34969290656374
 20
136.4112960120814
 11
89.34969288048671
 21
136.9112960164276
 72
     1
 10
89.34969288048671
 20
136.9112960164276
 11
89.34969288048671
 21
135.9112960077353
 97
        0
 75
     0
 76
     1
 98
        1
 10
0.0
 20
0.0
  0
LINE
  5
FC
330
AD
100
AcDbEntity
  8
DEFAULT
  6
Continuous
 62
   136
370
     0
100
AcDbLine
 10
67.34969290656376
 20
142.9497974870878
 30
0.0
 11
67.34969290656376
 21
134.9112959990429
 31
0.0
  0
LINE
  5
FD
330
AD
100
AcDbEntity
  8
DEFAULT
  6
Continuous
 62
   136
370
     0
100
AcDbLine
 10
92.34969290656374
 20
142.9497974870878
 30
0.0
 11
92.34969290656374
 21
134.9112959990429
 31
0.0
  0
LINE
  5
FE
330
AD
100
AcDbEntity
  8
DEFAULT
  6
Continuous
 62
   136
370
     0
100
AcDbLine
 10
67.34969290656376
 20
136.4112960120814
 30
0.0
 11
92.34969327909279
 21
136.4112960120814
 31
0.0
  0
TEXT
  5
FF
330
AD
100
AcDbEntity
  8
DEFAULT
  6
Continuous
 62
   136
370
     0
100
AcDbText
 10
78.07696582010099
 20
137.1612960120814
 30
0.0
 40
3.0
  1
25
  7
seiso_ttf
 11
78.07696582010099
 21
140.1612960120814
 31
0.0
100
AcDbText
 73
     3
  0
ENDBLK
  5
1A6
330
AD
100
AcDbEntity
  8
0
370
     0
100
AcDbBlockEnd
  0
BLOCK
  5
1A7
330
B0
100
AcDbEntity
  8
0
370
     0
100
AcDbBlockBegin
  2
DMBLK924
 70
     0
 10
0.0
 20
0.0
 30
0.0
  3
DMBLK924
  1

  0
LINE
  5
22C
330
B0
100
AcDbEntity
  8
DEFAULT
  6
Continuous
 62
   136
370
    -2
100
AcDbLine
 10
67.34969290656376
 20
142.9497974870878
 30
0.0
 11
67.34969290656376
 21
134.9112960120814
 31
0.0
  0
LINE
  5
22D
330
B0
100
AcDbEntity
  8
DEFAULT
  6
Continuous
 62
   136
370
    -2
100
AcDbLine
 10
92.34969290656374
 20
142.9497974870878
 30
0.0
 11
92.34969290656374
 21
134.9112960120814
 31
0.0
  0
LINE
  5
22E
330
B0
100
AcDbEntity
  8
DEFAULT
  6
Continuous
 62
   136
370
    -2
100
AcDbLine
 10
70.34969290656376
 20
136.4112960120814
 30
0.0
 11
89.34969290656374
 21
136.4112960120814
 31
0.0
  0
INSERT
  5
22F
330
B0
100
AcDbEntity
  8
DEFAULT
  6
Continuous
 62
   136
370
    -2
100
AcDbBlockReference
  2
_SE_FILLED
 10
67.34969290656376
 20
136.4112960120814
 30
0.0
 41
3.0
 42
3.0
 43
3.0
 50
180.0
  0
INSERT
  5
230
330
B0
100
AcDbEntity
  8
DEFAULT
  6
Continuous
 62
   136
370
    -2
100
AcDbBlockReference
  2
_SE_FILLED
 10
92.34969290656374
 20
136.4112960120814
 30
0.0
 41
3.0
 42
3.0
 43
3.0
  0
MTEXT
  5
231
330
B0
100
AcDbEntity
  8
DEFAULT
  6
Continuous
 62
   136
370
     0
100
AcDbMText
 10
79.84969309282828
 20
139.4112960120814
 30
0.0
 40
3.0
 41
0.0
 71
     5
 72
     1
  1
\A1;\A1;25
  7
seiso_ttf
 73
     1
 44
1.0
1001
ACAD
1000
MTEXTBEGIN
1070
    73
1070
     1
1070
    44
1040
1.0
1070
    74
1070
     0
1000
MTEXTEND
  0
POINT
  5
232
330
B0
100
AcDbEntity
  8
Defpoints
  6
Continuous
 62
     0
370
     0
100
AcDbPoint
 10
67.34969290656376
 20
142.9497974870878
 30
0.0
  0
POINT
  5
233
330
B0
100
AcDbEntity
  8
Defpoints
  6
Continuous
 62
     0
370
     0
100
AcDbPoint
 10
92.34969290656374
 20
142.9497974870878
 30
0.0
  0
POINT
  5
234
330
B0
100
AcDbEntity
  8
Defpoints
  6
Continuous
 62
     0
370
     0
100
AcDbPoint
 10
92.34969290656374
 20
136.4112960120814
 30
0.0
  0
ENDBLK
  5
103
330
B0
100
AcDbEntity
  8
DEFAULT
 62
     0
 48
0.0
370
     0
100
AcDbBlockEnd
  0
BLOCK
  5
104
330
B2
100
AcDbEntity
  8
DEFAULT
 62
     1
 48
0.0
370
     0
100
AcDbBlockBegin
  2
SE4
 70
     0
 10
0.0
 20
0.0
 30
0.0
  3
SE4
  1

  0
HATCH
  5
105
330
B2
100
AcDbEntity
  8
DEFAULT
  6
Continuous
 62
   136
100
AcDbHatch
 10
0.0
 20
0.0
 30
0.0
210
0.0
220
0.0
230
1.0
  2
SOLID
 70
     1
 71
     0
 91
        1
 92
        1
 93
        3
 72
     1
 10
95.34969293264078
 20
135.9112960077353
 11
92.34969290656374
 21
136.4112960120814
 72
     1
 10
92.34969290656374
 20
136.4112960120814
 11
95.34969293264078
 21
136.9112960164276
 72
     1
 10
95.34969293264078
 20
136.9112960164276
 11
95.34969293264078
 21
135.9112960077353
 97
        0
 75
     0
 76
     1
 98
        1
 10
0.0
 20
0.0
  0
HATCH
  5
106
330
B2
100
AcDbEntity
  8
DEFAULT
  6
Continuous
 62
   136
100
AcDbHatch
 10
0.0
 20
0.0
 30
0.0
210
0.0
220
0.0
230
1.0
  2
SOLID
 70
     1
 71
     0
 91
        1
 92
        1
 93
        3
 72
     1
 10
107.3497218804867
 20
135.9112960077353
 11
110.3497219065637
 21
136.4112960120814
 72
     1
 10
110.3497219065637
 20
136.4112960120814
 11
107.3497218804867
 21
136.9112960164276
 72
     1
 10
107.3497218804867
 20
136.9112960164276
 11
107.3497218804867
 21
135.9112960077353
 97
        0
 75
     0
 76
     1
 98
        1
 10
0.0
 20
0.0
  0
LINE
  5
107
330
B2
100
AcDbEntity
  8
DEFAULT
  6
Continuous
 62
   136
370
     0
100
AcDbLine
 10
92.34969290656374
 20
142.9497974870878
 30
0.0
 11
92.34969290656374
 21
134.9112959990429
 31
0.0
  0
LINE
  5
108
330
B2
100
AcDbEntity
  8
DEFAULT
  6
Continuous
 62
   136
370
     0
100
AcDbLine
 10
110.3497219065637
 20
143.9497974870878
 30
0.0
 11
110.3497219065637
 21
134.9112959990429
 31
0.0
  0
LINE
  5
109
330
B2
100
AcDbEntity
  8
DEFAULT
  6
Continuous
 62
   136
370
     0
100
AcDbLine
 10
92.34969290656374
 20
136.4112960120814
 30
0.0
 11
110.3497219340257
 21
136.4112960120814
 31
0.0
  0
TEXT
  5
10A
330
B2
100
AcDbEntity
  8
DEFAULT
  6
Continuous
 62
   136
370
     0
100
AcDbText
 10
99.78152560211292
 20
137.1612960120814
 30
0.0
 40
3.0
  1
18
  7
seiso_ttf
 11
99.78152560211292
 21
140.1612960120814
 31
0.0
100
AcDbText
 73
     3
  0
ENDBLK
  5
1A8
330
B2
100
AcDbEntity
  8
0
370
     0
100
AcDbBlockEnd
  0
BLOCK
  5
1A9
330
B5
100
AcDbEntity
  8
0
370
     0
100
AcDbBlockBegin
  2
DMBLK925
 70
     0
 10
0.0
 20
0.0
 30
0.0
  3
DMBLK925
  1

  0
LINE
  5
235
330
B5
100
AcDbEntity
  8
DEFAULT
  6
Continuous
 62
   136
370
    -2
100
AcDbLine
 10
92.34969290656374
 20
142.9497974870878
 30
0.0
 11
92.34969290656374
 21
134.9112960120814
 31
0.0
  0
LINE
  5
236
330
B5
100
AcDbEntity
  8
DEFAULT
  6
Continuous
 62
   136
370
    -2
100
AcDbLine
 10
110.3497219065637
 20
143.9497974870878
 30
0.0
 11
110.3497219065637
 21
134.9112960120814
 31
0.0
  0
LINE
  5
237
330
B5
100
AcDbEntity
  8
DEFAULT
  6
Continuous
 62
   136
370
    -2
100
AcDbLine
 10
95.34969290656375
 20
136.4112960120814
 30
0.0
 11
107.3497219065637
 21
136.4112960120814
 31
0.0
  0
INSERT
  5
238
330
B5
100
AcDbEntity
  8
DEFAULT
  6
Continuous
 62
   136
370
    -2
100
AcDbBlockReference
  2
_SE_FILLED
 10
92.34969290656374
 20
136.4112960120814
 30
0.0
 41
3.0
 42
3.0
 43
3.0
 50
180.0
  0
INSERT
  5
239
330
B5
100
AcDbEntity
  8
DEFAULT
  6
Continuous
 62
   136
370
    -2
100
AcDbBlockReference
  2
_SE_FILLED
 10
110.3497219065637
 20
136.4112960120814
 30
0.0
 41
3.0
 42
3.0
 43
3.0
  0
MTEXT
  5
23A
330
B5
100
AcDbEntity
  8
DEFAULT
  6
Continuous
 62
   136
370
     0
100
AcDbMText
 10
101.3497074202947
 20
139.4112960120814
 30
0.0
 40
3.0
 41
0.0
 71
     5
 72
     1
  1
\A1;\A1;18
  7
seiso_ttf
 73
     1
 44
1.0
1001
ACAD
1000
MTEXTBEGIN
1070
    73
1070
     1
1070
    44
1040
1.0
1070
    74
1070
     0
1000
MTEXTEND
  0
POINT
  5
23B
330
B5
100
AcDbEntity
  8
Defpoints
  6
Continuous
 62
     0
370
     0
100
AcDbPoint
 10
92.34969290656374
 20
142.9497974870878
 30
0.0
  0
POINT
  5
23C
330
B5
100
AcDbEntity
  8
Defpoints
  6
Continuous
 62
     0
370
     0
100
AcDbPoint
 10
110.3497219065637
 20
143.9497974870878
 30
0.0
  0
POINT
  5
23D
330
B5
100
AcDbEntity
  8
Defpoints
  6
Continuous
 62
     0
370
     0
100
AcDbPoint
 10
110.3497219065637
 20
136.4112960120814
 30
0.0
  0
ENDBLK
  5
10E
330
B5
100
AcDbEntity
  8
DEFAULT
 62
     0
 48
0.0
370
     0
100
AcDbBlockEnd
  0
BLOCK
  5
10F
330
B7
100
AcDbEntity
  8
DEFAULT
 62
     1
 48
0.0
370
     0
100
AcDbBlockBegin
  2
SE5
 70
     0
 10
0.0
 20
0.0
 30
0.0
  3
SE5
  1

  0
HATCH
  5
110
330
B7
100
AcDbEntity
  8
DEFAULT
  6
Continuous
 62
   136
100
AcDbHatch
 10
0.0
 20
0.0
 30
0.0
210
0.0
220
0.0
230
1.0
  2
SOLID
 70
     1
 71
     0
 91
        1
 92
        1
 93
        3
 72
     1
 10
152.7251943652175
 20
175.8205357542163
 11
154.4929614631796
 21
178.2954094172891
 72
     1
 10
154.4929614631796
 20
178.2954094172891
 11
152.0180876149216
 21
176.5276425785863
 72
     1
 10
152.0180876149216
 20
176.5276425785863
 11
152.7251943652175
 21
175.8205357542163
 97
        0
 75
     0
 76
     1
 98
        1
 10
0.0
 20
0.0
  0
HATCH
  5
111
330
B7
100
AcDbEntity
  8
DEFAULT
  6
Continuous
 62
   136
100
AcDbHatch
 10
0.0
 20
0.0
 30
0.0
210
0.0
220
0.0
230
1.0
  2
SOLID
 70
     1
 71
     0
 91
        1
 92
        1
 93
        3
 72
     1
 10
148.1290003855117
 20
171.2243422559919
 11
145.6541265372537
 21
169.4565754172891
 72
     1
 10
145.6541265372537
 20
169.4565754172891
 11
147.4218936352157
 21
171.9314490803618
 72
     1
 10
147.4218936352157
 20
171.9314490803618
 11
148.1290003855117
 21
171.2243422559919
 97
        0
 75
     0
 76
     1
 98
        1
 10
0.0
 20
0.0
  0
LINE
  5
112
330
B7
100
AcDbEntity
  8
DEFAULT
  6
Continuous
 62
   136
370
     0
100
AcDbLine
 10
149.5941479065638
 20
183.1942234870878
 30
0.0
 11
155.5536215886235
 21
177.2347491807341
 31
0.0
  0
LINE
  5
113
330
B7
100
AcDbEntity
  8
DEFAULT
  6
Continuous
 62
   136
370
     0
100
AcDbLine
 10
141.4624199065638
 20
173.6482824870878
 30
0.0
 11
146.7147866626976
 21
168.3959151807341
 31
0.0
  0
LINE
  5
114
330
B7
100
AcDbEntity
  8
DEFAULT
  6
Continuous
 62
   136
370
     0
100
AcDbLine
 10
154.4929614631796
 20
178.2954094172891
 30
0.0
 11
145.6541267622204
 21
169.4565756422558
 31
0.0
  0
TEXT
  5
115
330
B7
100
AcDbEntity
  8
DEFAULT
  6
Continuous
 62
   136
370
     0
100
AcDbText
 10
147.6629527424933
 20
172.5260615283153
 30
0.0
 40
3.0
  1
12,5
 50
44.99999699894561
  7
seiso_ttf
 11
145.5416325100448
 21
174.647381982986
 31
0.0
100
AcDbText
 73
     3
  0
ENDBLK
  5
1AA
330
B7
100
AcDbEntity
  8
0
370
     0
100
AcDbBlockEnd
  0
BLOCK
  5
1AB
330
BA
100
AcDbEntity
  8
0
370
     0
100
AcDbBlockBegin
  2
DMBLK926
 70
     0
 10
0.0
 20
0.0
 30
0.0
  3
DMBLK926
  1

  0
LINE
  5
23E
330
BA
100
AcDbEntity
  8
DEFAULT
  6
Continuous
 62
   136
370
    -2
100
AcDbLine
 10
149.5941479065638
 20
183.1942234870878
 30
0.0
 11
155.5536215794038
 21
177.2347491899537
 31
0.0
  0
LINE
  5
23F
330
BA
100
AcDbEntity
  8
DEFAULT
  6
Continuous
 62
   136
370
    -2
100
AcDbLine
 10
141.4624199065638
 20
173.6482824870878
 30
0.0
 11
146.7147866534779
 21
168.3959151899538
 31
0.0
  0
LINE
  5
240
330
BA
100
AcDbEntity
  8
DEFAULT
  6
Continuous
 62
   136
370
    -2
100
AcDbLine
 10
152.3716410085088
 20
176.1740891848406
 30
0.0
 11
147.7754469919244
 21
171.5778956497377
 31
0.0
  0
INSERT
  5
241
330
BA
100
AcDbEntity
  8
DEFAULT
  6
Continuous
 62
   136
370
    -2
100
AcDbBlockReference
  2
_SE_FILLED
 10
154.4929614631796
 20
178.2954094172891
 30
0.0
 41
3.0
 42
3.0
 43
3.0
 50
44.99999699894563
  0
INSERT
  5
242
330
BA
100
AcDbEntity
  8
DEFAULT
  6
Continuous
 62
   136
370
    -2
100
AcDbBlockReference
  2
_SE_FILLED
 10
145.6541265372537
 20
169.4565754172891
 30
0.0
 41
3.0
 42
3.0
 43
3.0
 50
224.9999969989456
  0
MTEXT
  5
243
330
BA
100
AcDbEntity
  8
DEFAULT
  6
Continuous
 62
   136
370
     0
100
AcDbMText
 10
147.750193381923
 20
176.1993435039356
 30
0.0
 40
3.0
 41
0.0
 71
     5
 72
     1
  1
\A1;\A1;12,5
  7
seiso_ttf
 11
0.707106818223584
 21
0.7071067441495094
 31
0.0
 73
     1
 44
1.0
1001
ACAD
1000
MTEXTBEGIN
1070
    73
1070
     1
1070
    44
1040
1.0
1070
    74
1070
     0
1000
MTEXTEND
  0
POINT
  5
244
330
BA
100
AcDbEntity
  8
Defpoints
  6
Continuous
 62
     0
370
     0
100
AcDbPoint
 10
149.5941479065638
 20
183.1942234870878
 30
0.0
  0
POINT
  5
245
330
BA
100
AcDbEntity
  8
Defpoints
  6
Continuous
 62
     0
370
     0
100
AcDbPoint
 10
141.4624199065638
 20
173.6482824870878
 30
0.0
  0
POINT
  5
246
330
BA
100
AcDbEntity
  8
Defpoints
  6
Continuous
 62
     0
370
     0
100
AcDbPoint
 10
145.6541265372537
 20
169.4565754172891
 30
0.0
  0
ENDBLK
  5
119
330
BA
100
AcDbEntity
  8
DEFAULT
 62
     0
 48
0.0
370
     0
100
AcDbBlockEnd
  0
BLOCK
  5
11A
330
BC
100
AcDbEntity
  8
DEFAULT
 62
     1
 48
0.0
370
     0
100
AcDbBlockBegin
  2
SE6
 70
     0
 10
0.0
 20
0.0
 30
0.0
  3
SE6
  1

  0
HATCH
  5
11B
330
BC
100
AcDbEntity
  8
DEFAULT
  6
Continuous
 62
   136
100
AcDbHatch
 10
0.0
 20
0.0
 30
0.0
210
0.0
220
0.0
230
1.0
  2
SOLID
 70
     1
 71
     0
 91
        1
 92
        1
 93
        3
 72
     1
 10
143.8863595051642
 20
166.9817016883438
 11
145.6541266031262
 21
169.4565753514166
 72
     1
 10
145.6541266031262
 20
169.4565753514166
 11
143.1792527548682
 21
167.6888085127138
 72
     1
 10
143.1792527548682
 20
167.6888085127138
 11
143.8863595051642
 21
166.9817016883438
 97
        0
 75
     0
 76
     1
 98
        1
 10
0.0
 20
0.0
  0
HATCH
  5
11C
330
BC
100
AcDbEntity
  8
DEFAULT
  6
Continuous
 62
   136
100
AcDbHatch
 10
0.0
 20
0.0
 30
0.0
210
0.0
220
0.0
230
1.0
  2
SOLID
 70
     1
 71
     0
 91
        1
 92
        1
 93
        3
 72
     1
 10
130.4513300254583
 20
153.5466736160453
 11
127.9764561772003
 21
151.7789067773426
 72
     1
 10
127.9764561772003
 20
151.7789067773426
 11
129.7442232751624
 21
154.2537804404153
 72
     1
 10
129.7442232751624
 20
154.2537804404153
 11
130.4513300254584
 21
153.5466736160453
 97
        0
 75
     0
 76
     1
 98
        1
 10
0.0
 20
0.0
  0
LINE
  5
11D
330
BC
100
AcDbEntity
  8
DEFAULT
  6
Continuous
 62
   136
370
     0
100
AcDbLine
 10
141.4624199065638
 20
173.6482824870878
 30
0.0
 11
146.7147867285701
 21
168.3959151148616
 31
0.0
  0
LINE
  5
11E
330
BC
100
AcDbEntity
  8
DEFAULT
  6
Continuous
 62
   136
370
     0
100
AcDbLine
 10
123.7847509065637
 20
155.9706124870879
 30
0.0
 11
129.0371163026442
 21
150.7182465407876
 31
0.0
  0
LINE
  5
11F
330
BC
100
AcDbEntity
  8
DEFAULT
  6
Continuous
 62
   136
370
     0
100
AcDbLine
 10
145.6541266031262
 20
169.4565753514166
 30
0.0
 11
127.9764558841188
 21
151.778906484261
 31
0.0
  0
TEXT
  5
120
330
BC
100
AcDbEntity
  8
DEFAULT
  6
Continuous
 62
   136
370
     0
100
AcDbText
 10
135.031453644114
 20
159.8945636214232
 30
0.0
 40
3.0
  1
25
 50
44.99999699894563
  7
seiso_ttf
 11
132.9101334116655
 21
162.015884076094
 31
0.0
100
AcDbText
 73
     3
  0
ENDBLK
  5
1AC
330
BC
100
AcDbEntity
  8
0
370
     0
100
AcDbBlockEnd
  0
BLOCK
  5
1AD
330
BF
100
AcDbEntity
  8
0
370
     0
100
AcDbBlockBegin
  2
DMBLK927
 70
     0
 10
0.0
 20
0.0
 30
0.0
  3
DMBLK927
  1

  0
LINE
  5
247
330
BF
100
AcDbEntity
  8
DEFAULT
  6
Continuous
 62
   136
370
    -2
100
AcDbLine
 10
141.4624199065638
 20
173.6482824870878
 30
0.0
 11
146.7147864300569
 21
168.3959162607135
 31
0.0
  0
LINE
  5
248
330
BF
100
AcDbEntity
  8
DEFAULT
  6
Continuous
 62
   136
370
    -2
100
AcDbLine
 10
123.7847509065637
 20
155.9706124870879
 30
0.0
 11
129.0371174300568
 21
150.7182462607135
 31
0.0
  0
LINE
  5
249
330
BF
100
AcDbEntity
  8
DEFAULT
  6
Continuous
 62
   136
370
    -2
100
AcDbLine
 10
143.5328059447174
 20
167.3352559989336
 30
0.0
 11
130.0977775118366
 21
153.9002268060529
 31
0.0
  0
INSERT
  5
24A
330
BF
100
AcDbEntity
  8
DEFAULT
  6
Continuous
 62
   136
370
    -2
100
AcDbBlockReference
  2
_SE_FILLED
 10
145.654126228277
 20
169.4565764024933
 30
0.0
 41
3.0
 42
3.0
 43
3.0
 50
45.00000162056927
  0
INSERT
  5
24B
330
BF
100
AcDbEntity
  8
DEFAULT
  6
Continuous
 62
   136
370
    -2
100
AcDbBlockReference
  2
_SE_FILLED
 10
127.976457228277
 20
151.7789064024933
 30
0.0
 41
3.0
 42
3.0
 43
3.0
 50
225.0000016205692
  0
MTEXT
  5
24C
330
BF
100
AcDbEntity
  8
DEFAULT
  6
Continuous
 62
   136
370
     0
100
AcDbMText
 10
134.6939708400629
 20
162.7390612013984
 30
0.0
 40
3.0
 41
0.0
 71
     5
 72
     1
  1
\A1;\A1;25
  7
seiso_ttf
 11
0.7071067611865488
 21
0.7071068011865459
 31
0.0
 73
     1
 44
1.0
1001
ACAD
1000
MTEXTBEGIN
1070
    73
1070
     1
1070
    44
1040
1.0
1070
    74
1070
     0
1000
MTEXTEND
  0
POINT
  5
24D
330
BF
100
AcDbEntity
  8
Defpoints
  6
Continuous
 62
     0
370
     0
100
AcDbPoint
 10
141.4624199065638
 20
173.6482824870878
 30
0.0
  0
POINT
  5
24E
330
BF
100
AcDbEntity
  8
Defpoints
  6
Continuous
 62
     0
370
     0
100
AcDbPoint
 10
123.7847509065637
 20
155.9706124870879
 30
0.0
  0
POINT
  5
24F
330
BF
100
AcDbEntity
  8
Defpoints
  6
Continuous
 62
     0
370
     0
100
AcDbPoint
 10
127.976457228277
 20
151.7789064024933
 30
0.0
  0
ENDBLK
  5
124
330
BF
100
AcDbEntity
  8
DEFAULT
 62
     0
 48
0.0
370
     0
100
AcDbBlockEnd
  0
BLOCK
  5
125
330
C1
100
AcDbEntity
  8
DEFAULT
 62
     1
 48
0.0
370
     0
100
AcDbBlockBegin
  2
SE7
 70
     0
 10
0.0
 20
0.0
 30
0.0
  3
SE7
  1

  0
HATCH
  5
126
330
C1
100
AcDbEntity
  8
DEFAULT
  6
Continuous
 62
   136
100
AcDbHatch
 10
0.0
 20
0.0
 30
0.0
210
0.0
220
0.0
230
1.0
  2
SOLID
 70
     1
 71
     0
 91
        1
 92
        1
 93
        3
 72
     1
 10
126.208688858803
 20
149.3040333347052
 11
127.976455956765
 21
151.7789069977779
 72
     1
 10
127.976455956765
 20
151.7789069977779
 11
125.501582108507
 21
150.0111401590752
 72
     1
 10
125.501582108507
 20
150.0111401590752
 11
126.208688858803
 21
149.3040333347052
 97
        0
 75
     0
 76
     1
 98
        1
 10
0.0
 20
0.0
  0
HATCH
  5
127
330
C1
100
AcDbEntity
  8
DEFAULT
  6
Continuous
 62
   136
100
AcDbHatch
 10
0.0
 20
0.0
 30
0.0
210
0.0
220
0.0
230
1.0
  2
SOLID
 70
     1
 71
     0
 91
        1
 92
        1
 93
        3
 72
     1
 10
117.7234071013192
 20
140.8187524661103
 11
115.2485332530613
 21
139.0509856274076
 72
     1
 10
115.2485332530613
 20
139.0509856274076
 11
117.0163003510233
 21
141.5258592904803
 72
     1
 10
117.0163003510233
 20
141.5258592904803
 11
117.7234071013192
 21
140.8187524661103
 97
        0
 75
     0
 76
     1
 98
        1
 10
0.0
 20
0.0
  0
LINE
  5
128
330
C1
100
AcDbEntity
  8
DEFAULT
  6
Continuous
 62
   136
370
     0
100
AcDbLine
 10
123.7847509065637
 20
155.9706124870879
 30
0.0
 11
129.0371160822089
 21
150.718246761223
 31
0.0
  0
LINE
  5
129
330
C1
100
AcDbEntity
  8
DEFAULT
  6
Continuous
 62
   136
370
     0
100
AcDbLine
 10
110.3497219065637
 20
143.9497974870878
 30
0.0
 11
116.3091933785052
 21
137.9903253908526
 31
0.0
  0
LINE
  5
12A
330
C1
100
AcDbEntity
  8
DEFAULT
  6
Continuous
 62
   136
370
     0
100
AcDbLine
 10
127.976455956765
 20
151.7789069977779
 30
0.0
 11
115.2485337766495
 21
139.0509861509958
 31
0.0
  0
TEXT
  5
12B
330
C1
100
AcDbEntity
  8
DEFAULT
  6
Continuous
 62
   136
370
     0
100
AcDbText
 10
119.9732927527445
 20
144.8364047483655
 30
0.0
 40
3.0
  1
18
 50
44.99999699894561
  7
seiso_ttf
 11
117.851972520296
 21
146.9577252030363
 31
0.0
100
AcDbText
 73
     3
  0
ENDBLK
  5
1AE
330
C1
100
AcDbEntity
  8
0
370
     0
100
AcDbBlockEnd
  0
BLOCK
  5
1AF
330
C4
100
AcDbEntity
  8
0
370
     0
100
AcDbBlockBegin
  2
DMBLK928
 70
     0
 10
0.0
 20
0.0
 30
0.0
  3
DMBLK928
  1

  0
LINE
  5
250
330
C4
100
AcDbEntity
  8
DEFAULT
  6
Continuous
 62
   136
370
    -2
100
AcDbLine
 10
123.7847509065637
 20
155.9706124870878
 30
0.0
 11
129.0371160729893
 21
150.7182467704425
 31
0.0
  0
LINE
  5
251
330
C4
100
AcDbEntity
  8
DEFAULT
  6
Continuous
 62
   136
370
    -2
100
AcDbLine
 10
110.3497219065638
 20
143.9497974870878
 30
0.0
 11
116.3091933692856
 21
137.9903254000722
 31
0.0
  0
LINE
  5
252
330
C4
100
AcDbEntity
  8
DEFAULT
  6
Continuous
 62
   136
370
    -2
100
AcDbLine
 10
125.8551355020943
 20
149.6575867653294
 30
0.0
 11
117.3698537077321
 21
141.1723058598561
 31
0.0
  0
INSERT
  5
253
330
C4
100
AcDbEntity
  8
DEFAULT
  6
Continuous
 62
   136
370
    -2
100
AcDbBlockReference
  2
_SE_FILLED
 10
127.976455956765
 20
151.7789069977779
 30
0.0
 41
3.0
 42
3.0
 43
3.0
 50
44.99999699894563
  0
INSERT
  5
254
330
C4
100
AcDbEntity
  8
DEFAULT
  6
Continuous
 62
   136
370
    -2
100
AcDbBlockReference
  2
_SE_FILLED
 10
115.2485332530613
 20
139.0509856274076
 30
0.0
 41
3.0
 42
3.0
 43
3.0
 50
224.9999969989456
  0
MTEXT
  5
255
330
C4
100
AcDbEntity
  8
DEFAULT
  6
Continuous
 62
   136
370
     0
100
AcDbMText
 10
119.4911746342588
 20
147.5362670290576
 30
0.0
 40
3.0
 41
0.0
 71
     5
 72
     1
  1
\A1;\A1;18
  7
seiso_ttf
 11
0.707106818223584
 21
0.7071067441495094
 31
0.0
 73
     1
 44
1.0
1001
ACAD
1000
MTEXTBEGIN
1070
    73
1070
     1
1070
    44
1040
1.0
1070
    74
1070
     0
1000
MTEXTEND
  0
POINT
  5
256
330
C4
100
AcDbEntity
  8
Defpoints
  6
Continuous
 62
     0
370
     0
100
AcDbPoint
 10
123.7847509065637
 20
155.9706124870878
 30
0.0
  0
POINT
  5
257
330
C4
100
AcDbEntity
  8
Defpoints
  6
Continuous
 62
     0
370
     0
100
AcDbPoint
 10
110.3497219065638
 20
143.9497974870878
 30
0.0
  0
POINT
  5
258
330
C4
100
AcDbEntity
  8
Defpoints
  6
Continuous
 62
     0
370
     0
100
AcDbPoint
 10
115.2485332530613
 20
139.0509856274076
 30
0.0
  0
ENDBLK
  5
12F
330
C4
100
AcDbEntity
  8
DEFAULT
 62
     0
 48
0.0
370
     0
100
AcDbBlockEnd
  0
BLOCK
  5
130
330
C6
100
AcDbEntity
  8
DEFAULT
 62
     1
 48
0.0
370
     0
100
AcDbBlockBegin
  2
SE8
 70
     0
 10
0.0
 20
0.0
 30
0.0
  3
SE8
  1

  0
HATCH
  5
131
330
C6
100
AcDbEntity
  8
DEFAULT
  6
Continuous
 62
   136
100
AcDbHatch
 10
0.0
 20
0.0
 30
0.0
210
0.0
220
0.0
230
1.0
  2
SOLID
 70
     1
 71
     0
 91
        1
 92
        1
 93
        3
 72
     1
 10
47.45064237689624
 20
101.1111877151811
 11
47.95064238124242
 21
104.1111877412581
 72
     1
 10
47.95064238124242
 20
104.1111877412581
 11
48.45064238558858
 21
101.1111877151811
 72
     1
 10
48.45064238558858
 20
101.1111877151811
 11
47.45064237689624
 21
101.1111877151811
 97
        0
 75
     0
 76
     1
 98
        1
 10
0.0
 20
0.0
  0
HATCH
  5
132
330
C6
100
AcDbEntity
  8
DEFAULT
  6
Continuous
 62
   136
100
AcDbHatch
 10
0.0
 20
0.0
 30
0.0
210
0.0
220
0.0
230
1.0
  2
SOLID
 70
     1
 71
     0
 91
        1
 92
        1
 93
        3
 72
     1
 10
47.45064237689624
 20
113.1111877673351
 11
47.95064238124242
 21
110.1111877412581
 72
     1
 10
47.95064238124242
 20
110.1111877412581
 11
48.45064238558858
 21
113.1111877673351
 72
     1
 10
48.45064238558858
 20
113.1111877673351
 11
47.45064237689624
 21
113.1111877673351
 97
        0
 75
     0
 76
     1
 98
        1
 10
0.0
 20
0.0
  0
LINE
  5
133
330
C6
100
AcDbEntity
  8
DEFAULT
  6
Continuous
 62
   136
370
     0
100
AcDbLine
 10
54.85752943196049
 20
104.1111877412581
 30
0.0
 11
46.4506423682039
 21
104.1111877412581
 31
0.0
  0
LINE
  5
134
330
C6
100
AcDbEntity
  8
DEFAULT
  6
Continuous
 62
   136
370
     0
100
AcDbLine
 10
54.85752943196049
 20
110.1111877412581
 30
0.0
 11
46.4506423682039
 21
110.1111877412581
 31
0.0
  0
LINE
  5
135
330
C6
100
AcDbEntity
  8
DEFAULT
  6
Continuous
 62
   136
370
     0
100
AcDbLine
 10
47.95064238124242
 20
98.11118768910406
 30
0.0
 11
47.95064238124242
 21
116.1111878455662
 31
0.0
  0
TEXT
  5
136
330
C6
100
AcDbEntity
  8
DEFAULT
  6
Continuous
 62
   136
370
     0
100
AcDbText
 10
47.20064238124241
 20
106.1907332218806
 30
0.0
 40
3.0
  1
6
 50
90.0
  7
seiso_ttf
 11
44.20064238124242
 21
106.1907332218806
 31
0.0
100
AcDbText
 73
     3
  0
ENDBLK
  5
1B0
330
C6
100
AcDbEntity
  8
0
370
     0
100
AcDbBlockEnd
  0
BLOCK
  5
1B1
330
C9
100
AcDbEntity
  8
0
370
     0
100
AcDbBlockBegin
  2
DMBLK929
 70
     0
 10
0.0
 20
0.0
 30
0.0
  3
DMBLK929
  1

  0
LINE
  5
259
330
C9
100
AcDbEntity
  8
DEFAULT
  6
Continuous
 62
   136
370
    -2
100
AcDbLine
 10
54.85752943196049
 20
104.1111877412581
 30
0.0
 11
46.45064238124243
 21
104.1111877412581
 31
0.0
  0
LINE
  5
25A
330
C9
100
AcDbEntity
  8
DEFAULT
  6
Continuous
 62
   136
370
    -2
100
AcDbLine
 10
54.85752943196049
 20
110.1111877412581
 30
0.0
 11
46.45064238124243
 21
110.1111877412581
 31
0.0
  0
LINE
  5
25B
330
C9
100
AcDbEntity
  8
DEFAULT
  6
Continuous
 62
   136
370
    -2
100
AcDbLine
 10
47.95064238124242
 20
101.1111877412581
 30
0.0
 11
47.95064238124242
 21
98.11118774125812
 31
0.0
  0
LINE
  5
25C
330
C9
100
AcDbEntity
  8
DEFAULT
  6
Continuous
 62
   136
370
    -2
100
AcDbLine
 10
47.95064238124243
 20
113.1111877412581
 30
0.0
 11
47.95064238124243
 21
116.1111877412581
 31
0.0
  0
LINE
  5
25D
330
C9
100
AcDbEntity
  8
DEFAULT
  6
Continuous
 62
   136
370
    -2
100
AcDbLine
 10
47.95064238124242
 20
104.1111877412581
 30
0.0
 11
47.95064238124242
 21
110.1111877412581
 31
0.0
  0
INSERT
  5
25E
330
C9
100
AcDbEntity
  8
DEFAULT
  6
Continuous
 62
   136
370
    -2
100
AcDbBlockReference
  2
_SE_FILLED
 10
47.95064238124242
 20
104.1111877412581
 30
0.0
 41
3.0
 42
3.0
 43
3.0
 50
90.0
  0
INSERT
  5
25F
330
C9
100
AcDbEntity
  8
DEFAULT
  6
Continuous
 62
   136
370
    -2
100
AcDbBlockReference
  2
_SE_FILLED
 10
47.95064238124242
 20
110.1111877412581
 30
0.0
 41
3.0
 42
3.0
 43
3.0
 50
270.0
  0
MTEXT
  5
260
330
C9
100
AcDbEntity
  8
DEFAULT
  6
Continuous
 62
   136
370
     0
100
AcDbMText
 10
44.95064238124242
 20
107.1111877412581
 30
0.0
 40
3.0
 41
0.0
 71
     5
 72
     1
  1
\A1;\A1;6
  7
seiso_ttf
 11
0.0000000000000001
 21
1.0
 31
0.0
 73
     1
 44
1.0
1001
ACAD
1000
MTEXTBEGIN
1070
    73
1070
     1
1070
    44
1040
1.0
1070
    74
1070
     0
1000
MTEXTEND
  0
POINT
  5
261
330
C9
100
AcDbEntity
  8
Defpoints
  6
Continuous
 62
     0
370
     0
100
AcDbPoint
 10
54.85752943196049
 20
104.1111877412581
 30
0.0
  0
POINT
  5
262
330
C9
100
AcDbEntity
  8
Defpoints
  6
Continuous
 62
     0
370
     0
100
AcDbPoint
 10
54.85752943196049
 20
110.1111877412581
 30
0.0
  0
POINT
  5
263
330
C9
100
AcDbEntity
  8
Defpoints
  6
Continuous
 62
     0
370
     0
100
AcDbPoint
 10
47.95064238124242
 20
110.1111877412581
 30
0.0
  0
ENDBLK
  5
13A
330
C9
100
AcDbEntity
  8
DEFAULT
 62
     0
 48
0.0
370
     0
100
AcDbBlockEnd
  0
BLOCK
  5
13B
330
CB
100
AcDbEntity
  8
DEFAULT
 62
     1
 48
0.0
370
     0
100
AcDbBlockBegin
  2
SE9
 70
     0
 10
0.0
 20
0.0
 30
0.0
  3
SE9
  1

  0
HATCH
  5
13C
330
CB
100
AcDbEntity
  8
DEFAULT
  6
Continuous
 62
   136
100
AcDbHatch
 10
0.0
 20
0.0
 30
0.0
210
0.0
220
0.0
230
1.0
  2
SOLID
 70
     1
 71
     0
 91
        1
 92
        1
 93
        3
 72
     1
 10
49.81618643800445
 20
154.4497974610107
 11
50.31618644235062
 21
157.4497974870878
 72
     1
 10
50.31618644235062
 20
157.4497974870878
 11
50.81618644669679
 21
154.4497974610107
 72
     1
 10
50.81618644669679
 20
154.4497974610107
 11
49.81618643800445
 21
154.4497974610107
 97
        0
 75
     0
 76
     1
 98
        1
 10
0.0
 20
0.0
  0
HATCH
  5
13D
330
CB
100
AcDbEntity
  8
DEFAULT
  6
Continuous
 62
   136
100
AcDbHatch
 10
0.0
 20
0.0
 30
0.0
210
0.0
220
0.0
230
1.0
  2
SOLID
 70
     1
 71
     0
 91
        1
 92
        1
 93
        3
 72
     1
 10
49.81618643800445
 20
146.9497975131648
 11
50.31618644235062
 21
143.9497974870878
 72
     1
 10
50.31618644235062
 20
143.9497974870878
 11
50.81618644669679
 21
146.9497975131648
 72
     1
 10
50.81618644669679
 20
146.9497975131648
 11
49.81618643800445
 21
146.9497975131648
 97
        0
 75
     0
 76
     1
 98
        1
 10
0.0
 20
0.0
  0
LINE
  5
13E
330
CB
100
AcDbEntity
  8
DEFAULT
  6
Continuous
 62
   136
370
     0
100
AcDbLine
 10
54.84969290656375
 20
157.4497974870878
 30
0.0
 11
48.8161864293121
 21
157.4497974870878
 31
0.0
  0
LINE
  5
13F
330
CB
100
AcDbEntity
  8
DEFAULT
  6
Continuous
 62
   136
370
     0
100
AcDbLine
 10
54.84969290656375
 20
143.9497974870878
 30
0.0
 11
48.8161864293121
 21
143.9497974870878
 31
0.0
  0
LINE
  5
140
330
CB
100
AcDbEntity
  8
DEFAULT
  6
Continuous
 62
   136
370
     0
100
AcDbLine
 10
50.31618644235062
 20
157.4497974870878
 30
0.0
 11
50.31618644235062
 21
143.9497971369105
 31
0.0
  0
TEXT
  5
141
330
CB
100
AcDbEntity
  8
DEFAULT
  6
Continuous
 62
   136
370
     0
100
AcDbText
 10
49.56618644235063
 20
148.1770700392718
 30
0.0
 40
3.0
  1
13,5
 50
90.0
  7
seiso_ttf
 11
46.56618644235062
 21
148.1770700392718
 31
0.0
100
AcDbText
 73
     3
  0
ENDBLK
  5
1B2
330
CB
100
AcDbEntity
  8
0
370
     0
100
AcDbBlockEnd
  0
BLOCK
  5
1B3
330
CE
100
AcDbEntity
  8
0
370
     0
100
AcDbBlockBegin
  2
DMBLK930
 70
     0
 10
0.0
 20
0.0
 30
0.0
  3
DMBLK930
  1

  0
LINE
  5
264
330
CE
100
AcDbEntity
  8
DEFAULT
  6
Continuous
 62
   136
370
    -2
100
AcDbLine
 10
54.84969290656375
 20
157.4497974870878
 30
0.0
 11
48.81618644235064
 21
157.4497974870878
 31
0.0
  0
LINE
  5
265
330
CE
100
AcDbEntity
  8
DEFAULT
  6
Continuous
 62
   136
370
    -2
100
AcDbLine
 10
54.84969290656375
 20
143.9497974870878
 30
0.0
 11
48.81618644235064
 21
143.9497974870878
 31
0.0
  0
LINE
  5
266
330
CE
100
AcDbEntity
  8
DEFAULT
  6
Continuous
 62
   136
370
    -2
100
AcDbLine
 10
50.31618644235065
 20
154.4497974870878
 30
0.0
 11
50.31618644235065
 21
146.9497974870878
 31
0.0
  0
INSERT
  5
267
330
CE
100
AcDbEntity
  8
DEFAULT
  6
Continuous
 62
   136
370
    -2
100
AcDbBlockReference
  2
_SE_FILLED
 10
50.31618644235065
 20
157.4497974870878
 30
0.0
 41
3.0
 42
3.0
 43
3.0
 50
90.0
  0
INSERT
  5
268
330
CE
100
AcDbEntity
  8
DEFAULT
  6
Continuous
 62
   136
370
    -2
100
AcDbBlockReference
  2
_SE_FILLED
 10
50.31618644235064
 20
143.9497974870878
 30
0.0
 41
3.0
 42
3.0
 43
3.0
 50
270.0
  0
MTEXT
  5
269
330
CE
100
AcDbEntity
  8
DEFAULT
  6
Continuous
 62
   136
370
     0
100
AcDbMText
 10
47.03047215663633
 20
150.6997973119991
 30
0.0
 40
3.0
 41
0.0
 71
     5
 72
     1
  1
\A1;\A1;13,5
  7
seiso_ttf
 11
0.0000000000000001
 21
1.0
 31
0.0
 73
     1
 44
1.0
1001
ACAD
1000
MTEXTBEGIN
1070
    73
1070
     1
1070
    44
1040
1.0
1070
    74
1070
     0
1000
MTEXTEND
  0
POINT
  5
26A
330
CE
100
AcDbEntity
  8
Defpoints
  6
Continuous
 62
     0
370
     0
100
AcDbPoint
 10
54.84969290656375
 20
157.4497974870878
 30
0.0
  0
POINT
  5
26B
330
CE
100
AcDbEntity
  8
Defpoints
  6
Continuous
 62
     0
370
     0
100
AcDbPoint
 10
54.84969290656375
 20
143.9497974870878
 30
0.0
  0
POINT
  5
26C
330
CE
100
AcDbEntity
  8
Defpoints
  6
Continuous
 62
     0
370
     0
100
AcDbPoint
 10
50.31618644235064
 20
143.9497974870878
 30
0.0
  0
ENDBLK
  5
145
330
CE
100
AcDbEntity
  8
DEFAULT
 62
     0
 48
0.0
370
     0
100
AcDbBlockEnd
  0
BLOCK
  5
146
330
D0
100
AcDbEntity
  8
DEFAULT
 62
     1
 48
0.0
370
     0
100
AcDbBlockBegin
  2
SE10
 70
     0
 10
0.0
 20
0.0
 30
0.0
  3
SE10
  1

  0
LINE
  5
147
330
D0
100
AcDbEntity
  8
DEFAULT
  6
Continuous
 62
   136
370
     0
100
AcDbLine
 10
67.34969290656376
 20
150.6997974870878
 30
0.0
 11
55.58187578906058
 21
170.7692317637355
 31
0.0
  0
HATCH
  5
148
330
D0
100
AcDbEntity
  8
DEFAULT
  6
Continuous
 62
   136
100
AcDbHatch
 10
0.0
 20
0.0
 30
0.0
210
0.0
220
0.0
230
1.0
  2
SOLID
 70
     1
 71
     0
 91
        1
 92
        1
 93
        3
 72
     1
 10
63.37766884908366
 20
156.485385206259
 11
65.32643406925629
 21
154.1503660891094
 72
     1
 10
65.32643406925629
 20
154.1503660891094
 11
64.24031100708742
 21
156.9911999199825
 72
     1
 10
64.24031100708744
 20
156.9911999199825
 11
63.37766884908367
 21
156.485385206259
 97
        0
 75
     0
 76
     1
 98
        1
 10
0.0
 20
0.0
  0
TEXT
  5
149
330
D0
100
AcDbEntity
  8
DEFAULT
  6
Continuous
 62
   136
370
     0
100
AcDbText
 10
56.75996322852761
 20
170.2428178865677
 30
0.0
 40
3.0
  1
M8
 50
300.3854495286924
  7
seiso_ttf
 11
59.34788968004381
 21
171.7602620145483
 31
0.0
100
AcDbText
 73
     3
  0
ENDBLK
  5
1B4
330
D0
100
AcDbEntity
  8
0
370
     0
100
AcDbBlockEnd
  0
BLOCK
  5
1B5
330
D2
100
AcDbEntity
  8
0
370
     0
100
AcDbBlockBegin
  2
DMBLK931
 70
     0
 10
0.0
 20
0.0
 30
0.0
  3
DMBLK931
  1

  0
LINE
  5
26D
330
D2
100
AcDbEntity
  8
DEFAULT
  6
Continuous
 62
   136
370
    -2
100
AcDbLine
 10
56.84451467581901
 20
163.4995104442532
 30
0.0
 11
59.844514675819
 21
163.4995104442532
 31
0.0
  0
LINE
  5
26E
330
D2
100
AcDbEntity
  8
DEFAULT
  6
Continuous
 62
   136
370
    -2
100
AcDbLine
 10
59.844514675819
 20
163.4995104442532
 30
0.0
 11
63.80898994127568
 21
156.7382925406256
 31
0.0
  0
MTEXT
  5
26F
330
D2
100
AcDbEntity
  8
DEFAULT
  6
Continuous
 62
   136
370
     0
100
AcDbMText
 10
50.84451467581899
 20
163.4995104442532
 30
0.0
 40
3.0
 41
0.0
 71
     5
 72
     1
  1
\A1;\A1;M8 {}
  7
seiso_ttf
 73
     1
 44
1.0
1001
ACAD
1000
MTEXTBEGIN
1070
    73
1070
     1
1070
    44
1040
1.0
1070
    74
1070
     0
1000
MTEXTEND
  0
LINE
  5
270
330
D2
100
AcDbEntity
  8
DEFAULT
  6
Continuous
 62
   136
370
    -2
100
AcDbLine
 10
67.34969290656377
 20
150.6997974870878
 30
0.0
 11
65.32643406925629
 21
154.1503660891095
 31
0.0
  0
INSERT
  5
271
330
D2
100
AcDbEntity
  8
DEFAULT
  6
Continuous
 62
   136
370
    -2
100
AcDbBlockReference
  2
_SE_FILLED
 10
65.32643406925629
 20
154.1503660891095
 30
0.0
 41
3.0
 42
3.0
 43
3.0
 50
300.3854495286926
  0
POINT
  5
272
330
D2
100
AcDbEntity
  8
Defpoints
  6
Continuous
 62
     0
370
     0
100
AcDbPoint
 10
65.32643406925629
 20
154.1503660891095
 30
0.0
  0
POINT
  5
273
330
D2
100
AcDbEntity
  8
Defpoints
  6
Continuous
 62
     0
370
     0
100
AcDbPoint
 10
67.34969290656377
 20
150.6997974870878
 30
0.0
  0
ENDBLK
  5
14D
330
D2
100
AcDbEntity
  8
DEFAULT
 62
     0
 48
0.0
370
     0
100
AcDbBlockEnd
  0
ENDSEC
  0
SECTION
  2
ENTITIES
  0
LINE
  5
6B
330
A
100
AcDbEntity
  8
ASSE
  6
CENTER2
 62
     7
370
     0
100
AcDbLine
 10
15.20408800000003
 20
0.0
 30
0.0
 11
-38.5
 21
0.0
 31
0.0
  0
LINE
  5
6C
330
A
100
AcDbEntity
  8
0
  6
Continuous
 62
     7
370
     0
100
AcDbLine
 10
-37.5
 20
-6.75
 30
0.0
 11
18.00002899999998
 21
-6.75
 31
0.0
  0
LINE
  5
6D
330
A
100
AcDbEntity
  8
0
  6
Continuous
 62
     7
370
     0
100
AcDbLine
 10
57.25229152539668
 20
-46.58860974582971
 30
0.0
 11
-37.49216347460326
 21
-46.58860974582971
 31
0.0
  0
LINE
  5
6E
330
A
100
AcDbEntity
  8
0
  6
Continuous
 62
     7
370
     0
100
AcDbLine
 10
-37.49216347460326
 20
-40.58860974582972
 30
0.0
 11
57.25229152539668
 21
-40.58860974582972
 31
0.0
  0
CIRCLE
  5
6F
330
A
100
AcDbEntity
  8
0
  6
Continuous
 62
     7
370
     0
100
AcDbCircle
 10
-24.99999999999999
 20
0.0
 30
0.0
 40
3.350000000000001
  0
ARC
  5
70
330
A
100
AcDbEntity
  8
14
  6
Continuous
 62
     7
370
     0
100
AcDbCircle
 10
-24.99999999999999
 20
0.0
 30
0.0
 40
4.0
100
AcDbArc
 50
344.9999999999973
 51
254.9999999999988
  0
LINE
  5
71
330
A
100
AcDbEntity
  8
0
  6
Continuous
 62
     7
370
     0
100
AcDbLine
 10
-37.5
 20
6.749999999999971
 30
0.0
 11
12.40814599999999
 21
6.749999999999971
 31
0.0
  0
LINE
  5
72
330
A
100
AcDbEntity
  8
0
  6
Continuous
 62
     7
370
     0
100
AcDbLine
 10
-37.5
 20
6.749999999999971
 30
0.0
 11
-37.5
 21
-6.750000000000028
 31
0.0
  0
LINE
  5
73
330
A
100
AcDbEntity
  8
2
  6
Continuous
 62
     7
370
     0
100
AcDbLine
 10
-37.49216347460326
 20
-43.45135674582972
 30
0.0
 11
-34.62941647460328
 21
-40.58860974582971
 31
0.0
  0
LINE
  5
74
330
A
100
AcDbEntity
  8
2
  6
Continuous
 62
     7
370
     0
100
AcDbLine
 10
-37.49216347460326
 20
-46.10300674582968
 30
0.0
 11
-31.97776547460326
 21
-40.58860974582971
 31
0.0
  0
LINE
  5
75
330
A
100
AcDbEntity
  8
2
  6
Continuous
 62
     7
370
     0
100
AcDbLine
 10
-37.49216347460326
 20
-40.79970574582969
 30
0.0
 11
-37.28106647460327
 21
-40.5886097458297
 31
0.0
  0
LINE
  5
76
330
A
100
AcDbEntity
  8
0
  6
Continuous
 62
     7
370
     0
100
AcDbLine
 10
-37.49216347460326
 20
-46.58860974582971
 30
0.0
 11
-37.49216347460326
 21
-40.58860974582972
 31
0.0
  0
LINE
  5
77
330
A
100
AcDbEntity
  8
2
  6
Continuous
 62
     7
370
     0
100
AcDbLine
 10
-35.32611547460328
 20
-46.58860974582971
 30
0.0
 11
-29.32611547460328
 21
-40.58860974582972
 31
0.0
  0
LINE
  5
78
330
A
100
AcDbEntity
  8
2
  6
Continuous
 62
     7
370
     0
100
AcDbLine
 10
-32.67446547460326
 20
-46.58860974582971
 30
0.0
 11
-28.99216347460327
 21
-42.90630774582973
 31
0.0
  0
LINE
  5
79
330
A
100
AcDbEntity
  8
2
  6
Continuous
 62
     7
370
     0
100
AcDbLine
 10
-30.02281447460327
 20
-46.58860974582971
 30
0.0
 11
-28.99216347460328
 21
-45.55795774582974
 31
0.0
  0
LINE
  5
7A
330
A
100
AcDbEntity
  8
0
  6
Continuous
 62
     7
370
     0
100
AcDbLine
 10
-28.34216347460328
 20
-40.58860974582972
 30
0.0
 11
-28.34216347460328
 21
-46.58860974582973
 31
0.0
  0
LINE
  5
7B
330
A
100
AcDbEntity
  8
14
  6
Continuous
 62
     7
370
     0
100
AcDbLine
 10
-28.99216347460327
 20
-40.58860974582972
 30
0.0
 11
-28.99216347460327
 21
-46.58860974582973
 31
0.0
  0
LINE
  5
7C
330
A
100
AcDbEntity
  8
ASSE
  6
CENTER2
 62
     7
370
     0
100
AcDbLine
 10
53.17859100000001
 20
37.97450400000002
 30
0.0
 11
15.20408800000004
 21
0.0
 31
0.0
  0
LINE
  5
7D
330
A
100
AcDbEntity
  8
0
  6
Continuous
 62
     7
370
     0
100
AcDbLine
 10
47.69851400000002
 20
42.04036799999999
 30
0.0
 11
57.24445500000005
 21
32.49442599999998
 31
0.0
  0
LINE
  5
7E
330
A
100
AcDbEntity
  8
0
  6
Continuous
 62
     7
370
     0
100
AcDbLine
 10
47.69851400000002
 20
42.04036799999999
 30
0.0
 11
57.24445500000005
 21
32.49442599999998
 31
0.0
  0
LINE
  5
7F
330
A
100
AcDbEntity
  8
0
  6
Continuous
 62
     7
370
     0
100
AcDbLine
 10
18.000029
 20
-6.75
 30
0.0
 11
57.24445500000005
 21
32.49442599999998
 31
0.0
  0
LINE
  5
80
330
A
100
AcDbEntity
  8
0
  6
Continuous
 62
     7
370
     0
100
AcDbLine
 10
12.408146
 20
6.749999999999971
 30
0.0
 11
47.69851399999999
 21
42.04036799999999
 31
0.0
  0
LINE
  5
81
330
A
100
AcDbEntity
  8
ASSE
  6
CENTER2
 62
     7
370
     0
100
AcDbLine
 10
-24.99999999999999
 20
7.749999999999971
 30
0.0
 11
-24.99999999999999
 21
-7.750000000000056
 31
0.0
  0
LINE
  5
82
330
A
100
AcDbEntity
  8
ASSE
  6
CENTER2
 62
     7
370
     0
100
AcDbLine
 10
0.0
 20
7.749999999999971
 30
0.0
 11
0.0
 21
-7.750000000000056
 31
0.0
  0
CIRCLE
  5
83
330
A
100
AcDbEntity
  8
0
  6
Continuous
 62
     7
370
     0
100
AcDbCircle
 10
0.0
 20
0.0
 30
0.0
 40
3.349999999999999
  0
ARC
  5
84
330
A
100
AcDbEntity
  8
14
  6
Continuous
 62
     7
370
     0
100
AcDbCircle
 10
0.0
 20
0.0
 30
0.0
 40
4.0
100
AcDbArc
 50
344.9999999999989
 51
254.9999999999988
  0
LINE
  5
85
330
A
100
AcDbEntity
  8
2
  6
Continuous
 62
     7
370
     0
100
AcDbLine
 10
-16.76456247460328
 20
-46.58860974582971
 30
0.0
 11
-13.47015847460329
 21
-43.29420574582973
 31
0.0
  0
LINE
  5
86
330
A
100
AcDbEntity
  8
2
  6
Continuous
 62
     7
370
     0
100
AcDbLine
 10
-19.41621247460328
 20
-46.58860974582971
 30
0.0
 11
-13.41621247460328
 21
-40.58860974582972
 31
0.0
  0
LINE
  5
87
330
A
100
AcDbEntity
  8
2
  6
Continuous
 62
     7
370
     0
100
AcDbLine
 10
-20.99216347460327
 20
-45.51290974582971
 30
0.0
 11
-16.06786347460331
 21
-40.5886097458297
 31
0.0
  0
LINE
  5
88
330
A
100
AcDbEntity
  8
ASSE
  6
Continuous
 62
     7
370
     0
100
AcDbLine
 10
-24.99216347460326
 20
-39.58860974582973
 30
0.0
 11
-24.99216347460326
 21
-47.58860974582972
 31
0.0
  0
LINE
  5
89
330
A
100
AcDbEntity
  8
0
  6
Continuous
 62
     7
370
     0
100
AcDbLine
 10
-21.64216347460328
 20
-40.58860974582972
 30
0.0
 11
-21.64216347460328
 21
-46.58860974582973
 31
0.0
  0
LINE
  5
8A
330
A
100
AcDbEntity
  8
2
  6
Continuous
 62
     7
370
     0
100
AcDbLine
 10
-20.99216347460327
 20
-42.86125874582971
 30
0.0
 11
-18.71951347460327
 21
-40.58860974582971
 31
0.0
  0
LINE
  5
8B
330
A
100
AcDbEntity
  8
14
  6
Continuous
 62
     7
370
     0
100
AcDbLine
 10
-20.99216347460327
 20
-40.58860974582972
 30
0.0
 11
-20.99216347460327
 21
-46.58860974582973
 31
0.0
  0
LINE
  5
8C
330
A
100
AcDbEntity
  8
14
  6
Continuous
 62
     7
370
     0
100
AcDbLine
 10
-14.20544247460326
 20
-42.38869074582967
 30
0.0
 11
-12.42612047460328
 21
-44.57995574582973
 31
0.0
  0
LINE
  5
8D
330
A
100
AcDbEntity
  8
14
  6
Continuous
 62
     7
370
     0
100
AcDbLine
 10
-12.42612047460328
 20
-44.57995574582973
 30
0.0
 11
-14.15981847460328
 21
-46.5886097458297
 31
0.0
  0
LINE
  5
8E
330
A
100
AcDbEntity
  8
14
  6
Continuous
 62
     7
370
     0
100
AcDbLine
 10
-13.29296947460328
 20
-40.58860974582972
 30
0.0
 11
-14.20544247460324
 21
-42.38869074582971
 31
0.0
  0
LINE
  5
8F
330
A
100
AcDbEntity
  8
ASSE
  6
Continuous
 62
     7
370
     0
100
AcDbLine
 10
0.0078365253967405
 20
-39.58860974582973
 30
0.0
 11
0.0078365253967405
 21
-47.58860974582972
 31
0.0
  0
LINE
  5
90
330
A
100
AcDbEntity
  8
0
  6
Continuous
 62
     7
370
     0
100
AcDbLine
 10
12.41598252539673
 20
-40.58860974582972
 30
0.0
 11
12.41598252539673
 21
-46.58860974582973
 31
0.0
  0
LINE
  5
91
330
A
100
AcDbEntity
  8
ASSE
  6
CENTER2
 62
     7
370
     0
100
AcDbLine
 10
31.43505799999998
 20
5.270815000000055
 30
0.0
 11
20.474903
 21
16.23097000000004
 31
0.0
  0
ARC
  5
92
330
A
100
AcDbEntity
  8
14
  6
Continuous
 62
     7
370
     0
100
AcDbCircle
 10
25.95497999999999
 20
10.75089300000002
 30
0.0
 40
4.0
100
AcDbArc
 50
210.0000000000001
 51
120.0000000000012
  0
CIRCLE
  5
93
330
A
100
AcDbEntity
  8
0
  6
Continuous
 62
     7
370
     0
100
AcDbCircle
 10
25.95497999999999
 20
10.75089300000002
 30
0.0
 40
3.349999999999999
  0
LINE
  5
94
330
A
100
AcDbEntity
  8
ASSE
  6
Continuous
 62
     7
370
     0
100
AcDbLine
 10
25.96281652539672
 20
-39.58860974582973
 30
0.0
 11
25.96281652539672
 21
-47.58860974582972
 31
0.0
  0
LINE
  5
95
330
A
100
AcDbEntity
  8
ASSE
  6
CENTER2
 62
     7
370
     0
100
AcDbLine
 10
49.11272700000004
 20
22.94848500000004
 30
0.0
 11
38.15257199999996
 21
33.90864000000002
 31
0.0
  0
ARC
  5
96
330
A
100
AcDbEntity
  8
14
  6
Continuous
 62
     7
370
     0
100
AcDbCircle
 10
43.63265000000004
 20
28.428562
 30
0.0
 40
4.0
100
AcDbArc
 50
210.0000000000001
 51
120.0000000000004
  0
CIRCLE
  5
97
330
A
100
AcDbEntity
  8
0
  6
Continuous
 62
     7
370
     0
100
AcDbCircle
 10
43.63265000000004
 20
28.428562
 30
0.0
 40
3.350000000000001
  0
LINE
  5
98
330
A
100
AcDbEntity
  8
ASSE
  6
Continuous
 62
     7
370
     0
100
AcDbLine
 10
43.64048652539674
 20
-39.58860974582973
 30
0.0
 11
43.64048652539674
 21
-47.58860974582972
 31
0.0
  0
LINE
  5
99
330
A
100
AcDbEntity
  8
0
  6
Continuous
 62
     7
370
     0
100
AcDbLine
 10
47.70635052539671
 20
-40.58860974582972
 30
0.0
 11
47.70635052539671
 21
-46.58860974582973
 31
0.0
  0
LINE
  5
9A
330
A
100
AcDbEntity
  8
0
  6
Continuous
 62
     7
370
     0
100
AcDbLine
 10
57.25229152539668
 20
-40.58860974582972
 30
0.0
 11
57.25229152539668
 21
-46.58860974582973
 31
0.0
  0
ENDSEC
  0
SECTION
  2
OBJECTS
  0
DICTIONARY
  5
19
330
0
100
AcDbDictionary
281
     1
  3
ACAD_COLOR
350
17D
  3
ACAD_GROUP
350
1A
  3
ACAD_LAYOUT
350
1E
  3
ACAD_MATERIAL
350
150
  3
ACAD_MLEADERSTYLE
350
1BC
  3
ACAD_MLINESTYLE
350
1B
  3
ACAD_PLOTSETTINGS
350
22
  3
ACAD_PLOTSTYLENAME
350
1F
  3
ACAD_SCALELIST
350
17E
  3
ACAD_TABLESTYLE
350
1B6
  3
ACAD_VISUALSTYLE
350
169
  3
ACAD_WIPEOUT_VARS
350
23
  3
ACDB_RECOMPOSE_DATA
350
325
  3
AcDbVariableDictionary
350
14E
  3
AEC_PROPERTY_SET_DEFS
350
2A1
  3
ASE_INDEX_DICTIONARY
350
2C4
  3
DWGPROPS
350
326
  3
qs_topprt_diz
350
279
  3
QSCATDICT
350
276
  3
QsPallStyleDict
350
278
  3
QsTop499
350
2C0
  3
TopSpotLight
350
280
  0
DICTIONARY
  5
2CD
330
7
100
AcDbDictionary
280
     1
281
     1
  0
DICTIONARY
  5
2A2
330
14
100
AcDbDictionary
280
     1
281
     1
  3
ADSK_XREC_LAYER_RECONCILED
360
2A3
  0
DICTIONARY
  5
2A4
330
2D
100
AcDbDictionary
280
     1
281
     1
  3
ADSK_XREC_LAYER_RECONCILED
360
2A5
  0
DICTIONARY
  5
2A6
330
2F
100
AcDbDictionary
280
     1
281
     1
  3
ADSK_XREC_LAYER_RECONCILED
360
2A7
  0
DICTIONARY
  5
2A8
330
31
100
AcDbDictionary
280
     1
281
     1
  3
ADSK_XREC_LAYER_RECONCILED
360
2A9
  0
DICTIONARY
  5
2AA
330
33
100
AcDbDictionary
280
     1
281
     1
  3
ADSK_XREC_LAYER_RECONCILED
360
2AB
  0
DICTIONARY
  5
2AC
330
35
100
AcDbDictionary
280
     1
281
     1
  3
ADSK_XREC_LAYER_RECONCILED
360
2AD
  0
DICTIONARY
  5
2AE
330
37
100
AcDbDictionary
280
     1
281
     1
  3
ADSK_XREC_LAYER_RECONCILED
360
2AF
  0
DICTIONARY
  5
2B0
330
39
100
AcDbDictionary
280
     1
281
     1
  3
ADSK_XREC_LAYER_RECONCILED
360
2B1
  0
DICTIONARY
  5
2B2
330
3B
100
AcDbDictionary
280
     1
281
     1
  3
ADSK_XREC_LAYER_RECONCILED
360
2B3
  0
DICTIONARY
  5
2B4
330
3D
100
AcDbDictionary
280
     1
281
     1
  3
ADSK_XREC_LAYER_RECONCILED
360
2B5
  0
DICTIONARY
  5
2B6
330
3F
100
AcDbDictionary
280
     1
281
     1
  3
ADSK_XREC_LAYER_RECONCILED
360
2B7
  0
DICTIONARY
  5
2B8
330
41
100
AcDbDictionary
280
     1
281
     1
  3
ADSK_XREC_LAYER_RECONCILED
360
2B9
  0
DICTIONARY
  5
2BA
330
43
100
AcDbDictionary
280
     1
281
     1
  3
ADSK_XREC_LAYER_RECONCILED
360
2BB
  0
DICTIONARY
  5
2BC
330
45
100
AcDbDictionary
280
     1
281
     1
  3
ADSK_XREC_LAYER_RECONCILED
360
2BD
  0
DICTIONARY
  5
2BE
330
27B
100
AcDbDictionary
280
     1
281
     1
  3
ADSK_XREC_LAYER_RECONCILED
360
2BF
  0
DICTIONARY
  5
17D
102
{ACAD_REACTORS
330
19
102
}
330
19
100
AcDbDictionary
281
     1
  0
DICTIONARY
  5
1A
102
{ACAD_REACTORS
330
19
102
}
330
19
100
AcDbDictionary
281
     1
  0
DICTIONARY
  5
1E
102
{ACAD_REACTORS
330
19
102
}
330
19
100
AcDbDictionary
281
     1
  3
Layout1
350
21
  3
Model
350
20
  0
DICTIONARY
  5
150
102
{ACAD_REACTORS
330
19
102
}
330
19
100
AcDbDictionary
281
     1
  3
ByBlock
350
159
  3
ByLayer
350
151
  3
Global
350
161
  0
DICTIONARY
  5
1BC
102
{ACAD_REACTORS
330
19
102
}
330
19
100
AcDbDictionary
281
     1
  3
Standard
350
1BD
  0
DICTIONARY
  5
1B
102
{ACAD_REACTORS
330
19
102
}
330
19
100
AcDbDictionary
281
     1
  3
Standard
350
1C
  0
DICTIONARY
  5
22
102
{ACAD_REACTORS
330
19
102
}
330
19
100
AcDbDictionary
281
     1
  3
Kyocera_1010 OR
350
295
  3
Kyocera_1010 VER
350
296
  3
Olivetti_200 A3
350
297
  3
Olivetti_200 A4
350
298
  3
PLOTTER
350
299
  0
ACDBDICTIONARYWDFLT
  5
1F
102
{ACAD_REACTORS
330
19
102
}
330
19
100
AcDbDictionary
281
     1
  3
Normal
350
1D
100
AcDbDictionaryWithDefault
340
1D
  0
DICTIONARY
  5
17E
102
{ACAD_REACTORS
330
19
102
}
330
19
100
AcDbDictionary
281
     1
  3
A0
350
17F
  3
A1
350
180
  3
A2
350
181
  3
A3
350
182
  3
A4
350
183
  3
A5
350
184
  3
A6
350
185
  3
A7
350
186
  3
A8
350
187
  3
A9
350
188
  3
B0
350
189
  3
B1
350
18A
  3
B2
350
18B
  3
B3
350
18C
  3
B4
350
18D
  3
B5
350
18E
  3
B6
350
18F
  3
B7
350
190
  3
B8
350
191
  3
B9
350
192
  3
C0
350
193
  3
C1
350
194
  3
C2
350
195
  3
C3
350
196
  3
C4
350
197
  3
C5
350
198
  3
C6
350
199
  3
C7
350
19A
  3
C8
350
19B
  3
C9
350
19C
  3
D0
350
19D
  3
D1
350
19E
  3
D2
350
19F
  0
DICTIONARY
  5
1B6
102
{ACAD_REACTORS
330
19
102
}
330
19
100
AcDbDictionary
281
     1
  3
QSTABFORI
350
29A
  3
QSTABREGION
350
29C
  3
Standard
350
1B7
  0
DICTIONARY
  5
169
102
{ACAD_REACTORS
330
19
102
}
330
19
100
AcDbDictionary
281
     1
  3
2dWireframe
350
16F
  3
3D Hidden
350
171
  3
3dWireframe
350
170
  3
Basic
350
16E
  3
Brighten
350
175
  3
ColorChange
350
179
  3
Conceptual
350
172
  3
Dim
350
174
  3
EdgeColorOff
350
17C
  3
Facepattern
350
178
  3
Flat
350
16A
  3
FlatWithEdges
350
16B
  3
Gouraud
350
16C
  3
GouraudWithEdges
350
16D
  3
Hidden
350
312
  3
JitterOff
350
17A
  3
Linepattern
350
177
  3
OverhangOff
350
17B
  3
Realistic
350
173
  3
Shaded
350
317
  3
Shaded with edges
350
316
  3
Shades of Gray
350
313
  3
Sketchy
350
314
  3
Thicken
350
176
  3
Wireframe
350
311
  3
X-Ray
350
315
  0
WIPEOUTVARIABLES
  5
23
330
19
100
AcDbWipeoutVariables
 70
     1
  0
XRECORD
  5
325
102
{ACAD_REACTORS
330
19
102
}
330
19
100
AcDbXrecord
280
     1
 90
        1
330
1B7
330
29A
330
29C
  0
DICTIONARY
  5
14E
330
19
100
AcDbDictionary
281
     0
  3
CANNOSCALE
350
30C
  3
CMLEADERSTYLE
350
30A
  3
CTABLESTYLE
350
309
  3
DIMASSOC
350
14F
  3
DRAWORDERCTL
350
30B
  3
INDEXCTL
350
30E
  3
SORTENTS
350
30D
  3
XCLIPFRAME
350
321
  0
DICTIONARY
  5
2A1
102
{ACAD_REACTORS
330
19
102
}
330
19
100
AcDbDictionary
281
     1
  0
DICTIONARY
  5
2C4
102
{ACAD_REACTORS
330
19
102
}
330
19
100
AcDbDictionary
281
     1
  3
ASEBlockHierarchyIndexRecord
350
2C6
1001
DCO15
1040
1706858526.749
  0
XRECORD
  5
326
102
{ACAD_REACTORS
330
19
102
}
330
19
100
AcDbXrecord
280
     1
  1
DWGPROPS COOKIE
  2

  3

  4

  6

  7

  8
mpistoia
  9

300
=
301
=
302
=
303
=
304
=
305
=
306
=
307
=
308
=
309
=
 40
0.0017838773148148
 41
2455558.518682917
 42
2455631.683642327
  1

 90
        0
  0
DICTIONARY
  5
279
102
{ACAD_REACTORS
330
19
102
}
330
19
100
AcDbDictionary
281
     1
  3
UCNT
350
27A
  0
DICTIONARY
  5
276
102
{ACAD_REACTORS
330
19
102
}
330
19
100
AcDbDictionary
281
     1
  3
DEFAULT
350
277
  0
DICTIONARY
  5
278
102
{ACAD_REACTORS
330
19
102
}
330
19
100
AcDbDictionary
281
     1
  0
DICTIONARY
  5
2C0
102
{ACAD_REACTORS
330
19
102
}
330
19
100
AcDbDictionary
281
     1
  3
TOP
350
2C2
  3
X5e91
350
2C1
  0
DICTIONARY
  5
280
102
{ACAD_REACTORS
330
19
102
}
330
19
100
AcDbDictionary
281
     1
  3
colors
350
281
  0
XRECORD
  5
2A3
102
{ACAD_REACTORS
330
2A2
102
}
330
2A2
100
AcDbXrecord
280
     1
290
     1
  0
XRECORD
  5
2A5
102
{ACAD_REACTORS
330
2A4
102
}
330
2A4
100
AcDbXrecord
280
     1
290
     1
  0
XRECORD
  5
2A7
102
{ACAD_REACTORS
330
2A6
102
}
330
2A6
100
AcDbXrecord
280
     1
290
     1
  0
XRECORD
  5
2A9
102
{ACAD_REACTORS
330
2A8
102
}
330
2A8
100
AcDbXrecord
280
     1
290
     1
  0
XRECORD
  5
2AB
102
{ACAD_REACTORS
330
2AA
102
}
330
2AA
100
AcDbXrecord
280
     1
290
     1
  0
XRECORD
  5
2AD
102
{ACAD_REACTORS
330
2AC
102
}
330
2AC
100
AcDbXrecord
280
     1
290
     1
  0
XRECORD
  5
2AF
102
{ACAD_REACTORS
330
2AE
102
}
330
2AE
100
AcDbXrecord
280
     1
290
     1
  0
XRECORD
  5
2B1
102
{ACAD_REACTORS
330
2B0
102
}
330
2B0
100
AcDbXrecord
280
     1
290
     1
  0
XRECORD
  5
2B3
102
{ACAD_REACTORS
330
2B2
102
}
330
2B2
100
AcDbXrecord
280
     1
290
     1
  0
XRECORD
  5
2B5
102
{ACAD_REACTORS
330
2B4
102
}
330
2B4
100
AcDbXrecord
280
     1
290
     1
  0
XRECORD
  5
2B7
102
{ACAD_REACTORS
330
2B6
102
}
330
2B6
100
AcDbXrecord
280
     1
290
     1
  0
XRECORD
  5
2B9
102
{ACAD_REACTORS
330
2B8
102
}
330
2B8
100
AcDbXrecord
280
     1
290
     1
  0
XRECORD
  5
2BB
102
{ACAD_REACTORS
330
2BA
102
}
330
2BA
100
AcDbXrecord
280
     1
290
     1
  0
XRECORD
  5
2BD
102
{ACAD_REACTORS
330
2BC
102
}
330
2BC
100
AcDbXrecord
280
     1
290
     1
  0
XRECORD
  5
2BF
102
{ACAD_REACTORS
330
2BE
102
}
330
2BE
100
AcDbXrecord
280
     1
290
     1
  0
LAYOUT
  5
21
102
{ACAD_XDICTIONARY
360
329
102
}
102
{ACAD_REACTORS
330
1E
102
}
330
1E
100
AcDbPlotSettings
  1

  2

  4

  6

 40
0.0
 41
0.0
 42
0.0
 43
0.0
 44
0.0
 45
0.0
 46
0.0
 47
0.0
 48
0.0
 49
0.0
140
0.0
141
0.0
142
1.0
143
1.0
 70
     0
 72
     0
 73
     0
 74
     0
  7

 75
     0
147
1.0
148
0.0
149
0.0
100
AcDbLayout
  1
Layout1
 70
     0
 71
     1
 10
0.0
 20
0.0
 11
12.0
 21
9.0
 12
0.0
 22
0.0
 32
0.0
 14
1.000000000000000E+20
 24
1.000000000000000E+20
 34
1.000000000000000E+20
 15
-1.000000000000000E+20
 25
-1.000000000000000E+20
 35
-1.000000000000000E+20
146
0.0
 13
0.0
 23
0.0
 33
0.0
 16
1.0
 26
0.0
 36
0.0
 17
0.0
 27
1.0
 37
0.0
 76
     0
330
B
  0
LAYOUT
  5
20
102
{ACAD_XDICTIONARY
360
327
102
}
102
{ACAD_REACTORS
330
1E
102
}
330
1E
100
AcDbPlotSettings
  1

  2

  4

  6

 40
0.0
 41
0.0
 42
0.0
 43
0.0
 44
0.0
 45
0.0
 46
0.0
 47
0.0
 48
0.0
 49
0.0
140
0.0
141
0.0
142
1.0
143
1.0
 70
  1024
 72
     0
 73
     0
 74
     0
  7

 75
     0
147
1.0
148
0.0
149
0.0
100
AcDbLayout
  1
Model
 70
     0
 71
     0
 10
0.0
 20
0.0
 11
0.0
 21
0.0
 12
0.0
 22
0.0
 32
0.0
 14
0.0
 24
0.0
 34
0.0
 15
0.0
 25
0.0
 35
0.0
146
0.0
 13
0.0
 23
0.0
 33
0.0
 16
0.0
 26
0.0
 36
0.0
 17
0.0
 27
0.0
 37
0.0
 76
     0
330
A
331
15
  0
MATERIAL
  5
159
102
{ACAD_XDICTIONARY
360
15A
102
}
102
{ACAD_REACTORS
330
150
102
}
330
150
100
AcDbMaterial
  1
ByBlock
 72
     0
 43
0.0208333333333333
 43
0.0
 43
0.0
 43
0.0
 43
0.0
 43
0.0208333333333333
 43
0.0
 43
0.0
 43
0.0
 43
0.0
 43
1.0
 43
0.0
 43
0.0
 43
0.0
 43
0.0
 43
1.0
 77
     0
 47
0.0208333333333333
 47
0.0
 47
0.0
 47
0.0
 47
0.0
 47
0.0208333333333333
 47
0.0
 47
0.0
 47
0.0
 47
0.0
 47
1.0
 47
0.0
 47
0.0
 47
0.0
 47
0.0
 47
1.0
171
     0
 49
0.0208333333333333
 49
0.0
 49
0.0
 49
0.0
 49
0.0
 49
0.0208333333333333
 49
0.0
 49
0.0
 49
0.0
 49
0.0
 49
1.0
 49
0.0
 49
0.0
 49
0.0
 49
0.0
 49
1.0
175
     0
142
0.0208333333333333
142
0.0
142
0.0
142
0.0
142
0.0
142
0.0208333333333333
142
0.0
142
0.0
142
0.0
142
0.0
142
1.0
142
0.0
142
0.0
142
0.0
142
0.0
142
1.0
179
     0
144
0.0208333333333333
144
0.0
144
0.0
144
0.0
144
0.0
144
0.0208333333333333
144
0.0
144
0.0
144
0.0
144
0.0
144
1.0
144
0.0
144
0.0
144
0.0
144
0.0
144
1.0
147
0.0208333333333333
147
0.0
147
0.0
147
0.0
147
0.0
147
0.0208333333333333
147
0.0
147
0.0
147
0.0
147
0.0
147
1.0
147
0.0
147
0.0
147
0.0
147
0.0
147
1.0
  0
MATERIAL
  5
151
102
{ACAD_XDICTIONARY
360
152
102
}
102
{ACAD_REACTORS
330
150
102
}
330
150
100
AcDbMaterial
  1
ByLayer
 72
     0
 43
0.0208333333333333
 43
0.0
 43
0.0
 43
0.0
 43
0.0
 43
0.0208333333333333
 43
0.0
 43
0.0
 43
0.0
 43
0.0
 43
1.0
 43
0.0
 43
0.0
 43
0.0
 43
0.0
 43
1.0
 77
     0
 47
0.0208333333333333
 47
0.0
 47
0.0
 47
0.0
 47
0.0
 47
0.0208333333333333
 47
0.0
 47
0.0
 47
0.0
 47
0.0
 47
1.0
 47
0.0
 47
0.0
 47
0.0
 47
0.0
 47
1.0
171
     0
 49
0.0208333333333333
 49
0.0
 49
0.0
 49
0.0
 49
0.0
 49
0.0208333333333333
 49
0.0
 49
0.0
 49
0.0
 49
0.0
 49
1.0
 49
0.0
 49
0.0
 49
0.0
 49
0.0
 49
1.0
175
     0
142
0.0208333333333333
142
0.0
142
0.0
142
0.0
142
0.0
142
0.0208333333333333
142
0.0
142
0.0
142
0.0
142
0.0
142
1.0
142
0.0
142
0.0
142
0.0
142
0.0
142
1.0
179
     0
144
0.0208333333333333
144
0.0
144
0.0
144
0.0
144
0.0
144
0.0208333333333333
144
0.0
144
0.0
144
0.0
144
0.0
144
1.0
144
0.0
144
0.0
144
0.0
144
0.0
144
1.0
147
0.0208333333333333
147
0.0
147
0.0
147
0.0
147
0.0
147
0.0208333333333333
147
0.0
147
0.0
147
0.0
147
0.0
147
1.0
147
0.0
147
0.0
147
0.0
147
0.0
147
1.0
  0
MATERIAL
  5
161
102
{ACAD_XDICTIONARY
360
162
102
}
102
{ACAD_REACTORS
330
150
102
}
330
150
100
AcDbMaterial
  1
Global
 72
     0
 43
0.0208333333333333
 43
0.0
 43
0.0
 43
0.0
 43
0.0
 43
0.0208333333333333
 43
0.0
 43
0.0
 43
0.0
 43
0.0
 43
1.0
 43
0.0
 43
0.0
 43
0.0
 43
0.0
 43
1.0
 77
     0
 47
0.0208333333333333
 47
0.0
 47
0.0
 47
0.0
 47
0.0
 47
0.0208333333333333
 47
0.0
 47
0.0
 47
0.0
 47
0.0
 47
1.0
 47
0.0
 47
0.0
 47
0.0
 47
0.0
 47
1.0
171
     0
 49
0.0208333333333333
 49
0.0
 49
0.0
 49
0.0
 49
0.0
 49
0.0208333333333333
 49
0.0
 49
0.0
 49
0.0
 49
0.0
 49
1.0
 49
0.0
 49
0.0
 49
0.0
 49
0.0
 49
1.0
175
     0
142
0.0208333333333333
142
0.0
142
0.0
142
0.0
142
0.0
142
0.0208333333333333
142
0.0
142
0.0
142
0.0
142
0.0
142
1.0
142
0.0
142
0.0
142
0.0
142
0.0
142
1.0
179
     0
144
0.0208333333333333
144
0.0
144
0.0
144
0.0
144
0.0
144
0.0208333333333333
144
0.0
144
0.0
144
0.0
144
0.0
144
1.0
144
0.0
144
0.0
144
0.0
144
0.0
144
1.0
147
0.0208333333333333
147
0.0
147
0.0
147
0.0
147
0.0
147
0.0208333333333333
147
0.0
147
0.0
147
0.0
147
0.0
147
1.0
147
0.0
147
0.0
147
0.0
147
0.0
147
1.0
  0
MLEADERSTYLE
  5
1BD
102
{ACAD_REACTORS
330
1BC
102
}
330
1BC
100
AcDbMLeaderStyle
170
     2
171
     1
172
     0
 90
        2
 40
0.0
 41
0.0
173
     1
 91
-1056964608
340
11
 92
       -2
290
     1
 42
0.09
291
     1
 43
0.36
  3
Standard
 44
0.18
300

342
17
174
     1
178
     6
175
     1
176
     0
 93
-1056964608
 45
0.18
292
     0
297
     0
 46
0.18
 94
-1056964608
 47
1.0
 49
1.0
140
1.0
293
     1
141
0.0
294
     1
177
     0
142
1.0
295
     0
296
     0
143
0.125
1001
ACAD_MLEADERVER
1070
     2
  0
MLINESTYLE
  5
1C
102
{ACAD_REACTORS
330
1B
102
}
330
1B
100
AcDbMlineStyle
  2
STANDARD
 70
     0
  3

 62
     0
 51
90.0
 52
90.0
 71
     2
 49
0.5
 62
   256
  6
BYLAYER
 49
-0.5
 62
   256
  6
BYLAYER
  0
PLOTSETTINGS
  5
295
102
{ACAD_XDICTIONARY
360
355
102
}
102
{ACAD_REACTORS
330
22
102
}
330
22
100
AcDbPlotSettings
  1
Kyocera_1010 OR
  2
Kyocera_1010.pc3
  4
A4
  6

 40
4.984749794006347
 41
5.154074668884277
 42
5.111740112304687
 43
4.9847412109375
 44
210.0156707763672
 45
297.0106506347656
 46
0.0
 47
109.7870247470818
 48
0.0
 49
0.0
140
0.0
141
0.0
142
1.0
143
0.6770771918566143
 70
 11956
 72
     1
 73
     1
 74
     1
  7
DIERRE BN.ctb
 75
     0
147
1.476936473458659
148
-222.4649060220283
149
-239.0808115236937
1001
ACAD_PSEXT
1000
Kyocera_1010.pc3
1000
Kyocera Mita FS-1010 KX
1000
\\PC5
1000

1070
     0
  0
PLOTSETTINGS
  5
296
102
{ACAD_XDICTIONARY
360
357
102
}
102
{ACAD_REACTORS
330
22
102
}
330
22
100
AcDbPlotSettings
  1
Kyocera_1010 VER
  2
Kyocera_1010.pc3
  4
A4
  6

 40
4.984749794006347
 41
5.154074668884277
 42
5.111740112304687
 43
4.9847412109375
 44
210.0156707763672
 45
297.0106506347656
 46
51.67548120477697
 47
0.0
 48
0.0
 49
0.0
140
0.0
141
0.0
142
1.0
143
0.4718508448115938
 70
 11956
 72
     1
 73
     0
 74
     1
  7
DIERRE BN.ctb
 75
     0
147
2.119313785268927
148
-222.4649060220283
149
-239.0808115236937
1001
ACAD_PSEXT
1000
Kyocera_1010.pc3
1000
Kyocera Mita FS-1010 KX
1000
\\PC5
1000

1070
     0
  0
PLOTSETTINGS
  5
297
102
{ACAD_XDICTIONARY
360
359
102
}
102
{ACAD_REACTORS
330
22
102
}
330
22
100
AcDbPlotSettings
  1
Olivetti_200 A3
  2
Olivetti_200.pc3
  4
A3
  6

 40
4.984749794006347
 41
5.111746788024902
 42
5.154083251953125
 43
4.9847412109375
 44
297.0106506347656
 45
419.9889831542968
 46
0.0
 47
156.6621412366913
 48
0.0
 49
0.0
140
0.0
141
0.0
142
1.0
143
0.4718508730467012
 70
 11956
 72
     1
 73
     1
 74
     1
  7
DIERRE BN.ctb
 75
     0
147
2.119313658451206
148
-222.4649060220283
149
-239.0808115236937
1001
ACAD_PSEXT
1000
Olivetti_200.pc3
1000
Olivetti d-Copia 200MF KX
1000
IP_192.168.1.151
1000

1070
     0
  0
PLOTSETTINGS
  5
298
102
{ACAD_XDICTIONARY
360
35B
102
}
102
{ACAD_REACTORS
330
22
102
}
330
22
100
AcDbPlotSettings
  1
Olivetti_200 A4
  2
Olivetti_200.pc3
  4
A4
  6

 40
4.984749794006347
 41
5.154074668884277
 42
5.111740112304687
 43
4.9847412109375
 44
210.0156707763672
 45
297.0106506347656
 46
51.67548120477697
 47
0.0
 48
0.0
 49
0.0
140
0.0
141
0.0
142
1.0
143
0.4718508448115938
 70
 11956
 72
     1
 73
     0
 74
     1
  7
DIERRE BN.ctb
 75
     0
147
2.119313785268927
148
-222.4649060220283
149
-239.0808115236937
1001
ACAD_PSEXT
1000
Olivetti_200.pc3
1000
Olivetti d-Copia 200MF KX
1000
IP_192.168.1.151
1000

1070
     0
  0
PLOTSETTINGS
  5
299
102
{ACAD_XDICTIONARY
360
35D
102
}
102
{ACAD_REACTORS
330
22
102
}
330
22
100
AcDbPlotSettings
  1
PLOTTER
  2
PLOTTER.pc3
  4
User622
  6

 40
0.0
 41
0.0
 42
0.0
 43
0.0
 44
841.0
 45
1189.0
 46
0.0
 47
0.0
 48
0.0
 49
0.0
140
0.0
141
0.0
142
1.0
143
1.0
 70
 11936
 72
     1
 73
     0
 74
     1
  7
DIERRE BN.ctb
 75
     0
147
2.194137304425714
148
-222.4649060220283
149
-239.0808115236937
1001
ACAD_PSEXT
1000
PLOTTER.pc3
1000
HP DesignJet 430 (E/A0) by HP
1000
\\SERVER2003
1000

1070
     0
  0
ACDBPLACEHOLDER
  5
1D
102
{ACAD_REACTORS
330
1F
102
}
330
1F
  0
SCALE
  5
17F
102
{ACAD_REACTORS
330
17E
102
}
330
17E
100
AcDbScale
 70
     0
300
1:1
140
1.0
141
1.0
290
     1
  0
SCALE
  5
180
102
{ACAD_REACTORS
330
17E
102
}
330
17E
100
AcDbScale
 70
     0
300
1:2
140
1.0
141
2.0
290
     0
  0
SCALE
  5
181
102
{ACAD_REACTORS
330
17E
102
}
330
17E
100
AcDbScale
 70
     0
300
1:4
140
1.0
141
4.0
290
     0
  0
SCALE
  5
182
102
{ACAD_REACTORS
330
17E
102
}
330
17E
100
AcDbScale
 70
     0
300
1:5
140
1.0
141
5.0
290
     0
  0
SCALE
  5
183
102
{ACAD_REACTORS
330
17E
102
}
330
17E
100
AcDbScale
 70
     0
300
1:8
140
1.0
141
8.0
290
     0
  0
SCALE
  5
184
102
{ACAD_REACTORS
330
17E
102
}
330
17E
100
AcDbScale
 70
     0
300
1:10
140
1.0
141
10.0
290
     0
  0
SCALE
  5
185
102
{ACAD_REACTORS
330
17E
102
}
330
17E
100
AcDbScale
 70
     0
300
1:16
140
1.0
141
16.0
290
     0
  0
SCALE
  5
186
102
{ACAD_REACTORS
330
17E
102
}
330
17E
100
AcDbScale
 70
     0
300
1:20
140
1.0
141
20.0
290
     0
  0
SCALE
  5
187
102
{ACAD_REACTORS
330
17E
102
}
330
17E
100
AcDbScale
 70
     0
300
1:30
140
1.0
141
30.0
290
     0
  0
SCALE
  5
188
102
{ACAD_REACTORS
330
17E
102
}
330
17E
100
AcDbScale
 70
     0
300
1:40
140
1.0
141
40.0
290
     0
  0
SCALE
  5
189
102
{ACAD_REACTORS
330
17E
102
}
330
17E
100
AcDbScale
 70
     0
300
1:50
140
1.0
141
50.0
290
     0
  0
SCALE
  5
18A
102
{ACAD_REACTORS
330
17E
102
}
330
17E
100
AcDbScale
 70
     0
300
1:100
140
1.0
141
100.0
290
     0
  0
SCALE
  5
18B
102
{ACAD_REACTORS
330
17E
102
}
330
17E
100
AcDbScale
 70
     0
300
2:1
140
2.0
141
1.0
290
     0
  0
SCALE
  5
18C
102
{ACAD_REACTORS
330
17E
102
}
330
17E
100
AcDbScale
 70
     0
300
4:1
140
4.0
141
1.0
290
     0
  0
SCALE
  5
18D
102
{ACAD_REACTORS
330
17E
102
}
330
17E
100
AcDbScale
 70
     0
300
8:1
140
8.0
141
1.0
290
     0
  0
SCALE
  5
18E
102
{ACAD_REACTORS
330
17E
102
}
330
17E
100
AcDbScale
 70
     0
300
10:1
140
10.0
141
1.0
290
     0
  0
SCALE
  5
18F
102
{ACAD_REACTORS
330
17E
102
}
330
17E
100
AcDbScale
 70
     0
300
100:1
140
100.0
141
1.0
290
     0
  0
SCALE
  5
190
102
{ACAD_REACTORS
330
17E
102
}
330
17E
100
AcDbScale
 70
     0
300
1/128" = 1'-0"
140
0.0078125
141
12.0
290
     0
  0
SCALE
  5
191
102
{ACAD_REACTORS
330
17E
102
}
330
17E
100
AcDbScale
 70
     0
300
1/64" = 1'-0"
140
0.015625
141
12.0
290
     0
  0
SCALE
  5
192
102
{ACAD_REACTORS
330
17E
102
}
330
17E
100
AcDbScale
 70
     0
300
1/32" = 1'-0"
140
0.03125
141
12.0
290
     0
  0
SCALE
  5
193
102
{ACAD_REACTORS
330
17E
102
}
330
17E
100
AcDbScale
 70
     0
300
1/16" = 1'-0"
140
0.0625
141
12.0
290
     0
  0
SCALE
  5
194
102
{ACAD_REACTORS
330
17E
102
}
330
17E
100
AcDbScale
 70
     0
300
3/32" = 1'-0"
140
0.09375
141
12.0
290
     0
  0
SCALE
  5
195
102
{ACAD_REACTORS
330
17E
102
}
330
17E
100
AcDbScale
 70
     0
300
1/8" = 1'-0"
140
0.125
141
12.0
290
     0
  0
SCALE
  5
196
102
{ACAD_REACTORS
330
17E
102
}
330
17E
100
AcDbScale
 70
     0
300
3/16" = 1'-0"
140
0.1875
141
12.0
290
     0
  0
SCALE
  5
197
102
{ACAD_REACTORS
330
17E
102
}
330
17E
100
AcDbScale
 70
     0
300
1/4" = 1'-0"
140
0.25
141
12.0
290
     0
  0
SCALE
  5
198
102
{ACAD_REACTORS
330
17E
102
}
330
17E
100
AcDbScale
 70
     0
300
3/8" = 1'-0"
140
0.375
141
12.0
290
     0
  0
SCALE
  5
199
102
{ACAD_REACTORS
330
17E
102
}
330
17E
100
AcDbScale
 70
     0
300
1/2" = 1'-0"
140
0.5
141
12.0
290
     0
  0
SCALE
  5
19A
102
{ACAD_REACTORS
330
17E
102
}
330
17E
100
AcDbScale
 70
     0
300
3/4" = 1'-0"
140
0.75
141
12.0
290
     0
  0
SCALE
  5
19B
102
{ACAD_REACTORS
330
17E
102
}
330
17E
100
AcDbScale
 70
     0
300
1" = 1'-0"
140
1.0
141
12.0
290
     0
  0
SCALE
  5
19C
102
{ACAD_REACTORS
330
17E
102
}
330
17E
100
AcDbScale
 70
     0
300
1-1/2" = 1'-0"
140
1.5
141
12.0
290
     0
  0
SCALE
  5
19D
102
{ACAD_REACTORS
330
17E
102
}
330
17E
100
AcDbScale
 70
     0
300
3" = 1'-0"
140
3.0
141
12.0
290
     0
  0
SCALE
  5
19E
102
{ACAD_REACTORS
330
17E
102
}
330
17E
100
AcDbScale
 70
     0
300
6" = 1'-0"
140
6.0
141
12.0
290
     0
  0
SCALE
  5
19F
102
{ACAD_REACTORS
330
17E
102
}
330
17E
100
AcDbScale
 70
     0
300
1'-0" = 1'-0"
140
12.0
141
12.0
290
     0
  0
TABLESTYLE
  5
29A
102
{ACAD_XDICTIONARY
360
29B
102
}
102
{ACAD_REACTORS
330
1B6
102
}
330
1B6
100
AcDbTableStyle
  3
Standard
 70
     1
 71
     0
 40
1.5
 41
1.5
280
     1
281
     0
  7
ROMANS
140
3.0
170
     5
 62
     7
 63
     7
283
     0
274
    -2
284
     1
 64
     0
275
    -2
285
     1
 65
     0
276
    -2
286
     1
 66
     0
277
    -2
287
     1
 67
     0
278
    -2
288
     1
 68
     0
279
    -2
289
     1
 69
     0
  7
ROMANS
140
6.0
170
     5
 62
     1
 63
     7
283
     0
274
    -2
284
     1
 64
     0
275
    -2
285
     1
 65
     0
276
    -2
286
     1
 66
     0
277
    -2
287
     1
 67
     0
278
    -2
288
     1
 68
     0
279
    -2
289
     1
 69
     0
  7
ROMANS
140
3.5
170
     5
 62
     3
 63
     7
283
     0
274
    -2
284
     1
 64
     0
275
    -2
285
     1
 65
     0
276
    -2
286
     1
 66
     0
277
    -2
287
     1
 67
     0
278
    -2
288
     1
 68
     0
279
    -2
289
     1
 69
     0
  0
TABLESTYLE
  5
29C
102
{ACAD_XDICTIONARY
360
29D
102
}
102
{ACAD_REACTORS
330
1B6
102
}
330
1B6
100
AcDbTableStyle
  3
Standard
 70
     0
 71
     0
 40
1.5
 41
1.5
280
     0
281
     0
  7
ROMANS
140
4.5
170
     5
 62
     7
 63
     7
283
     0
274
    -2
284
     1
 64
     0
275
    -2
285
     1
 65
     0
276
    -2
286
     1
 66
     0
277
    -2
287
     1
 67
     0
278
    -2
288
     1
 68
     0
279
    -2
289
     1
 69
     0
  7
ROMANS
140
6.0
170
     5
 62
     1
 63
     7
283
     0
274
    -2
284
     1
 64
     0
275
    -2
285
     1
 65
     0
276
    -2
286
     1
 66
     0
277
    -2
287
     1
 67
     0
278
    -2
288
     1
 68
     0
279
    -2
289
     1
 69
     0
  7
ROMANS
140
5.0
170
     5
 62
     3
 63
     7
283
     0
274
    -2
284
     1
 64
     0
275
    -2
285
     1
 65
     0
276
    -2
286
     1
 66
     0
277
    -2
287
     1
 67
     0
278
    -2
288
     1
 68
     0
279
    -2
289
     1
 69
     0
  0
TABLESTYLE
  5
1B7
102
{ACAD_XDICTIONARY
360
2C7
102
}
102
{ACAD_REACTORS
330
1B6
102
}
330
1B6
100
AcDbTableStyle
  3
Standard
 70
     0
 71
     0
 40
0.06
 41
0.06
280
     0
281
     0
  7
Standard
140
0.18
170
     2
 62
     0
 63
     7
283
     0
274
    -2
284
     1
 64
     0
275
    -2
285
     1
 65
     0
276
    -2
286
     1
 66
     0
277
    -2
287
     1
 67
     0
278
    -2
288
     1
 68
     0
279
    -2
289
     1
 69
     0
  7
Standard
140
0.25
170
     5
 62
     0
 63
     7
283
     0
274
    -2
284
     1
 64
     0
275
    -2
285
     1
 65
     0
276
    -2
286
     1
 66
     0
277
    -2
287
     1
 67
     0
278
    -2
288
     1
 68
     0
279
    -2
289
     1
 69
     0
  7
Standard
140
0.18
170
     5
 62
     0
 63
     7
283
     0
274
    -2
284
     1
 64
     0
275
    -2
285
     1
 65
     0
276
    -2
286
     1
 66
     0
277
    -2
287
     1
 67
     0
278
    -2
288
     1
 68
     0
279
    -2
289
     1
 69
     0
  0
VISUALSTYLE
  5
16F
102
{ACAD_XDICTIONARY
360
338
102
}
102
{ACAD_REACTORS
330
169
102
}
330
169
100
AcDbVisualStyle
  2
2dWireframe
 70
     4
 71
     0
 72
     2
 73
     0
 90
        0
 40
-0.6
 41
-30.0
 62
     5
 63
     7
 74
     1
 91
        4
 64
     7
 65
   257
 75
     1
175
     1
 42
1.0
 92
        0
 66
   257
 43
1.0
 76
     1
 77
     6
 78
     2
 67
     7
 79
     5
170
     0
171
     0
290
     0
174
     0
 93
        1
 44
0.0
173
     0
291
     0
 45
0.0
1001
ACAD
1000
AcDbSavedByObjectVersion
1070
     0
  0
VISUALSTYLE
  5
171
102
{ACAD_XDICTIONARY
360
33C
102
}
102
{ACAD_REACTORS
330
169
102
}
330
169
100
AcDbVisualStyle
  2
3D Hidden
 70
     6
 71
     1
 72
     2
 73
     2
 90
        0
 40
-0.6
 41
-30.0
 62
     5
 63
     7
 74
     2
 91
        2
 64
     7
 65
   257
 75
     2
175
     1
 42
179.0
 92
        0
 66
   257
 43
1.0
 76
     1
 77
     6
 78
     2
 67
     7
 79
     3
170
     0
171
     0
290
     0
174
     0
 93
        1
 44
0.0
173
     0
291
     0
 45
0.0
1001
ACAD
1000
AcDbSavedByObjectVersion
1070
     0
  0
VISUALSTYLE
  5
170
102
{ACAD_XDICTIONARY
360
33A
102
}
102
{ACAD_REACTORS
330
169
102
}
330
169
100
AcDbVisualStyle
  2
3dWireframe
 70
     5
 71
     0
 72
     2
 73
     0
 90
        0
 40
-0.6
 41
-30.0
 62
     5
 63
     7
 74
     1
 91
        4
 64
     7
 65
   257
 75
     1
175
     1
 42
1.0
 92
        0
 66
   257
 43
1.0
 76
     1
 77
     6
 78
     2
 67
     7
 79
     5
170
     0
171
     0
290
     0
174
     0
 93
        1
 44
0.0
173
     0
291
     0
 45
0.0
1001
ACAD
1000
AcDbSavedByObjectVersion
1070
     0
  0
VISUALSTYLE
  5
16E
102
{ACAD_XDICTIONARY
360
336
102
}
102
{ACAD_REACTORS
330
169
102
}
330
169
100
AcDbVisualStyle
  2
Basic
 70
     7
 71
     1
 72
     0
 73
     1
 90
        0
 40
-0.6
 41
-30.0
 62
     5
 63
     7
 74
     0
 91
        4
 64
     7
 65
   257
 75
     1
175
     1
 42
1.0
 92
        8
 66
     7
 43
1.0
 76
     1
 77
     6
 78
     2
 67
     7
 79
     5
170
     0
171
     0
290
     0
174
     0
 93
        1
 44
0.0
173
     0
291
     1
 45
0.0
1001
ACAD
1000
AcDbSavedByObjectVersion
1070
     0
  0
VISUALSTYLE
  5
175
102
{ACAD_XDICTIONARY
360
344
102
}
102
{ACAD_REACTORS
330
169
102
}
330
169
100
AcDbVisualStyle
  2
Brighten
 70
    12
 71
     2
 72
     2
 73
     0
 90
        0
 40
-0.6
 41
-30.0
 62
     5
 63
     7
 74
     1
 91
        4
 64
     7
 65
   257
 75
     1
175
     1
 42
1.0
 92
        8
 66
     7
 43
1.0
 76
     1
 77
     6
 78
     2
 67
     7
 79
     5
170
     0
171
     0
290
     0
174
     0
 93
        1
 44
50.0
173
     0
291
     1
 45
0.0
1001
ACAD
1000
AcDbSavedByObjectVersion
1070
     0
  0
VISUALSTYLE
  5
179
102
{ACAD_XDICTIONARY
360
34C
102
}
102
{ACAD_REACTORS
330
169
102
}
330
169
100
AcDbVisualStyle
  2
ColorChange
 70
    16
 71
     2
 72
     2
 73
     3
 90
        0
 40
-0.6
 41
-30.0
 62
     5
 63
     8
 74
     1
 91
        4
 64
     7
 65
   257
 75
     1
175
     1
 42
1.0
 92
        8
 66
     8
 43
1.0
 76
     1
 77
     6
 78
     2
 67
     7
 79
     5
170
     0
171
     0
290
     0
174
     0
 93
        1
 44
0.0
173
     0
291
     1
 45
0.0
1001
ACAD
1000
AcDbSavedByObjectVersion
1070
     0
  0
VISUALSTYLE
  5
172
102
{ACAD_XDICTIONARY
360
33E
102
}
102
{ACAD_REACTORS
330
169
102
}
330
169
100
AcDbVisualStyle
  2
Conceptual
 70
     9
 71
     3
 72
     2
 73
     0
 90
        0
 40
-0.6
 41
-30.0
 62
     5
 63
     7
 74
     2
 91
        2
 64
     7
 65
   257
 75
     1
175
     1
 42
179.0
 92
        8
 66
     7
 43
1.0
 76
     1
 77
     6
 78
     2
 67
     7
 79
     3
170
     0
171
     0
290
     0
174
     0
 93
        1
 44
0.0
173
     0
291
     0
 45
0.0
1001
ACAD
1000
AcDbSavedByObjectVersion
1070
     0
  0
VISUALSTYLE
  5
174
102
{ACAD_XDICTIONARY
360
342
102
}
102
{ACAD_REACTORS
330
169
102
}
330
169
100
AcDbVisualStyle
  2
Dim
 70
    11
 71
     2
 72
     2
 73
     0
 90
        0
 40
-0.6
 41
-30.0
 62
     5
 63
     7
 74
     1
 91
        4
 64
     7
 65
   257
 75
     1
175
     1
 42
1.0
 92
        8
 66
     7
 43
1.0
 76
     1
 77
     6
 78
     2
 67
     7
 79
     5
170
     0
171
     0
290
     0
174
     0
 93
        1
 44
-50.0
173
     0
291
     1
 45
0.0
1001
ACAD
1000
AcDbSavedByObjectVersion
1070
     0
  0
VISUALSTYLE
  5
17C
102
{ACAD_XDICTIONARY
360
352
102
}
102
{ACAD_REACTORS
330
169
102
}
330
169
100
AcDbVisualStyle
  2
EdgeColorOff
 70
    22
 71
     2
 72
     2
 73
     0
 90
        0
 40
-0.6
 41
-30.0
 62
     5
 63
     7
 74
     1
 91
        4
 64
     7
 65
   257
 75
     1
175
     1
 42
1.0
 92
        8
 66
     7
 43
1.0
 76
     1
 77
     6
 78
     2
 67
     7
 79
     5
170
     0
171
     0
290
     0
174
     0
 93
        1
 44
0.0
173
     0
291
     1
 45
0.0
1001
ACAD
1000
AcDbSavedByObjectVersion
1070
     0
  0
VISUALSTYLE
  5
178
102
{ACAD_XDICTIONARY
360
34A
102
}
102
{ACAD_REACTORS
330
169
102
}
330
169
100
AcDbVisualStyle
  2
Facepattern
 70
    15
 71
     2
 72
     2
 73
     0
 90
        0
 40
-0.6
 41
-30.0
 62
     5
 63
     7
 74
     1
 91
        4
 64
     7
 65
   257
 75
     1
175
     1
 42
1.0
 92
        8
 66
     7
 43
1.0
 76
     1
 77
     6
 78
     2
 67
     7
 79
     5
170
     0
171
     0
290
     0
174
     0
 93
        1
 44
0.0
173
     0
291
     1
 45
0.0
1001
ACAD
1000
AcDbSavedByObjectVersion
1070
     0
  0
VISUALSTYLE
  5
16A
102
{ACAD_XDICTIONARY
360
32E
102
}
102
{ACAD_REACTORS
330
169
102
}
330
169
100
AcDbVisualStyle
  2
Flat
 70
     0
 71
     2
 72
     1
 73
     1
 90
        2
 40
-0.6
 41
30.0
 62
     5
 63
     7
 74
     0
 91
        4
 64
     7
 65
   257
 75
     1
175
     1
 42
1.0
 92
        8
 66
     7
 43
1.0
 76
     1
 77
     6
 78
     2
 67
     7
 79
     5
170
     0
171
     0
290
     0
174
     0
 93
       13
 44
0.0
173
     0
291
     1
 45
0.0
1001
ACAD
1000
AcDbSavedByObjectVersion
1070
     0
  0
VISUALSTYLE
  5
16B
102
{ACAD_XDICTIONARY
360
330
102
}
102
{ACAD_REACTORS
330
169
102
}
330
169
100
AcDbVisualStyle
  2
FlatWithEdges
 70
     1
 71
     2
 72
     1
 73
     1
 90
        2
 40
-0.6
 41
30.0
 62
     5
 63
     7
 74
     1
 91
        4
 64
     7
 65
   257
 75
     1
175
     1
 42
1.0
 92
        0
 66
   257
 43
1.0
 76
     1
 77
     6
 78
     2
 67
     7
 79
     5
170
     0
171
     0
290
     0
174
     0
 93
       13
 44
0.0
173
     0
291
     1
 45
0.0
1001
ACAD
1000
AcDbSavedByObjectVersion
1070
     0
  0
VISUALSTYLE
  5
16C
102
{ACAD_XDICTIONARY
360
332
102
}
102
{ACAD_REACTORS
330
169
102
}
330
169
100
AcDbVisualStyle
  2
Gouraud
 70
     2
 71
     2
 72
     2
 73
     1
 90
        2
 40
-0.6
 41
30.0
 62
     5
 63
     7
 74
     0
 91
        4
 64
     7
 65
   257
 75
     1
175
     1
 42
1.0
 92
        0
 66
     7
 43
1.0
 76
     1
 77
     6
 78
     2
 67
     7
 79
     5
170
     0
171
     0
290
     0
174
     0
 93
       13
 44
0.0
173
     0
291
     1
 45
0.0
1001
ACAD
1000
AcDbSavedByObjectVersion
1070
     0
  0
VISUALSTYLE
  5
16D
102
{ACAD_XDICTIONARY
360
334
102
}
102
{ACAD_REACTORS
330
169
102
}
330
169
100
AcDbVisualStyle
  2
GouraudWithEdges
 70
     3
 71
     2
 72
     2
 73
     1
 90
        2
 40
-0.6
 41
30.0
 62
     5
 63
     7
 74
     1
 91
        4
 64
     7
 65
   257
 75
     1
175
     1
 42
1.0
 92
        0
 66
   257
 43
1.0
 76
     1
 77
     6
 78
     2
 67
     7
 79
     5
170
     0
171
     0
290
     0
174
     0
 93
       13
 44
0.0
173
     0
291
     1
 45
0.0
1001
ACAD
1000
AcDbSavedByObjectVersion
1070
     0
  0
VISUALSTYLE
  5
312
102
{ACAD_XDICTIONARY
360
363
102
}
102
{ACAD_REACTORS
330
169
102
}
330
169
100
AcDbVisualStyle
  2
Hidden
 70
     6
 71
     1
 72
     2
 73
     2
 90
        0
 40
-0.6
 41
-30.0
 62
     5
 63
     7
 74
     2
 91
        2
 64
     7
 65
   257
 75
     2
175
     1
 42
40.0
 92
        0
 66
   257
 43
1.0
 76
     1
 77
     6
 78
     2
 67
     7
 79
     3
170
     0
171
     0
290
     0
174
     0
 93
        1
 44
0.0
173
     0
291
     0
 45
0.0
1001
ACAD
1000
AcDbSavedByObjectVersion
1070
     0
  0
VISUALSTYLE
  5
17A
102
{ACAD_XDICTIONARY
360
34E
102
}
102
{ACAD_REACTORS
330
169
102
}
330
169
100
AcDbVisualStyle
  2
JitterOff
 70
    20
 71
     2
 72
     2
 73
     0
 90
        0
 40
-0.6
 41
-30.0
 62
     5
 63
     7
 74
     1
 91
        4
 64
     7
 65
   257
 75
     1
175
     1
 42
1.0
 92
       10
 66
     7
 43
1.0
 76
     1
 77
     6
 78
     2
 67
     7
 79
     5
170
     0
171
     0
290
     0
174
     0
 93
        1
 44
0.0
173
     0
291
     1
 45
0.0
1001
ACAD
1000
AcDbSavedByObjectVersion
1070
     0
  0
VISUALSTYLE
  5
177
102
{ACAD_XDICTIONARY
360
348
102
}
102
{ACAD_REACTORS
330
169
102
}
330
169
100
AcDbVisualStyle
  2
Linepattern
 70
    14
 71
     2
 72
     2
 73
     0
 90
        0
 40
-0.6
 41
-30.0
 62
     5
 63
     7
 74
     1
 91
        4
 64
     7
 65
   257
 75
     7
175
     7
 42
1.0
 92
        8
 66
     7
 43
1.0
 76
     1
 77
     6
 78
     2
 67
     7
 79
     5
170
     0
171
     0
290
     0
174
     0
 93
        1
 44
0.0
173
     0
291
     1
 45
0.0
1001
ACAD
1000
AcDbSavedByObjectVersion
1070
     0
  0
VISUALSTYLE
  5
17B
102
{ACAD_XDICTIONARY
360
350
102
}
102
{ACAD_REACTORS
330
169
102
}
330
169
100
AcDbVisualStyle
  2
OverhangOff
 70
    21
 71
     2
 72
     2
 73
     0
 90
        0
 40
-0.6
 41
-30.0
 62
     5
 63
     7
 74
     1
 91
        4
 64
     7
 65
   257
 75
     1
175
     1
 42
1.0
 92
        9
 66
     7
 43
1.0
 76
     1
 77
     6
 78
     2
 67
     7
 79
     5
170
     0
171
     0
290
     0
174
     0
 93
        1
 44
0.0
173
     0
291
     1
 45
0.0
1001
ACAD
1000
AcDbSavedByObjectVersion
1070
     0
  0
VISUALSTYLE
  5
173
102
{ACAD_XDICTIONARY
360
340
102
}
102
{ACAD_REACTORS
330
169
102
}
330
169
100
AcDbVisualStyle
  2
Realistic
 70
     8
 71
     2
 72
     2
 73
     0
 90
        0
 40
-0.6
 41
-30.0
 62
     5
 63
     7
 74
     1
 91
        0
 64
     7
 65
   257
 75
     1
175
     1
 42
1.0
 92
        8
 66
     8
 43
1.0
 76
     1
 77
     6
 78
     2
 67
     7
 79
     5
170
     0
171
     0
290
     0
174
     0
 93
       13
 44
0.0
173
     0
291
     0
 45
0.0
1001
ACAD
1000
AcDbSavedByObjectVersion
1070
     0
  0
VISUALSTYLE
  5
317
102
{ACAD_XDICTIONARY
360
36D
102
}
102
{ACAD_REACTORS
330
169
102
}
330
169
100
AcDbVisualStyle
  2
Shaded
 70
    27
 71
     2
 72
     2
 73
     1
 90
        2
 40
-0.6
 41
30.0
 62
     5
 63
     7
 74
     0
 91
        4
 64
     7
 65
   257
 75
     1
175
     1
 42
1.0
 92
        8
 66
   257
 43
1.0
 76
     1
 77
     6
 78
     2
 67
     8
 79
     3
170
     0
171
     0
290
     0
174
     0
 93
        5
 44
0.0
173
     0
291
     0
 45
0.0
1001
ACAD
1000
AcDbSavedByObjectVersion
1070
     0
  0
VISUALSTYLE
  5
316
102
{ACAD_XDICTIONARY
360
36B
102
}
102
{ACAD_REACTORS
330
169
102
}
330
169
100
AcDbVisualStyle
  2
Shaded with edges
 70
    26
 71
     2
 72
     2
 73
     1
 90
        2
 40
-0.6
 41
30.0
 62
     5
 63
     7
 74
     1
 91
       10
 64
     7
 65
   257
 75
     2
175
     1
 42
1.0
 92
        8
 66
   257
 43
1.0
 76
     1
 77
     6
 78
     2
 67
     7
 79
     3
170
     0
171
     0
290
     0
174
     0
 93
        5
 44
0.0
173
     0
291
     0
 45
0.0
1001
ACAD
1000
AcDbSavedByObjectVersion
1070
     0
  0
VISUALSTYLE
  5
313
102
{ACAD_XDICTIONARY
360
365
102
}
102
{ACAD_REACTORS
330
169
102
}
330
169
100
AcDbVisualStyle
  2
Shades of Gray
 70
    23
 71
     2
 72
     2
 73
     3
 90
        0
 40
-0.6
 41
-30.0
 62
     5
 63
     7
 74
     2
 91
        2
 64
     7
 65
     7
 75
     1
175
     1
 42
40.0
 92
        8
 66
     7
 43
1.0
 76
     1
 77
     6
 78
     2
 67
     7
 79
     3
170
     0
171
     0
290
     0
174
     0
 93
        1
 44
0.0
173
     0
291
     0
 45
0.0
1001
ACAD
1000
AcDbSavedByObjectVersion
1070
     0
  0
VISUALSTYLE
  5
314
102
{ACAD_XDICTIONARY
360
367
102
}
102
{ACAD_REACTORS
330
169
102
}
330
169
100
AcDbVisualStyle
  2
Sketchy
 70
    24
 71
     1
 72
     2
 73
     2
 90
        0
 40
-0.6
 41
-30.0
 62
     5
 63
     7
 74
     2
 91
        2
 64
     7
 65
     7
 75
     1
175
     1
 42
40.0
 92
       11
 66
     7
 43
1.0
 76
     1
 77
     6
 78
     2
 67
     7
 79
     6
170
     0
171
     0
290
     0
174
     0
 93
        1
 44
0.0
173
     0
291
     0
 45
0.0
1001
ACAD
1000
AcDbSavedByObjectVersion
1070
     0
  0
VISUALSTYLE
  5
176
102
{ACAD_XDICTIONARY
360
346
102
}
102
{ACAD_REACTORS
330
169
102
}
330
169
100
AcDbVisualStyle
  2
Thicken
 70
    13
 71
     2
 72
     2
 73
     0
 90
        0
 40
-0.6
 41
-30.0
 62
     5
 63
     7
 74
     1
 91
        4
 64
     7
 65
   257
 75
     1
175
     1
 42
1.0
 92
       12
 66
     7
 43
1.0
 76
     1
 77
     6
 78
     2
 67
     7
 79
     5
170
     0
171
     0
290
     0
174
     0
 93
        1
 44
0.0
173
     0
291
     1
 45
0.0
1001
ACAD
1000
AcDbSavedByObjectVersion
1070
     0
  0
VISUALSTYLE
  5
311
102
{ACAD_XDICTIONARY
360
361
102
}
102
{ACAD_REACTORS
330
169
102
}
330
169
100
AcDbVisualStyle
  2
Wireframe
 70
     5
 71
     0
 72
     2
 73
     0
 90
        0
 40
-0.6
 41
-30.0
 62
     5
 63
     7
 74
     1
 91
        4
 64
     7
 65
   257
 75
     1
175
     1
 42
1.0
 92
        0
 66
   257
 43
1.0
 76
     1
 77
     6
 78
     2
 67
     7
 79
     3
170
     0
171
     0
290
     0
174
     0
 93
        1
 44
0.0
173
     0
291
     0
 45
0.0
1001
ACAD
1000
AcDbSavedByObjectVersion
1070
     0
  0
VISUALSTYLE
  5
315
102
{ACAD_XDICTIONARY
360
369
102
}
102
{ACAD_REACTORS
330
169
102
}
330
169
100
AcDbVisualStyle
  2
X-Ray
 70
    25
 71
     2
 72
     2
 73
     1
 90
        1
 40
0.5
 41
-30.0
 62
     5
 63
     7
 74
     1
 91
        0
 64
     7
 65
   257
 75
     1
175
     1
 42
1.0
 92
        8
 66
     7
 43
1.0
 76
     1
 77
     6
 78
     2
 67
     7
 79
     3
170
     0
171
     0
290
     0
174
     0
 93
       13
 44
0.0
173
     0
291
     0
 45
0.0
1001
ACAD
1000
AcDbSavedByObjectVersion
1070
     0
  0
DICTIONARYVAR
  5
30C
102
{ACAD_REACTORS
330
14E
102
}
330
14E
100
DictionaryVariables
280
     0
  1
1:1
  0
DICTIONARYVAR
  5
30A
102
{ACAD_REACTORS
330
14E
102
}
330
14E
100
DictionaryVariables
280
     0
  1
STANDARD
  0
DICTIONARYVAR
  5
309
102
{ACAD_REACTORS
330
14E
102
}
330
14E
100
DictionaryVariables
280
     0
  1
STANDARD
  0
DICTIONARYVAR
  5
14F
330
14E
100
DictionaryVariables
280
     0
  1
2
  0
DICTIONARYVAR
  5
30B
102
{ACAD_REACTORS
330
14E
102
}
330
14E
100
DictionaryVariables
280
     0
  1
0
  0
DICTIONARYVAR
  5
30E
102
{ACAD_REACTORS
330
14E
102
}
330
14E
100
DictionaryVariables
280
     0
  1
0
  0
DICTIONARYVAR
  5
30D
102
{ACAD_REACTORS
330
14E
102
}
330
14E
100
DictionaryVariables
280
     0
  1
127
  0
DICTIONARYVAR
  5
321
102
{ACAD_REACTORS
330
14E
102
}
330
14E
100
DictionaryVariables
280
     0
  1
2
  0
XRECORD
  5
2C6
102
{ACAD_REACTORS
330
2C4
102
}
330
2C4
100
AcDbXrecord
280
     1
330
E1
330
21D
330
21E
330
226
330
227
330
22F
330
230
330
238
330
239
330
241
330
242
330
24A
330
24B
330
253
330
254
330
25E
330
25F
330
267
330
268
330
271
  0
XRECORD
  5
27A
102
{ACAD_REACTORS
330
279
102
}
330
279
100
AcDbXrecord
280
     1
 91
        1
  0
ACAD_PROXY_OBJECT
  5
277
102
{ACAD_REACTORS
330
276
102
}
330
276
100
AcDbProxyObject
 90
      499
 91
      529
 95
   983063
 70
     0
 93
       88
310
4050844454641554C5400E00
 94
        0
1001
ACAD
1000
AcRTDxfName
1000
ACDBQSCATEGORY
  0
XRECORD
  5
2C2
102
{ACAD_REACTORS
330
2C0
102
}
330
2C0
100
AcDbXrecord
280
     1
  9
X5e91
  0
XRECORD
  5
2C1
102
{ACAD_REACTORS
330
2C0
102
}
330
2C0
100
AcDbXrecord
280
     1
  2
TOP
  3
P-0000
280
     1
310
6465736372697A696F6E6500544F5000444154410032372F31322F313000554D004E520052455600300044495345474E41544F5245004D2E43617075616E6F005343414C4100313A310000
 10
0.0
 20
0.0
 30
0.0
  0
XRECORD
  5
281
102
{ACAD_REACTORS
330
280
102
}
330
280
100
AcDbXrecord
280
     1
 90
      202
 91
      144
  0
DICTIONARY
  5
329
330
21
100
AcDbDictionary
280
     1
281
     1
  3
ACAD_XREC_ROUNDTRIP
360
32A
  0
DICTIONARY
  5
327
330
20
100
AcDbDictionary
280
     1
281
     1
  3
ACAD_XREC_ROUNDTRIP
360
328
  0
DICTIONARY
  5
15A
330
159
100
AcDbDictionary
280
     1
281
     1
  3
ACAD_XREC_ROUNDTRIP
360
32C
  3
BUMPTILE
360
15C
  3
DIFFUSETILE
360
15B
  3
OPACITYTILE
360
15F
  3
REFLECTIONTILE
360
15E
  3
REFRACTIONTILE
360
160
  3
SPECULARTILE
360
15D
  0
DICTIONARY
  5
152
330
151
100
AcDbDictionary
280
     1
281
     1
  3
ACAD_XREC_ROUNDTRIP
360
32B
  3
BUMPTILE
360
154
  3
DIFFUSETILE
360
153
  3
OPACITYTILE
360
157
  3
REFLECTIONTILE
360
156
  3
REFRACTIONTILE
360
158
  3
SPECULARTILE
360
155
  0
DICTIONARY
  5
162
330
161
100
AcDbDictionary
280
     1
281
     1
  3
ACAD_XREC_ROUNDTRIP
360
32D
  3
BUMPTILE
360
164
  3
DIFFUSETILE
360
163
  3
OPACITYTILE
360
167
  3
REFLECTIONTILE
360
166
  3
REFRACTIONTILE
360
168
  3
SPECULARTILE
360
165
  0
DICTIONARY
  5
355
330
295
100
AcDbDictionary
280
     1
281
     1
  3
ACAD_XREC_ROUNDTRIP
360
356
  0
DICTIONARY
  5
357
330
296
100
AcDbDictionary
280
     1
281
     1
  3
ACAD_XREC_ROUNDTRIP
360
358
  0
DICTIONARY
  5
359
330
297
100
AcDbDictionary
280
     1
281
     1
  3
ACAD_XREC_ROUNDTRIP
360
35A
  0
DICTIONARY
  5
35B
330
298
100
AcDbDictionary
280
     1
281
     1
  3
ACAD_XREC_ROUNDTRIP
360
35C
  0
DICTIONARY
  5
35D
330
299
100
AcDbDictionary
280
     1
281
     1
  3
ACAD_XREC_ROUNDTRIP
360
35E
  0
DICTIONARY
  5
29B
330
29A
100
AcDbDictionary
280
     1
281
     1
  3
ACAD_ROUNDTRIP_2008_TABLESTYLE_CELLSTYLEMAP
360
323
  3
ACAD_XREC_ROUNDTRIP
360
35F
  0
DICTIONARY
  5
29D
330
29C
100
AcDbDictionary
280
     1
281
     1
  3
ACAD_ROUNDTRIP_2008_TABLESTYLE_CELLSTYLEMAP
360
324
  3
ACAD_XREC_ROUNDTRIP
360
360
  0
DICTIONARY
  5
2C7
330
1B7
100
AcDbDictionary
280
     1
281
     1
  3
ACAD_ROUNDTRIP_2008_TABLESTYLE_CELLSTYLEMAP
360
322
  3
ACAD_XREC_ROUNDTRIP
360
354
  0
DICTIONARY
  5
338
330
16F
100
AcDbDictionary
280
     1
281
     1
  3
ACAD_XREC_ROUNDTRIP
360
339
  0
DICTIONARY
  5
33C
330
171
100
AcDbDictionary
280
     1
281
     1
  3
ACAD_XREC_ROUNDTRIP
360
33D
  0
DICTIONARY
  5
33A
330
170
100
AcDbDictionary
280
     1
281
     1
  3
ACAD_XREC_ROUNDTRIP
360
33B
  0
DICTIONARY
  5
336
330
16E
100
AcDbDictionary
280
     1
281
     1
  3
ACAD_XREC_ROUNDTRIP
360
337
  0
DICTIONARY
  5
344
330
175
100
AcDbDictionary
280
     1
281
     1
  3
ACAD_XREC_ROUNDTRIP
360
345
  0
DICTIONARY
  5
34C
330
179
100
AcDbDictionary
280
     1
281
     1
  3
ACAD_XREC_ROUNDTRIP
360
34D
  0
DICTIONARY
  5
33E
330
172
100
AcDbDictionary
280
     1
281
     1
  3
ACAD_XREC_ROUNDTRIP
360
33F
  0
DICTIONARY
  5
342
330
174
100
AcDbDictionary
280
     1
281
     1
  3
ACAD_XREC_ROUNDTRIP
360
343
  0
DICTIONARY
  5
352
330
17C
100
AcDbDictionary
280
     1
281
     1
  3
ACAD_XREC_ROUNDTRIP
360
353
  0
DICTIONARY
  5
34A
330
178
100
AcDbDictionary
280
     1
281
     1
  3
ACAD_XREC_ROUNDTRIP
360
34B
  0
DICTIONARY
  5
32E
330
16A
100
AcDbDictionary
280
     1
281
     1
  3
ACAD_XREC_ROUNDTRIP
360
32F
  0
DICTIONARY
  5
330
330
16B
100
AcDbDictionary
280
     1
281
     1
  3
ACAD_XREC_ROUNDTRIP
360
331
  0
DICTIONARY
  5
332
330
16C
100
AcDbDictionary
280
     1
281
     1
  3
ACAD_XREC_ROUNDTRIP
360
333
  0
DICTIONARY
  5
334
330
16D
100
AcDbDictionary
280
     1
281
     1
  3
ACAD_XREC_ROUNDTRIP
360
335
  0
DICTIONARY
  5
363
330
312
100
AcDbDictionary
280
     1
281
     1
  3
ACAD_XREC_ROUNDTRIP
360
364
  0
DICTIONARY
  5
34E
330
17A
100
AcDbDictionary
280
     1
281
     1
  3
ACAD_XREC_ROUNDTRIP
360
34F
  0
DICTIONARY
  5
348
330
177
100
AcDbDictionary
280
     1
281
     1
  3
ACAD_XREC_ROUNDTRIP
360
349
  0
DICTIONARY
  5
350
330
17B
100
AcDbDictionary
280
     1
281
     1
  3
ACAD_XREC_ROUNDTRIP
360
351
  0
DICTIONARY
  5
340
330
173
100
AcDbDictionary
280
     1
281
     1
  3
ACAD_XREC_ROUNDTRIP
360
341
  0
DICTIONARY
  5
36D
330
317
100
AcDbDictionary
280
     1
281
     1
  3
ACAD_XREC_ROUNDTRIP
360
36E
  0
DICTIONARY
  5
36B
330
316
100
AcDbDictionary
280
     1
281
     1
  3
ACAD_XREC_ROUNDTRIP
360
36C
  0
DICTIONARY
  5
365
330
313
100
AcDbDictionary
280
     1
281
     1
  3
ACAD_XREC_ROUNDTRIP
360
366
  0
DICTIONARY
  5
367
330
314
100
AcDbDictionary
280
     1
281
     1
  3
ACAD_XREC_ROUNDTRIP
360
368
  0
DICTIONARY
  5
346
330
176
100
AcDbDictionary
280
     1
281
     1
  3
ACAD_XREC_ROUNDTRIP
360
347
  0
DICTIONARY
  5
361
330
311
100
AcDbDictionary
280
     1
281
     1
  3
ACAD_XREC_ROUNDTRIP
360
362
  0
DICTIONARY
  5
369
330
315
100
AcDbDictionary
280
     1
281
     1
  3
ACAD_XREC_ROUNDTRIP
360
36A
  0
XRECORD
  5
32A
102
{ACAD_REACTORS
330
329
102
}
330
329
100
AcDbXrecord
280
     1
102
SHADEPLOT
 70
     0
102
SHADEPLOTRESLEVEL
 70
     2
102
SHADEPLOTCUSTOMDPI
 70
   300
  0
XRECORD
  5
328
102
{ACAD_REACTORS
330
327
102
}
330
327
100
AcDbXrecord
280
     1
102
SHADEPLOT
 70
     0
102
SHADEPLOTRESLEVEL
 70
     2
102
SHADEPLOTCUSTOMDPI
 70
   300
  0
XRECORD
  5
32C
102
{ACAD_REACTORS
330
15A
102
}
330
15A
100
AcDbXrecord
280
     1
102
MATERIAL
148
0.0
149
0.0
149
0.0
 93
        0
 94
      127
282
     0
 72
     0
 77
     0
171
     0
175
     0
179
     0
273
     0
  0
XRECORD
  5
15C
102
{ACAD_REACTORS
330
15A
102
}
330
15A
100
AcDbXrecord
280
     1
270
     1
271
     1
  0
XRECORD
  5
15B
102
{ACAD_REACTORS
330
15A
102
}
330
15A
100
AcDbXrecord
280
     1
270
     1
271
     1
  0
XRECORD
  5
15F
102
{ACAD_REACTORS
330
15A
102
}
330
15A
100
AcDbXrecord
280
     1
270
     1
271
     1
  0
XRECORD
  5
15E
102
{ACAD_REACTORS
330
15A
102
}
330
15A
100
AcDbXrecord
280
     1
270
     1
271
     1
  0
XRECORD
  5
160
102
{ACAD_REACTORS
330
15A
102
}
330
15A
100
AcDbXrecord
280
     1
270
     1
271
     1
  0
XRECORD
  5
15D
102
{ACAD_REACTORS
330
15A
102
}
330
15A
100
AcDbXrecord
280
     1
270
     1
271
     1
  0
XRECORD
  5
32B
102
{ACAD_REACTORS
330
152
102
}
330
152
100
AcDbXrecord
280
     1
102
MATERIAL
148
0.0
149
0.0
149
0.0
 93
        0
 94
      127
282
     0
 72
     0
 77
     0
171
     0
175
     0
179
     0
273
     0
  0
XRECORD
  5
154
102
{ACAD_REACTORS
330
152
102
}
330
152
100
AcDbXrecord
280
     1
270
     1
271
     1
  0
XRECORD
  5
153
102
{ACAD_REACTORS
330
152
102
}
330
152
100
AcDbXrecord
280
     1
270
     1
271
     1
  0
XRECORD
  5
157
102
{ACAD_REACTORS
330
152
102
}
330
152
100
AcDbXrecord
280
     1
270
     1
271
     1
  0
XRECORD
  5
156
102
{ACAD_REACTORS
330
152
102
}
330
152
100
AcDbXrecord
280
     1
270
     1
271
     1
  0
XRECORD
  5
158
102
{ACAD_REACTORS
330
152
102
}
330
152
100
AcDbXrecord
280
     1
270
     1
271
     1
  0
XRECORD
  5
155
102
{ACAD_REACTORS
330
152
102
}
330
152
100
AcDbXrecord
280
     1
270
     1
271
     1
  0
XRECORD
  5
32D
102
{ACAD_REACTORS
330
162
102
}
330
162
100
AcDbXrecord
280
     1
102
MATERIAL
148
0.0
149
0.0
149
0.0
 93
        0
 94
      127
282
     0
 72
     0
 77
     0
171
     0
175
     0
179
     0
273
     0
  0
XRECORD
  5
164
102
{ACAD_REACTORS
330
162
102
}
330
162
100
AcDbXrecord
280
     1
270
     1
271
     1
  0
XRECORD
  5
163
102
{ACAD_REACTORS
330
162
102
}
330
162
100
AcDbXrecord
280
     1
270
     1
271
     1
  0
XRECORD
  5
167
102
{ACAD_REACTORS
330
162
102
}
330
162
100
AcDbXrecord
280
     1
270
     1
271
     1
  0
XRECORD
  5
166
102
{ACAD_REACTORS
330
162
102
}
330
162
100
AcDbXrecord
280
     1
270
     1
271
     1
  0
XRECORD
  5
168
102
{ACAD_REACTORS
330
162
102
}
330
162
100
AcDbXrecord
280
     1
270
     1
271
     1
  0
XRECORD
  5
165
102
{ACAD_REACTORS
330
162
102
}
330
162
100
AcDbXrecord
280
     1
270
     1
271
     1
  0
XRECORD
  5
356
102
{ACAD_REACTORS
330
355
102
}
330
355
100
AcDbXrecord
280
     1
102
SHADEPLOT
 70
     0
102
SHADEPLOTRESLEVEL
 70
     2
102
SHADEPLOTCUSTOMDPI
 70
   300
  0
XRECORD
  5
358
102
{ACAD_REACTORS
330
357
102
}
330
357
100
AcDbXrecord
280
     1
102
SHADEPLOT
 70
     0
102
SHADEPLOTRESLEVEL
 70
     2
102
SHADEPLOTCUSTOMDPI
 70
   300
  0
XRECORD
  5
35A
102
{ACAD_REACTORS
330
359
102
}
330
359
100
AcDbXrecord
280
     1
102
SHADEPLOT
 70
     0
102
SHADEPLOTRESLEVEL
 70
     2
102
SHADEPLOTCUSTOMDPI
 70
   300
  0
XRECORD
  5
35C
102
{ACAD_REACTORS
330
35B
102
}
330
35B
100
AcDbXrecord
280
     1
102
SHADEPLOT
 70
     0
102
SHADEPLOTRESLEVEL
 70
     2
102
SHADEPLOTCUSTOMDPI
 70
   300
  0
XRECORD
  5
35E
102
{ACAD_REACTORS
330
35D
102
}
330
35D
100
AcDbXrecord
280
     1
102
SHADEPLOT
 70
     0
102
SHADEPLOTRESLEVEL
 70
     2
102
SHADEPLOTCUSTOMDPI
 70
   300
  0
CELLSTYLEMAP
  5
323
102
{ACAD_REACTORS
330
29B
102
}
330
29B
100
AcDbCellStyleMap
 90
        3
300
CELLSTYLE
  1
TABLEFORMAT_BEGIN
 90
        5
170
     1
 91
        0
 92
    32768
 62
   257
 93
        1
300
CONTENTFORMAT
  1
CONTENTFORMAT_BEGIN
 90
        0
 91
        0
 92
      512
 93
        0
300

 40
0.0
140
1.0
 94
        5
 62
     1
340
287
144
6.0
309
CONTENTFORMAT_END
171
     1
301
MARGIN
  1
CELLMARGIN_BEGIN
 40
1.5
 40
1.5
 40
1.5
 40
1.5
 40
0.18
 40
0.18
309
CELLMARGIN_END
 94
        6
 95
        1
302
GRIDFORMAT
  1
GRIDFORMAT_BEGIN
 90
        0
 91
        1
 62
     0
 92
       -2
340
0
 93
        0
 40
0.045
309
GRIDFORMAT_END
 95
        2
302
GRIDFORMAT
  1
GRIDFORMAT_BEGIN
 90
        0
 91
        1
 62
     0
 92
       -2
340
0
 93
        0
 40
0.045
309
GRIDFORMAT_END
 95
        4
302
GRIDFORMAT
  1
GRIDFORMAT_BEGIN
 90
        0
 91
        1
 62
     0
 92
       -2
340
0
 93
        0
 40
0.045
309
GRIDFORMAT_END
 95
        8
302
GRIDFORMAT
  1
GRIDFORMAT_BEGIN
 90
        0
 91
        1
 62
     0
 92
       -2
340
0
 93
        0
 40
0.045
309
GRIDFORMAT_END
 95
       16
302
GRIDFORMAT
  1
GRIDFORMAT_BEGIN
 90
        0
 91
        1
 62
     0
 92
       -2
340
0
 93
        0
 40
0.045
309
GRIDFORMAT_END
 95
       32
302
GRIDFORMAT
  1
GRIDFORMAT_BEGIN
 90
        0
 91
        1
 62
     0
 92
       -2
340
0
 93
        0
 40
0.045
309
GRIDFORMAT_END
309
TABLEFORMAT_END
  1
CELLSTYLE_BEGIN
 90
        1
 91
        1
300
_TITLE
309
CELLSTYLE_END
300
CELLSTYLE
  1
TABLEFORMAT_BEGIN
 90
        5
170
     1
 91
        0
 92
        0
 62
   257
 93
        1
300
CONTENTFORMAT
  1
CONTENTFORMAT_BEGIN
 90
        0
 91
        0
 92
      512
 93
        0
300

 40
0.0
140
1.0
 94
        5
 62
     3
340
287
144
3.5
309
CONTENTFORMAT_END
171
     1
301
MARGIN
  1
CELLMARGIN_BEGIN
 40
1.5
 40
1.5
 40
1.5
 40
1.5
 40
0.18
 40
0.18
309
CELLMARGIN_END
 94
        6
 95
        1
302
GRIDFORMAT
  1
GRIDFORMAT_BEGIN
 90
        0
 91
        1
 62
     0
 92
       -2
340
0
 93
        0
 40
0.045
309
GRIDFORMAT_END
 95
        2
302
GRIDFORMAT
  1
GRIDFORMAT_BEGIN
 90
        0
 91
        1
 62
     0
 92
       -2
340
0
 93
        0
 40
0.045
309
GRIDFORMAT_END
 95
        4
302
GRIDFORMAT
  1
GRIDFORMAT_BEGIN
 90
        0
 91
        1
 62
     0
 92
       -2
340
0
 93
        0
 40
0.045
309
GRIDFORMAT_END
 95
        8
302
GRIDFORMAT
  1
GRIDFORMAT_BEGIN
 90
        0
 91
        1
 62
     0
 92
       -2
340
0
 93
        0
 40
0.045
309
GRIDFORMAT_END
 95
       16
302
GRIDFORMAT
  1
GRIDFORMAT_BEGIN
 90
        0
 91
        1
 62
     0
 92
       -2
340
0
 93
        0
 40
0.045
309
GRIDFORMAT_END
 95
       32
302
GRIDFORMAT
  1
GRIDFORMAT_BEGIN
 90
        0
 91
        1
 62
     0
 92
       -2
340
0
 93
        0
 40
0.045
309
GRIDFORMAT_END
309
TABLEFORMAT_END
  1
CELLSTYLE_BEGIN
 90
        2
 91
        1
300
_HEADER
309
CELLSTYLE_END
300
CELLSTYLE
  1
TABLEFORMAT_BEGIN
 90
        5
170
     1
 91
        0
 92
        0
 62
   257
 93
        1
300
CONTENTFORMAT
  1
CONTENTFORMAT_BEGIN
 90
        0
 91
        0
 92
      512
 93
        0
300

 40
0.0
140
1.0
 94
        5
 62
     7
340
287
144
3.0
309
CONTENTFORMAT_END
171
     1
301
MARGIN
  1
CELLMARGIN_BEGIN
 40
1.5
 40
1.5
 40
1.5
 40
1.5
 40
0.18
 40
0.18
309
CELLMARGIN_END
 94
        6
 95
        1
302
GRIDFORMAT
  1
GRIDFORMAT_BEGIN
 90
        0
 91
        1
 62
     0
 92
       -2
340
0
 93
        0
 40
0.045
309
GRIDFORMAT_END
 95
        2
302
GRIDFORMAT
  1
GRIDFORMAT_BEGIN
 90
        0
 91
        1
 62
     0
 92
       -2
340
0
 93
        0
 40
0.045
309
GRIDFORMAT_END
 95
        4
302
GRIDFORMAT
  1
GRIDFORMAT_BEGIN
 90
        0
 91
        1
 62
     0
 92
       -2
340
0
 93
        0
 40
0.045
309
GRIDFORMAT_END
 95
        8
302
GRIDFORMAT
  1
GRIDFORMAT_BEGIN
 90
        0
 91
        1
 62
     0
 92
       -2
340
0
 93
        0
 40
0.045
309
GRIDFORMAT_END
 95
       16
302
GRIDFORMAT
  1
GRIDFORMAT_BEGIN
 90
        0
 91
        1
 62
     0
 92
       -2
340
0
 93
        0
 40
0.045
309
GRIDFORMAT_END
 95
       32
302
GRIDFORMAT
  1
GRIDFORMAT_BEGIN
 90
        0
 91
        1
 62
     0
 92
       -2
340
0
 93
        0
 40
0.045
309
GRIDFORMAT_END
309
TABLEFORMAT_END
  1
CELLSTYLE_BEGIN
 90
        3
 91
        2
300
_DATA
309
CELLSTYLE_END
  0
XRECORD
  5
35F
102
{ACAD_REACTORS
330
29B
102
}
330
29B
100
AcDbXrecord
280
     1
102
ACAD_ROUNDTRIP_PRE2007_TABLESTYLE
 90
      512
 91
        0
  1

 92
      512
 93
        0
  2

 94
      512
 95
        0
  3

  0
CELLSTYLEMAP
  5
324
102
{ACAD_REACTORS
330
29D
102
}
330
29D
100
AcDbCellStyleMap
 90
        3
300
CELLSTYLE
  1
TABLEFORMAT_BEGIN
 90
        5
170
     1
 91
        0
 92
    32768
 62
   257
 93
        1
300
CONTENTFORMAT
  1
CONTENTFORMAT_BEGIN
 90
        0
 91
        0
 92
      512
 93
        0
300

 40
0.0
140
1.0
 94
        5
 62
     1
340
287
144
6.0
309
CONTENTFORMAT_END
171
     1
301
MARGIN
  1
CELLMARGIN_BEGIN
 40
1.5
 40
1.5
 40
1.5
 40
1.5
 40
0.18
 40
0.18
309
CELLMARGIN_END
 94
        6
 95
        1
302
GRIDFORMAT
  1
GRIDFORMAT_BEGIN
 90
        0
 91
        1
 62
     0
 92
       -2
340
0
 93
        0
 40
0.045
309
GRIDFORMAT_END
 95
        2
302
GRIDFORMAT
  1
GRIDFORMAT_BEGIN
 90
        0
 91
        1
 62
     0
 92
       -2
340
0
 93
        0
 40
0.045
309
GRIDFORMAT_END
 95
        4
302
GRIDFORMAT
  1
GRIDFORMAT_BEGIN
 90
        0
 91
        1
 62
     0
 92
       -2
340
0
 93
        0
 40
0.045
309
GRIDFORMAT_END
 95
        8
302
GRIDFORMAT
  1
GRIDFORMAT_BEGIN
 90
        0
 91
        1
 62
     0
 92
       -2
340
0
 93
        0
 40
0.045
309
GRIDFORMAT_END
 95
       16
302
GRIDFORMAT
  1
GRIDFORMAT_BEGIN
 90
        0
 91
        1
 62
     0
 92
       -2
340
0
 93
        0
 40
0.045
309
GRIDFORMAT_END
 95
       32
302
GRIDFORMAT
  1
GRIDFORMAT_BEGIN
 90
        0
 91
        1
 62
     0
 92
       -2
340
0
 93
        0
 40
0.045
309
GRIDFORMAT_END
309
TABLEFORMAT_END
  1
CELLSTYLE_BEGIN
 90
        1
 91
        1
300
_TITLE
309
CELLSTYLE_END
300
CELLSTYLE
  1
TABLEFORMAT_BEGIN
 90
        5
170
     1
 91
        0
 92
        0
 62
   257
 93
        1
300
CONTENTFORMAT
  1
CONTENTFORMAT_BEGIN
 90
        0
 91
        0
 92
      512
 93
        0
300

 40
0.0
140
1.0
 94
        5
 62
     3
340
287
144
5.0
309
CONTENTFORMAT_END
171
     1
301
MARGIN
  1
CELLMARGIN_BEGIN
 40
1.5
 40
1.5
 40
1.5
 40
1.5
 40
0.18
 40
0.18
309
CELLMARGIN_END
 94
        6
 95
        1
302
GRIDFORMAT
  1
GRIDFORMAT_BEGIN
 90
        0
 91
        1
 62
     0
 92
       -2
340
0
 93
        0
 40
0.045
309
GRIDFORMAT_END
 95
        2
302
GRIDFORMAT
  1
GRIDFORMAT_BEGIN
 90
        0
 91
        1
 62
     0
 92
       -2
340
0
 93
        0
 40
0.045
309
GRIDFORMAT_END
 95
        4
302
GRIDFORMAT
  1
GRIDFORMAT_BEGIN
 90
        0
 91
        1
 62
     0
 92
       -2
340
0
 93
        0
 40
0.045
309
GRIDFORMAT_END
 95
        8
302
GRIDFORMAT
  1
GRIDFORMAT_BEGIN
 90
        0
 91
        1
 62
     0
 92
       -2
340
0
 93
        0
 40
0.045
309
GRIDFORMAT_END
 95
       16
302
GRIDFORMAT
  1
GRIDFORMAT_BEGIN
 90
        0
 91
        1
 62
     0
 92
       -2
340
0
 93
        0
 40
0.045
309
GRIDFORMAT_END
 95
       32
302
GRIDFORMAT
  1
GRIDFORMAT_BEGIN
 90
        0
 91
        1
 62
     0
 92
       -2
340
0
 93
        0
 40
0.045
309
GRIDFORMAT_END
309
TABLEFORMAT_END
  1
CELLSTYLE_BEGIN
 90
        2
 91
        1
300
_HEADER
309
CELLSTYLE_END
300
CELLSTYLE
  1
TABLEFORMAT_BEGIN
 90
        5
170
     1
 91
        0
 92
        0
 62
   257
 93
        1
300
CONTENTFORMAT
  1
CONTENTFORMAT_BEGIN
 90
        0
 91
        0
 92
      512
 93
        0
300

 40
0.0
140
1.0
 94
        5
 62
     7
340
287
144
4.5
309
CONTENTFORMAT_END
171
     1
301
MARGIN
  1
CELLMARGIN_BEGIN
 40
1.5
 40
1.5
 40
1.5
 40
1.5
 40
0.18
 40
0.18
309
CELLMARGIN_END
 94
        6
 95
        1
302
GRIDFORMAT
  1
GRIDFORMAT_BEGIN
 90
        0
 91
        1
 62
     0
 92
       -2
340
0
 93
        0
 40
0.045
309
GRIDFORMAT_END
 95
        2
302
GRIDFORMAT
  1
GRIDFORMAT_BEGIN
 90
        0
 91
        1
 62
     0
 92
       -2
340
0
 93
        0
 40
0.045
309
GRIDFORMAT_END
 95
        4
302
GRIDFORMAT
  1
GRIDFORMAT_BEGIN
 90
        0
 91
        1
 62
     0
 92
       -2
340
0
 93
        0
 40
0.045
309
GRIDFORMAT_END
 95
        8
302
GRIDFORMAT
  1
GRIDFORMAT_BEGIN
 90
        0
 91
        1
 62
     0
 92
       -2
340
0
 93
        0
 40
0.045
309
GRIDFORMAT_END
 95
       16
302
GRIDFORMAT
  1
GRIDFORMAT_BEGIN
 90
        0
 91
        1
 62
     0
 92
       -2
340
0
 93
        0
 40
0.045
309
GRIDFORMAT_END
 95
       32
302
GRIDFORMAT
  1
GRIDFORMAT_BEGIN
 90
        0
 91
        1
 62
     0
 92
       -2
340
0
 93
        0
 40
0.045
309
GRIDFORMAT_END
309
TABLEFORMAT_END
  1
CELLSTYLE_BEGIN
 90
        3
 91
        2
300
_DATA
309
CELLSTYLE_END
  0
XRECORD
  5
360
102
{ACAD_REACTORS
330
29D
102
}
330
29D
100
AcDbXrecord
280
     1
102
ACAD_ROUNDTRIP_PRE2007_TABLESTYLE
 90
      512
 91
        0
  1

 92
      512
 93
        0
  2

 94
      512
 95
        0
  3

  0
CELLSTYLEMAP
  5
322
102
{ACAD_REACTORS
330
2C7
102
}
330
2C7
100
AcDbCellStyleMap
 90
        3
300
CELLSTYLE
  1
TABLEFORMAT_BEGIN
 90
        5
170
     1
 91
        0
 92
    32768
 62
   257
 93
        1
300
CONTENTFORMAT
  1
CONTENTFORMAT_BEGIN
 90
        0
 91
        0
 92
      512
 93
        0
300

 40
0.0
140
1.0
 94
        5
 62
     0
340
17
144
0.25
309
CONTENTFORMAT_END
171
     0
 94
        0
309
TABLEFORMAT_END
  1
CELLSTYLE_BEGIN
 90
        1
 91
        1
300
_TITLE
309
CELLSTYLE_END
300
CELLSTYLE
  1
TABLEFORMAT_BEGIN
 90
        5
170
     1
 91
        0
 92
        0
 62
   257
 93
        1
300
CONTENTFORMAT
  1
CONTENTFORMAT_BEGIN
 90
        0
 91
        0
 92
      512
 93
        0
300

 40
0.0
140
1.0
 94
        5
 62
     0
340
17
144
0.18
309
CONTENTFORMAT_END
171
     0
 94
        0
309
TABLEFORMAT_END
  1
CELLSTYLE_BEGIN
 90
        2
 91
        1
300
_HEADER
309
CELLSTYLE_END
300
CELLSTYLE
  1
TABLEFORMAT_BEGIN
 90
        5
170
     1
 91
        0
 92
        0
 62
   257
 93
        1
300
CONTENTFORMAT
  1
CONTENTFORMAT_BEGIN
 90
        0
 91
        0
 92
      512
 93
        0
300

 40
0.0
140
1.0
 94
        2
 62
     0
340
17
144
0.18
309
CONTENTFORMAT_END
171
     0
 94
        0
309
TABLEFORMAT_END
  1
CELLSTYLE_BEGIN
 90
        3
 91
        2
300
_DATA
309
CELLSTYLE_END
  0
XRECORD
  5
354
102
{ACAD_REACTORS
330
2C7
102
}
330
2C7
100
AcDbXrecord
280
     1
102
ACAD_ROUNDTRIP_PRE2007_TABLESTYLE
 90
      512
 91
        0
  1

 92
      512
 93
        0
  2

 94
      512
 95
        0
  3

  0
XRECORD
  5
339
102
{ACAD_REACTORS
330
338
102
}
330
338
100
AcDbXrecord
280
     1
102
RTVSPropertyOp0
 70
     1
102
RTVSPropertyOp1
 70
     1
102
RTVSPropertyOp2
 70
     1
102
RTVSPropertyOp3
 70
     1
102
RTVSPropertyOp4
 70
     1
102
RTVSPropertyOp5
 70
     1
102
RTVSPropertyOp6
 70
     1
102
RTVSPropertyOp7
 70
     1
102
RTVSPropertyOp8
 70
     1
102
RTVSPropertyOp9
 70
     1
102
RTVSPropertyOp10
 70
     1
102
RTVSPropertyOp11
 70
     1
102
RTVSPropertyOp12
 70
     1
102
RTVSPropertyOp13
 70
     1
102
RTVSPropertyOp14
 70
     1
102
RTVSPropertyOp15
 70
     1
102
RTVSPropertyOp16
 70
     1
102
RTVSPropertyOp17
 70
     1
102
RTVSPropertyOp18
 70
     1
102
RTVSPropertyOp19
 70
     1
102
RTVSPropertyOp20
 70
     1
102
RTVSPropertyOp21
 70
     1
102
RTVSPropertyOp22
 70
     1
102
RTVSPropertyOp23
 70
     1
102
RTVSPropertyOp24
 70
     1
102
RTVSPropertyOp25
 70
     1
102
RTVSPropertyOp26
 70
     1
102
RTVSPropertyOp27
 70
     1
102
RTVSPropertyOp28
 70
     1
102
RTVSPropertyOp29
 70
     1
102
RTVSPropertyOp30
 70
     1
102
RTVSPropertyOp31
 70
     1
102
RTVSPropertyOp32
 70
     1
  0
XRECORD
  5
33D
102
{ACAD_REACTORS
330
33C
102
}
330
33C
100
AcDbXrecord
280
     1
102
RTVSPropertyOp0
 70
     1
102
RTVSPropertyOp1
 70
     1
102
RTVSPropertyOp2
 70
     1
102
RTVSPropertyOp3
 70
     1
102
RTVSPropertyOp4
 70
     1
102
RTVSPropertyOp5
 70
     1
102
RTVSPropertyOp6
 70
     1
102
RTVSPropertyOp7
 70
     1
102
RTVSPropertyOp8
 70
     1
102
RTVSPropertyOp9
 70
     1
102
RTVSPropertyOp10
 70
     1
102
RTVSPropertyOp11
 70
     1
102
RTVSPropertyOp12
 70
     1
102
RTVSPropertyOp13
 70
     1
102
RTVSPropertyOp14
 70
     1
102
RTVSPropertyOp15
 70
     1
102
RTVSPropertyOp16
 70
     1
102
RTVSPropertyOp17
 70
     1
102
RTVSPropertyOp18
 70
     1
102
RTVSPropertyOp19
 70
     1
102
RTVSPropertyOp20
 70
     1
102
RTVSPropertyOp21
 70
     1
102
RTVSPropertyOp22
 70
     1
102
RTVSPropertyOp23
 70
     1
102
RTVSPropertyOp24
 70
     1
102
RTVSPropertyOp25
 70
     1
102
RTVSPropertyOp26
 70
     1
102
RTVSPropertyOp27
 70
     1
102
RTVSPropertyOp28
 70
     1
102
RTVSPropertyOp29
 70
     1
102
RTVSPropertyOp30
 70
     1
102
RTVSPropertyOp31
 70
     1
102
RTVSPropertyOp32
 70
     1
  0
XRECORD
  5
33B
102
{ACAD_REACTORS
330
33A
102
}
330
33A
100
AcDbXrecord
280
     1
102
RTVSPropertyOp0
 70
     1
102
RTVSPropertyOp1
 70
     1
102
RTVSPropertyOp2
 70
     1
102
RTVSPropertyOp3
 70
     1
102
RTVSPropertyOp4
 70
     1
102
RTVSPropertyOp5
 70
     1
102
RTVSPropertyOp6
 70
     1
102
RTVSPropertyOp7
 70
     1
102
RTVSPropertyOp8
 70
     1
102
RTVSPropertyOp9
 70
     1
102
RTVSPropertyOp10
 70
     1
102
RTVSPropertyOp11
 70
     1
102
RTVSPropertyOp12
 70
     1
102
RTVSPropertyOp13
 70
     1
102
RTVSPropertyOp14
 70
     1
102
RTVSPropertyOp15
 70
     1
102
RTVSPropertyOp16
 70
     1
102
RTVSPropertyOp17
 70
     1
102
RTVSPropertyOp18
 70
     1
102
RTVSPropertyOp19
 70
     1
102
RTVSPropertyOp20
 70
     1
102
RTVSPropertyOp21
 70
     1
102
RTVSPropertyOp22
 70
     1
102
RTVSPropertyOp23
 70
     1
102
RTVSPropertyOp24
 70
     1
102
RTVSPropertyOp25
 70
     1
102
RTVSPropertyOp26
 70
     1
102
RTVSPropertyOp27
 70
     1
102
RTVSPropertyOp28
 70
     1
102
RTVSPropertyOp29
 70
     1
102
RTVSPropertyOp30
 70
     1
102
RTVSPropertyOp31
 70
     1
102
RTVSPropertyOp32
 70
     1
  0
XRECORD
  5
337
102
{ACAD_REACTORS
330
336
102
}
330
336
100
AcDbXrecord
280
     1
102
RTVSPropertyOp0
 70
     1
102
RTVSPropertyOp1
 70
     1
102
RTVSPropertyOp2
 70
     1
102
RTVSPropertyOp3
 70
     1
102
RTVSPropertyOp4
 70
     1
102
RTVSPropertyOp5
 70
     1
102
RTVSPropertyOp6
 70
     1
102
RTVSPropertyOp7
 70
     1
102
RTVSPropertyOp8
 70
     1
102
RTVSPropertyOp9
 70
     1
102
RTVSPropertyOp10
 70
     1
102
RTVSPropertyOp11
 70
     1
102
RTVSPropertyOp12
 70
     1
102
RTVSPropertyOp13
 70
     1
102
RTVSPropertyOp14
 70
     1
102
RTVSPropertyOp15
 70
     1
102
RTVSPropertyOp16
 70
     1
102
RTVSPropertyOp17
 70
     1
102
RTVSPropertyOp18
 70
     1
102
RTVSPropertyOp19
 70
     1
102
RTVSPropertyOp20
 70
     1
102
RTVSPropertyOp21
 70
     1
102
RTVSPropertyOp22
 70
     1
102
RTVSPropertyOp23
 70
     1
102
RTVSPropertyOp24
 70
     1
102
RTVSPropertyOp25
 70
     1
102
RTVSPropertyOp26
 70
     1
102
RTVSPropertyOp27
 70
     1
102
RTVSPropertyOp28
 70
     1
102
RTVSPropertyOp29
 70
     1
102
RTVSPropertyOp30
 70
     1
102
RTVSPropertyOp31
 70
     1
102
RTVSPropertyOp32
 70
     1
  0
XRECORD
  5
345
102
{ACAD_REACTORS
330
344
102
}
330
344
100
AcDbXrecord
280
     1
102
RTVSPropertyOp0
 70
     1
102
RTVSPropertyOp1
 70
     1
102
RTVSPropertyOp2
 70
     1
102
RTVSPropertyOp3
 70
     1
102
RTVSPropertyOp4
 70
     1
102
RTVSPropertyOp5
 70
     1
102
RTVSPropertyOp6
 70
     1
102
RTVSPropertyOp7
 70
     1
102
RTVSPropertyOp8
 70
     1
102
RTVSPropertyOp9
 70
     1
102
RTVSPropertyOp10
 70
     1
102
RTVSPropertyOp11
 70
     1
102
RTVSPropertyOp12
 70
     1
102
RTVSPropertyOp13
 70
     1
102
RTVSPropertyOp14
 70
     1
102
RTVSPropertyOp15
 70
     1
102
RTVSPropertyOp16
 70
     1
102
RTVSPropertyOp17
 70
     1
102
RTVSPropertyOp18
 70
     1
102
RTVSPropertyOp19
 70
     1
102
RTVSPropertyOp20
 70
     1
102
RTVSPropertyOp21
 70
     1
102
RTVSPropertyOp22
 70
     1
102
RTVSPropertyOp23
 70
     1
102
RTVSPropertyOp24
 70
     1
102
RTVSPropertyOp25
 70
     1
102
RTVSPropertyOp26
 70
     1
102
RTVSPropertyOp27
 70
     1
102
RTVSPropertyOp28
 70
     1
102
RTVSPropertyOp29
 70
     1
102
RTVSPropertyOp30
 70
     1
102
RTVSPropertyOp31
 70
     1
102
RTVSPropertyOp32
 70
     1
  0
XRECORD
  5
34D
102
{ACAD_REACTORS
330
34C
102
}
330
34C
100
AcDbXrecord
280
     1
102
RTVSPropertyOp0
 70
     1
102
RTVSPropertyOp1
 70
     1
102
RTVSPropertyOp2
 70
     1
102
RTVSPropertyOp3
 70
     1
102
RTVSPropertyOp4
 70
     1
102
RTVSPropertyOp5
 70
     1
102
RTVSPropertyOp6
 70
     1
102
RTVSPropertyOp7
 70
     1
102
RTVSPropertyOp8
 70
     1
102
RTVSPropertyOp9
 70
     1
102
RTVSPropertyOp10
 70
     1
102
RTVSPropertyOp11
 70
     1
102
RTVSPropertyOp12
 70
     1
102
RTVSPropertyOp13
 70
     1
102
RTVSPropertyOp14
 70
     1
102
RTVSPropertyOp15
 70
     1
102
RTVSPropertyOp16
 70
     1
102
RTVSPropertyOp17
 70
     1
102
RTVSPropertyOp18
 70
     1
102
RTVSPropertyOp19
 70
     1
102
RTVSPropertyOp20
 70
     1
102
RTVSPropertyOp21
 70
     1
102
RTVSPropertyOp22
 70
     1
102
RTVSPropertyOp23
 70
     1
102
RTVSPropertyOp24
 70
     1
102
RTVSPropertyOp25
 70
     1
102
RTVSPropertyOp26
 70
     1
102
RTVSPropertyOp27
 70
     1
102
RTVSPropertyOp28
 70
     1
102
RTVSPropertyOp29
 70
     1
102
RTVSPropertyOp30
 70
     1
102
RTVSPropertyOp31
 70
     1
102
RTVSPropertyOp32
 70
     1
  0
XRECORD
  5
33F
102
{ACAD_REACTORS
330
33E
102
}
330
33E
100
AcDbXrecord
280
     1
102
RTVSPropertyOp0
 70
     1
102
RTVSPropertyOp1
 70
     1
102
RTVSPropertyOp2
 70
     1
102
RTVSPropertyOp3
 70
     1
102
RTVSPropertyOp4
 70
     1
102
RTVSPropertyOp5
 70
     1
102
RTVSPropertyOp6
 70
     1
102
RTVSPropertyOp7
 70
     1
102
RTVSPropertyOp8
 70
     1
102
RTVSPropertyOp9
 70
     1
102
RTVSPropertyOp10
 70
     1
102
RTVSPropertyOp11
 70
     1
102
RTVSPropertyOp12
 70
     1
102
RTVSPropertyOp13
 70
     1
102
RTVSPropertyOp14
 70
     1
102
RTVSPropertyOp15
 70
     1
102
RTVSPropertyOp16
 70
     1
102
RTVSPropertyOp17
 70
     1
102
RTVSPropertyOp18
 70
     1
102
RTVSPropertyOp19
 70
     1
102
RTVSPropertyOp20
 70
     1
102
RTVSPropertyOp21
 70
     1
102
RTVSPropertyOp22
 70
     1
102
RTVSPropertyOp23
 70
     1
102
RTVSPropertyOp24
 70
     1
102
RTVSPropertyOp25
 70
     1
102
RTVSPropertyOp26
 70
     1
102
RTVSPropertyOp27
 70
     1
102
RTVSPropertyOp28
 70
     1
102
RTVSPropertyOp29
 70
     1
102
RTVSPropertyOp30
 70
     1
102
RTVSPropertyOp31
 70
     1
102
RTVSPropertyOp32
 70
     1
  0
XRECORD
  5
343
102
{ACAD_REACTORS
330
342
102
}
330
342
100
AcDbXrecord
280
     1
102
RTVSPropertyOp0
 70
     1
102
RTVSPropertyOp1
 70
     1
102
RTVSPropertyOp2
 70
     1
102
RTVSPropertyOp3
 70
     1
102
RTVSPropertyOp4
 70
     1
102
RTVSPropertyOp5
 70
     1
102
RTVSPropertyOp6
 70
     1
102
RTVSPropertyOp7
 70
     1
102
RTVSPropertyOp8
 70
     1
102
RTVSPropertyOp9
 70
     1
102
RTVSPropertyOp10
 70
     1
102
RTVSPropertyOp11
 70
     1
102
RTVSPropertyOp12
 70
     1
102
RTVSPropertyOp13
 70
     1
102
RTVSPropertyOp14
 70
     1
102
RTVSPropertyOp15
 70
     1
102
RTVSPropertyOp16
 70
     1
102
RTVSPropertyOp17
 70
     1
102
RTVSPropertyOp18
 70
     1
102
RTVSPropertyOp19
 70
     1
102
RTVSPropertyOp20
 70
     1
102
RTVSPropertyOp21
 70
     1
102
RTVSPropertyOp22
 70
     1
102
RTVSPropertyOp23
 70
     1
102
RTVSPropertyOp24
 70
     1
102
RTVSPropertyOp25
 70
     1
102
RTVSPropertyOp26
 70
     1
102
RTVSPropertyOp27
 70
     1
102
RTVSPropertyOp28
 70
     1
102
RTVSPropertyOp29
 70
     1
102
RTVSPropertyOp30
 70
     1
102
RTVSPropertyOp31
 70
     1
102
RTVSPropertyOp32
 70
     1
  0
XRECORD
  5
353
102
{ACAD_REACTORS
330
352
102
}
330
352
100
AcDbXrecord
280
     1
102
RTVSPropertyOp0
 70
     0
102
RTVSPropertyOp1
 70
     0
102
RTVSPropertyOp2
 70
     0
102
RTVSPropertyOp3
 70
     0
102
RTVSPropertyOp4
 70
     0
102
RTVSPropertyOp5
 70
     0
102
RTVSPropertyOp6
 70
     0
102
RTVSPropertyOp7
 70
     0
102
RTVSPropertyOp8
 70
     0
102
RTVSPropertyOp9
 70
     0
102
RTVSPropertyOp10
 70
     0
102
RTVSPropertyOp11
 70
     0
102
RTVSPropertyOp12
 70
     0
102
RTVSPropertyOp13
 70
     0
102
RTVSPropertyOp14
 70
     2
102
RTVSPropertyOp15
 70
     0
102
RTVSPropertyOp16
 70
     0
102
RTVSPropertyOp17
 70
     0
102
RTVSPropertyOp18
 70
     0
102
RTVSPropertyOp19
 70
     0
102
RTVSPropertyOp20
 70
     0
102
RTVSPropertyOp21
 70
     0
102
RTVSPropertyOp22
 70
     0
102
RTVSPropertyOp23
 70
     0
102
RTVSPropertyOp24
 70
     0
102
RTVSPropertyOp25
 70
     0
102
RTVSPropertyOp26
 70
     0
102
RTVSPropertyOp27
 70
     0
102
RTVSPropertyOp28
 70
     1
102
RTVSPropertyOp29
 70
     1
102
RTVSPropertyOp30
 70
     1
102
RTVSPropertyOp31
 70
     1
102
RTVSPropertyOp32
 70
     1
  0
XRECORD
  5
34B
102
{ACAD_REACTORS
330
34A
102
}
330
34A
100
AcDbXrecord
280
     1
102
RTVSPropertyOp0
 70
     1
102
RTVSPropertyOp1
 70
     1
102
RTVSPropertyOp2
 70
     1
102
RTVSPropertyOp3
 70
     1
102
RTVSPropertyOp4
 70
     1
102
RTVSPropertyOp5
 70
     1
102
RTVSPropertyOp6
 70
     1
102
RTVSPropertyOp7
 70
     1
102
RTVSPropertyOp8
 70
     1
102
RTVSPropertyOp9
 70
     1
102
RTVSPropertyOp10
 70
     1
102
RTVSPropertyOp11
 70
     1
102
RTVSPropertyOp12
 70
     1
102
RTVSPropertyOp13
 70
     1
102
RTVSPropertyOp14
 70
     1
102
RTVSPropertyOp15
 70
     1
102
RTVSPropertyOp16
 70
     1
102
RTVSPropertyOp17
 70
     1
102
RTVSPropertyOp18
 70
     1
102
RTVSPropertyOp19
 70
     1
102
RTVSPropertyOp20
 70
     1
102
RTVSPropertyOp21
 70
     1
102
RTVSPropertyOp22
 70
     1
102
RTVSPropertyOp23
 70
     1
102
RTVSPropertyOp24
 70
     1
102
RTVSPropertyOp25
 70
     1
102
RTVSPropertyOp26
 70
     1
102
RTVSPropertyOp27
 70
     1
102
RTVSPropertyOp28
 70
     1
102
RTVSPropertyOp29
 70
     1
102
RTVSPropertyOp30
 70
     1
102
RTVSPropertyOp31
 70
     1
102
RTVSPropertyOp32
 70
     1
  0
XRECORD
  5
32F
102
{ACAD_REACTORS
330
32E
102
}
330
32E
100
AcDbXrecord
280
     1
102
RTVSPropertyOp0
 70
     1
102
RTVSPropertyOp1
 70
     1
102
RTVSPropertyOp2
 70
     1
102
RTVSPropertyOp3
 70
     1
102
RTVSPropertyOp4
 70
     1
102
RTVSPropertyOp5
 70
     1
102
RTVSPropertyOp6
 70
     1
102
RTVSPropertyOp7
 70
     1
102
RTVSPropertyOp8
 70
     1
102
RTVSPropertyOp9
 70
     1
102
RTVSPropertyOp10
 70
     1
102
RTVSPropertyOp11
 70
     1
102
RTVSPropertyOp12
 70
     1
102
RTVSPropertyOp13
 70
     1
102
RTVSPropertyOp14
 70
     1
102
RTVSPropertyOp15
 70
     1
102
RTVSPropertyOp16
 70
     1
102
RTVSPropertyOp17
 70
     1
102
RTVSPropertyOp18
 70
     1
102
RTVSPropertyOp19
 70
     1
102
RTVSPropertyOp20
 70
     1
102
RTVSPropertyOp21
 70
     1
102
RTVSPropertyOp22
 70
     1
102
RTVSPropertyOp23
 70
     1
102
RTVSPropertyOp24
 70
     1
102
RTVSPropertyOp25
 70
     1
102
RTVSPropertyOp26
 70
     1
102
RTVSPropertyOp27
 70
     1
102
RTVSPropertyOp28
 70
     1
102
RTVSPropertyOp29
 70
     1
102
RTVSPropertyOp30
 70
     1
102
RTVSPropertyOp31
 70
     1
102
RTVSPropertyOp32
 70
     1
  0
XRECORD
  5
331
102
{ACAD_REACTORS
330
330
102
}
330
330
100
AcDbXrecord
280
     1
102
RTVSPropertyOp0
 70
     1
102
RTVSPropertyOp1
 70
     1
102
RTVSPropertyOp2
 70
     1
102
RTVSPropertyOp3
 70
     1
102
RTVSPropertyOp4
 70
     1
102
RTVSPropertyOp5
 70
     1
102
RTVSPropertyOp6
 70
     1
102
RTVSPropertyOp7
 70
     1
102
RTVSPropertyOp8
 70
     1
102
RTVSPropertyOp9
 70
     1
102
RTVSPropertyOp10
 70
     1
102
RTVSPropertyOp11
 70
     1
102
RTVSPropertyOp12
 70
     1
102
RTVSPropertyOp13
 70
     1
102
RTVSPropertyOp14
 70
     1
102
RTVSPropertyOp15
 70
     1
102
RTVSPropertyOp16
 70
     1
102
RTVSPropertyOp17
 70
     1
102
RTVSPropertyOp18
 70
     1
102
RTVSPropertyOp19
 70
     1
102
RTVSPropertyOp20
 70
     1
102
RTVSPropertyOp21
 70
     1
102
RTVSPropertyOp22
 70
     1
102
RTVSPropertyOp23
 70
     1
102
RTVSPropertyOp24
 70
     1
102
RTVSPropertyOp25
 70
     1
102
RTVSPropertyOp26
 70
     1
102
RTVSPropertyOp27
 70
     1
102
RTVSPropertyOp28
 70
     1
102
RTVSPropertyOp29
 70
     1
102
RTVSPropertyOp30
 70
     1
102
RTVSPropertyOp31
 70
     1
102
RTVSPropertyOp32
 70
     1
  0
XRECORD
  5
333
102
{ACAD_REACTORS
330
332
102
}
330
332
100
AcDbXrecord
280
     1
102
RTVSPropertyOp0
 70
     1
102
RTVSPropertyOp1
 70
     1
102
RTVSPropertyOp2
 70
     1
102
RTVSPropertyOp3
 70
     1
102
RTVSPropertyOp4
 70
     1
102
RTVSPropertyOp5
 70
     1
102
RTVSPropertyOp6
 70
     1
102
RTVSPropertyOp7
 70
     1
102
RTVSPropertyOp8
 70
     1
102
RTVSPropertyOp9
 70
     1
102
RTVSPropertyOp10
 70
     1
102
RTVSPropertyOp11
 70
     1
102
RTVSPropertyOp12
 70
     1
102
RTVSPropertyOp13
 70
     1
102
RTVSPropertyOp14
 70
     1
102
RTVSPropertyOp15
 70
     1
102
RTVSPropertyOp16
 70
     1
102
RTVSPropertyOp17
 70
     1
102
RTVSPropertyOp18
 70
     1
102
RTVSPropertyOp19
 70
     1
102
RTVSPropertyOp20
 70
     1
102
RTVSPropertyOp21
 70
     1
102
RTVSPropertyOp22
 70
     1
102
RTVSPropertyOp23
 70
     1
102
RTVSPropertyOp24
 70
     1
102
RTVSPropertyOp25
 70
     1
102
RTVSPropertyOp26
 70
     1
102
RTVSPropertyOp27
 70
     1
102
RTVSPropertyOp28
 70
     1
102
RTVSPropertyOp29
 70
     1
102
RTVSPropertyOp30
 70
     1
102
RTVSPropertyOp31
 70
     1
102
RTVSPropertyOp32
 70
     1
  0
XRECORD
  5
335
102
{ACAD_REACTORS
330
334
102
}
330
334
100
AcDbXrecord
280
     1
102
RTVSPropertyOp0
 70
     1
102
RTVSPropertyOp1
 70
     1
102
RTVSPropertyOp2
 70
     1
102
RTVSPropertyOp3
 70
     1
102
RTVSPropertyOp4
 70
     1
102
RTVSPropertyOp5
 70
     1
102
RTVSPropertyOp6
 70
     1
102
RTVSPropertyOp7
 70
     1
102
RTVSPropertyOp8
 70
     1
102
RTVSPropertyOp9
 70
     1
102
RTVSPropertyOp10
 70
     1
102
RTVSPropertyOp11
 70
     1
102
RTVSPropertyOp12
 70
     1
102
RTVSPropertyOp13
 70
     1
102
RTVSPropertyOp14
 70
     1
102
RTVSPropertyOp15
 70
     1
102
RTVSPropertyOp16
 70
     1
102
RTVSPropertyOp17
 70
     1
102
RTVSPropertyOp18
 70
     1
102
RTVSPropertyOp19
 70
     1
102
RTVSPropertyOp20
 70
     1
102
RTVSPropertyOp21
 70
     1
102
RTVSPropertyOp22
 70
     1
102
RTVSPropertyOp23
 70
     1
102
RTVSPropertyOp24
 70
     1
102
RTVSPropertyOp25
 70
     1
102
RTVSPropertyOp26
 70
     1
102
RTVSPropertyOp27
 70
     1
102
RTVSPropertyOp28
 70
     1
102
RTVSPropertyOp29
 70
     1
102
RTVSPropertyOp30
 70
     1
102
RTVSPropertyOp31
 70
     1
102
RTVSPropertyOp32
 70
     1
  0
XRECORD
  5
364
102
{ACAD_REACTORS
330
363
102
}
330
363
100
AcDbXrecord
280
     1
102
RTVSPropertyOp0
 70
     1
102
RTVSPropertyOp1
 70
     1
102
RTVSPropertyOp2
 70
     1
102
RTVSPropertyOp3
 70
     1
102
RTVSPropertyOp4
 70
     1
102
RTVSPropertyOp5
 70
     1
102
RTVSPropertyOp6
 70
     1
102
RTVSPropertyOp7
 70
     1
102
RTVSPropertyOp8
 70
     1
102
RTVSPropertyOp9
 70
     1
102
RTVSPropertyOp10
 70
     1
102
RTVSPropertyOp11
 70
     1
102
RTVSPropertyOp12
 70
     1
102
RTVSPropertyOp13
 70
     1
102
RTVSPropertyOp14
 70
     1
102
RTVSPropertyOp15
 70
     1
102
RTVSPropertyOp16
 70
     1
102
RTVSPropertyOp17
 70
     1
102
RTVSPropertyOp18
 70
     1
102
RTVSPropertyOp19
 70
     1
102
RTVSPropertyOp20
 70
     1
102
RTVSPropertyOp21
 70
     1
102
RTVSPropertyOp22
 70
     1
102
RTVSPropertyOp23
 70
     1
102
RTVSPropertyOp24
 70
     1
102
RTVSPropertyOp25
 70
     1
102
RTVSPropertyOp26
 70
     1
102
RTVSPropertyOp27
 70
     1
102
RTVSPropertyOp28
 70
     1
102
RTVSPropertyOp29
 70
     1
102
RTVSPropertyOp30
 70
     1
102
RTVSPropertyOp31
 70
     1
102
RTVSPropertyOp32
 70
     1
  0
XRECORD
  5
34F
102
{ACAD_REACTORS
330
34E
102
}
330
34E
100
AcDbXrecord
280
     1
102
RTVSPropertyOp0
 70
     0
102
RTVSPropertyOp1
 70
     0
102
RTVSPropertyOp2
 70
     0
102
RTVSPropertyOp3
 70
     0
102
RTVSPropertyOp4
 70
     0
102
RTVSPropertyOp5
 70
     0
102
RTVSPropertyOp6
 70
     0
102
RTVSPropertyOp7
 70
     0
102
RTVSPropertyOp8
 70
     0
102
RTVSPropertyOp9
 70
     0
102
RTVSPropertyOp10
 70
     0
102
RTVSPropertyOp11
 70
     0
102
RTVSPropertyOp12
 70
     0
102
RTVSPropertyOp13
 70
     0
102
RTVSPropertyOp14
 70
     2
102
RTVSPropertyOp15
 70
     0
102
RTVSPropertyOp16
 70
     0
102
RTVSPropertyOp17
 70
     0
102
RTVSPropertyOp18
 70
     0
102
RTVSPropertyOp19
 70
     0
102
RTVSPropertyOp20
 70
     0
102
RTVSPropertyOp21
 70
     0
102
RTVSPropertyOp22
 70
     0
102
RTVSPropertyOp23
 70
     0
102
RTVSPropertyOp24
 70
     0
102
RTVSPropertyOp25
 70
     0
102
RTVSPropertyOp26
 70
     0
102
RTVSPropertyOp27
 70
     0
102
RTVSPropertyOp28
 70
     1
102
RTVSPropertyOp29
 70
     1
102
RTVSPropertyOp30
 70
     1
102
RTVSPropertyOp31
 70
     1
102
RTVSPropertyOp32
 70
     1
  0
XRECORD
  5
349
102
{ACAD_REACTORS
330
348
102
}
330
348
100
AcDbXrecord
280
     1
102
RTVSPropertyOp0
 70
     1
102
RTVSPropertyOp1
 70
     1
102
RTVSPropertyOp2
 70
     1
102
RTVSPropertyOp3
 70
     1
102
RTVSPropertyOp4
 70
     1
102
RTVSPropertyOp5
 70
     1
102
RTVSPropertyOp6
 70
     1
102
RTVSPropertyOp7
 70
     1
102
RTVSPropertyOp8
 70
     1
102
RTVSPropertyOp9
 70
     1
102
RTVSPropertyOp10
 70
     1
102
RTVSPropertyOp11
 70
     1
102
RTVSPropertyOp12
 70
     1
102
RTVSPropertyOp13
 70
     1
102
RTVSPropertyOp14
 70
     1
102
RTVSPropertyOp15
 70
     1
102
RTVSPropertyOp16
 70
     1
102
RTVSPropertyOp17
 70
     1
102
RTVSPropertyOp18
 70
     1
102
RTVSPropertyOp19
 70
     1
102
RTVSPropertyOp20
 70
     1
102
RTVSPropertyOp21
 70
     1
102
RTVSPropertyOp22
 70
     1
102
RTVSPropertyOp23
 70
     1
102
RTVSPropertyOp24
 70
     1
102
RTVSPropertyOp25
 70
     1
102
RTVSPropertyOp26
 70
     1
102
RTVSPropertyOp27
 70
     1
102
RTVSPropertyOp28
 70
     1
102
RTVSPropertyOp29
 70
     1
102
RTVSPropertyOp30
 70
     1
102
RTVSPropertyOp31
 70
     1
102
RTVSPropertyOp32
 70
     1
  0
XRECORD
  5
351
102
{ACAD_REACTORS
330
350
102
}
330
350
100
AcDbXrecord
280
     1
102
RTVSPropertyOp0
 70
     0
102
RTVSPropertyOp1
 70
     0
102
RTVSPropertyOp2
 70
     0
102
RTVSPropertyOp3
 70
     0
102
RTVSPropertyOp4
 70
     0
102
RTVSPropertyOp5
 70
     0
102
RTVSPropertyOp6
 70
     0
102
RTVSPropertyOp7
 70
     0
102
RTVSPropertyOp8
 70
     0
102
RTVSPropertyOp9
 70
     0
102
RTVSPropertyOp10
 70
     0
102
RTVSPropertyOp11
 70
     0
102
RTVSPropertyOp12
 70
     0
102
RTVSPropertyOp13
 70
     0
102
RTVSPropertyOp14
 70
     2
102
RTVSPropertyOp15
 70
     0
102
RTVSPropertyOp16
 70
     0
102
RTVSPropertyOp17
 70
     0
102
RTVSPropertyOp18
 70
     0
102
RTVSPropertyOp19
 70
     0
102
RTVSPropertyOp20
 70
     0
102
RTVSPropertyOp21
 70
     0
102
RTVSPropertyOp22
 70
     0
102
RTVSPropertyOp23
 70
     0
102
RTVSPropertyOp24
 70
     0
102
RTVSPropertyOp25
 70
     0
102
RTVSPropertyOp26
 70
     0
102
RTVSPropertyOp27
 70
     0
102
RTVSPropertyOp28
 70
     1
102
RTVSPropertyOp29
 70
     1
102
RTVSPropertyOp30
 70
     1
102
RTVSPropertyOp31
 70
     1
102
RTVSPropertyOp32
 70
     1
  0
XRECORD
  5
341
102
{ACAD_REACTORS
330
340
102
}
330
340
100
AcDbXrecord
280
     1
102
RTVSPropertyOp0
 70
     1
102
RTVSPropertyOp1
 70
     1
102
RTVSPropertyOp2
 70
     1
102
RTVSPropertyOp3
 70
     1
102
RTVSPropertyOp4
 70
     1
102
RTVSPropertyOp5
 70
     1
102
RTVSPropertyOp6
 70
     1
102
RTVSPropertyOp7
 70
     1
102
RTVSPropertyOp8
 70
     1
102
RTVSPropertyOp9
 70
     1
102
RTVSPropertyOp10
 70
     1
102
RTVSPropertyOp11
 70
     1
102
RTVSPropertyOp12
 70
     1
102
RTVSPropertyOp13
 70
     1
102
RTVSPropertyOp14
 70
     1
102
RTVSPropertyOp15
 70
     1
102
RTVSPropertyOp16
 70
     1
102
RTVSPropertyOp17
 70
     1
102
RTVSPropertyOp18
 70
     1
102
RTVSPropertyOp19
 70
     1
102
RTVSPropertyOp20
 70
     1
102
RTVSPropertyOp21
 70
     1
102
RTVSPropertyOp22
 70
     1
102
RTVSPropertyOp23
 70
     1
102
RTVSPropertyOp24
 70
     1
102
RTVSPropertyOp25
 70
     1
102
RTVSPropertyOp26
 70
     1
102
RTVSPropertyOp27
 70
     1
102
RTVSPropertyOp28
 70
     1
102
RTVSPropertyOp29
 70
     1
102
RTVSPropertyOp30
 70
     1
102
RTVSPropertyOp31
 70
     1
102
RTVSPropertyOp32
 70
     1
  0
XRECORD
  5
36E
102
{ACAD_REACTORS
330
36D
102
}
330
36D
100
AcDbXrecord
280
     1
102
RTVSPropertyOp0
 70
     1
102
RTVSPropertyOp1
 70
     1
102
RTVSPropertyOp2
 70
     1
102
RTVSPropertyOp3
 70
     1
102
RTVSPropertyOp4
 70
     1
102
RTVSPropertyOp5
 70
     1
102
RTVSPropertyOp6
 70
     1
102
RTVSPropertyOp7
 70
     1
102
RTVSPropertyOp8
 70
     1
102
RTVSPropertyOp9
 70
     1
102
RTVSPropertyOp10
 70
     1
102
RTVSPropertyOp11
 70
     1
102
RTVSPropertyOp12
 70
     1
102
RTVSPropertyOp13
 70
     1
102
RTVSPropertyOp14
 70
     1
102
RTVSPropertyOp15
 70
     1
102
RTVSPropertyOp16
 70
     1
102
RTVSPropertyOp17
 70
     1
102
RTVSPropertyOp18
 70
     1
102
RTVSPropertyOp19
 70
     1
102
RTVSPropertyOp20
 70
     1
102
RTVSPropertyOp21
 70
     1
102
RTVSPropertyOp22
 70
     1
102
RTVSPropertyOp23
 70
     1
102
RTVSPropertyOp24
 70
     1
102
RTVSPropertyOp25
 70
     1
102
RTVSPropertyOp26
 70
     1
102
RTVSPropertyOp27
 70
     1
102
RTVSPropertyOp28
 70
     1
102
RTVSPropertyOp29
 70
     1
102
RTVSPropertyOp30
 70
     1
102
RTVSPropertyOp31
 70
     1
102
RTVSPropertyOp32
 70
     1
  0
XRECORD
  5
36C
102
{ACAD_REACTORS
330
36B
102
}
330
36B
100
AcDbXrecord
280
     1
102
RTVSPropertyOp0
 70
     1
102
RTVSPropertyOp1
 70
     1
102
RTVSPropertyOp2
 70
     1
102
RTVSPropertyOp3
 70
     1
102
RTVSPropertyOp4
 70
     1
102
RTVSPropertyOp5
 70
     1
102
RTVSPropertyOp6
 70
     1
102
RTVSPropertyOp7
 70
     1
102
RTVSPropertyOp8
 70
     1
102
RTVSPropertyOp9
 70
     1
102
RTVSPropertyOp10
 70
     1
102
RTVSPropertyOp11
 70
     1
102
RTVSPropertyOp12
 70
     1
102
RTVSPropertyOp13
 70
     1
102
RTVSPropertyOp14
 70
     1
102
RTVSPropertyOp15
 70
     1
102
RTVSPropertyOp16
 70
     1
102
RTVSPropertyOp17
 70
     1
102
RTVSPropertyOp18
 70
     1
102
RTVSPropertyOp19
 70
     1
102
RTVSPropertyOp20
 70
     1
102
RTVSPropertyOp21
 70
     1
102
RTVSPropertyOp22
 70
     1
102
RTVSPropertyOp23
 70
     1
102
RTVSPropertyOp24
 70
     1
102
RTVSPropertyOp25
 70
     1
102
RTVSPropertyOp26
 70
     1
102
RTVSPropertyOp27
 70
     1
102
RTVSPropertyOp28
 70
     1
102
RTVSPropertyOp29
 70
     1
102
RTVSPropertyOp30
 70
     1
102
RTVSPropertyOp31
 70
     1
102
RTVSPropertyOp32
 70
     1
  0
XRECORD
  5
366
102
{ACAD_REACTORS
330
365
102
}
330
365
100
AcDbXrecord
280
     1
102
RTVSPropertyOp0
 70
     1
102
RTVSPropertyOp1
 70
     1
102
RTVSPropertyOp2
 70
     1
102
RTVSPropertyOp3
 70
     1
102
RTVSPropertyOp4
 70
     1
102
RTVSPropertyOp5
 70
     1
102
RTVSPropertyOp6
 70
     1
102
RTVSPropertyOp7
 70
     1
102
RTVSPropertyOp8
 70
     1
102
RTVSPropertyOp9
 70
     1
102
RTVSPropertyOp10
 70
     1
102
RTVSPropertyOp11
 70
     1
102
RTVSPropertyOp12
 70
     1
102
RTVSPropertyOp13
 70
     1
102
RTVSPropertyOp14
 70
     1
102
RTVSPropertyOp15
 70
     1
102
RTVSPropertyOp16
 70
     1
102
RTVSPropertyOp17
 70
     1
102
RTVSPropertyOp18
 70
     1
102
RTVSPropertyOp19
 70
     1
102
RTVSPropertyOp20
 70
     1
102
RTVSPropertyOp21
 70
     1
102
RTVSPropertyOp22
 70
     1
102
RTVSPropertyOp23
 70
     1
102
RTVSPropertyOp24
 70
     1
102
RTVSPropertyOp25
 70
     1
102
RTVSPropertyOp26
 70
     1
102
RTVSPropertyOp27
 70
     1
102
RTVSPropertyOp28
 70
     1
102
RTVSPropertyOp29
 70
     1
102
RTVSPropertyOp30
 70
     1
102
RTVSPropertyOp31
 70
     1
102
RTVSPropertyOp32
 70
     1
  0
XRECORD
  5
368
102
{ACAD_REACTORS
330
367
102
}
330
367
100
AcDbXrecord
280
     1
102
RTVSPropertyOp0
 70
     1
102
RTVSPropertyOp1
 70
     1
102
RTVSPropertyOp2
 70
     1
102
RTVSPropertyOp3
 70
     1
102
RTVSPropertyOp4
 70
     1
102
RTVSPropertyOp5
 70
     1
102
RTVSPropertyOp6
 70
     1
102
RTVSPropertyOp7
 70
     1
102
RTVSPropertyOp8
 70
     1
102
RTVSPropertyOp9
 70
     1
102
RTVSPropertyOp10
 70
     1
102
RTVSPropertyOp11
 70
     1
102
RTVSPropertyOp12
 70
     1
102
RTVSPropertyOp13
 70
     1
102
RTVSPropertyOp14
 70
     1
102
RTVSPropertyOp15
 70
     1
102
RTVSPropertyOp16
 70
     1
102
RTVSPropertyOp17
 70
     1
102
RTVSPropertyOp18
 70
     1
102
RTVSPropertyOp19
 70
     1
102
RTVSPropertyOp20
 70
     1
102
RTVSPropertyOp21
 70
     1
102
RTVSPropertyOp22
 70
     1
102
RTVSPropertyOp23
 70
     1
102
RTVSPropertyOp24
 70
     1
102
RTVSPropertyOp25
 70
     1
102
RTVSPropertyOp26
 70
     1
102
RTVSPropertyOp27
 70
     1
102
RTVSPropertyOp28
 70
     1
102
RTVSPropertyOp29
 70
     1
102
RTVSPropertyOp30
 70
     1
102
RTVSPropertyOp31
 70
     1
102
RTVSPropertyOp32
 70
     1
  0
XRECORD
  5
347
102
{ACAD_REACTORS
330
346
102
}
330
346
100
AcDbXrecord
280
     1
102
RTVSPropertyOp0
 70
     1
102
RTVSPropertyOp1
 70
     1
102
RTVSPropertyOp2
 70
     1
102
RTVSPropertyOp3
 70
     1
102
RTVSPropertyOp4
 70
     1
102
RTVSPropertyOp5
 70
     1
102
RTVSPropertyOp6
 70
     1
102
RTVSPropertyOp7
 70
     1
102
RTVSPropertyOp8
 70
     1
102
RTVSPropertyOp9
 70
     1
102
RTVSPropertyOp10
 70
     1
102
RTVSPropertyOp11
 70
     1
102
RTVSPropertyOp12
 70
     1
102
RTVSPropertyOp13
 70
     1
102
RTVSPropertyOp14
 70
     1
102
RTVSPropertyOp15
 70
     1
102
RTVSPropertyOp16
 70
     1
102
RTVSPropertyOp17
 70
     1
102
RTVSPropertyOp18
 70
     1
102
RTVSPropertyOp19
 70
     1
102
RTVSPropertyOp20
 70
     1
102
RTVSPropertyOp21
 70
     1
102
RTVSPropertyOp22
 70
     1
102
RTVSPropertyOp23
 70
     1
102
RTVSPropertyOp24
 70
     1
102
RTVSPropertyOp25
 70
     1
102
RTVSPropertyOp26
 70
     1
102
RTVSPropertyOp27
 70
     1
102
RTVSPropertyOp28
 70
     1
102
RTVSPropertyOp29
 70
     1
102
RTVSPropertyOp30
 70
     1
102
RTVSPropertyOp31
 70
     1
102
RTVSPropertyOp32
 70
     1
  0
XRECORD
  5
362
102
{ACAD_REACTORS
330
361
102
}
330
361
100
AcDbXrecord
280
     1
102
RTVSPropertyOp0
 70
     1
102
RTVSPropertyOp1
 70
     1
102
RTVSPropertyOp2
 70
     1
102
RTVSPropertyOp3
 70
     1
102
RTVSPropertyOp4
 70
     1
102
RTVSPropertyOp5
 70
     1
102
RTVSPropertyOp6
 70
     1
102
RTVSPropertyOp7
 70
     1
102
RTVSPropertyOp8
 70
     1
102
RTVSPropertyOp9
 70
     1
102
RTVSPropertyOp10
 70
     1
102
RTVSPropertyOp11
 70
     1
102
RTVSPropertyOp12
 70
     1
102
RTVSPropertyOp13
 70
     1
102
RTVSPropertyOp14
 70
     1
102
RTVSPropertyOp15
 70
     1
102
RTVSPropertyOp16
 70
     1
102
RTVSPropertyOp17
 70
     1
102
RTVSPropertyOp18
 70
     1
102
RTVSPropertyOp19
 70
     1
102
RTVSPropertyOp20
 70
     1
102
RTVSPropertyOp21
 70
     1
102
RTVSPropertyOp22
 70
     1
102
RTVSPropertyOp23
 70
     1
102
RTVSPropertyOp24
 70
     1
102
RTVSPropertyOp25
 70
     1
102
RTVSPropertyOp26
 70
     1
102
RTVSPropertyOp27
 70
     1
102
RTVSPropertyOp28
 70
     1
102
RTVSPropertyOp29
 70
     1
102
RTVSPropertyOp30
 70
     1
102
RTVSPropertyOp31
 70
     1
102
RTVSPropertyOp32
 70
     1
  0
XRECORD
  5
36A
102
{ACAD_REACTORS
330
369
102
}
330
369
100
AcDbXrecord
280
     1
102
RTVSPropertyOp0
 70
     1
102
RTVSPropertyOp1
 70
     1
102
RTVSPropertyOp2
 70
     1
102
RTVSPropertyOp3
 70
     1
102
RTVSPropertyOp4
 70
     1
102
RTVSPropertyOp5
 70
     1
102
RTVSPropertyOp6
 70
     1
102
RTVSPropertyOp7
 70
     1
102
RTVSPropertyOp8
 70
     1
102
RTVSPropertyOp9
 70
     1
102
RTVSPropertyOp10
 70
     1
102
RTVSPropertyOp11
 70
     1
102
RTVSPropertyOp12
 70
     1
102
RTVSPropertyOp13
 70
     1
102
RTVSPropertyOp14
 70
     1
102
RTVSPropertyOp15
 70
     1
102
RTVSPropertyOp16
 70
     1
102
RTVSPropertyOp17
 70
     1
102
RTVSPropertyOp18
 70
     1
102
RTVSPropertyOp19
 70
     1
102
RTVSPropertyOp20
 70
     1
102
RTVSPropertyOp21
 70
     1
102
RTVSPropertyOp22
 70
     1
102
RTVSPropertyOp23
 70
     1
102
RTVSPropertyOp24
 70
     1
102
RTVSPropertyOp25
 70
     1
102
RTVSPropertyOp26
 70
     1
102
RTVSPropertyOp27
 70
     1
102
RTVSPropertyOp28
 70
     1
102
RTVSPropertyOp29
 70
     1
102
RTVSPropertyOp30
 70
     1
102
RTVSPropertyOp31
 70
     1
102
RTVSPropertyOp32
 70
     1
  0
ENDSEC
  0
EOF
