  0
SECTION
  2
HEADER
  9
$ACADVER
  1
AC1015
  9
$ACADMAINTVER
 70
    20
  9
$DWGCODEPAGE
  3
ANSI_1252
  9
$INSBASE
 10
0.0
 20
0.0
 30
0.0
  9
$EXTMIN
 10
-19.99999556000001
 20
-19.99999365000043
 30
0.0
  9
$EXTMAX
 10
233.4199839427064
 20
287.6348267953136
 30
0.0
  9
$LIMMIN
 10
0.0
 20
0.0
  9
$LIMMAX
 10
210.0
 20
297.0
  9
$ORTHOMODE
 70
     0
  9
$REGENMODE
 70
     1
  9
$FILLMODE
 70
     1
  9
$QTEXTMODE
 70
     0
  9
$MIRRTEXT
 70
     1
  9
$LTSCALE
 40
25.4
  9
$ATTMODE
 70
     1
  9
$TEXTSIZE
 40
0.2
  9
$TRACEWID
 40
0.05
  9
$TEXTSTYLE
  7
Standard
  9
$CLAYER
  8
0
  9
$CELTYPE
  6
CONTINUOUS
  9
$CECOLOR
 62
   256
  9
$CELTSCALE
 40
1.0
  9
$DISPSILH
 70
     0
  9
$DIMSCALE
 40
1.0
  9
$DIMASZ
 40
0.18
  9
$DIMEXO
 40
0.0625
  9
$DIMDLI
 40
0.38
  9
$DIMRND
 40
0.0
  9
$DIMDLE
 40
0.0
  9
$DIMEXE
 40
0.18
  9
$DIMTP
 40
0.0
  9
$DIMTM
 40
0.0
  9
$DIMTXT
 40
0.18
  9
$DIMCEN
 40
0.09
  9
$DIMTSZ
 40
0.0
  9
$DIMTOL
 70
     0
  9
$DIMLIM
 70
     0
  9
$DIMTIH
 70
     1
  9
$DIMTOH
 70
     1
  9
$DIMSE1
 70
     0
  9
$DIMSE2
 70
     0
  9
$DIMTAD
 70
     0
  9
$DIMZIN
 70
     0
  9
$DIMBLK
  1

  9
$DIMASO
 70
     1
  9
$DIMSHO
 70
     1
  9
$DIMPOST
  1

  9
$DIMAPOST
  1

  9
$DIMALT
 70
     0
  9
$DIMALTD
 70
     2
  9
$DIMALTF
 40
25.4
  9
$DIMLFAC
 40
1.0
  9
$DIMTOFL
 70
     0
  9
$DIMTVP
 40
0.0
  9
$DIMTIX
 70
     0
  9
$DIMSOXD
 70
     0
  9
$DIMSAH
 70
     0
  9
$DIMBLK1
  1

  9
$DIMBLK2
  1

  9
$DIMSTYLE
  2
Standard
  9
$DIMCLRD
 70
     0
  9
$DIMCLRE
 70
     0
  9
$DIMCLRT
 70
     0
  9
$DIMTFAC
 40
1.0
  9
$DIMGAP
 40
0.09
  9
$DIMJUST
 70
     0
  9
$DIMSD1
 70
     0
  9
$DIMSD2
 70
     0
  9
$DIMTOLJ
 70
     1
  9
$DIMTZIN
 70
     0
  9
$DIMALTZ
 70
     0
  9
$DIMALTTZ
 70
     0
  9
$DIMUPT
 70
     0
  9
$DIMDEC
 70
     4
  9
$DIMTDEC
 70
     4
  9
$DIMALTU
 70
     2
  9
$DIMALTTD
 70
     2
  9
$DIMTXSTY
  7
Standard
  9
$DIMAUNIT
 70
     0
  9
$DIMADEC
 70
     0
  9
$DIMALTRND
 40
0.0
  9
$DIMAZIN
 70
     0
  9
$DIMDSEP
 70
     0
  9
$DIMATFIT
 70
     3
  9
$DIMFRAC
 70
     0
  9
$DIMLDRBLK
  1

  9
$DIMLUNIT
 70
     2
  9
$DIMLWD
 70
     0
  9
$DIMLWE
 70
     0
  9
$DIMTMOVE
 70
     0
  9
$LUNITS
 70
     2
  9
$LUPREC
 70
     4
  9
$SKETCHINC
 40
0.1
  9
$FILLETRAD
 40
0.0
  9
$AUNITS
 70
     0
  9
$AUPREC
 70
     0
  9
$MENU
  1
acad
  9
$ELEVATION
 40
0.0
  9
$PELEVATION
 40
0.0
  9
$THICKNESS
 40
0.0
  9
$LIMCHECK
 70
     0
  9
$CHAMFERA
 40
0.0
  9
$CHAMFERB
 40
0.0
  9
$CHAMFERC
 40
0.0
  9
$CHAMFERD
 40
0.0
  9
$SKPOLY
 70
     0
  9
$TDCREATE
 40
2455681.647224537
  9
$TDUCREATE
 40
2455681.563891204
  9
$TDUPDATE
 40
2455681.647856863
  9
$TDUUPDATE
 40
2455681.564523530
  9
$TDINDWG
 40
0.0006596296
  9
$TDUSRTIMER
 40
0.0006596296
  9
$USRTIMER
 70
     1
  9
$ANGBASE
 50
0.0
  9
$ANGDIR
 70
     0
  9
$PDMODE
 70
     0
  9
$PDSIZE
 40
0.0
  9
$PLINEWID
 40
0.0
  9
$SPLFRAME
 70
     0
  9
$SPLINETYPE
 70
     6
  9
$SPLINESEGS
 70
     8
  9
$HANDSEED
  5
47F
  9
$SURFTAB1
 70
     6
  9
$SURFTAB2
 70
     6
  9
$SURFTYPE
 70
     6
  9
$SURFU
 70
     6
  9
$SURFV
 70
     6
  9
$UCSBASE
  2

  9
$UCSNAME
  2

  9
$UCSORG
 10
0.0
 20
0.0
 30
0.0
  9
$UCSXDIR
 10
1.0
 20
0.0
 30
0.0
  9
$UCSYDIR
 10
0.0
 20
1.0
 30
0.0
  9
$UCSORTHOREF
  2

  9
$UCSORTHOVIEW
 70
     0
  9
$UCSORGTOP
 10
0.0
 20
0.0
 30
0.0
  9
$UCSORGBOTTOM
 10
0.0
 20
0.0
 30
0.0
  9
$UCSORGLEFT
 10
0.0
 20
0.0
 30
0.0
  9
$UCSORGRIGHT
 10
0.0
 20
0.0
 30
0.0
  9
$UCSORGFRONT
 10
0.0
 20
0.0
 30
0.0
  9
$UCSORGBACK
 10
0.0
 20
0.0
 30
0.0
  9
$PUCSBASE
  2

  9
$PUCSNAME
  2

  9
$PUCSORG
 10
0.0
 20
0.0
 30
0.0
  9
$PUCSXDIR
 10
1.0
 20
0.0
 30
0.0
  9
$PUCSYDIR
 10
0.0
 20
1.0
 30
0.0
  9
$PUCSORTHOREF
  2

  9
$PUCSORTHOVIEW
 70
     0
  9
$PUCSORGTOP
 10
0.0
 20
0.0
 30
0.0
  9
$PUCSORGBOTTOM
 10
0.0
 20
0.0
 30
0.0
  9
$PUCSORGLEFT
 10
0.0
 20
0.0
 30
0.0
  9
$PUCSORGRIGHT
 10
0.0
 20
0.0
 30
0.0
  9
$PUCSORGFRONT
 10
0.0
 20
0.0
 30
0.0
  9
$PUCSORGBACK
 10
0.0
 20
0.0
 30
0.0
  9
$USERI1
 70
     0
  9
$USERI2
 70
     0
  9
$USERI3
 70
     0
  9
$USERI4
 70
     0
  9
$USERI5
 70
     0
  9
$USERR1
 40
0.0
  9
$USERR2
 40
0.0
  9
$USERR3
 40
0.0
  9
$USERR4
 40
0.0
  9
$USERR5
 40
0.0
  9
$WORLDVIEW
 70
     1
  9
$SHADEDGE
 70
     3
  9
$SHADEDIF
 70
    70
  9
$TILEMODE
 70
     1
  9
$MAXACTVP
 70
    16
  9
$PINSBASE
 10
0.0
 20
0.0
 30
0.0
  9
$PLIMCHECK
 70
     0
  9
$PEXTMIN
 10
1.000000000000000E+20
 20
1.000000000000000E+20
 30
1.000000000000000E+20
  9
$PEXTMAX
 10
-1.000000000000000E+20
 20
-1.000000000000000E+20
 30
-1.000000000000000E+20
  9
$PLIMMIN
 10
0.0
 20
0.0
  9
$PLIMMAX
 10
12.0
 20
9.0
  9
$UNITMODE
 70
     0
  9
$VISRETAIN
 70
     0
  9
$PLINEGEN
 70
     1
  9
$PSLTSCALE
 70
     0
  9
$TREEDEPTH
 70
  3020
  9
$CMLSTYLE
  2
Standard
  9
$CMLJUST
 70
     0
  9
$CMLSCALE
 40
1.0
  9
$PROXYGRAPHICS
 70
     0
  9
$MEASUREMENT
 70
     0
  9
$CELWEIGHT
370
     0
  9
$ENDCAPS
280
     0
  9
$JOINSTYLE
280
     0
  9
$LWDISPLAY
290
     0
  9
$INSUNITS
 70
     0
  9
$HYPERLINKBASE
  1

  9
$STYLESHEET
  1

  9
$XEDIT
290
     1
  9
$CEPSNTYPE
380
     0
  9
$PSTYLEMODE
290
     1
  9
$FINGERPRINTGUID
  2

  9
$VERSIONGUID
  2
{1DA8C332-5D50-4C0F-9761-F941CA711EA7}
  9
$EXTNAMES
290
     1
  9
$PSVPSCALE
 40
0.0
  9
$OLESTARTUP
290
     0
  0
ENDSEC
  0
SECTION
  2
CLASSES
  0
CLASS
  1
IMAGE
  2
AcDbRasterImage
  3
ISM
 90
    34943
280
     0
281
     1
  0
CLASS
  1
DICTIONARYVAR
  2
AcDbDictionaryVar
  3
ObjectDBX Classes
 90
        0
280
     0
281
     0
  0
CLASS
  1
RASTERVARIABLES
  2
AcDbRasterVariables
  3
ISM
 90
    32768
280
     0
281
     0
  0
CLASS
  1
IMAGEDEF
  2
AcDbRasterImageDef
  3
ISM
 90
    32768
280
     0
281
     0
  0
CLASS
  1
IMAGEDEF_REACTOR
  2
AcDbRasterImageDefReactor
  3
ISM
 90
    32769
280
     0
281
     0
  0
CLASS
  1
IDBUFFER
  2
AcDbIdBuffer
  3
ObjectDBX Classes
 90
    32768
280
     0
281
     0
  0
CLASS
  1
SPATIAL_FILTER
  2
AcDbSpatialFilter
  3
ObjectDBX Classes
 90
    32768
280
     0
281
     0
  0
CLASS
  1
SORTENTSTABLE
  2
AcDbSortentsTable
  3
ObjectDBX Classes
 90
        0
280
     0
281
     0
  0
CLASS
  1
LAYER_INDEX
  2
AcDbLayerIndex
  3
ObjectDBX Classes
 90
    32768
280
     0
281
     0
  0
CLASS
  1
SPATIAL_INDEX
  2
AcDbSpatialIndex
  3
ObjectDBX Classes
 90
    32768
280
     0
281
     0
  0
CLASS
  1
OBJECT_PTR
  2
CAseDLPNTableRecord
  3
ASE-LPNTableRecord
 90
    32769
280
     0
281
     0
  0
CLASS
  1
LAYOUT
  2
AcDbLayout
  3
ObjectDBX Classes
 90
        0
280
     0
281
     0
  0
CLASS
  1
PLOTSETTINGS
  2
AcDbPlotSettings
  3
ObjectDBX Classes
 90
    32768
280
     0
281
     0
  0
CLASS
  1
ACDBDICTIONARYWDFLT
  2
AcDbDictionaryWithDefault
  3
ObjectDBX Classes
 90
        0
280
     0
281
     0
  0
CLASS
  1
ACDBPLACEHOLDER
  2
AcDbPlaceHolder
  3
ObjectDBX Classes
 90
        0
280
     0
281
     0
  0
CLASS
  1
VBA_PROJECT
  2
AcDbVbaProject
  3
acad
 90
    32768
280
     0
281
     0
  0
CLASS
  1
WIPEOUT
  2
AcDbWipeout
  3
"WipeOut|Product Desc: Object Enabler for WipeOut entity                        |Company: Autodesk, Inc.                        |WEB Address: www.autodesk.com"
 90
    34943
280
     0
281
     1
  0
CLASS
  1
WIPEOUTVARIABLES
  2
AcDbWipeoutVariables
  3
"WipeOut|Product Desc:     WipeOut Dbx Application|Company:          Autodesk, Inc.|WEB Address:      www.autodesk.com"
 90
        0
280
     0
281
     0
  0
CLASS
  1
RTEXT
  2
RText
  3
RText|AutoCAD Express Tool|expresstools@autodesk.com
 90
    32768
280
     0
281
     1
  0
CLASS
  1
ARCALIGNEDTEXT
  2
AcDbArcAlignedText
  3
ATEXT|AutoCAD Express Tool|expresstools@autodesk.com
 90
    32768
280
     0
281
     1
  0
CLASS
  1
MATERIAL
  2
AcDbMaterial
  3
ObjectDBX Classes
 90
     1153
280
     0
281
     0
  0
CLASS
  1
VISUALSTYLE
  2
AcDbVisualStyle
  3
ObjectDBX Classes
 90
     4095
280
     0
281
     0
  0
CLASS
  1
SCALE
  2
AcDbScale
  3
ObjectDBX Classes
 90
     1153
280
     0
281
     0
  0
CLASS
  1
TABLESTYLE
  2
AcDbTableStyle
  3
ObjectDBX Classes
 90
     4095
280
     0
281
     0
  0
CLASS
  1
MLEADERSTYLE
  2
AcDbMLeaderStyle
  3
ACDB_MLEADERSTYLE_CLASS
 90
     4095
280
     0
281
     0
  0
CLASS
  1
CELLSTYLEMAP
  2
AcDbCellStyleMap
  3
ObjectDBX Classes
 90
     1152
280
     0
281
     0
  0
ENDSEC
  0
SECTION
  2
TABLES
  0
TABLE
  2
VPORT
  5
7
330
0
100
AcDbSymbolTable
 70
     1
  0
VPORT
  5
15
330
7
100
AcDbSymbolTableRecord
100
AcDbViewportTableRecord
  2
*ACTIVE
 70
     0
 10
0.0
 20
0.0
 11
1.0
 21
1.0
 12
207.1909124189189
 22
148.5
 13
0.0
 23
0.0
 14
1.0
 24
1.0
 15
0.0
 25
0.0
 16
0.0
 26
0.0
 36
1.0
 17
0.0
 27
0.0
 37
0.0
 40
297.0
 41
2.292383292383292
 42
50.0
 43
0.0
 44
0.0
 50
0.0
 51
0.0
 71
     0
 72
   100
 73
     1
 74
     1
 75
     0
 76
     0
 77
     0
 78
     0
281
     0
 65
     0
110
0.0
120
0.0
130
0.0
111
1.0
121
0.0
131
0.0
112
0.0
122
1.0
132
0.0
 79
     0
146
0.0
  0
ENDTAB
  0
TABLE
  2
LTYPE
  5
4
330
0
100
AcDbSymbolTable
 70
     5
  0
LTYPE
  5
11
330
4
100
AcDbSymbolTableRecord
100
AcDbLinetypeTableRecord
  2
ByBlock
 70
     0
  3

 72
    65
 73
     0
 40
0.0
  0
LTYPE
  5
12
330
4
100
AcDbSymbolTableRecord
100
AcDbLinetypeTableRecord
  2
ByLayer
 70
     0
  3

 72
    65
 73
     0
 40
0.0
  0
LTYPE
  5
13
330
4
100
AcDbSymbolTableRecord
100
AcDbLinetypeTableRecord
  2
CONTINUOUS
 70
     0
  3
Solid line
 72
    65
 73
     0
 40
0.0
  0
LTYPE
  5
28
330
4
100
AcDbSymbolTableRecord
100
AcDbLinetypeTableRecord
  2
HIDDEN2
 70
     0
  3
_ _ _ _ _ _ _ _ _ _ _ _ _ _ _ _ _ _ _ _ _ _ _ _
 72
    65
 73
     2
 40
0.1875
 49
0.125
 74
     0
 49
-0.0625
 74
     0
  0
LTYPE
  5
29
330
4
100
AcDbSymbolTableRecord
100
AcDbLinetypeTableRecord
  2
CENTER2
 70
     0
  3
___ _ ___ _ ___ _ ___ _ ___ _ ___ _ ___ _ ___ _
 72
    65
 73
     4
 40
1.125
 49
0.75
 74
     0
 49
-0.125
 74
     0
 49
0.125
 74
     0
 49
-0.125
 74
     0
  0
LTYPE
  5
2A
330
4
100
AcDbSymbolTableRecord
100
AcDbLinetypeTableRecord
  2
PHANTOM2
 70
     0
  3
___ _ _ ___ _ _ ___ _ _ ___ _ _ ___ _ _ ___ _ _
 72
    65
 73
     6
 40
1.25
 49
0.625
 74
     0
 49
-0.125
 74
     0
 49
0.125
 74
     0
 49
-0.125
 74
     0
 49
0.125
 74
     0
 49
-0.125
 74
     0
  0
LTYPE
  5
2B
330
4
100
AcDbSymbolTableRecord
100
AcDbLinetypeTableRecord
  2
DOT2
 70
     0
  3
...............................................
 72
    65
 73
     2
 40
0.125
 49
0.0
 74
     0
 49
-0.125
 74
     0
  0
ENDTAB
  0
TABLE
  2
LAYER
  5
2
330
0
100
AcDbSymbolTable
 70
    16
  0
LAYER
  5
14
102
{ACAD_XDICTIONARY
360
41A
102
}
330
2
100
AcDbSymbolTableRecord
100
AcDbLayerTableRecord
  2
0
 70
     0
 62
     7
  6
CONTINUOUS
370
    -3
390
1D
  0
LAYER
  5
2D
102
{ACAD_XDICTIONARY
360
41C
102
}
330
2
100
AcDbSymbolTableRecord
100
AcDbLayerTableRecord
  2
1
 70
     0
 62
     7
  6
CONTINUOUS
370
    -3
390
1D
  0
LAYER
  5
2F
102
{ACAD_XDICTIONARY
360
41E
102
}
330
2
100
AcDbSymbolTableRecord
100
AcDbLayerTableRecord
  2
11
 70
     0
 62
     7
  6
CONTINUOUS
370
    -3
390
1D
  0
LAYER
  5
31
102
{ACAD_XDICTIONARY
360
420
102
}
330
2
100
AcDbSymbolTableRecord
100
AcDbLayerTableRecord
  2
7
 70
     0
 62
     7
  6
CONTINUOUS
370
    -3
390
1D
  0
LAYER
  5
33
102
{ACAD_XDICTIONARY
360
422
102
}
330
2
100
AcDbSymbolTableRecord
100
AcDbLayerTableRecord
  2
AM_0
 70
     0
 62
     7
  6
CONTINUOUS
370
    -3
390
1D
  0
LAYER
  5
35
102
{ACAD_XDICTIONARY
360
424
102
}
330
2
100
AcDbSymbolTableRecord
100
AcDbLayerTableRecord
  2
AM_1
 70
     0
 62
     7
  6
CONTINUOUS
370
    -3
390
1D
  0
LAYER
  5
37
102
{ACAD_XDICTIONARY
360
426
102
}
330
2
100
AcDbSymbolTableRecord
100
AcDbLayerTableRecord
  2
AM_5
 70
     0
 62
     7
  6
CONTINUOUS
370
    -3
390
1D
  0
LAYER
  5
39
102
{ACAD_XDICTIONARY
360
428
102
}
330
2
100
AcDbSymbolTableRecord
100
AcDbLayerTableRecord
  2
AM_6
 70
     0
 62
     7
  6
CONTINUOUS
370
    -3
390
1D
  0
LAYER
  5
3B
102
{ACAD_XDICTIONARY
360
42A
102
}
330
2
100
AcDbSymbolTableRecord
100
AcDbLayerTableRecord
  2
AM_7
 70
     0
 62
     7
  6
CONTINUOUS
370
    -3
390
1D
  0
LAYER
  5
3D
102
{ACAD_XDICTIONARY
360
42C
102
}
330
2
100
AcDbSymbolTableRecord
100
AcDbLayerTableRecord
  2
AM_8
 70
     0
 62
     7
  6
CONTINUOUS
370
    -3
390
1D
  0
LAYER
  5
3F
102
{ACAD_XDICTIONARY
360
42E
102
}
330
2
100
AcDbSymbolTableRecord
100
AcDbLayerTableRecord
  2
AM_BOR
 70
     0
 62
     7
  6
CONTINUOUS
370
    -3
390
1D
  0
LAYER
  5
41
102
{ACAD_XDICTIONARY
360
430
102
}
330
2
100
AcDbSymbolTableRecord
100
AcDbLayerTableRecord
  2
DEFAULT
 70
     0
 62
     7
  6
CONTINUOUS
370
    -3
390
1D
  0
LAYER
  5
43
330
2
100
AcDbSymbolTableRecord
100
AcDbLayerTableRecord
  2
DEFPOINTS
 70
     0
 62
     7
  6
CONTINUOUS
290
     0
370
    -3
390
1D
  0
LAYER
  5
45
102
{ACAD_XDICTIONARY
360
432
102
}
330
2
100
AcDbSymbolTableRecord
100
AcDbLayerTableRecord
  2
PREDEFINITO
 70
     0
 62
     7
  6
CONTINUOUS
370
    -3
390
1D
  0
LAYER
  5
47
102
{ACAD_XDICTIONARY
360
434
102
}
330
2
100
AcDbSymbolTableRecord
100
AcDbLayerTableRecord
  2
PROFILATI-IN-ALLUMINIO
 70
     0
 62
     7
  6
CONTINUOUS
370
    -3
390
1D
  0
LAYER
  5
49
102
{ACAD_XDICTIONARY
360
436
102
}
330
2
100
AcDbSymbolTableRecord
100
AcDbLayerTableRecord
  2
TESTI
 70
     0
 62
     7
  6
CONTINUOUS
370
    -3
390
1D
  0
ENDTAB
  0
TABLE
  2
STYLE
  5
3
330
0
100
AcDbSymbolTable
 70
     5
  0
STYLE
  5
17
330
3
100
AcDbSymbolTableRecord
100
AcDbTextStyleTableRecord
  2
Standard
 70
     0
 40
0.0
 41
1.0
 50
0.0
 71
     0
 42
0.2
  3
txt
  4

  0
STYLE
  5
5C
330
3
100
AcDbSymbolTableRecord
100
AcDbTextStyleTableRecord
  2
seansi_ttf
 70
     0
 40
0.0
 41
1.0
 50
0.0
 71
     0
 42
0.2
  3
seansi.ttf
  4

1001
ACAD
1000
Stencil
1071
        2
  0
STYLE
  5
5E
330
3
100
AcDbSymbolTableRecord
100
AcDbTextStyleTableRecord
  2
arial_ttf
 70
     0
 40
0.0
 41
1.0
 50
0.0
 71
     0
 42
0.2
  3
arial.ttf
  4

1001
ACAD
1000
Arial
1071
        2
  0
STYLE
  5
B2
330
3
100
AcDbSymbolTableRecord
100
AcDbTextStyleTableRecord
  2
seiso_ttfB
 70
     0
 40
0.0
 41
1.0
 50
0.0
 71
     0
 42
0.2
  3
seiso.ttf
  4

1001
ACAD
1000
Solid Edge ISO
1071
 33554434
  0
STYLE
  5
B9
330
3
100
AcDbSymbolTableRecord
100
AcDbTextStyleTableRecord
  2
seiso_ttf
 70
     0
 40
0.0
 41
1.0
 50
0.0
 71
     0
 42
0.2
  3
seiso.ttf
  4

1001
ACAD
1000
Solid Edge ISO
1071
        2
  0
ENDTAB
  0
TABLE
  2
VIEW
  5
5
330
0
100
AcDbSymbolTable
 70
     0
  0
ENDTAB
  0
TABLE
  2
UCS
  5
6
330
0
100
AcDbSymbolTable
 70
     0
  0
ENDTAB
  0
TABLE
  2
APPID
  5
8
330
0
100
AcDbSymbolTable
 70
     3
  0
APPID
  5
16
330
8
100
AcDbSymbolTableRecord
100
AcDbRegAppTableRecord
  2
ACAD
 70
     0
  0
APPID
  5
43A
330
8
100
AcDbSymbolTableRecord
100
AcDbRegAppTableRecord
  2
DCO15
 70
     0
  0
APPID
  5
47E
330
8
100
AcDbSymbolTableRecord
100
AcDbRegAppTableRecord
  2
ACAD_MLEADERVER
 70
     0
  0
ENDTAB
  0
TABLE
  2
DIMSTYLE
  5
9
330
0
100
AcDbSymbolTable
 70
     2
100
AcDbDimStyleTable
 71
     0
  0
DIMSTYLE
105
18
330
9
100
AcDbSymbolTableRecord
100
AcDbDimStyleTableRecord
  2
Standard
 70
     0
289
     0
340
17
  0
DIMSTYLE
105
BA
330
9
100
AcDbSymbolTableRecord
100
AcDbDimStyleTableRecord
  2
ISO
 70
     0
 41
3.0
 42
0.0
 44
1.5
 73
     0
 74
     0
 77
     1
 78
     8
140
3.0
141
1.5
147
1.5
172
     1
173
     1
176
   136
177
   136
178
   136
271
     0
272
     0
278
    44
284
     8
340
B9
343
B8
344
B8
  0
ENDTAB
  0
TABLE
  2
BLOCK_RECORD
  5
1
330
0
100
AcDbSymbolTable
 70
    41
  0
BLOCK_RECORD
  5
A
102
{ACAD_XDICTIONARY
360
3F2
102
}
330
1
100
AcDbSymbolTableRecord
100
AcDbBlockTableRecord
  2
*MODEL_SPACE
340
20
  0
BLOCK_RECORD
  5
B
330
1
100
AcDbSymbolTableRecord
100
AcDbBlockTableRecord
  2
*PAPER_SPACE
340
21
  0
BLOCK_RECORD
  5
B8
330
1
100
AcDbSymbolTableRecord
100
AcDbBlockTableRecord
  2
_SE_FILLED
340
0
102
{BLKREFS
331
332
331
333
331
33B
331
33C
331
346
331
347
331
34F
331
350
331
358
331
359
331
363
331
364
331
36C
331
36D
331
377
331
378
331
380
331
381
331
389
331
38A
331
394
331
395
331
39D
331
39E
331
3A6
331
3A7
331
3AF
331
3B0
331
3B8
331
3B9
331
3C1
331
3C2
331
3CA
331
3CB
331
3D5
331
3D6
331
3E0
331
3E1
102
}
  0
BLOCK_RECORD
  5
BB
330
1
100
AcDbSymbolTableRecord
100
AcDbBlockTableRecord
  2
SE0
340
0
102
{BLKREFS
331
12C
102
}
  0
BLOCK_RECORD
  5
BE
330
1
100
AcDbSymbolTableRecord
100
AcDbBlockTableRecord
  2
DMBLK1067
340
0
  0
BLOCK_RECORD
  5
C0
330
1
100
AcDbSymbolTableRecord
100
AcDbBlockTableRecord
  2
SE1
340
0
  0
BLOCK_RECORD
  5
C3
330
1
100
AcDbSymbolTableRecord
100
AcDbBlockTableRecord
  2
DMBLK1068
340
0
  0
BLOCK_RECORD
  5
C5
330
1
100
AcDbSymbolTableRecord
100
AcDbBlockTableRecord
  2
SE2
340
0
  0
BLOCK_RECORD
  5
C8
330
1
100
AcDbSymbolTableRecord
100
AcDbBlockTableRecord
  2
DMBLK1069
340
0
  0
BLOCK_RECORD
  5
CA
330
1
100
AcDbSymbolTableRecord
100
AcDbBlockTableRecord
  2
SE3
340
0
  0
BLOCK_RECORD
  5
CD
330
1
100
AcDbSymbolTableRecord
100
AcDbBlockTableRecord
  2
DMBLK1070
340
0
  0
BLOCK_RECORD
  5
CF
330
1
100
AcDbSymbolTableRecord
100
AcDbBlockTableRecord
  2
SE4
340
0
  0
BLOCK_RECORD
  5
D2
330
1
100
AcDbSymbolTableRecord
100
AcDbBlockTableRecord
  2
DMBLK1071
340
0
  0
BLOCK_RECORD
  5
D4
330
1
100
AcDbSymbolTableRecord
100
AcDbBlockTableRecord
  2
SE5
340
0
  0
BLOCK_RECORD
  5
D7
330
1
100
AcDbSymbolTableRecord
100
AcDbBlockTableRecord
  2
DMBLK1072
340
0
  0
BLOCK_RECORD
  5
D9
330
1
100
AcDbSymbolTableRecord
100
AcDbBlockTableRecord
  2
SE6
340
0
  0
BLOCK_RECORD
  5
DC
330
1
100
AcDbSymbolTableRecord
100
AcDbBlockTableRecord
  2
DMBLK1073
340
0
  0
BLOCK_RECORD
  5
DE
330
1
100
AcDbSymbolTableRecord
100
AcDbBlockTableRecord
  2
SE7
340
0
  0
BLOCK_RECORD
  5
E1
330
1
100
AcDbSymbolTableRecord
100
AcDbBlockTableRecord
  2
DMBLK1074
340
0
  0
BLOCK_RECORD
  5
E3
330
1
100
AcDbSymbolTableRecord
100
AcDbBlockTableRecord
  2
SE8
340
0
  0
BLOCK_RECORD
  5
E6
330
1
100
AcDbSymbolTableRecord
100
AcDbBlockTableRecord
  2
DMBLK1075
340
0
  0
BLOCK_RECORD
  5
E8
330
1
100
AcDbSymbolTableRecord
100
AcDbBlockTableRecord
  2
SE9
340
0
  0
BLOCK_RECORD
  5
EB
330
1
100
AcDbSymbolTableRecord
100
AcDbBlockTableRecord
  2
DMBLK1076
340
0
  0
BLOCK_RECORD
  5
ED
330
1
100
AcDbSymbolTableRecord
100
AcDbBlockTableRecord
  2
SE10
340
0
  0
BLOCK_RECORD
  5
F0
330
1
100
AcDbSymbolTableRecord
100
AcDbBlockTableRecord
  2
DMBLK1077
340
0
  0
BLOCK_RECORD
  5
F2
330
1
100
AcDbSymbolTableRecord
100
AcDbBlockTableRecord
  2
SE11
340
0
  0
BLOCK_RECORD
  5
F5
330
1
100
AcDbSymbolTableRecord
100
AcDbBlockTableRecord
  2
DMBLK1078
340
0
  0
BLOCK_RECORD
  5
F7
330
1
100
AcDbSymbolTableRecord
100
AcDbBlockTableRecord
  2
SE12
340
0
  0
BLOCK_RECORD
  5
FA
330
1
100
AcDbSymbolTableRecord
100
AcDbBlockTableRecord
  2
DMBLK1079
340
0
  0
BLOCK_RECORD
  5
FC
330
1
100
AcDbSymbolTableRecord
100
AcDbBlockTableRecord
  2
SE13
340
0
  0
BLOCK_RECORD
  5
FF
330
1
100
AcDbSymbolTableRecord
100
AcDbBlockTableRecord
  2
DMBLK1080
340
0
  0
BLOCK_RECORD
  5
101
330
1
100
AcDbSymbolTableRecord
100
AcDbBlockTableRecord
  2
SE14
340
0
  0
BLOCK_RECORD
  5
104
330
1
100
AcDbSymbolTableRecord
100
AcDbBlockTableRecord
  2
DMBLK1081
340
0
  0
BLOCK_RECORD
  5
106
330
1
100
AcDbSymbolTableRecord
100
AcDbBlockTableRecord
  2
SE15
340
0
  0
BLOCK_RECORD
  5
109
330
1
100
AcDbSymbolTableRecord
100
AcDbBlockTableRecord
  2
DMBLK1082
340
0
  0
BLOCK_RECORD
  5
10B
330
1
100
AcDbSymbolTableRecord
100
AcDbBlockTableRecord
  2
SE16
340
0
  0
BLOCK_RECORD
  5
10E
330
1
100
AcDbSymbolTableRecord
100
AcDbBlockTableRecord
  2
DMBLK1083
340
0
  0
BLOCK_RECORD
  5
110
330
1
100
AcDbSymbolTableRecord
100
AcDbBlockTableRecord
  2
SE17
340
0
  0
BLOCK_RECORD
  5
113
330
1
100
AcDbSymbolTableRecord
100
AcDbBlockTableRecord
  2
DMBLK1084
340
0
  0
BLOCK_RECORD
  5
115
330
1
100
AcDbSymbolTableRecord
100
AcDbBlockTableRecord
  2
SE18
340
0
  0
BLOCK_RECORD
  5
118
330
1
100
AcDbSymbolTableRecord
100
AcDbBlockTableRecord
  2
DMBLK1085
340
0
  0
BLOCK_RECORD
  5
11A
330
1
100
AcDbSymbolTableRecord
100
AcDbBlockTableRecord
  2
SE19
340
0
  0
BLOCK_RECORD
  5
11D
330
1
100
AcDbSymbolTableRecord
100
AcDbBlockTableRecord
  2
DMBLK1086
340
0
  0
ENDTAB
  0
ENDSEC
  0
SECTION
  2
BLOCKS
  0
BLOCK
  5
D
330
A
100
AcDbEntity
  8
0
100
AcDbBlockBegin
  2
*MODEL_SPACE
 70
     0
 10
0.0
 20
0.0
 30
0.0
  3
*MODEL_SPACE
  1

  0
ENDBLK
  5
E
330
A
100
AcDbEntity
  8
0
100
AcDbBlockEnd
  0
BLOCK
  5
F
330
B
100
AcDbEntity
 67
     1
  8
0
100
AcDbBlockBegin
  2
*PAPER_SPACE
 70
     0
 10
0.0
 20
0.0
 30
0.0
  3
*PAPER_SPACE
  1

  0
ENDBLK
  5
10
330
B
100
AcDbEntity
 67
     1
  8
0
100
AcDbBlockEnd
  0
BLOCK
  5
11F
330
B8
100
AcDbEntity
  8
DEFAULT
  6
Continuous
 62
   136
370
     0
100
AcDbBlockBegin
  2
_SE_FILLED
 70
     0
 10
0.0
 20
0.0
 30
0.0
  3
_SE_FILLED
  1

  0
SOLID
  5
120
330
B8
100
AcDbEntity
  8
DEFAULT
  6
Continuous
 62
   136
370
     0
100
AcDbTrace
 10
0.0
 20
0.0
 30
0.0
 11
-1.0
 21
-0.1665
 31
0.0
 12
-1.0
 22
0.1665
 32
0.0
 13
0.0
 23
0.0
 33
0.0
  0
LINE
  5
121
330
B8
100
AcDbEntity
  8
DEFAULT
  6
Continuous
 62
   136
370
     0
100
AcDbLine
 10
0.0
 20
0.0
 30
0.0
 11
-1.0
 21
0.0
 31
0.0
  0
ENDBLK
  5
122
330
B8
100
AcDbEntity
  8
DEFAULT
  6
Continuous
 62
   136
370
     0
100
AcDbBlockEnd
  0
BLOCK
  5
123
330
BB
100
AcDbEntity
  8
DEFAULT
 62
     1
 48
0.0
370
     0
100
AcDbBlockBegin
  2
SE0
 70
     0
 10
0.0
 20
0.0
 30
0.0
  3
SE0
  1

  0
HATCH
  5
124
330
BB
100
AcDbEntity
  8
DEFAULT
  6
Continuous
 62
   136
100
AcDbHatch
 10
0.0
 20
0.0
 30
0.0
210
0.0
220
0.0
230
1.0
  2
SOLID
 70
     1
 71
     0
 91
        1
 92
        1
 93
        3
 72
     1
 10
87.19511179032037
 20
193.6691315973413
 11
84.19511176424334
 21
193.1691315929952
 72
     1
 10
84.19511176424334
 20
193.1691315929952
 11
87.19511179032037
 21
192.669131588649
 72
     1
 10
87.19511179032037
 20
192.669131588649
 11
87.19511179032037
 21
193.6691315973413
 97
        0
 75
     0
 76
     1
 98
        1
 10
0.0
 20
0.0
  0
HATCH
  5
125
330
BB
100
AcDbEntity
  8
DEFAULT
  6
Continuous
 62
   136
100
AcDbHatch
 10
0.0
 20
0.0
 30
0.0
210
0.0
220
0.0
230
1.0
  2
SOLID
 70
     1
 71
     0
 91
        1
 92
        1
 93
        3
 72
     1
 10
101.48120699525
 20
193.6691315973413
 11
104.481207021327
 21
193.1691315929952
 72
     1
 10
104.481207021327
 20
193.1691315929952
 11
101.48120699525
 21
192.669131588649
 72
     1
 10
101.48120699525
 20
192.669131588649
 11
101.48120699525
 21
193.6691315973413
 97
        0
 75
     0
 76
     1
 98
        1
 10
0.0
 20
0.0
  0
LINE
  5
126
330
BB
100
AcDbEntity
  8
DEFAULT
  6
Continuous
 62
   136
370
     0
100
AcDbLine
 10
84.19511176424334
 20
183.8368621628347
 30
0.0
 11
84.19511176424334
 21
194.6691316060337
 31
0.0
  0
LINE
  5
127
330
BB
100
AcDbEntity
  8
DEFAULT
  6
Continuous
 62
   136
370
     0
100
AcDbLine
 10
104.481207021327
 20
174.6127038911548
 30
0.0
 11
104.481207021327
 21
194.6691316060337
 31
0.0
  0
LINE
  5
128
330
BB
100
AcDbEntity
  8
DEFAULT
  6
Continuous
 62
   136
370
     0
100
AcDbLine
 10
84.19511176424334
 20
193.1691315929952
 30
0.0
 11
104.4812061615498
 21
193.1691315929952
 31
0.0
  0
TEXT
  5
129
330
BB
100
AcDbEntity
  8
DEFAULT
  6
Continuous
 62
   136
370
     0
100
AcDbText
 10
92.53134078107837
 20
193.9191315929952
 30
0.0
 40
3.0
  1
20
  7
seiso_ttf
 11
92.53134078107837
 21
196.9191315929952
 31
0.0
100
AcDbText
 73
     3
  0
ENDBLK
  5
246
330
BB
100
AcDbEntity
  8
0
370
     0
100
AcDbBlockEnd
  0
BLOCK
  5
247
330
BE
100
AcDbEntity
  8
0
370
     0
100
AcDbBlockBegin
  2
DMBLK1067
 70
     0
 10
0.0
 20
0.0
 30
0.0
  3
DMBLK1067
  1

  0
INSERT
  5
12C
330
BE
100
AcDbEntity
  8
DEFAULT
 62
     0
 48
0.0
370
     0
100
AcDbBlockReference
  2
SE0
 10
0.0
 20
0.0
 30
0.0
  0
ENDBLK
  5
12D
330
BE
100
AcDbEntity
  8
DEFAULT
 62
     0
 48
0.0
370
     0
100
AcDbBlockEnd
  0
BLOCK
  5
12E
330
C0
100
AcDbEntity
  8
DEFAULT
 62
     1
 48
0.0
370
     0
100
AcDbBlockBegin
  2
SE1
 70
     0
 10
0.0
 20
0.0
 30
0.0
  3
SE1
  1

  0
HATCH
  5
12F
330
C0
100
AcDbEntity
  8
DEFAULT
  6
Continuous
 62
   136
100
AcDbHatch
 10
0.0
 20
0.0
 30
0.0
210
0.0
220
0.0
230
1.0
  2
SOLID
 70
     1
 71
     0
 91
        1
 92
        1
 93
        3
 72
     1
 10
107.481207047404
 20
193.6691311060703
 11
104.481207021327
 21
193.1691311017242
 72
     1
 10
104.481207021327
 20
193.1691311017242
 11
107.481207047404
 21
192.669131097378
 72
     1
 10
107.481207047404
 20
192.669131097378
 11
107.481207047404
 21
193.6691311060703
 97
        0
 75
     0
 76
     1
 98
        1
 10
0.0
 20
0.0
  0
HATCH
  5
130
330
C0
100
AcDbEntity
  8
DEFAULT
  6
Continuous
 62
   136
100
AcDbHatch
 10
0.0
 20
0.0
 30
0.0
210
0.0
220
0.0
230
1.0
  2
SOLID
 70
     1
 71
     0
 91
        1
 92
        1
 93
        3
 72
     1
 10
121.1951009481667
 20
193.6691311060703
 11
124.1951009742437
 21
193.1691311017242
 72
     1
 10
124.1951009742437
 20
193.1691311017242
 11
121.1951009481667
 21
192.669131097378
 72
     1
 10
121.1951009481667
 20
192.669131097378
 11
121.1951009481667
 21
193.6691311060703
 97
        0
 75
     0
 76
     1
 98
        1
 10
0.0
 20
0.0
  0
LINE
  5
131
330
C0
100
AcDbEntity
  8
DEFAULT
  6
Continuous
 62
   136
370
     0
100
AcDbLine
 10
104.481207021327
 20
174.6127038911548
 30
0.0
 11
104.481207021327
 21
194.6691311147627
 31
0.0
  0
LINE
  5
132
330
C0
100
AcDbEntity
  8
DEFAULT
  6
Continuous
 62
   136
370
     0
100
AcDbLine
 10
124.1951009742437
 20
175.8368639388347
 30
0.0
 11
124.1951009742437
 21
194.6691311147627
 31
0.0
  0
LINE
  5
133
330
C0
100
AcDbEntity
  8
DEFAULT
  6
Continuous
 62
   136
370
     0
100
AcDbLine
 10
104.481207021327
 20
193.1691311017242
 30
0.0
 11
124.19510055408
 21
193.1691311017242
 31
0.0
  0
TEXT
  5
134
330
C0
100
AcDbEntity
  8
DEFAULT
  6
Continuous
 62
   136
370
     0
100
AcDbText
 10
112.5313356058853
 20
193.9191311017242
 30
0.0
 40
3.0
  1
20
  7
seiso_ttf
 11
112.5313356058853
 21
196.9191311017242
 31
0.0
100
AcDbText
 73
     3
  0
ENDBLK
  5
248
330
C0
100
AcDbEntity
  8
0
370
     0
100
AcDbBlockEnd
  0
BLOCK
  5
249
330
C3
100
AcDbEntity
  8
0
370
     0
100
AcDbBlockBegin
  2
DMBLK1068
 70
     0
 10
0.0
 20
0.0
 30
0.0
  3
DMBLK1068
  1

  0
LINE
  5
32F
330
C3
100
AcDbEntity
  8
DEFAULT
  6
Continuous
 62
   136
370
    -2
100
AcDbLine
 10
104.481207021327
 20
174.6127038911548
 30
0.0
 11
104.481207021327
 21
194.6691311017242
 31
0.0
  0
LINE
  5
330
330
C3
100
AcDbEntity
  8
DEFAULT
  6
Continuous
 62
   136
370
    -2
100
AcDbLine
 10
124.1951009742437
 20
175.8368639388347
 30
0.0
 11
124.1951009742437
 21
194.6691311017242
 31
0.0
  0
LINE
  5
331
330
C3
100
AcDbEntity
  8
DEFAULT
  6
Continuous
 62
   136
370
    -2
100
AcDbLine
 10
107.481207021327
 20
193.1691311017242
 30
0.0
 11
121.1951009742437
 21
193.1691311017242
 31
0.0
  0
INSERT
  5
332
330
C3
100
AcDbEntity
  8
DEFAULT
  6
Continuous
 62
   136
370
    -2
100
AcDbBlockReference
  2
_SE_FILLED
 10
104.481207021327
 20
193.1691311017242
 30
0.0
 41
3.0
 42
3.0
 43
3.0
 50
180.0
  0
INSERT
  5
333
330
C3
100
AcDbEntity
  8
DEFAULT
  6
Continuous
 62
   136
370
    -2
100
AcDbBlockReference
  2
_SE_FILLED
 10
124.1951009742437
 20
193.1691311017242
 30
0.0
 41
3.0
 42
3.0
 43
3.0
  0
MTEXT
  5
334
330
C3
100
AcDbEntity
  8
DEFAULT
  6
Continuous
 62
   136
370
     0
100
AcDbMText
 10
114.3381537877035
 20
196.1691311017242
 30
0.0
 40
3.0
 41
0.0
 71
     5
 72
     1
  1
\A1;\A1;20
  7
seiso_ttf
 73
     1
 44
1.0
1001
ACAD
1000
MTEXTBEGIN
1070
    73
1070
     1
1070
    44
1040
1.0
1070
    74
1070
     0
1000
MTEXTEND
  0
POINT
  5
335
330
C3
100
AcDbEntity
  8
DEFPOINTS
  6
Continuous
 62
     0
370
     0
100
AcDbPoint
 10
104.481207021327
 20
174.6127038911548
 30
0.0
  0
POINT
  5
336
330
C3
100
AcDbEntity
  8
DEFPOINTS
  6
Continuous
 62
     0
370
     0
100
AcDbPoint
 10
124.1951009742437
 20
175.8368639388347
 30
0.0
  0
POINT
  5
337
330
C3
100
AcDbEntity
  8
DEFPOINTS
  6
Continuous
 62
     0
370
     0
100
AcDbPoint
 10
124.1951009742437
 20
193.1691311017242
 30
0.0
  0
ENDBLK
  5
138
330
C3
100
AcDbEntity
  8
DEFAULT
 62
     0
 48
0.0
370
     0
100
AcDbBlockEnd
  0
BLOCK
  5
139
330
C5
100
AcDbEntity
  8
DEFAULT
 62
     1
 48
0.0
370
     0
100
AcDbBlockBegin
  2
SE2
 70
     0
 10
0.0
 20
0.0
 30
0.0
  3
SE2
  1

  0
HATCH
  5
13A
330
C5
100
AcDbEntity
  8
DEFAULT
  6
Continuous
 62
   136
100
AcDbHatch
 10
0.0
 20
0.0
 30
0.0
210
0.0
220
0.0
230
1.0
  2
SOLID
 70
     1
 71
     0
 91
        1
 92
        1
 93
        3
 72
     1
 10
87.19511179032037
 20
199.4302846620095
 11
84.19511176424334
 21
198.9302846576634
 72
     1
 10
84.19511176424334
 20
198.9302846576634
 11
87.19511179032037
 21
198.4302846533172
 72
     1
 10
87.19511179032037
 20
198.4302846533172
 11
87.19511179032037
 21
199.4302846620095
 97
        0
 75
     0
 76
     1
 98
        1
 10
0.0
 20
0.0
  0
HATCH
  5
13B
330
C5
100
AcDbEntity
  8
DEFAULT
  6
Continuous
 62
   136
100
AcDbHatch
 10
0.0
 20
0.0
 30
0.0
210
0.0
220
0.0
230
1.0
  2
SOLID
 70
     1
 71
     0
 91
        1
 92
        1
 93
        3
 72
     1
 10
121.1951009481667
 20
199.4302846620095
 11
124.1951009742437
 21
198.9302846576634
 72
     1
 10
124.1951009742437
 20
198.9302846576634
 11
121.1951009481667
 21
198.4302846533172
 72
     1
 10
121.1951009481667
 20
198.4302846533172
 11
121.1951009481667
 21
199.4302846620095
 97
        0
 75
     0
 76
     1
 98
        1
 10
0.0
 20
0.0
  0
LINE
  5
13C
330
C5
100
AcDbEntity
  8
DEFAULT
  6
Continuous
 62
   136
370
     0
100
AcDbLine
 10
84.19511176424334
 20
183.8368621628347
 30
0.0
 11
84.19511176424334
 21
200.4302846707019
 31
0.0
  0
LINE
  5
13D
330
C5
100
AcDbEntity
  8
DEFAULT
  6
Continuous
 62
   136
370
     0
100
AcDbLine
 10
124.1951009742437
 20
175.8368639388347
 30
0.0
 11
124.1951009742437
 21
200.4302846707019
 31
0.0
  0
LINE
  5
13E
330
C5
100
AcDbEntity
  8
DEFAULT
  6
Continuous
 62
   136
370
     0
100
AcDbLine
 10
84.19511176424334
 20
198.9302846576634
 30
0.0
 11
124.1950996943028
 21
198.9302846576634
 31
0.0
  0
TEXT
  5
13F
330
C5
100
AcDbEntity
  8
DEFAULT
  6
Continuous
 62
   136
370
     0
100
AcDbText
 10
102.4223784565458
 20
199.6802846576634
 30
0.0
 40
3.0
  1
40
  7
seiso_ttf
 11
102.4223784565458
 21
202.6802846576634
 31
0.0
100
AcDbText
 73
     3
  0
ENDBLK
  5
24A
330
C5
100
AcDbEntity
  8
0
370
     0
100
AcDbBlockEnd
  0
BLOCK
  5
24B
330
C8
100
AcDbEntity
  8
0
370
     0
100
AcDbBlockBegin
  2
DMBLK1069
 70
     0
 10
0.0
 20
0.0
 30
0.0
  3
DMBLK1069
  1

  0
LINE
  5
338
330
C8
100
AcDbEntity
  8
DEFAULT
  6
Continuous
 62
   136
370
    -2
100
AcDbLine
 10
84.19511176424334
 20
183.8368621628347
 30
0.0
 11
84.19511176424334
 21
200.4302846576634
 31
0.0
  0
LINE
  5
339
330
C8
100
AcDbEntity
  8
DEFAULT
  6
Continuous
 62
   136
370
    -2
100
AcDbLine
 10
124.1951009742437
 20
175.8368639388347
 30
0.0
 11
124.1951009742437
 21
200.4302846576634
 31
0.0
  0
LINE
  5
33A
330
C8
100
AcDbEntity
  8
DEFAULT
  6
Continuous
 62
   136
370
    -2
100
AcDbLine
 10
87.19511176424333
 20
198.9302846576634
 30
0.0
 11
121.1951009742437
 21
198.9302846576634
 31
0.0
  0
INSERT
  5
33B
330
C8
100
AcDbEntity
  8
DEFAULT
  6
Continuous
 62
   136
370
    -2
100
AcDbBlockReference
  2
_SE_FILLED
 10
84.19511176424334
 20
198.9302846576634
 30
0.0
 41
3.0
 42
3.0
 43
3.0
 50
180.0
  0
INSERT
  5
33C
330
C8
100
AcDbEntity
  8
DEFAULT
  6
Continuous
 62
   136
370
    -2
100
AcDbBlockReference
  2
_SE_FILLED
 10
124.1951009742437
 20
198.9302846576634
 30
0.0
 41
3.0
 42
3.0
 43
3.0
  0
MTEXT
  5
33D
330
C8
100
AcDbEntity
  8
DEFAULT
  6
Continuous
 62
   136
370
     0
100
AcDbMText
 10
104.195105729273
 20
201.9302846576634
 30
0.0
 40
3.0
 41
0.0
 71
     5
 72
     1
  1
\A1;\A1;40
  7
seiso_ttf
 73
     1
 44
1.0
1001
ACAD
1000
MTEXTBEGIN
1070
    73
1070
     1
1070
    44
1040
1.0
1070
    74
1070
     0
1000
MTEXTEND
  0
POINT
  5
33E
330
C8
100
AcDbEntity
  8
DEFPOINTS
  6
Continuous
 62
     0
370
     0
100
AcDbPoint
 10
84.19511176424334
 20
183.8368621628347
 30
0.0
  0
POINT
  5
33F
330
C8
100
AcDbEntity
  8
DEFPOINTS
  6
Continuous
 62
     0
370
     0
100
AcDbPoint
 10
124.1951009742437
 20
175.8368639388347
 30
0.0
  0
POINT
  5
340
330
C8
100
AcDbEntity
  8
DEFPOINTS
  6
Continuous
 62
     0
370
     0
100
AcDbPoint
 10
124.1951009742437
 20
198.9302846576634
 30
0.0
  0
ENDBLK
  5
143
330
C8
100
AcDbEntity
  8
DEFAULT
 62
     0
 48
0.0
370
     0
100
AcDbBlockEnd
  0
BLOCK
  5
144
330
CA
100
AcDbEntity
  8
DEFAULT
 62
     1
 48
0.0
370
     0
100
AcDbBlockBegin
  2
SE3
 70
     0
 10
0.0
 20
0.0
 30
0.0
  3
SE3
  1

  0
HATCH
  5
145
330
CA
100
AcDbEntity
  8
DEFAULT
  6
Continuous
 62
   136
100
AcDbHatch
 10
0.0
 20
0.0
 30
0.0
210
0.0
220
0.0
230
1.0
  2
SOLID
 70
     1
 71
     0
 91
        1
 92
        1
 93
        3
 72
     1
 10
121.1951009481667
 20
199.430284955344
 11
124.1951009742437
 21
198.9302849509978
 72
     1
 10
124.1951009742437
 20
198.9302849509978
 11
121.1951009481667
 21
198.4302849466517
 72
     1
 10
121.1951009481667
 20
198.4302849466517
 11
121.1951009481667
 21
199.430284955344
 97
        0
 75
     0
 76
     1
 98
        1
 10
0.0
 20
0.0
  0
HATCH
  5
146
330
CA
100
AcDbEntity
  8
DEFAULT
  6
Continuous
 62
   136
100
AcDbHatch
 10
0.0
 20
0.0
 30
0.0
210
0.0
220
0.0
230
1.0
  2
SOLID
 70
     1
 71
     0
 91
        1
 92
        1
 93
        3
 72
     1
 10
130.1951003343208
 20
199.430284955344
 11
127.1951003082438
 21
198.9302849509978
 72
     1
 10
127.1951003082437
 20
198.9302849509978
 11
130.1951003343208
 21
198.4302849466517
 72
     1
 10
130.1951003343208
 20
198.4302849466517
 11
130.1951003343208
 21
199.430284955344
 97
        0
 75
     0
 76
     1
 98
        1
 10
0.0
 20
0.0
  0
LINE
  5
147
330
CA
100
AcDbEntity
  8
DEFAULT
  6
Continuous
 62
   136
370
     0
100
AcDbLine
 10
124.1951009742437
 20
175.8368639388347
 30
0.0
 11
124.1951009742437
 21
200.4302849640363
 31
0.0
  0
LINE
  5
148
330
CA
100
AcDbEntity
  8
DEFAULT
  6
Continuous
 62
   136
370
     0
100
AcDbLine
 10
127.1951003082437
 20
186.3368616078346
 30
0.0
 11
127.1951003082437
 21
200.4302849640363
 31
0.0
  0
LINE
  5
149
330
CA
100
AcDbEntity
  8
DEFAULT
  6
Continuous
 62
   136
370
     0
100
AcDbLine
 10
118.1951009220897
 20
198.9302849509978
 30
0.0
 11
135.0522118173061
 21
198.9302849509978
 31
0.0
  0
TEXT
  5
14A
330
CA
100
AcDbEntity
  8
DEFAULT
  6
Continuous
 62
   136
370
     0
100
AcDbText
 10
132.4340306847809
 20
199.6802849509978
 30
0.0
 40
3.0
  1
3
  7
seiso_ttf
 11
132.4340306847809
 21
202.6802849509978
 31
0.0
100
AcDbText
 73
     3
  0
ENDBLK
  5
24C
330
CA
100
AcDbEntity
  8
0
370
     0
100
AcDbBlockEnd
  0
BLOCK
  5
24D
330
CD
100
AcDbEntity
  8
0
370
     0
100
AcDbBlockBegin
  2
DMBLK1070
 70
     0
 10
0.0
 20
0.0
 30
0.0
  3
DMBLK1070
  1

  0
LINE
  5
341
330
CD
100
AcDbEntity
  8
DEFAULT
  6
Continuous
 62
   136
370
    -2
100
AcDbLine
 10
124.1951009742437
 20
175.8368639388347
 30
0.0
 11
124.1951009742437
 21
200.4302849509978
 31
0.0
  0
LINE
  5
342
330
CD
100
AcDbEntity
  8
DEFAULT
  6
Continuous
 62
   136
370
    -2
100
AcDbLine
 10
127.1951003082437
 20
186.3368616078346
 30
0.0
 11
127.1951003082437
 21
200.4302849509978
 31
0.0
  0
LINE
  5
343
330
CD
100
AcDbEntity
  8
DEFAULT
  6
Continuous
 62
   136
370
    -2
100
AcDbLine
 10
121.1951009742437
 20
198.9302849509978
 30
0.0
 11
118.1951009742437
 21
198.9302849509978
 31
0.0
  0
LINE
  5
344
330
CD
100
AcDbEntity
  8
DEFAULT
  6
Continuous
 62
   136
370
    -2
100
AcDbLine
 10
130.1951003082437
 20
198.9302849509978
 30
0.0
 11
138.1951003082437
 21
198.9302849509978
 31
0.0
  0
LINE
  5
345
330
CD
100
AcDbEntity
  8
DEFAULT
  6
Continuous
 62
   136
370
    -2
100
AcDbLine
 10
124.1951009742437
 20
198.9302849509978
 30
0.0
 11
127.1951003082437
 21
198.9302849509978
 31
0.0
  0
INSERT
  5
346
330
CD
100
AcDbEntity
  8
DEFAULT
  6
Continuous
 62
   136
370
    -2
100
AcDbBlockReference
  2
_SE_FILLED
 10
124.1951009742437
 20
198.9302849509978
 30
0.0
 41
3.0
 42
3.0
 43
3.0
  0
INSERT
  5
347
330
CD
100
AcDbEntity
  8
DEFAULT
  6
Continuous
 62
   136
370
    -2
100
AcDbBlockReference
  2
_SE_FILLED
 10
127.1951003082437
 20
198.9302849509978
 30
0.0
 41
3.0
 42
3.0
 43
3.0
 50
180.0
  0
MTEXT
  5
348
330
CD
100
AcDbEntity
  8
DEFAULT
  6
Continuous
 62
   136
370
     0
100
AcDbMText
 10
135.6951003082437
 20
201.9302849509978
 30
0.0
 40
3.0
 41
0.0
 71
     5
 72
     1
  1
\A1;\A1;3
  7
seiso_ttf
 73
     1
 44
1.0
1001
ACAD
1000
MTEXTBEGIN
1070
    73
1070
     1
1070
    44
1040
1.0
1070
    74
1070
     0
1000
MTEXTEND
  0
POINT
  5
349
330
CD
100
AcDbEntity
  8
DEFPOINTS
  6
Continuous
 62
     0
370
     0
100
AcDbPoint
 10
124.1951009742437
 20
175.8368639388347
 30
0.0
  0
POINT
  5
34A
330
CD
100
AcDbEntity
  8
DEFPOINTS
  6
Continuous
 62
     0
370
     0
100
AcDbPoint
 10
127.1951003082437
 20
186.3368616078346
 30
0.0
  0
POINT
  5
34B
330
CD
100
AcDbEntity
  8
DEFPOINTS
  6
Continuous
 62
     0
370
     0
100
AcDbPoint
 10
127.1951003082437
 20
198.9302849509978
 30
0.0
  0
ENDBLK
  5
14E
330
CD
100
AcDbEntity
  8
DEFAULT
 62
     0
 48
0.0
370
     0
100
AcDbBlockEnd
  0
BLOCK
  5
14F
330
CF
100
AcDbEntity
  8
DEFAULT
 62
     1
 48
0.0
370
     0
100
AcDbBlockBegin
  2
SE4
 70
     0
 10
0.0
 20
0.0
 30
0.0
  3
SE4
  1

  0
HATCH
  5
150
330
CF
100
AcDbEntity
  8
DEFAULT
  6
Continuous
 62
   136
100
AcDbHatch
 10
0.0
 20
0.0
 30
0.0
210
0.0
220
0.0
230
1.0
  2
SOLID
 70
     1
 71
     0
 91
        1
 92
        1
 93
        3
 72
     1
 10
87.19511179032037
 20
204.6676973009718
 11
84.19511176424334
 21
204.1676972966257
 72
     1
 10
84.19511176424334
 20
204.1676972966257
 11
87.19511179032037
 21
203.6676972922795
 72
     1
 10
87.19511179032037
 20
203.6676972922795
 11
87.19511179032037
 21
204.6676973009718
 97
        0
 75
     0
 76
     1
 98
        1
 10
0.0
 20
0.0
  0
HATCH
  5
151
330
CF
100
AcDbEntity
  8
DEFAULT
  6
Continuous
 62
   136
100
AcDbHatch
 10
0.0
 20
0.0
 30
0.0
210
0.0
220
0.0
230
1.0
  2
SOLID
 70
     1
 71
     0
 91
        1
 92
        1
 93
        3
 72
     1
 10
124.1951002821667
 20
204.6676973009718
 11
127.1951003082437
 21
204.1676972966257
 72
     1
 10
127.1951003082437
 20
204.1676972966257
 11
124.1951002821667
 21
203.6676972922795
 72
     1
 10
124.1951002821667
 20
203.6676972922795
 11
124.1951002821667
 21
204.6676973009718
 97
        0
 75
     0
 76
     1
 98
        1
 10
0.0
 20
0.0
  0
LINE
  5
152
330
CF
100
AcDbEntity
  8
DEFAULT
  6
Continuous
 62
   136
370
     0
100
AcDbLine
 10
84.19511176424334
 20
183.8368621628347
 30
0.0
 11
84.19511176424334
 21
205.6676973096642
 31
0.0
  0
LINE
  5
153
330
CF
100
AcDbEntity
  8
DEFAULT
  6
Continuous
 62
   136
370
     0
100
AcDbLine
 10
127.1951003082437
 20
186.3368616078346
 30
0.0
 11
127.1951003082437
 21
205.6676973096642
 31
0.0
  0
LINE
  5
154
330
CF
100
AcDbEntity
  8
DEFAULT
  6
Continuous
 62
   136
370
     0
100
AcDbLine
 10
84.19511176424334
 20
204.1676972966257
 30
0.0
 11
127.1951020486862
 21
204.1676972966257
 31
0.0
  0
TEXT
  5
155
330
CF
100
AcDbEntity
  8
DEFAULT
  6
Continuous
 62
   136
370
     0
100
AcDbText
 10
104.0246523610102
 20
204.9176972966257
 30
0.0
 40
3.0
  1
43
  7
seiso_ttf
 11
104.0246523610102
 21
207.9176972966256
 31
0.0
100
AcDbText
 73
     3
  0
ENDBLK
  5
24E
330
CF
100
AcDbEntity
  8
0
370
     0
100
AcDbBlockEnd
  0
BLOCK
  5
24F
330
D2
100
AcDbEntity
  8
0
370
     0
100
AcDbBlockBegin
  2
DMBLK1071
 70
     0
 10
0.0
 20
0.0
 30
0.0
  3
DMBLK1071
  1

  0
LINE
  5
34C
330
D2
100
AcDbEntity
  8
DEFAULT
  6
Continuous
 62
   136
370
    -2
100
AcDbLine
 10
84.19511176424334
 20
183.8368621628347
 30
0.0
 11
84.19511176424334
 21
205.6676972966256
 31
0.0
  0
LINE
  5
34D
330
D2
100
AcDbEntity
  8
DEFAULT
  6
Continuous
 62
   136
370
    -2
100
AcDbLine
 10
127.1951003082437
 20
186.3368616078346
 30
0.0
 11
127.1951003082437
 21
205.6676972966256
 31
0.0
  0
LINE
  5
34E
330
D2
100
AcDbEntity
  8
DEFAULT
  6
Continuous
 62
   136
370
    -2
100
AcDbLine
 10
87.19511176424333
 20
204.1676972966257
 30
0.0
 11
124.1951003082437
 21
204.1676972966257
 31
0.0
  0
INSERT
  5
34F
330
D2
100
AcDbEntity
  8
DEFAULT
  6
Continuous
 62
   136
370
    -2
100
AcDbBlockReference
  2
_SE_FILLED
 10
84.19511176424334
 20
204.1676972966257
 30
0.0
 41
3.0
 42
3.0
 43
3.0
 50
180.0
  0
INSERT
  5
350
330
D2
100
AcDbEntity
  8
DEFAULT
  6
Continuous
 62
   136
370
    -2
100
AcDbBlockReference
  2
_SE_FILLED
 10
127.1951003082437
 20
204.1676972966257
 30
0.0
 41
3.0
 42
3.0
 43
3.0
  0
MTEXT
  5
351
330
D2
100
AcDbEntity
  8
DEFAULT
  6
Continuous
 62
   136
370
     0
100
AcDbMText
 10
105.6951069064648
 20
207.1676972966256
 30
0.0
 40
3.0
 41
0.0
 71
     5
 72
     1
  1
\A1;\A1;43
  7
seiso_ttf
 73
     1
 44
1.0
1001
ACAD
1000
MTEXTBEGIN
1070
    73
1070
     1
1070
    44
1040
1.0
1070
    74
1070
     0
1000
MTEXTEND
  0
POINT
  5
352
330
D2
100
AcDbEntity
  8
DEFPOINTS
  6
Continuous
 62
     0
370
     0
100
AcDbPoint
 10
84.19511176424334
 20
183.8368621628347
 30
0.0
  0
POINT
  5
353
330
D2
100
AcDbEntity
  8
DEFPOINTS
  6
Continuous
 62
     0
370
     0
100
AcDbPoint
 10
127.1951003082437
 20
186.3368616078346
 30
0.0
  0
POINT
  5
354
330
D2
100
AcDbEntity
  8
DEFPOINTS
  6
Continuous
 62
     0
370
     0
100
AcDbPoint
 10
127.1951003082437
 20
204.1676972966257
 30
0.0
  0
ENDBLK
  5
159
330
D2
100
AcDbEntity
  8
DEFAULT
 62
     0
 48
0.0
370
     0
100
AcDbBlockEnd
  0
BLOCK
  5
15A
330
D4
100
AcDbEntity
  8
DEFAULT
 62
     1
 48
0.0
370
     0
100
AcDbBlockBegin
  2
SE5
 70
     0
 10
0.0
 20
0.0
 30
0.0
  3
SE5
  1

  0
HATCH
  5
15B
330
D4
100
AcDbEntity
  8
DEFAULT
  6
Continuous
 62
   136
100
AcDbHatch
 10
0.0
 20
0.0
 30
0.0
210
0.0
220
0.0
230
1.0
  2
SOLID
 70
     1
 71
     0
 91
        1
 92
        1
 93
        3
 72
     1
 10
77.20055517277597
 20
183.3368615817576
 11
77.70055517712215
 21
186.3368616078346
 72
     1
 10
77.70055517712215
 20
186.3368616078346
 11
78.20055518146833
 21
183.3368615817576
 72
     1
 10
78.20055518146833
 20
183.3368615817576
 11
77.20055517277597
 21
183.3368615817576
 97
        0
 75
     0
 76
     1
 98
        1
 10
0.0
 20
0.0
  0
HATCH
  5
15C
330
D4
100
AcDbEntity
  8
DEFAULT
  6
Continuous
 62
   136
100
AcDbHatch
 10
0.0
 20
0.0
 30
0.0
210
0.0
220
0.0
230
1.0
  2
SOLID
 70
     1
 71
     0
 91
        1
 92
        1
 93
        3
 72
     1
 10
77.20055517277597
 20
149.3368705139117
 11
77.70055517712215
 21
146.3368704878346
 72
     1
 10
77.70055517712215
 20
146.3368704878346
 11
78.20055518146833
 21
149.3368705139117
 72
     1
 10
78.20055518146833
 20
149.3368705139117
 11
77.20055517277597
 21
149.3368705139117
 97
        0
 75
     0
 76
     1
 98
        1
 10
0.0
 20
0.0
  0
LINE
  5
15D
330
D4
100
AcDbEntity
  8
DEFAULT
  6
Continuous
 62
   136
370
     0
100
AcDbLine
 10
86.69511120924333
 20
186.3368616078346
 30
0.0
 11
76.20055516408363
 21
186.3368616078346
 31
0.0
  0
LINE
  5
15E
330
D4
100
AcDbEntity
  8
DEFAULT
  6
Continuous
 62
   136
370
     0
100
AcDbLine
 10
84.19511176424334
 20
146.3368704878346
 30
0.0
 11
76.20055516408363
 21
146.3368704878346
 31
0.0
  0
LINE
  5
15F
330
D4
100
AcDbEntity
  8
DEFAULT
  6
Continuous
 62
   136
370
     0
100
AcDbLine
 10
77.70055517712215
 20
186.3368616078346
 30
0.0
 11
77.70055517712215
 21
146.3368699524849
 31
0.0
  0
TEXT
  5
160
330
D4
100
AcDbEntity
  8
DEFAULT
  6
Continuous
 62
   136
370
     0
100
AcDbText
 10
76.95055517712216
 20
164.5641385074325
 30
0.0
 40
3.0
  1
40
 50
90.0
  7
seiso_ttf
 11
73.95055517712215
 21
164.5641385074325
 31
0.0
100
AcDbText
 73
     3
  0
ENDBLK
  5
250
330
D4
100
AcDbEntity
  8
0
370
     0
100
AcDbBlockEnd
  0
BLOCK
  5
251
330
D7
100
AcDbEntity
  8
0
370
     0
100
AcDbBlockBegin
  2
DMBLK1072
 70
     0
 10
0.0
 20
0.0
 30
0.0
  3
DMBLK1072
  1

  0
LINE
  5
355
330
D7
100
AcDbEntity
  8
DEFAULT
  6
Continuous
 62
   136
370
    -2
100
AcDbLine
 10
86.69511120924333
 20
186.3368616078346
 30
0.0
 11
76.20055517712218
 21
186.3368616078346
 31
0.0
  0
LINE
  5
356
330
D7
100
AcDbEntity
  8
DEFAULT
  6
Continuous
 62
   136
370
    -2
100
AcDbLine
 10
84.19511176424334
 20
146.3368704878346
 30
0.0
 11
76.20055517712216
 21
146.3368704878346
 31
0.0
  0
LINE
  5
357
330
D7
100
AcDbEntity
  8
DEFAULT
  6
Continuous
 62
   136
370
    -2
100
AcDbLine
 10
77.70055517712219
 20
183.3368616078346
 30
0.0
 11
77.70055517712217
 21
149.3368704878346
 31
0.0
  0
INSERT
  5
358
330
D7
100
AcDbEntity
  8
DEFAULT
  6
Continuous
 62
   136
370
    -2
100
AcDbBlockReference
  2
_SE_FILLED
 10
77.70055517712219
 20
186.3368616078346
 30
0.0
 41
3.0
 42
3.0
 43
3.0
 50
90.0
  0
INSERT
  5
359
330
D7
100
AcDbEntity
  8
DEFAULT
  6
Continuous
 62
   136
370
    -2
100
AcDbBlockReference
  2
_SE_FILLED
 10
77.70055517712217
 20
146.3368704878346
 30
0.0
 41
3.0
 42
3.0
 43
3.0
 50
270.0
  0
MTEXT
  5
35A
330
D7
100
AcDbEntity
  8
DEFAULT
  6
Continuous
 62
   136
370
     0
100
AcDbMText
 10
74.70055517712215
 20
166.3368657801598
 30
0.0
 40
3.0
 41
0.0
 71
     5
 72
     1
  1
\A1;\A1;40
  7
seiso_ttf
 11
0.0000000000000001
 21
1.0
 31
0.0
 73
     1
 44
1.0
1001
ACAD
1000
MTEXTBEGIN
1070
    73
1070
     1
1070
    44
1040
1.0
1070
    74
1070
     0
1000
MTEXTEND
  0
POINT
  5
35B
330
D7
100
AcDbEntity
  8
DEFPOINTS
  6
Continuous
 62
     0
370
     0
100
AcDbPoint
 10
86.69511120924333
 20
186.3368616078346
 30
0.0
  0
POINT
  5
35C
330
D7
100
AcDbEntity
  8
DEFPOINTS
  6
Continuous
 62
     0
370
     0
100
AcDbPoint
 10
84.19511176424334
 20
146.3368704878346
 30
0.0
  0
POINT
  5
35D
330
D7
100
AcDbEntity
  8
DEFPOINTS
  6
Continuous
 62
     0
370
     0
100
AcDbPoint
 10
77.70055517712217
 20
146.3368704878346
 30
0.0
  0
ENDBLK
  5
164
330
D7
100
AcDbEntity
  8
DEFAULT
 62
     0
 48
0.0
370
     0
100
AcDbBlockEnd
  0
BLOCK
  5
165
330
D9
100
AcDbEntity
  8
DEFAULT
 62
     1
 48
0.0
370
     0
100
AcDbBlockBegin
  2
SE6
 70
     0
 10
0.0
 20
0.0
 30
0.0
  3
SE6
  1

  0
HATCH
  5
166
330
D9
100
AcDbEntity
  8
DEFAULT
  6
Continuous
 62
   136
100
AcDbHatch
 10
0.0
 20
0.0
 30
0.0
210
0.0
220
0.0
230
1.0
  2
SOLID
 70
     1
 71
     0
 91
        1
 92
        1
 93
        3
 72
     1
 10
77.20055520623533
 20
149.3368705139117
 11
77.70055521058151
 21
146.3368704878346
 72
     1
 10
77.70055521058151
 20
146.3368704878346
 11
78.20055521492768
 21
149.3368705139117
 72
     1
 10
78.20055521492768
 20
149.3368705139117
 11
77.20055520623533
 21
149.3368705139117
 97
        0
 75
     0
 76
     1
 98
        1
 10
0.0
 20
0.0
  0
HATCH
  5
167
330
D9
100
AcDbEntity
  8
DEFAULT
  6
Continuous
 62
   136
100
AcDbHatch
 10
0.0
 20
0.0
 30
0.0
210
0.0
220
0.0
230
1.0
  2
SOLID
 70
     1
 71
     0
 91
        1
 92
        1
 93
        3
 72
     1
 10
77.20055520623533
 20
140.3368711277576
 11
77.70055521058151
 21
143.3368711538346
 72
     1
 10
77.70055521058151
 20
143.3368711538346
 11
78.20055521492768
 21
140.3368711277576
 72
     1
 10
78.20055521492768
 20
140.3368711277576
 11
77.20055520623533
 21
140.3368711277576
 97
        0
 75
     0
 76
     1
 98
        1
 10
0.0
 20
0.0
  0
LINE
  5
168
330
D9
100
AcDbEntity
  8
DEFAULT
  6
Continuous
 62
   136
370
     0
100
AcDbLine
 10
84.19511176424334
 20
146.3368704878346
 30
0.0
 11
76.20055519754299
 21
146.3368704878346
 31
0.0
  0
LINE
  5
169
330
D9
100
AcDbEntity
  8
DEFAULT
  6
Continuous
 62
   136
370
     0
100
AcDbLine
 10
100.1951082122433
 20
143.3368711538346
 30
0.0
 11
76.20055519754299
 21
143.3368711538346
 31
0.0
  0
LINE
  5
16A
330
D9
100
AcDbEntity
  8
DEFAULT
  6
Continuous
 62
   136
370
     0
100
AcDbLine
 10
77.70055521058151
 20
152.3368705399887
 30
0.0
 11
77.70055521058151
 21
137.3368708752648
 31
0.0
  0
TEXT
  5
16B
330
D9
100
AcDbEntity
  8
DEFAULT
  6
Continuous
 62
   136
370
     0
100
AcDbText
 10
76.95055521058151
 20
144.0527799149512
 30
0.0
 40
3.0
  1
3
 50
90.0
  7
seiso_ttf
 11
73.95055521058151
 21
144.0527799149512
 31
0.0
100
AcDbText
 73
     3
  0
ENDBLK
  5
252
330
D9
100
AcDbEntity
  8
0
370
     0
100
AcDbBlockEnd
  0
BLOCK
  5
253
330
DC
100
AcDbEntity
  8
0
370
     0
100
AcDbBlockBegin
  2
DMBLK1073
 70
     0
 10
0.0
 20
0.0
 30
0.0
  3
DMBLK1073
  1

  0
LINE
  5
35E
330
DC
100
AcDbEntity
  8
DEFAULT
  6
Continuous
 62
   136
370
    -2
100
AcDbLine
 10
84.19511176424334
 20
146.3368704878346
 30
0.0
 11
76.20055521058152
 21
146.3368704878346
 31
0.0
  0
LINE
  5
35F
330
DC
100
AcDbEntity
  8
DEFAULT
  6
Continuous
 62
   136
370
    -2
100
AcDbLine
 10
100.1951082122433
 20
143.3368711538346
 30
0.0
 11
76.20055521058152
 21
143.3368711538346
 31
0.0
  0
LINE
  5
360
330
DC
100
AcDbEntity
  8
DEFAULT
  6
Continuous
 62
   136
370
    -2
100
AcDbLine
 10
77.70055521058153
 20
149.3368704878346
 30
0.0
 11
77.70055521058153
 21
152.3368704878346
 31
0.0
  0
LINE
  5
361
330
DC
100
AcDbEntity
  8
DEFAULT
  6
Continuous
 62
   136
370
    -2
100
AcDbLine
 10
77.70055521058153
 20
140.3368711538346
 30
0.0
 11
77.70055521058153
 21
137.3368711538346
 31
0.0
  0
LINE
  5
362
330
DC
100
AcDbEntity
  8
DEFAULT
  6
Continuous
 62
   136
370
    -2
100
AcDbLine
 10
77.70055521058153
 20
146.3368704878346
 30
0.0
 11
77.70055521058153
 21
143.3368711538346
 31
0.0
  0
INSERT
  5
363
330
DC
100
AcDbEntity
  8
DEFAULT
  6
Continuous
 62
   136
370
    -2
100
AcDbBlockReference
  2
_SE_FILLED
 10
77.70055521058153
 20
146.3368704878346
 30
0.0
 41
3.0
 42
3.0
 43
3.0
 50
270.0
  0
INSERT
  5
364
330
DC
100
AcDbEntity
  8
DEFAULT
  6
Continuous
 62
   136
370
    -2
100
AcDbBlockReference
  2
_SE_FILLED
 10
77.70055521058153
 20
143.3368711538346
 30
0.0
 41
3.0
 42
3.0
 43
3.0
 50
90.0
  0
MTEXT
  5
365
330
DC
100
AcDbEntity
  8
DEFAULT
  6
Continuous
 62
   136
370
     0
100
AcDbMText
 10
74.70055521058151
 20
144.8368708208347
 30
0.0
 40
3.0
 41
0.0
 71
     5
 72
     1
  1
\A1;\A1;3
  7
seiso_ttf
 11
0.0000000000000001
 21
1.0
 31
0.0
 73
     1
 44
1.0
1001
ACAD
1000
MTEXTBEGIN
1070
    73
1070
     1
1070
    44
1040
1.0
1070
    74
1070
     0
1000
MTEXTEND
  0
POINT
  5
366
330
DC
100
AcDbEntity
  8
DEFPOINTS
  6
Continuous
 62
     0
370
     0
100
AcDbPoint
 10
84.19511176424334
 20
146.3368704878346
 30
0.0
  0
POINT
  5
367
330
DC
100
AcDbEntity
  8
DEFPOINTS
  6
Continuous
 62
     0
370
     0
100
AcDbPoint
 10
100.1951082122433
 20
143.3368711538346
 30
0.0
  0
POINT
  5
368
330
DC
100
AcDbEntity
  8
DEFPOINTS
  6
Continuous
 62
     0
370
     0
100
AcDbPoint
 10
77.70055521058153
 20
143.3368711538346
 30
0.0
  0
ENDBLK
  5
16F
330
DC
100
AcDbEntity
  8
DEFAULT
 62
     0
 48
0.0
370
     0
100
AcDbBlockEnd
  0
BLOCK
  5
170
330
DE
100
AcDbEntity
  8
DEFAULT
 62
     1
 48
0.0
370
     0
100
AcDbBlockBegin
  2
SE7
 70
     0
 10
0.0
 20
0.0
 30
0.0
  3
SE7
  1

  0
HATCH
  5
171
330
DE
100
AcDbEntity
  8
DEFAULT
  6
Continuous
 62
   136
100
AcDbHatch
 10
0.0
 20
0.0
 30
0.0
210
0.0
220
0.0
230
1.0
  2
SOLID
 70
     1
 71
     0
 91
        1
 92
        1
 93
        3
 72
     1
 10
87.19511179032037
 20
136.6288199270076
 11
84.19511176424334
 21
137.1288199313537
 72
     1
 10
84.19511176424334
 20
137.1288199313537
 11
87.19511179032037
 21
137.6288199356999
 72
     1
 10
87.19511179032037
 20
137.6288199356999
 11
87.19511179032037
 21
136.6288199270076
 97
        0
 75
     0
 76
     1
 98
        1
 10
0.0
 20
0.0
  0
HATCH
  5
172
330
DE
100
AcDbEntity
  8
DEFAULT
  6
Continuous
 62
   136
100
AcDbHatch
 10
0.0
 20
0.0
 30
0.0
210
0.0
220
0.0
230
1.0
  2
SOLID
 70
     1
 71
     0
 91
        1
 92
        1
 93
        3
 72
     1
 10
97.19510818616631
 20
136.6288199270076
 11
100.1951082122433
 21
137.1288199313537
 72
     1
 10
100.1951082122433
 20
137.1288199313537
 11
97.19510818616631
 21
137.6288199356999
 72
     1
 10
97.19510818616631
 20
137.6288199356999
 11
97.19510818616631
 21
136.6288199270076
 97
        0
 75
     0
 76
     1
 98
        1
 10
0.0
 20
0.0
  0
LINE
  5
173
330
DE
100
AcDbEntity
  8
DEFAULT
  6
Continuous
 62
   136
370
     0
100
AcDbLine
 10
84.19511176424334
 20
146.3368704878346
 30
0.0
 11
84.19511176424334
 21
135.6288199183152
 31
0.0
  0
LINE
  5
174
330
DE
100
AcDbEntity
  8
DEFAULT
  6
Continuous
 62
   136
370
     0
100
AcDbLine
 10
100.1951082122433
 20
144.8368708208346
 30
0.0
 11
100.1951082122433
 21
135.6288199183153
 31
0.0
  0
LINE
  5
175
330
DE
100
AcDbEntity
  8
DEFAULT
  6
Continuous
 62
   136
370
     0
100
AcDbLine
 10
84.19511176424334
 20
137.1288199313537
 30
0.0
 11
100.1951087989122
 21
137.1288199313537
 31
0.0
  0
TEXT
  5
176
330
DE
100
AcDbEntity
  8
DEFAULT
  6
Continuous
 62
   136
370
     0
100
AcDbText
 10
90.66101937248689
 20
137.8788199313538
 30
0.0
 40
3.0
  1
16
  7
seiso_ttf
 11
90.66101937248689
 21
140.8788199313538
 31
0.0
100
AcDbText
 73
     3
  0
ENDBLK
  5
254
330
DE
100
AcDbEntity
  8
0
370
     0
100
AcDbBlockEnd
  0
BLOCK
  5
255
330
E1
100
AcDbEntity
  8
0
370
     0
100
AcDbBlockBegin
  2
DMBLK1074
 70
     0
 10
0.0
 20
0.0
 30
0.0
  3
DMBLK1074
  1

  0
LINE
  5
369
330
E1
100
AcDbEntity
  8
DEFAULT
  6
Continuous
 62
   136
370
    -2
100
AcDbLine
 10
84.19511176424334
 20
146.3368704878346
 30
0.0
 11
84.19511176424334
 21
135.6288199313538
 31
0.0
  0
LINE
  5
36A
330
E1
100
AcDbEntity
  8
DEFAULT
  6
Continuous
 62
   136
370
    -2
100
AcDbLine
 10
100.1951082122433
 20
144.8368708208346
 30
0.0
 11
100.1951082122433
 21
135.6288199313538
 31
0.0
  0
LINE
  5
36B
330
E1
100
AcDbEntity
  8
DEFAULT
  6
Continuous
 62
   136
370
    -2
100
AcDbLine
 10
87.19511176424333
 20
137.1288199313537
 30
0.0
 11
97.19510821224334
 21
137.1288199313537
 31
0.0
  0
INSERT
  5
36C
330
E1
100
AcDbEntity
  8
DEFAULT
  6
Continuous
 62
   136
370
    -2
100
AcDbBlockReference
  2
_SE_FILLED
 10
84.19511176424334
 20
137.1288199313537
 30
0.0
 41
3.0
 42
3.0
 43
3.0
 50
180.0
  0
INSERT
  5
36D
330
E1
100
AcDbEntity
  8
DEFAULT
  6
Continuous
 62
   136
370
    -2
100
AcDbBlockReference
  2
_SE_FILLED
 10
100.1951082122433
 20
137.1288199313537
 30
0.0
 41
3.0
 42
3.0
 43
3.0
  0
MTEXT
  5
36E
330
E1
100
AcDbEntity
  8
DEFAULT
  6
Continuous
 62
   136
370
     0
100
AcDbMText
 10
92.1951102815778
 20
140.1288199313538
 30
0.0
 40
3.0
 41
0.0
 71
     5
 72
     1
  1
\A1;\A1;16
  7
seiso_ttf
 73
     1
 44
1.0
1001
ACAD
1000
MTEXTBEGIN
1070
    73
1070
     1
1070
    44
1040
1.0
1070
    74
1070
     0
1000
MTEXTEND
  0
POINT
  5
36F
330
E1
100
AcDbEntity
  8
DEFPOINTS
  6
Continuous
 62
     0
370
     0
100
AcDbPoint
 10
84.19511176424334
 20
146.3368704878346
 30
0.0
  0
POINT
  5
370
330
E1
100
AcDbEntity
  8
DEFPOINTS
  6
Continuous
 62
     0
370
     0
100
AcDbPoint
 10
100.1951082122433
 20
144.8368708208346
 30
0.0
  0
POINT
  5
371
330
E1
100
AcDbEntity
  8
DEFPOINTS
  6
Continuous
 62
     0
370
     0
100
AcDbPoint
 10
100.1951082122433
 20
137.1288199313537
 30
0.0
  0
ENDBLK
  5
17A
330
E1
100
AcDbEntity
  8
DEFAULT
 62
     0
 48
0.0
370
     0
100
AcDbBlockEnd
  0
BLOCK
  5
17B
330
E3
100
AcDbEntity
  8
DEFAULT
 62
     1
 48
0.0
370
     0
100
AcDbBlockBegin
  2
SE8
 70
     0
 10
0.0
 20
0.0
 30
0.0
  3
SE8
  1

  0
HATCH
  5
17C
330
E3
100
AcDbEntity
  8
DEFAULT
  6
Continuous
 62
   136
100
AcDbHatch
 10
0.0
 20
0.0
 30
0.0
210
0.0
220
0.0
230
1.0
  2
SOLID
 70
     1
 71
     0
 91
        1
 92
        1
 93
        3
 72
     1
 10
97.19510818616631
 20
136.6288200402155
 11
100.1951082122433
 21
137.1288200445616
 72
     1
 10
100.1951082122433
 20
137.1288200445616
 11
97.19510818616631
 21
137.6288200489078
 72
     1
 10
97.19510818616631
 20
137.6288200489078
 11
97.19510818616631
 21
136.6288200402155
 97
        0
 75
     0
 76
     1
 98
        1
 10
0.0
 20
0.0
  0
HATCH
  5
17D
330
E3
100
AcDbEntity
  8
DEFAULT
  6
Continuous
 62
   136
100
AcDbHatch
 10
0.0
 20
0.0
 30
0.0
210
0.0
220
0.0
230
1.0
  2
SOLID
 70
     1
 71
     0
 91
        1
 92
        1
 93
        3
 72
     1
 10
111.1951064623204
 20
136.6288200402155
 11
108.1951064362433
 21
137.1288200445616
 72
     1
 10
108.1951064362433
 20
137.1288200445616
 11
111.1951064623204
 21
137.6288200489078
 72
     1
 10
111.1951064623204
 20
137.6288200489078
 11
111.1951064623204
 21
136.6288200402155
 97
        0
 75
     0
 76
     1
 98
        1
 10
0.0
 20
0.0
  0
LINE
  5
17E
330
E3
100
AcDbEntity
  8
DEFAULT
  6
Continuous
 62
   136
370
     0
100
AcDbLine
 10
100.1951082122433
 20
144.8368708208346
 30
0.0
 11
100.1951082122433
 21
135.6288200315231
 31
0.0
  0
LINE
  5
17F
330
E3
100
AcDbEntity
  8
DEFAULT
  6
Continuous
 62
   136
370
     0
100
AcDbLine
 10
108.1951064362433
 20
143.3368711538346
 30
0.0
 11
108.1951064362433
 21
135.6288200315231
 31
0.0
  0
LINE
  5
180
330
E3
100
AcDbEntity
  8
DEFAULT
  6
Continuous
 62
   136
370
     0
100
AcDbLine
 10
94.19510816008928
 20
137.1288200445616
 30
0.0
 11
114.1951067817318
 21
137.1288200445616
 31
0.0
  0
TEXT
  5
181
330
E3
100
AcDbEntity
  8
DEFAULT
  6
Continuous
 62
   136
370
     0
100
AcDbText
 10
103.2405620163651
 20
137.8788200445616
 30
0.0
 40
3.0
  1
8
  7
seiso_ttf
 11
103.2405620163651
 21
140.8788200445616
 31
0.0
100
AcDbText
 73
     3
  0
ENDBLK
  5
256
330
E3
100
AcDbEntity
  8
0
370
     0
100
AcDbBlockEnd
  0
BLOCK
  5
257
330
E6
100
AcDbEntity
  8
0
370
     0
100
AcDbBlockBegin
  2
DMBLK1075
 70
     0
 10
0.0
 20
0.0
 30
0.0
  3
DMBLK1075
  1

  0
LINE
  5
372
330
E6
100
AcDbEntity
  8
DEFAULT
  6
Continuous
 62
   136
370
    -2
100
AcDbLine
 10
100.1951082122433
 20
144.8368708208346
 30
0.0
 11
100.1951082122433
 21
135.6288200445616
 31
0.0
  0
LINE
  5
373
330
E6
100
AcDbEntity
  8
DEFAULT
  6
Continuous
 62
   136
370
    -2
100
AcDbLine
 10
108.1951064362433
 20
143.3368711538346
 30
0.0
 11
108.1951064362433
 21
135.6288200445616
 31
0.0
  0
LINE
  5
374
330
E6
100
AcDbEntity
  8
DEFAULT
  6
Continuous
 62
   136
370
    -2
100
AcDbLine
 10
97.19510821224334
 20
137.1288200445616
 30
0.0
 11
94.19510821224333
 21
137.1288200445616
 31
0.0
  0
LINE
  5
375
330
E6
100
AcDbEntity
  8
DEFAULT
  6
Continuous
 62
   136
370
    -2
100
AcDbLine
 10
111.1951064362433
 20
137.1288200445616
 30
0.0
 11
114.1951064362433
 21
137.1288200445616
 31
0.0
  0
LINE
  5
376
330
E6
100
AcDbEntity
  8
DEFAULT
  6
Continuous
 62
   136
370
    -2
100
AcDbLine
 10
100.1951082122433
 20
137.1288200445616
 30
0.0
 11
108.1951064362433
 21
137.1288200445616
 31
0.0
  0
INSERT
  5
377
330
E6
100
AcDbEntity
  8
DEFAULT
  6
Continuous
 62
   136
370
    -2
100
AcDbBlockReference
  2
_SE_FILLED
 10
100.1951082122433
 20
137.1288200445616
 30
0.0
 41
3.0
 42
3.0
 43
3.0
  0
INSERT
  5
378
330
E6
100
AcDbEntity
  8
DEFAULT
  6
Continuous
 62
   136
370
    -2
100
AcDbBlockReference
  2
_SE_FILLED
 10
108.1951064362433
 20
137.1288200445616
 30
0.0
 41
3.0
 42
3.0
 43
3.0
 50
180.0
  0
MTEXT
  5
379
330
E6
100
AcDbEntity
  8
DEFAULT
  6
Continuous
 62
   136
370
     0
100
AcDbMText
 10
104.1951073242433
 20
140.1288200445616
 30
0.0
 40
3.0
 41
0.0
 71
     5
 72
     1
  1
\A1;\A1;8
  7
seiso_ttf
 73
     1
 44
1.0
1001
ACAD
1000
MTEXTBEGIN
1070
    73
1070
     1
1070
    44
1040
1.0
1070
    74
1070
     0
1000
MTEXTEND
  0
POINT
  5
37A
330
E6
100
AcDbEntity
  8
DEFPOINTS
  6
Continuous
 62
     0
370
     0
100
AcDbPoint
 10
100.1951082122433
 20
144.8368708208346
 30
0.0
  0
POINT
  5
37B
330
E6
100
AcDbEntity
  8
DEFPOINTS
  6
Continuous
 62
     0
370
     0
100
AcDbPoint
 10
108.1951064362433
 20
143.3368711538346
 30
0.0
  0
POINT
  5
37C
330
E6
100
AcDbEntity
  8
DEFPOINTS
  6
Continuous
 62
     0
370
     0
100
AcDbPoint
 10
108.1951064362433
 20
137.1288200445616
 30
0.0
  0
ENDBLK
  5
185
330
E6
100
AcDbEntity
  8
DEFAULT
 62
     0
 48
0.0
370
     0
100
AcDbBlockEnd
  0
BLOCK
  5
186
330
E8
100
AcDbEntity
  8
DEFAULT
 62
     1
 48
0.0
370
     0
100
AcDbBlockBegin
  2
SE9
 70
     0
 10
0.0
 20
0.0
 30
0.0
  3
SE9
  1

  0
HATCH
  5
187
330
E8
100
AcDbEntity
  8
DEFAULT
  6
Continuous
 62
   136
100
AcDbHatch
 10
0.0
 20
0.0
 30
0.0
210
0.0
220
0.0
230
1.0
  2
SOLID
 70
     1
 71
     0
 91
        1
 92
        1
 93
        3
 72
     1
 10
114.6951037753208
 20
139.2475262464887
 11
111.6951037492437
 21
139.7475262508349
 72
     1
 10
111.6951037492437
 20
139.7475262508349
 11
114.6951037753208
 21
140.2475262551811
 72
     1
 10
114.6951037753208
 20
140.2475262551811
 11
114.6951037753208
 21
139.2475262464887
 97
        0
 75
     0
 76
     1
 98
        1
 10
0.0
 20
0.0
  0
HATCH
  5
188
330
E8
100
AcDbEntity
  8
DEFAULT
  6
Continuous
 62
   136
100
AcDbHatch
 10
0.0
 20
0.0
 30
0.0
210
0.0
220
0.0
230
1.0
  2
SOLID
 70
     1
 71
     0
 91
        1
 92
        1
 93
        3
 72
     1
 10
121.1951009481667
 20
139.2475262464887
 11
124.1951009742437
 21
139.7475262508349
 72
     1
 10
124.1951009742437
 20
139.7475262508349
 11
121.1951009481667
 21
140.2475262551811
 72
     1
 10
121.1951009481667
 20
140.2475262551811
 11
121.1951009481667
 21
139.2475262464887
 97
        0
 75
     0
 76
     1
 98
        1
 10
0.0
 20
0.0
  0
LINE
  5
189
330
E8
100
AcDbEntity
  8
DEFAULT
  6
Continuous
 62
   136
370
     0
100
AcDbLine
 10
111.6951037492437
 20
146.3368704878346
 30
0.0
 11
111.6951037492437
 21
138.2475262377964
 31
0.0
  0
LINE
  5
18A
330
E8
100
AcDbEntity
  8
DEFAULT
  6
Continuous
 62
   136
370
     0
100
AcDbLine
 10
124.1951009742437
 20
158.8368677128347
 30
0.0
 11
124.1951009742437
 21
138.2475262377964
 31
0.0
  0
LINE
  5
18B
330
E8
100
AcDbEntity
  8
DEFAULT
  6
Continuous
 62
   136
370
     0
100
AcDbLine
 10
111.6951037492437
 20
139.7475262508349
 30
0.0
 11
124.1951011415405
 21
139.7475262508349
 31
0.0
  0
TEXT
  5
18C
330
E8
100
AcDbEntity
  8
DEFAULT
  6
Continuous
 62
   136
370
     0
100
AcDbText
 10
115.2860115363012
 20
140.4975262508349
 30
0.0
 40
3.0
  1
12,5
  7
seiso_ttf
 11
115.2860115363012
 21
143.4975262508349
 31
0.0
100
AcDbText
 73
     3
  0
ENDBLK
  5
258
330
E8
100
AcDbEntity
  8
0
370
     0
100
AcDbBlockEnd
  0
BLOCK
  5
259
330
EB
100
AcDbEntity
  8
0
370
     0
100
AcDbBlockBegin
  2
DMBLK1076
 70
     0
 10
0.0
 20
0.0
 30
0.0
  3
DMBLK1076
  1

  0
LINE
  5
37D
330
EB
100
AcDbEntity
  8
DEFAULT
  6
Continuous
 62
   136
370
    -2
100
AcDbLine
 10
111.6951037492437
 20
146.3368704878346
 30
0.0
 11
111.6951037492437
 21
138.2475262508349
 31
0.0
  0
LINE
  5
37E
330
EB
100
AcDbEntity
  8
DEFAULT
  6
Continuous
 62
   136
370
    -2
100
AcDbLine
 10
124.1951009742437
 20
158.8368677128347
 30
0.0
 11
124.1951009742437
 21
138.2475262508349
 31
0.0
  0
LINE
  5
37F
330
EB
100
AcDbEntity
  8
DEFAULT
  6
Continuous
 62
   136
370
    -2
100
AcDbLine
 10
114.6951037492437
 20
139.7475262508349
 30
0.0
 11
121.1951009742437
 21
139.7475262508349
 31
0.0
  0
INSERT
  5
380
330
EB
100
AcDbEntity
  8
DEFAULT
  6
Continuous
 62
   136
370
    -2
100
AcDbBlockReference
  2
_SE_FILLED
 10
111.6951037492437
 20
139.7475262508349
 30
0.0
 41
3.0
 42
3.0
 43
3.0
 50
180.0
  0
INSERT
  5
381
330
EB
100
AcDbEntity
  8
DEFAULT
  6
Continuous
 62
   136
370
    -2
100
AcDbBlockReference
  2
_SE_FILLED
 10
124.1951009742437
 20
139.7475262508349
 30
0.0
 41
3.0
 42
3.0
 43
3.0
  0
MTEXT
  5
382
330
EB
100
AcDbEntity
  8
DEFAULT
  6
Continuous
 62
   136
370
     0
100
AcDbMText
 10
117.9451024453921
 20
143.0332405365492
 30
0.0
 40
3.0
 41
0.0
 71
     5
 72
     1
  1
\A1;\A1;12,5
  7
seiso_ttf
 73
     1
 44
1.0
1001
ACAD
1000
MTEXTBEGIN
1070
    73
1070
     1
1070
    44
1040
1.0
1070
    74
1070
     0
1000
MTEXTEND
  0
POINT
  5
383
330
EB
100
AcDbEntity
  8
DEFPOINTS
  6
Continuous
 62
     0
370
     0
100
AcDbPoint
 10
111.6951037492437
 20
146.3368704878346
 30
0.0
  0
POINT
  5
384
330
EB
100
AcDbEntity
  8
DEFPOINTS
  6
Continuous
 62
     0
370
     0
100
AcDbPoint
 10
124.1951009742437
 20
158.8368677128347
 30
0.0
  0
POINT
  5
385
330
EB
100
AcDbEntity
  8
DEFPOINTS
  6
Continuous
 62
     0
370
     0
100
AcDbPoint
 10
124.1951009742437
 20
139.7475262508349
 30
0.0
  0
ENDBLK
  5
190
330
EB
100
AcDbEntity
  8
DEFAULT
 62
     0
 48
0.0
370
     0
100
AcDbBlockEnd
  0
BLOCK
  5
191
330
ED
100
AcDbEntity
  8
DEFAULT
 62
     1
 48
0.0
370
     0
100
AcDbBlockBegin
  2
SE10
 70
     0
 10
0.0
 20
0.0
 30
0.0
  3
SE10
  1

  0
HATCH
  5
192
330
ED
100
AcDbEntity
  8
DEFAULT
  6
Continuous
 62
   136
100
AcDbHatch
 10
0.0
 20
0.0
 30
0.0
210
0.0
220
0.0
230
1.0
  2
SOLID
 70
     1
 71
     0
 91
        1
 92
        1
 93
        3
 72
     1
 10
87.19511179032037
 20
129.4273783633417
 11
84.19511176424334
 21
129.9273783676879
 72
     1
 10
84.19511176424334
 20
129.9273783676879
 11
87.19511179032037
 21
130.427378372034
 72
     1
 10
87.19511179032037
 20
130.427378372034
 11
87.19511179032037
 21
129.4273783633417
 97
        0
 75
     0
 76
     1
 98
        1
 10
0.0
 20
0.0
  0
HATCH
  5
193
330
ED
100
AcDbEntity
  8
DEFAULT
  6
Continuous
 62
   136
100
AcDbHatch
 10
0.0
 20
0.0
 30
0.0
210
0.0
220
0.0
230
1.0
  2
SOLID
 70
     1
 71
     0
 91
        1
 92
        1
 93
        3
 72
     1
 10
116.1951020581667
 20
129.4273783633417
 11
119.1951020842437
 21
129.9273783676879
 72
     1
 10
119.1951020842437
 20
129.9273783676879
 11
116.1951020581667
 21
130.427378372034
 72
     1
 10
116.1951020581667
 20
130.427378372034
 11
116.1951020581667
 21
129.4273783633417
 97
        0
 75
     0
 76
     1
 98
        1
 10
0.0
 20
0.0
  0
LINE
  5
194
330
ED
100
AcDbEntity
  8
DEFAULT
  6
Continuous
 62
   136
370
     0
100
AcDbLine
 10
84.19511176424334
 20
146.3368704878346
 30
0.0
 11
84.19511176424334
 21
128.4273783546494
 31
0.0
  0
LINE
  5
195
330
ED
100
AcDbEntity
  8
DEFAULT
  6
Continuous
 62
   136
370
     0
100
AcDbLine
 10
119.1951020842437
 20
162.0868669913347
 30
0.0
 11
119.1951020842437
 21
128.4273783546494
 31
0.0
  0
LINE
  5
196
330
ED
100
AcDbEntity
  8
DEFAULT
  6
Continuous
 62
   136
370
     0
100
AcDbLine
 10
84.19511176424334
 20
129.9273783676879
 30
0.0
 11
119.195100737384
 21
129.9273783676879
 31
0.0
  0
TEXT
  5
197
330
ED
100
AcDbEntity
  8
DEFAULT
  6
Continuous
 62
   136
370
     0
100
AcDbText
 10
100.05874261445
 20
130.6773783676879
 30
0.0
 40
3.0
  1
35
  7
seiso_ttf
 11
100.05874261445
 21
133.6773783676879
 31
0.0
100
AcDbText
 73
     3
  0
ENDBLK
  5
25A
330
ED
100
AcDbEntity
  8
0
370
     0
100
AcDbBlockEnd
  0
BLOCK
  5
25B
330
F0
100
AcDbEntity
  8
0
370
     0
100
AcDbBlockBegin
  2
DMBLK1077
 70
     0
 10
0.0
 20
0.0
 30
0.0
  3
DMBLK1077
  1

  0
LINE
  5
386
330
F0
100
AcDbEntity
  8
DEFAULT
  6
Continuous
 62
   136
370
    -2
100
AcDbLine
 10
84.19511176424334
 20
146.3368704878346
 30
0.0
 11
84.19511176424334
 21
128.4273783676879
 31
0.0
  0
LINE
  5
387
330
F0
100
AcDbEntity
  8
DEFAULT
  6
Continuous
 62
   136
370
    -2
100
AcDbLine
 10
119.1951020842437
 20
162.0868669913347
 30
0.0
 11
119.1951020842437
 21
128.4273783676879
 31
0.0
  0
LINE
  5
388
330
F0
100
AcDbEntity
  8
DEFAULT
  6
Continuous
 62
   136
370
    -2
100
AcDbLine
 10
87.19511176424333
 20
129.9273783676879
 30
0.0
 11
116.1951020842437
 21
129.9273783676879
 31
0.0
  0
INSERT
  5
389
330
F0
100
AcDbEntity
  8
DEFAULT
  6
Continuous
 62
   136
370
    -2
100
AcDbBlockReference
  2
_SE_FILLED
 10
84.19511176424334
 20
129.9273783676879
 30
0.0
 41
3.0
 42
3.0
 43
3.0
 50
180.0
  0
INSERT
  5
38A
330
F0
100
AcDbEntity
  8
DEFAULT
  6
Continuous
 62
   136
370
    -2
100
AcDbBlockReference
  2
_SE_FILLED
 10
119.1951020842437
 20
129.9273783676879
 30
0.0
 41
3.0
 42
3.0
 43
3.0
  0
MTEXT
  5
38B
330
F0
100
AcDbEntity
  8
DEFAULT
  6
Continuous
 62
   136
370
     0
100
AcDbMText
 10
101.6951062508137
 20
132.9273783676879
 30
0.0
 40
3.0
 41
0.0
 71
     5
 72
     1
  1
\A1;\A1;35
  7
seiso_ttf
 73
     1
 44
1.0
1001
ACAD
1000
MTEXTBEGIN
1070
    73
1070
     1
1070
    44
1040
1.0
1070
    74
1070
     0
1000
MTEXTEND
  0
POINT
  5
38C
330
F0
100
AcDbEntity
  8
DEFPOINTS
  6
Continuous
 62
     0
370
     0
100
AcDbPoint
 10
84.19511176424334
 20
146.3368704878346
 30
0.0
  0
POINT
  5
38D
330
F0
100
AcDbEntity
  8
DEFPOINTS
  6
Continuous
 62
     0
370
     0
100
AcDbPoint
 10
119.1951020842437
 20
162.0868669913347
 30
0.0
  0
POINT
  5
38E
330
F0
100
AcDbEntity
  8
DEFPOINTS
  6
Continuous
 62
     0
370
     0
100
AcDbPoint
 10
119.1951020842437
 20
129.9273783676879
 30
0.0
  0
ENDBLK
  5
19B
330
F0
100
AcDbEntity
  8
DEFAULT
 62
     0
 48
0.0
370
     0
100
AcDbBlockEnd
  0
BLOCK
  5
19C
330
F2
100
AcDbEntity
  8
DEFAULT
 62
     1
 48
0.0
370
     0
100
AcDbBlockBegin
  2
SE11
 70
     0
 10
0.0
 20
0.0
 30
0.0
  3
SE11
  1

  0
HATCH
  5
19D
330
F2
100
AcDbEntity
  8
DEFAULT
  6
Continuous
 62
   136
100
AcDbHatch
 10
0.0
 20
0.0
 30
0.0
210
0.0
220
0.0
230
1.0
  2
SOLID
 70
     1
 71
     0
 91
        1
 92
        1
 93
        3
 72
     1
 10
116.1951020581667
 20
129.4273783388123
 11
119.1951020842437
 21
129.9273783431585
 72
     1
 10
119.1951020842437
 20
129.9273783431585
 11
116.1951020581667
 21
130.4273783475046
 72
     1
 10
116.1951020581667
 20
130.4273783475046
 11
116.1951020581667
 21
129.4273783388123
 97
        0
 75
     0
 76
     1
 98
        1
 10
0.0
 20
0.0
  0
HATCH
  5
19E
330
F2
100
AcDbEntity
  8
DEFAULT
  6
Continuous
 62
   136
100
AcDbHatch
 10
0.0
 20
0.0
 30
0.0
210
0.0
220
0.0
230
1.0
  2
SOLID
 70
     1
 71
     0
 91
        1
 92
        1
 93
        3
 72
     1
 10
127.1951010003208
 20
129.4273783388123
 11
124.1951009742437
 21
129.9273783431585
 72
     1
 10
124.1951009742437
 20
129.9273783431585
 11
127.1951010003208
 21
130.4273783475046
 72
     1
 10
127.1951010003208
 20
130.4273783475046
 11
127.1951010003208
 21
129.4273783388123
 97
        0
 75
     0
 76
     1
 98
        1
 10
0.0
 20
0.0
  0
LINE
  5
19F
330
F2
100
AcDbEntity
  8
DEFAULT
  6
Continuous
 62
   136
370
     0
100
AcDbLine
 10
119.1951020842437
 20
162.0868669913347
 30
0.0
 11
119.1951020842437
 21
128.42737833012
 31
0.0
  0
LINE
  5
1A0
330
F2
100
AcDbEntity
  8
DEFAULT
  6
Continuous
 62
   136
370
     0
100
AcDbLine
 10
124.1951009742437
 20
158.8368677128347
 30
0.0
 11
124.1951009742437
 21
128.42737833012
 31
0.0
  0
LINE
  5
1A1
330
F2
100
AcDbEntity
  8
DEFAULT
  6
Continuous
 62
   136
370
     0
100
AcDbLine
 10
113.1951020320897
 20
129.9273783431585
 30
0.0
 11
130.1951010933165
 21
129.9273783431585
 31
0.0
  0
TEXT
  5
1A2
330
F2
100
AcDbEntity
  8
DEFAULT
  6
Continuous
 62
   136
370
     0
100
AcDbText
 10
120.8428288354304
 20
130.6773783431585
 30
0.0
 40
3.0
  1
5
  7
seiso_ttf
 11
120.8428288354304
 21
133.6773783431585
 31
0.0
100
AcDbText
 73
     3
  0
ENDBLK
  5
25C
330
F2
100
AcDbEntity
  8
0
370
     0
100
AcDbBlockEnd
  0
BLOCK
  5
25D
330
F5
100
AcDbEntity
  8
0
370
     0
100
AcDbBlockBegin
  2
DMBLK1078
 70
     0
 10
0.0
 20
0.0
 30
0.0
  3
DMBLK1078
  1

  0
LINE
  5
38F
330
F5
100
AcDbEntity
  8
DEFAULT
  6
Continuous
 62
   136
370
    -2
100
AcDbLine
 10
119.1951020842437
 20
162.0868669913347
 30
0.0
 11
119.1951020842437
 21
128.4273783431585
 31
0.0
  0
LINE
  5
390
330
F5
100
AcDbEntity
  8
DEFAULT
  6
Continuous
 62
   136
370
    -2
100
AcDbLine
 10
124.1951009742437
 20
158.8368677128347
 30
0.0
 11
124.1951009742437
 21
128.4273783431585
 31
0.0
  0
LINE
  5
391
330
F5
100
AcDbEntity
  8
DEFAULT
  6
Continuous
 62
   136
370
    -2
100
AcDbLine
 10
116.1951020842437
 20
129.9273783431585
 30
0.0
 11
113.1951020842437
 21
129.9273783431585
 31
0.0
  0
LINE
  5
392
330
F5
100
AcDbEntity
  8
DEFAULT
  6
Continuous
 62
   136
370
    -2
100
AcDbLine
 10
127.1951009742437
 20
129.9273783431585
 30
0.0
 11
130.1951009742437
 21
129.9273783431585
 31
0.0
  0
LINE
  5
393
330
F5
100
AcDbEntity
  8
DEFAULT
  6
Continuous
 62
   136
370
    -2
100
AcDbLine
 10
119.1951020842437
 20
129.9273783431585
 30
0.0
 11
124.1951009742437
 21
129.9273783431585
 31
0.0
  0
INSERT
  5
394
330
F5
100
AcDbEntity
  8
DEFAULT
  6
Continuous
 62
   136
370
    -2
100
AcDbBlockReference
  2
_SE_FILLED
 10
119.1951020842437
 20
129.9273783431585
 30
0.0
 41
3.0
 42
3.0
 43
3.0
  0
INSERT
  5
395
330
F5
100
AcDbEntity
  8
DEFAULT
  6
Continuous
 62
   136
370
    -2
100
AcDbBlockReference
  2
_SE_FILLED
 10
124.1951009742437
 20
129.9273783431585
 30
0.0
 41
3.0
 42
3.0
 43
3.0
 50
180.0
  0
MTEXT
  5
396
330
F5
100
AcDbEntity
  8
DEFAULT
  6
Continuous
 62
   136
370
     0
100
AcDbMText
 10
121.6951015292437
 20
132.9273783431585
 30
0.0
 40
3.0
 41
0.0
 71
     5
 72
     1
  1
\A1;\A1;5
  7
seiso_ttf
 73
     1
 44
1.0
1001
ACAD
1000
MTEXTBEGIN
1070
    73
1070
     1
1070
    44
1040
1.0
1070
    74
1070
     0
1000
MTEXTEND
  0
POINT
  5
397
330
F5
100
AcDbEntity
  8
DEFPOINTS
  6
Continuous
 62
     0
370
     0
100
AcDbPoint
 10
119.1951020842437
 20
162.0868669913347
 30
0.0
  0
POINT
  5
398
330
F5
100
AcDbEntity
  8
DEFPOINTS
  6
Continuous
 62
     0
370
     0
100
AcDbPoint
 10
124.1951009742437
 20
158.8368677128347
 30
0.0
  0
POINT
  5
399
330
F5
100
AcDbEntity
  8
DEFPOINTS
  6
Continuous
 62
     0
370
     0
100
AcDbPoint
 10
124.1951009742437
 20
129.9273783431585
 30
0.0
  0
ENDBLK
  5
1A6
330
F5
100
AcDbEntity
  8
DEFAULT
 62
     0
 48
0.0
370
     0
100
AcDbBlockEnd
  0
BLOCK
  5
1A7
330
F7
100
AcDbEntity
  8
DEFAULT
 62
     1
 48
0.0
370
     0
100
AcDbBlockBegin
  2
SE12
 70
     0
 10
0.0
 20
0.0
 30
0.0
  3
SE12
  1

  0
HATCH
  5
1A8
330
F7
100
AcDbEntity
  8
DEFAULT
  6
Continuous
 62
   136
100
AcDbHatch
 10
0.0
 20
0.0
 30
0.0
210
0.0
220
0.0
230
1.0
  2
SOLID
 70
     1
 71
     0
 91
        1
 92
        1
 93
        3
 72
     1
 10
132.4077719811544
 20
149.3368705139117
 11
131.9077719768082
 21
146.3368704878346
 72
     1
 10
131.9077719768082
 20
146.3368704878346
 11
131.407771972462
 21
149.3368705139117
 72
     1
 10
131.407771972462
 20
149.3368705139117
 11
132.4077719811544
 21
149.3368705139117
 97
        0
 75
     0
 76
     1
 98
        1
 10
0.0
 20
0.0
  0
HATCH
  5
1A9
330
F7
100
AcDbEntity
  8
DEFAULT
  6
Continuous
 62
   136
100
AcDbHatch
 10
0.0
 20
0.0
 30
0.0
210
0.0
220
0.0
230
1.0
  2
SOLID
 70
     1
 71
     0
 91
        1
 92
        1
 93
        3
 72
     1
 10
132.4077719811544
 20
155.8368676867577
 11
131.9077719768082
 21
158.8368677128347
 72
     1
 10
131.9077719768082
 20
158.8368677128347
 11
131.407771972462
 21
155.8368676867577
 72
     1
 10
131.407771972462
 20
155.8368676867577
 11
132.4077719811544
 21
155.8368676867577
 97
        0
 75
     0
 76
     1
 98
        1
 10
0.0
 20
0.0
  0
LINE
  5
1AA
330
F7
100
AcDbEntity
  8
DEFAULT
  6
Continuous
 62
   136
370
     0
100
AcDbLine
 10
109.9451050927435
 20
146.3368704878346
 30
0.0
 11
133.4077719898467
 21
146.3368704878346
 31
0.0
  0
LINE
  5
1AB
330
F7
100
AcDbEntity
  8
DEFAULT
  6
Continuous
 62
   136
370
     0
100
AcDbLine
 10
124.1951009742437
 20
158.8368677128347
 30
0.0
 11
133.4077719898467
 21
158.8368677128347
 31
0.0
  0
LINE
  5
1AC
330
F7
100
AcDbEntity
  8
DEFAULT
  6
Continuous
 62
   136
370
     0
100
AcDbLine
 10
131.9077719768082
 20
146.3368704878346
 30
0.0
 11
131.9077719768082
 21
158.8368678801314
 31
0.0
  0
TEXT
  5
1AD
330
F7
100
AcDbEntity
  8
DEFAULT
  6
Continuous
 62
   136
370
     0
100
AcDbText
 10
131.1577719768082
 20
149.9277782748921
 30
0.0
 40
3.0
  1
12,5
 50
90.0
  7
seiso_ttf
 11
128.1577719768082
 21
149.9277782748921
 31
0.0
100
AcDbText
 73
     3
  0
ENDBLK
  5
25E
330
F7
100
AcDbEntity
  8
0
370
     0
100
AcDbBlockEnd
  0
BLOCK
  5
25F
330
FA
100
AcDbEntity
  8
0
370
     0
100
AcDbBlockBegin
  2
DMBLK1079
 70
     0
 10
0.0
 20
0.0
 30
0.0
  3
DMBLK1079
  1

  0
LINE
  5
39A
330
FA
100
AcDbEntity
  8
DEFAULT
  6
Continuous
 62
   136
370
    -2
100
AcDbLine
 10
109.9451050927435
 20
146.3368704878346
 30
0.0
 11
133.4077719768082
 21
146.3368704878346
 31
0.0
  0
LINE
  5
39B
330
FA
100
AcDbEntity
  8
DEFAULT
  6
Continuous
 62
   136
370
    -2
100
AcDbLine
 10
124.1951009742437
 20
158.8368677128347
 30
0.0
 11
133.4077719768082
 21
158.8368677128347
 31
0.0
  0
LINE
  5
39C
330
FA
100
AcDbEntity
  8
DEFAULT
  6
Continuous
 62
   136
370
    -2
100
AcDbLine
 10
131.9077719768082
 20
149.3368704878346
 30
0.0
 11
131.9077719768082
 21
155.8368677128347
 31
0.0
  0
INSERT
  5
39D
330
FA
100
AcDbEntity
  8
DEFAULT
  6
Continuous
 62
   136
370
    -2
100
AcDbBlockReference
  2
_SE_FILLED
 10
131.9077719768082
 20
146.3368704878346
 30
0.0
 41
3.0
 42
3.0
 43
3.0
 50
270.0
  0
INSERT
  5
39E
330
FA
100
AcDbEntity
  8
DEFAULT
  6
Continuous
 62
   136
370
    -2
100
AcDbBlockReference
  2
_SE_FILLED
 10
131.9077719768082
 20
158.8368677128347
 30
0.0
 41
3.0
 42
3.0
 43
3.0
 50
90.0
  0
MTEXT
  5
39F
330
FA
100
AcDbEntity
  8
DEFAULT
  6
Continuous
 62
   136
370
     0
100
AcDbMText
 10
128.6220576910939
 20
152.586869183983
 30
0.0
 40
3.0
 41
0.0
 71
     5
 72
     1
  1
\A1;\A1;12,5
  7
seiso_ttf
 11
0.0000000000000001
 21
1.0
 31
0.0
 73
     1
 44
1.0
1001
ACAD
1000
MTEXTBEGIN
1070
    73
1070
     1
1070
    44
1040
1.0
1070
    74
1070
     0
1000
MTEXTEND
  0
POINT
  5
3A0
330
FA
100
AcDbEntity
  8
DEFPOINTS
  6
Continuous
 62
     0
370
     0
100
AcDbPoint
 10
109.9451050927435
 20
146.3368704878346
 30
0.0
  0
POINT
  5
3A1
330
FA
100
AcDbEntity
  8
DEFPOINTS
  6
Continuous
 62
     0
370
     0
100
AcDbPoint
 10
124.1951009742437
 20
158.8368677128347
 30
0.0
  0
POINT
  5
3A2
330
FA
100
AcDbEntity
  8
DEFPOINTS
  6
Continuous
 62
     0
370
     0
100
AcDbPoint
 10
131.9077719768082
 20
158.8368677128347
 30
0.0
  0
ENDBLK
  5
1B1
330
FA
100
AcDbEntity
  8
DEFAULT
 62
     0
 48
0.0
370
     0
100
AcDbBlockEnd
  0
BLOCK
  5
1B2
330
FC
100
AcDbEntity
  8
DEFAULT
 62
     1
 48
0.0
370
     0
100
AcDbBlockBegin
  2
SE13
 70
     0
 10
0.0
 20
0.0
 30
0.0
  3
SE13
  1

  0
HATCH
  5
1B3
330
FC
100
AcDbEntity
  8
DEFAULT
  6
Continuous
 62
   136
100
AcDbHatch
 10
0.0
 20
0.0
 30
0.0
210
0.0
220
0.0
230
1.0
  2
SOLID
 70
     1
 71
     0
 91
        1
 92
        1
 93
        3
 72
     1
 10
78.15143272749065
 20
71.01573045120868
 11
78.65143273183683
 21
68.01573042513165
 72
     1
 10
78.65143273183683
 20
68.01573042513165
 11
79.15143273618301
 21
71.01573045120868
 72
     1
 10
79.15143273618301
 20
71.01573045120868
 11
78.15143272749065
 21
71.01573045120868
 97
        0
 75
     0
 76
     1
 98
        1
 10
0.0
 20
0.0
  0
HATCH
  5
1B4
330
FC
100
AcDbEntity
  8
DEFAULT
  6
Continuous
 62
   136
100
AcDbHatch
 10
0.0
 20
0.0
 30
0.0
210
0.0
220
0.0
230
1.0
  2
SOLID
 70
     1
 71
     0
 91
        1
 92
        1
 93
        3
 72
     1
 10
78.15143272749065
 20
75.51572615805504
 11
78.65143273183683
 21
78.51572618413207
 72
     1
 10
78.65143273183683
 20
78.51572618413207
 11
79.15143273618301
 21
75.51572615805504
 72
     1
 10
79.15143273618301
 20
75.51572615805504
 11
78.15143272749065
 21
75.51572615805504
 97
        0
 75
     0
 76
     1
 98
        1
 10
0.0
 20
0.0
  0
LINE
  5
1B5
330
FC
100
AcDbEntity
  8
DEFAULT
  6
Continuous
 62
   136
370
     0
100
AcDbLine
 10
86.69511120924333
 20
68.01573042513165
 30
0.0
 11
77.15143271879831
 21
68.01573042513165
 31
0.0
  0
LINE
  5
1B6
330
FC
100
AcDbEntity
  8
DEFAULT
  6
Continuous
 62
   136
370
     0
100
AcDbLine
 10
100.1951082122433
 20
78.51572618413207
 30
0.0
 11
77.15143271879831
 21
78.51572618413207
 31
0.0
  0
LINE
  5
1B7
330
FC
100
AcDbEntity
  8
DEFAULT
  6
Continuous
 62
   136
370
     0
100
AcDbLine
 10
78.65143273183683
 20
68.01573042513165
 30
0.0
 11
78.65143273183683
 21
78.51572655828032
 31
0.0
  0
TEXT
  5
1B8
330
FC
100
AcDbEntity
  8
DEFAULT
  6
Continuous
 62
   136
370
     0
100
AcDbText
 10
77.90143273183684
 20
70.64072849170599
 30
0.0
 40
3.0
  1
10,5
 50
90.0
  7
seiso_ttf
 11
74.90143273183683
 21
70.64072849170599
 31
0.0
100
AcDbText
 73
     3
  0
ENDBLK
  5
260
330
FC
100
AcDbEntity
  8
0
370
     0
100
AcDbBlockEnd
  0
BLOCK
  5
261
330
FF
100
AcDbEntity
  8
0
370
     0
100
AcDbBlockBegin
  2
DMBLK1080
 70
     0
 10
0.0
 20
0.0
 30
0.0
  3
DMBLK1080
  1

  0
LINE
  5
3A3
330
FF
100
AcDbEntity
  8
DEFAULT
  6
Continuous
 62
   136
370
    -2
100
AcDbLine
 10
86.69511120924333
 20
68.01573042513165
 30
0.0
 11
77.15143273183684
 21
68.01573042513165
 31
0.0
  0
LINE
  5
3A4
330
FF
100
AcDbEntity
  8
DEFAULT
  6
Continuous
 62
   136
370
    -2
100
AcDbLine
 10
100.1951082122433
 20
78.51572618413207
 30
0.0
 11
77.15143273183684
 21
78.51572618413209
 31
0.0
  0
LINE
  5
3A5
330
FF
100
AcDbEntity
  8
DEFAULT
  6
Continuous
 62
   136
370
    -2
100
AcDbLine
 10
78.65143273183685
 20
71.01573042513165
 30
0.0
 11
78.65143273183685
 21
75.51572618413209
 31
0.0
  0
INSERT
  5
3A6
330
FF
100
AcDbEntity
  8
DEFAULT
  6
Continuous
 62
   136
370
    -2
100
AcDbBlockReference
  2
_SE_FILLED
 10
78.65143273183685
 20
68.01573042513165
 30
0.0
 41
3.0
 42
3.0
 43
3.0
 50
270.0
  0
INSERT
  5
3A7
330
FF
100
AcDbEntity
  8
DEFAULT
  6
Continuous
 62
   136
370
    -2
100
AcDbBlockReference
  2
_SE_FILLED
 10
78.65143273183685
 20
78.51572618413209
 30
0.0
 41
3.0
 42
3.0
 43
3.0
 50
90.0
  0
MTEXT
  5
3A8
330
FF
100
AcDbEntity
  8
DEFAULT
  6
Continuous
 62
   136
370
     0
100
AcDbMText
 10
75.36571844612254
 20
73.26572830463189
 30
0.0
 40
3.0
 41
0.0
 71
     5
 72
     1
  1
\A1;\A1;10,5
  7
seiso_ttf
 11
0.0000000000000001
 21
1.0
 31
0.0
 73
     1
 44
1.0
1001
ACAD
1000
MTEXTBEGIN
1070
    73
1070
     1
1070
    44
1040
1.0
1070
    74
1070
     0
1000
MTEXTEND
  0
POINT
  5
3A9
330
FF
100
AcDbEntity
  8
DEFPOINTS
  6
Continuous
 62
     0
370
     0
100
AcDbPoint
 10
86.69511120924333
 20
68.01573042513165
 30
0.0
  0
POINT
  5
3AA
330
FF
100
AcDbEntity
  8
DEFPOINTS
  6
Continuous
 62
     0
370
     0
100
AcDbPoint
 10
100.1951082122433
 20
78.51572618413207
 30
0.0
  0
POINT
  5
3AB
330
FF
100
AcDbEntity
  8
DEFPOINTS
  6
Continuous
 62
     0
370
     0
100
AcDbPoint
 10
78.65143273183685
 20
78.51572618413209
 30
0.0
  0
ENDBLK
  5
1BC
330
FF
100
AcDbEntity
  8
DEFAULT
 62
     0
 48
0.0
370
     0
100
AcDbBlockEnd
  0
BLOCK
  5
1BD
330
101
100
AcDbEntity
  8
DEFAULT
 62
     1
 48
0.0
370
     0
100
AcDbBlockBegin
  2
SE14
 70
     0
 10
0.0
 20
0.0
 30
0.0
  3
SE14
  1

  0
HATCH
  5
1BE
330
101
100
AcDbEntity
  8
DEFAULT
  6
Continuous
 62
   136
100
AcDbHatch
 10
0.0
 20
0.0
 30
0.0
210
0.0
220
0.0
230
1.0
  2
SOLID
 70
     1
 71
     0
 91
        1
 92
        1
 93
        3
 72
     1
 10
78.1514321742811
 20
81.5157262102091
 11
78.65143217862727
 21
78.51572618413207
 72
     1
 10
78.65143217862727
 20
78.51572618413207
 11
79.15143218297345
 21
81.5157262102091
 72
     1
 10
79.15143218297345
 20
81.5157262102091
 11
78.1514321742811
 21
81.5157262102091
 97
        0
 75
     0
 76
     1
 98
        1
 10
0.0
 20
0.0
  0
HATCH
  5
1BF
330
101
100
AcDbEntity
  8
DEFAULT
  6
Continuous
 62
   136
100
AcDbHatch
 10
0.0
 20
0.0
 30
0.0
210
0.0
220
0.0
230
1.0
  2
SOLID
 70
     1
 71
     0
 91
        1
 92
        1
 93
        3
 72
     1
 10
78.1514321742811
 20
94.51572194005505
 11
78.65143217862727
 21
97.51572196613208
 72
     1
 10
78.65143217862727
 20
97.51572196613208
 11
79.15143218297345
 21
94.51572194005505
 72
     1
 10
79.15143218297345
 20
94.51572194005505
 11
78.1514321742811
 21
94.51572194005505
 97
        0
 75
     0
 76
     1
 98
        1
 10
0.0
 20
0.0
  0
LINE
  5
1C0
330
101
100
AcDbEntity
  8
DEFAULT
  6
Continuous
 62
   136
370
     0
100
AcDbLine
 10
100.1951082122433
 20
78.51572618413207
 30
0.0
 11
77.15143216558876
 21
78.51572618413207
 31
0.0
  0
LINE
  5
1C1
330
101
100
AcDbEntity
  8
DEFAULT
  6
Continuous
 62
   136
370
     0
100
AcDbLine
 10
100.1951082122433
 20
97.51572196613208
 30
0.0
 11
77.15143216558876
 21
97.51572196613208
 31
0.0
  0
LINE
  5
1C2
330
101
100
AcDbEntity
  8
DEFAULT
  6
Continuous
 62
   136
370
     0
100
AcDbLine
 10
78.65143217862727
 20
78.51572618413207
 30
0.0
 11
78.65143217862727
 21
97.51572184789417
 31
0.0
  0
TEXT
  5
1C3
330
101
100
AcDbEntity
  8
DEFAULT
  6
Continuous
 62
   136
370
     0
100
AcDbText
 10
77.90143217862727
 20
86.4816331069222
 30
0.0
 40
3.0
  1
19
 50
90.0
  7
seiso_ttf
 11
74.90143217862727
 21
86.4816331069222
 31
0.0
100
AcDbText
 73
     3
  0
ENDBLK
  5
262
330
101
100
AcDbEntity
  8
0
370
     0
100
AcDbBlockEnd
  0
BLOCK
  5
263
330
104
100
AcDbEntity
  8
0
370
     0
100
AcDbBlockBegin
  2
DMBLK1081
 70
     0
 10
0.0
 20
0.0
 30
0.0
  3
DMBLK1081
  1

  0
LINE
  5
3AC
330
104
100
AcDbEntity
  8
DEFAULT
  6
Continuous
 62
   136
370
    -2
100
AcDbLine
 10
100.1951082122433
 20
78.51572618413207
 30
0.0
 11
77.15143217862729
 21
78.51572618413209
 31
0.0
  0
LINE
  5
3AD
330
104
100
AcDbEntity
  8
DEFAULT
  6
Continuous
 62
   136
370
    -2
100
AcDbLine
 10
100.1951082122433
 20
97.51572196613208
 30
0.0
 11
77.1514321786273
 21
97.5157219661321
 31
0.0
  0
LINE
  5
3AE
330
104
100
AcDbEntity
  8
DEFAULT
  6
Continuous
 62
   136
370
    -2
100
AcDbLine
 10
78.65143217862729
 20
81.5157261841321
 30
0.0
 11
78.65143217862729
 21
94.51572196613209
 31
0.0
  0
INSERT
  5
3AF
330
104
100
AcDbEntity
  8
DEFAULT
  6
Continuous
 62
   136
370
    -2
100
AcDbBlockReference
  2
_SE_FILLED
 10
78.65143217862729
 20
78.51572618413209
 30
0.0
 41
3.0
 42
3.0
 43
3.0
 50
270.0
  0
INSERT
  5
3B0
330
104
100
AcDbEntity
  8
DEFAULT
  6
Continuous
 62
   136
370
    -2
100
AcDbBlockReference
  2
_SE_FILLED
 10
78.6514321786273
 20
97.5157219661321
 30
0.0
 41
3.0
 42
3.0
 43
3.0
 50
90.0
  0
MTEXT
  5
3B1
330
104
100
AcDbEntity
  8
DEFAULT
  6
Continuous
 62
   136
370
     0
100
AcDbMText
 10
75.65143217862727
 20
88.01572401601312
 30
0.0
 40
3.0
 41
0.0
 71
     5
 72
     1
  1
\A1;\A1;19
  7
seiso_ttf
 11
0.0000000000000001
 21
1.0
 31
0.0
 73
     1
 44
1.0
1001
ACAD
1000
MTEXTBEGIN
1070
    73
1070
     1
1070
    44
1040
1.0
1070
    74
1070
     0
1000
MTEXTEND
  0
POINT
  5
3B2
330
104
100
AcDbEntity
  8
DEFPOINTS
  6
Continuous
 62
     0
370
     0
100
AcDbPoint
 10
100.1951082122433
 20
78.51572618413207
 30
0.0
  0
POINT
  5
3B3
330
104
100
AcDbEntity
  8
DEFPOINTS
  6
Continuous
 62
     0
370
     0
100
AcDbPoint
 10
100.1951082122433
 20
97.51572196613208
 30
0.0
  0
POINT
  5
3B4
330
104
100
AcDbEntity
  8
DEFPOINTS
  6
Continuous
 62
     0
370
     0
100
AcDbPoint
 10
78.6514321786273
 20
97.5157219661321
 30
0.0
  0
ENDBLK
  5
1C7
330
104
100
AcDbEntity
  8
DEFAULT
 62
     0
 48
0.0
370
     0
100
AcDbBlockEnd
  0
BLOCK
  5
1C8
330
106
100
AcDbEntity
  8
DEFAULT
 62
     1
 48
0.0
370
     0
100
AcDbBlockBegin
  2
SE15
 70
     0
 10
0.0
 20
0.0
 30
0.0
  3
SE15
  1

  0
HATCH
  5
1C9
330
106
100
AcDbEntity
  8
DEFAULT
  6
Continuous
 62
   136
100
AcDbHatch
 10
0.0
 20
0.0
 30
0.0
210
0.0
220
0.0
230
1.0
  2
SOLID
 70
     1
 71
     0
 91
        1
 92
        1
 93
        3
 72
     1
 10
78.1514321742811
 20
100.5157219922091
 11
78.65143217862727
 21
97.51572196613208
 72
     1
 10
78.65143217862727
 20
97.51572196613208
 11
79.15143218297345
 21
100.5157219922091
 72
     1
 10
79.15143218297345
 20
100.5157219922091
 11
78.1514321742811
 21
100.5157219922091
 97
        0
 75
     0
 76
     1
 98
        1
 10
0.0
 20
0.0
  0
HATCH
  5
1CA
330
106
100
AcDbEntity
  8
DEFAULT
  6
Continuous
 62
   136
100
AcDbHatch
 10
0.0
 20
0.0
 30
0.0
210
0.0
220
0.0
230
1.0
  2
SOLID
 70
     1
 71
     0
 91
        1
 92
        1
 93
        3
 72
     1
 10
78.1514321742811
 20
105.015719609055
 11
78.65143217862727
 21
108.0157196351321
 72
     1
 10
78.65143217862727
 20
108.0157196351321
 11
79.15143218297345
 21
105.015719609055
 72
     1
 10
79.15143218297345
 20
105.015719609055
 11
78.1514321742811
 21
105.015719609055
 97
        0
 75
     0
 76
     1
 98
        1
 10
0.0
 20
0.0
  0
LINE
  5
1CB
330
106
100
AcDbEntity
  8
DEFAULT
  6
Continuous
 62
   136
370
     0
100
AcDbLine
 10
100.1951082122433
 20
97.51572196613208
 30
0.0
 11
77.15143216558876
 21
97.51572196613208
 31
0.0
  0
LINE
  5
1CC
330
106
100
AcDbEntity
  8
DEFAULT
  6
Continuous
 62
   136
370
     0
100
AcDbLine
 10
86.69511120924331
 20
108.0157196351321
 30
0.0
 11
77.15143216558876
 21
108.0157196351321
 31
0.0
  0
LINE
  5
1CD
330
106
100
AcDbEntity
  8
DEFAULT
  6
Continuous
 62
   136
370
     0
100
AcDbLine
 10
78.65143217862727
 20
97.51572196613208
 30
0.0
 11
78.65143217862727
 21
108.0157199619259
 31
0.0
  0
TEXT
  5
1CE
330
106
100
AcDbEntity
  8
DEFAULT
  6
Continuous
 62
   136
370
     0
100
AcDbText
 10
77.90143217862727
 20
100.140720964029
 30
0.0
 40
3.0
  1
10,5
 50
90.0
  7
seiso_ttf
 11
74.90143217862727
 21
100.140720964029
 31
0.0
100
AcDbText
 73
     3
  0
ENDBLK
  5
264
330
106
100
AcDbEntity
  8
0
370
     0
100
AcDbBlockEnd
  0
BLOCK
  5
265
330
109
100
AcDbEntity
  8
0
370
     0
100
AcDbBlockBegin
  2
DMBLK1082
 70
     0
 10
0.0
 20
0.0
 30
0.0
  3
DMBLK1082
  1

  0
LINE
  5
3B5
330
109
100
AcDbEntity
  8
DEFAULT
  6
Continuous
 62
   136
370
    -2
100
AcDbLine
 10
100.1951082122433
 20
97.51572196613208
 30
0.0
 11
77.1514321786273
 21
97.5157219661321
 31
0.0
  0
LINE
  5
3B6
330
109
100
AcDbEntity
  8
DEFAULT
  6
Continuous
 62
   136
370
    -2
100
AcDbLine
 10
86.69511120924331
 20
108.0157196351321
 30
0.0
 11
77.1514321786273
 21
108.0157196351321
 31
0.0
  0
LINE
  5
3B7
330
109
100
AcDbEntity
  8
DEFAULT
  6
Continuous
 62
   136
370
    -2
100
AcDbLine
 10
78.6514321786273
 20
100.5157219661321
 30
0.0
 11
78.6514321786273
 21
105.015719635132
 31
0.0
  0
INSERT
  5
3B8
330
109
100
AcDbEntity
  8
DEFAULT
  6
Continuous
 62
   136
370
    -2
100
AcDbBlockReference
  2
_SE_FILLED
 10
78.6514321786273
 20
97.5157219661321
 30
0.0
 41
3.0
 42
3.0
 43
3.0
 50
270.0
  0
INSERT
  5
3B9
330
109
100
AcDbEntity
  8
DEFAULT
  6
Continuous
 62
   136
370
    -2
100
AcDbBlockReference
  2
_SE_FILLED
 10
78.6514321786273
 20
108.0157196351321
 30
0.0
 41
3.0
 42
3.0
 43
3.0
 50
90.0
  0
MTEXT
  5
3BA
330
109
100
AcDbEntity
  8
DEFAULT
  6
Continuous
 62
   136
370
     0
100
AcDbMText
 10
75.36571789291298
 20
102.7657208006321
 30
0.0
 40
3.0
 41
0.0
 71
     5
 72
     1
  1
\A1;\A1;10,5
  7
seiso_ttf
 11
0.0000000000000001
 21
1.0
 31
0.0
 73
     1
 44
1.0
1001
ACAD
1000
MTEXTBEGIN
1070
    73
1070
     1
1070
    44
1040
1.0
1070
    74
1070
     0
1000
MTEXTEND
  0
POINT
  5
3BB
330
109
100
AcDbEntity
  8
DEFPOINTS
  6
Continuous
 62
     0
370
     0
100
AcDbPoint
 10
100.1951082122433
 20
97.51572196613208
 30
0.0
  0
POINT
  5
3BC
330
109
100
AcDbEntity
  8
DEFPOINTS
  6
Continuous
 62
     0
370
     0
100
AcDbPoint
 10
86.69511120924331
 20
108.0157196351321
 30
0.0
  0
POINT
  5
3BD
330
109
100
AcDbEntity
  8
DEFPOINTS
  6
Continuous
 62
     0
370
     0
100
AcDbPoint
 10
78.6514321786273
 20
108.0157196351321
 30
0.0
  0
ENDBLK
  5
1D2
330
109
100
AcDbEntity
  8
DEFAULT
 62
     0
 48
0.0
370
     0
100
AcDbBlockEnd
  0
BLOCK
  5
1D3
330
10B
100
AcDbEntity
  8
DEFAULT
 62
     1
 48
0.0
370
     0
100
AcDbBlockBegin
  2
SE16
 70
     0
 10
0.0
 20
0.0
 30
0.0
  3
SE16
  1

  0
HATCH
  5
1D4
330
10B
100
AcDbEntity
  8
DEFAULT
  6
Continuous
 62
   136
100
AcDbHatch
 10
0.0
 20
0.0
 30
0.0
210
0.0
220
0.0
230
1.0
  2
SOLID
 70
     1
 71
     0
 91
        1
 92
        1
 93
        3
 72
     1
 10
72.59865750095723
 20
105.015719609055
 11
73.09865750530341
 21
108.0157196351321
 72
     1
 10
73.09865750530341
 20
108.0157196351321
 11
73.59865750964958
 21
105.015719609055
 72
     1
 10
73.59865750964958
 20
105.015719609055
 11
72.59865750095723
 21
105.015719609055
 97
        0
 75
     0
 76
     1
 98
        1
 10
0.0
 20
0.0
  0
HATCH
  5
1D5
330
10B
100
AcDbEntity
  8
DEFAULT
  6
Continuous
 62
   136
100
AcDbHatch
 10
0.0
 20
0.0
 30
0.0
210
0.0
220
0.0
230
1.0
  2
SOLID
 70
     1
 71
     0
 91
        1
 92
        1
 93
        3
 72
     1
 10
72.59865750095723
 20
71.01573045120868
 11
73.09865750530341
 21
68.01573042513165
 72
     1
 10
73.09865750530341
 20
68.01573042513165
 11
73.59865750964958
 21
71.01573045120868
 72
     1
 10
73.59865750964958
 20
71.01573045120868
 11
72.59865750095723
 21
71.01573045120868
 97
        0
 75
     0
 76
     1
 98
        1
 10
0.0
 20
0.0
  0
LINE
  5
1D6
330
10B
100
AcDbEntity
  8
DEFAULT
  6
Continuous
 62
   136
370
     0
100
AcDbLine
 10
86.69511120924331
 20
108.0157196351321
 30
0.0
 11
71.59865749226489
 21
108.0157196351321
 31
0.0
  0
LINE
  5
1D7
330
10B
100
AcDbEntity
  8
DEFAULT
  6
Continuous
 62
   136
370
     0
100
AcDbLine
 10
86.69511120924333
 20
68.01573042513165
 30
0.0
 11
71.59865749226489
 21
68.01573042513165
 31
0.0
  0
LINE
  5
1D8
330
10B
100
AcDbEntity
  8
DEFAULT
  6
Continuous
 62
   136
370
     0
100
AcDbLine
 10
73.09865750530341
 20
108.0157196351321
 30
0.0
 11
73.09865750530341
 21
68.01573170507264
 31
0.0
  0
TEXT
  5
1D9
330
10B
100
AcDbEntity
  8
DEFAULT
  6
Continuous
 62
   136
370
     0
100
AcDbText
 10
72.34865750530341
 20
86.24299839737508
 30
0.0
 40
3.0
  1
40
 50
90.0
  7
seiso_ttf
 11
69.34865750530341
 21
86.24299839737508
 31
0.0
100
AcDbText
 73
     3
  0
ENDBLK
  5
266
330
10B
100
AcDbEntity
  8
0
370
     0
100
AcDbBlockEnd
  0
BLOCK
  5
267
330
10E
100
AcDbEntity
  8
0
370
     0
100
AcDbBlockBegin
  2
DMBLK1083
 70
     0
 10
0.0
 20
0.0
 30
0.0
  3
DMBLK1083
  1

  0
LINE
  5
3BE
330
10E
100
AcDbEntity
  8
DEFAULT
  6
Continuous
 62
   136
370
    -2
100
AcDbLine
 10
86.69511120924331
 20
108.0157196351321
 30
0.0
 11
71.59865750530343
 21
108.0157196351321
 31
0.0
  0
LINE
  5
3BF
330
10E
100
AcDbEntity
  8
DEFAULT
  6
Continuous
 62
   136
370
    -2
100
AcDbLine
 10
86.69511120924333
 20
68.01573042513165
 30
0.0
 11
71.59865750530342
 21
68.01573042513165
 31
0.0
  0
LINE
  5
3C0
330
10E
100
AcDbEntity
  8
DEFAULT
  6
Continuous
 62
   136
370
    -2
100
AcDbLine
 10
73.09865750530343
 20
105.015719635132
 30
0.0
 11
73.09865750530342
 21
71.01573042513165
 31
0.0
  0
INSERT
  5
3C1
330
10E
100
AcDbEntity
  8
DEFAULT
  6
Continuous
 62
   136
370
    -2
100
AcDbBlockReference
  2
_SE_FILLED
 10
73.09865750530343
 20
108.0157196351321
 30
0.0
 41
3.0
 42
3.0
 43
3.0
 50
90.0
  0
INSERT
  5
3C2
330
10E
100
AcDbEntity
  8
DEFAULT
  6
Continuous
 62
   136
370
    -2
100
AcDbBlockReference
  2
_SE_FILLED
 10
73.09865750530342
 20
68.01573042513165
 30
0.0
 41
3.0
 42
3.0
 43
3.0
 50
270.0
  0
MTEXT
  5
3C3
330
10E
100
AcDbEntity
  8
DEFAULT
  6
Continuous
 62
   136
370
     0
100
AcDbMText
 10
70.09865750530341
 20
88.01572567010236
 30
0.0
 40
3.0
 41
0.0
 71
     5
 72
     1
  1
\A1;\A1;40
  7
seiso_ttf
 11
0.0000000000000001
 21
1.0
 31
0.0
 73
     1
 44
1.0
1001
ACAD
1000
MTEXTBEGIN
1070
    73
1070
     1
1070
    44
1040
1.0
1070
    74
1070
     0
1000
MTEXTEND
  0
POINT
  5
3C4
330
10E
100
AcDbEntity
  8
DEFPOINTS
  6
Continuous
 62
     0
370
     0
100
AcDbPoint
 10
86.69511120924331
 20
108.0157196351321
 30
0.0
  0
POINT
  5
3C5
330
10E
100
AcDbEntity
  8
DEFPOINTS
  6
Continuous
 62
     0
370
     0
100
AcDbPoint
 10
86.69511120924333
 20
68.01573042513165
 30
0.0
  0
POINT
  5
3C6
330
10E
100
AcDbEntity
  8
DEFPOINTS
  6
Continuous
 62
     0
370
     0
100
AcDbPoint
 10
73.09865750530342
 20
68.01573042513165
 30
0.0
  0
ENDBLK
  5
1DD
330
10E
100
AcDbEntity
  8
DEFAULT
 62
     0
 48
0.0
370
     0
100
AcDbBlockEnd
  0
BLOCK
  5
1DE
330
110
100
AcDbEntity
  8
DEFAULT
 62
     1
 48
0.0
370
     0
100
AcDbBlockBegin
  2
SE17
 70
     0
 10
0.0
 20
0.0
 30
0.0
  3
SE17
  1

  0
HATCH
  5
1DF
330
110
100
AcDbEntity
  8
DEFAULT
  6
Continuous
 62
   136
100
AcDbHatch
 10
0.0
 20
0.0
 30
0.0
210
0.0
220
0.0
230
1.0
  2
SOLID
 70
     1
 71
     0
 91
        1
 92
        1
 93
        3
 72
     1
 10
87.19511179032037
 20
59.90392388289774
 11
84.19511176424334
 21
60.40392388724391
 72
     1
 10
84.19511176424334
 20
60.40392388724391
 11
87.19511179032037
 21
60.90392389159008
 72
     1
 10
87.19511179032037
 20
60.90392389159008
 11
87.19511179032037
 21
59.90392388289774
 97
        0
 75
     0
 76
     1
 98
        1
 10
0.0
 20
0.0
  0
HATCH
  5
1E0
330
110
100
AcDbEntity
  8
DEFAULT
  6
Continuous
 62
   136
100
AcDbHatch
 10
0.0
 20
0.0
 30
0.0
210
0.0
220
0.0
230
1.0
  2
SOLID
 70
     1
 71
     0
 91
        1
 92
        1
 93
        3
 72
     1
 10
116.1951020581667
 20
59.90392388289774
 11
119.1951020842437
 21
60.40392388724391
 72
     1
 10
119.1951020842437
 20
60.40392388724391
 11
116.1951020581667
 21
60.90392389159008
 72
     1
 10
116.1951020581667
 20
60.90392389159008
 11
116.1951020581667
 21
59.90392388289774
 97
        0
 75
     0
 76
     1
 98
        1
 10
0.0
 20
0.0
  0
LINE
  5
1E1
330
110
100
AcDbEntity
  8
DEFAULT
  6
Continuous
 62
   136
370
     0
100
AcDbLine
 10
84.19511176424334
 20
70.51572987013166
 30
0.0
 11
84.19511176424334
 21
58.9039238742054
 31
0.0
  0
LINE
  5
1E2
330
110
100
AcDbEntity
  8
DEFAULT
  6
Continuous
 62
   136
370
     0
100
AcDbLine
 10
119.1951020842437
 20
81.01572562913208
 30
0.0
 11
119.1951020842437
 21
58.9039238742054
 31
0.0
  0
LINE
  5
1E3
330
110
100
AcDbEntity
  8
DEFAULT
  6
Continuous
 62
   136
370
     0
100
AcDbLine
 10
84.19511176424334
 20
60.40392388724391
 30
0.0
 11
119.195100737384
 21
60.40392388724391
 31
0.0
  0
TEXT
  5
1E4
330
110
100
AcDbEntity
  8
DEFAULT
  6
Continuous
 62
   136
370
     0
100
AcDbText
 10
100.05874261445
 20
61.15392388724392
 30
0.0
 40
3.0
  1
35
  7
seiso_ttf
 11
100.05874261445
 21
64.15392388724391
 31
0.0
100
AcDbText
 73
     3
  0
ENDBLK
  5
268
330
110
100
AcDbEntity
  8
0
370
     0
100
AcDbBlockEnd
  0
BLOCK
  5
269
330
113
100
AcDbEntity
  8
0
370
     0
100
AcDbBlockBegin
  2
DMBLK1084
 70
     0
 10
0.0
 20
0.0
 30
0.0
  3
DMBLK1084
  1

  0
LINE
  5
3C7
330
113
100
AcDbEntity
  8
DEFAULT
  6
Continuous
 62
   136
370
    -2
100
AcDbLine
 10
84.19511176424334
 20
70.51572987013166
 30
0.0
 11
84.19511176424334
 21
58.90392388724391
 31
0.0
  0
LINE
  5
3C8
330
113
100
AcDbEntity
  8
DEFAULT
  6
Continuous
 62
   136
370
    -2
100
AcDbLine
 10
119.1951020842437
 20
81.01572562913208
 30
0.0
 11
119.1951020842437
 21
58.90392388724391
 31
0.0
  0
LINE
  5
3C9
330
113
100
AcDbEntity
  8
DEFAULT
  6
Continuous
 62
   136
370
    -2
100
AcDbLine
 10
87.19511176424333
 20
60.40392388724391
 30
0.0
 11
116.1951020842437
 21
60.40392388724391
 31
0.0
  0
INSERT
  5
3CA
330
113
100
AcDbEntity
  8
DEFAULT
  6
Continuous
 62
   136
370
    -2
100
AcDbBlockReference
  2
_SE_FILLED
 10
84.19511176424334
 20
60.40392388724391
 30
0.0
 41
3.0
 42
3.0
 43
3.0
 50
180.0
  0
INSERT
  5
3CB
330
113
100
AcDbEntity
  8
DEFAULT
  6
Continuous
 62
   136
370
    -2
100
AcDbBlockReference
  2
_SE_FILLED
 10
119.1951020842437
 20
60.40392388724391
 30
0.0
 41
3.0
 42
3.0
 43
3.0
  0
MTEXT
  5
3CC
330
113
100
AcDbEntity
  8
DEFAULT
  6
Continuous
 62
   136
370
     0
100
AcDbMText
 10
101.6951062508137
 20
63.40392388724391
 30
0.0
 40
3.0
 41
0.0
 71
     5
 72
     1
  1
\A1;\A1;35
  7
seiso_ttf
 73
     1
 44
1.0
1001
ACAD
1000
MTEXTBEGIN
1070
    73
1070
     1
1070
    44
1040
1.0
1070
    74
1070
     0
1000
MTEXTEND
  0
POINT
  5
3CD
330
113
100
AcDbEntity
  8
DEFPOINTS
  6
Continuous
 62
     0
370
     0
100
AcDbPoint
 10
84.19511176424334
 20
70.51572987013166
 30
0.0
  0
POINT
  5
3CE
330
113
100
AcDbEntity
  8
DEFPOINTS
  6
Continuous
 62
     0
370
     0
100
AcDbPoint
 10
119.1951020842437
 20
81.01572562913208
 30
0.0
  0
POINT
  5
3CF
330
113
100
AcDbEntity
  8
DEFPOINTS
  6
Continuous
 62
     0
370
     0
100
AcDbPoint
 10
119.1951020842437
 20
60.40392388724391
 30
0.0
  0
ENDBLK
  5
1E8
330
113
100
AcDbEntity
  8
DEFAULT
 62
     0
 48
0.0
370
     0
100
AcDbBlockEnd
  0
BLOCK
  5
1E9
330
115
100
AcDbEntity
  8
DEFAULT
 62
     1
 48
0.0
370
     0
100
AcDbBlockBegin
  2
SE18
 70
     0
 10
0.0
 20
0.0
 30
0.0
  3
SE18
  1

  0
HATCH
  5
1EA
330
115
100
AcDbEntity
  8
DEFAULT
  6
Continuous
 62
   136
100
AcDbHatch
 10
0.0
 20
0.0
 30
0.0
210
0.0
220
0.0
230
1.0
  2
SOLID
 70
     1
 71
     0
 91
        1
 92
        1
 93
        3
 72
     1
 10
116.1951020581667
 20
59.90392350874949
 11
119.1951020842437
 21
60.40392351309566
 72
     1
 10
119.1951020842437
 20
60.40392351309566
 11
116.1951020581667
 21
60.90392351744183
 72
     1
 10
116.1951020581667
 20
60.90392351744183
 11
116.1951020581667
 21
59.90392350874949
 97
        0
 75
     0
 76
     1
 98
        1
 10
0.0
 20
0.0
  0
HATCH
  5
1EB
330
115
100
AcDbEntity
  8
DEFAULT
  6
Continuous
 62
   136
100
AcDbHatch
 10
0.0
 20
0.0
 30
0.0
210
0.0
220
0.0
230
1.0
  2
SOLID
 70
     1
 71
     0
 91
        1
 92
        1
 93
        3
 72
     1
 10
127.1951010003208
 20
59.90392350874949
 11
124.1951009742437
 21
60.40392351309566
 72
     1
 10
124.1951009742437
 20
60.40392351309566
 11
127.1951010003208
 21
60.90392351744183
 72
     1
 10
127.1951010003208
 20
60.90392351744183
 11
127.1951010003208
 21
59.90392350874949
 97
        0
 75
     0
 76
     1
 98
        1
 10
0.0
 20
0.0
  0
LINE
  5
1EC
330
115
100
AcDbEntity
  8
DEFAULT
  6
Continuous
 62
   136
370
     0
100
AcDbLine
 10
119.1951020842437
 20
81.01572562913208
 30
0.0
 11
119.1951020842437
 21
58.90392350005715
 31
0.0
  0
LINE
  5
1ED
330
115
100
AcDbEntity
  8
DEFAULT
  6
Continuous
 62
   136
370
     0
100
AcDbLine
 10
124.1951009742437
 20
68.01573042513165
 30
0.0
 11
124.1951009742437
 21
58.90392350005715
 31
0.0
  0
LINE
  5
1EE
330
115
100
AcDbEntity
  8
DEFAULT
  6
Continuous
 62
   136
370
     0
100
AcDbLine
 10
113.1951020320897
 20
60.40392351309566
 30
0.0
 11
130.1951010933165
 21
60.40392351309566
 31
0.0
  0
TEXT
  5
1EF
330
115
100
AcDbEntity
  8
DEFAULT
  6
Continuous
 62
   136
370
     0
100
AcDbText
 10
120.8428288354304
 20
61.15392351309566
 30
0.0
 40
3.0
  1
5
  7
seiso_ttf
 11
120.8428288354304
 21
64.15392351309566
 31
0.0
100
AcDbText
 73
     3
  0
ENDBLK
  5
26A
330
115
100
AcDbEntity
  8
0
370
     0
100
AcDbBlockEnd
  0
BLOCK
  5
26B
330
118
100
AcDbEntity
  8
0
370
     0
100
AcDbBlockBegin
  2
DMBLK1085
 70
     0
 10
0.0
 20
0.0
 30
0.0
  3
DMBLK1085
  1

  0
LINE
  5
3D0
330
118
100
AcDbEntity
  8
DEFAULT
  6
Continuous
 62
   136
370
    -2
100
AcDbLine
 10
119.1951020842437
 20
81.01572562913208
 30
0.0
 11
119.1951020842437
 21
58.90392351309566
 31
0.0
  0
LINE
  5
3D1
330
118
100
AcDbEntity
  8
DEFAULT
  6
Continuous
 62
   136
370
    -2
100
AcDbLine
 10
124.1951009742437
 20
68.01573042513165
 30
0.0
 11
124.1951009742437
 21
58.90392351309566
 31
0.0
  0
LINE
  5
3D2
330
118
100
AcDbEntity
  8
DEFAULT
  6
Continuous
 62
   136
370
    -2
100
AcDbLine
 10
116.1951020842437
 20
60.40392351309566
 30
0.0
 11
113.1951020842437
 21
60.40392351309566
 31
0.0
  0
LINE
  5
3D3
330
118
100
AcDbEntity
  8
DEFAULT
  6
Continuous
 62
   136
370
    -2
100
AcDbLine
 10
127.1951009742437
 20
60.40392351309566
 30
0.0
 11
130.1951009742437
 21
60.40392351309566
 31
0.0
  0
LINE
  5
3D4
330
118
100
AcDbEntity
  8
DEFAULT
  6
Continuous
 62
   136
370
    -2
100
AcDbLine
 10
119.1951020842437
 20
60.40392351309566
 30
0.0
 11
124.1951009742437
 21
60.40392351309566
 31
0.0
  0
INSERT
  5
3D5
330
118
100
AcDbEntity
  8
DEFAULT
  6
Continuous
 62
   136
370
    -2
100
AcDbBlockReference
  2
_SE_FILLED
 10
119.1951020842437
 20
60.40392351309566
 30
0.0
 41
3.0
 42
3.0
 43
3.0
  0
INSERT
  5
3D6
330
118
100
AcDbEntity
  8
DEFAULT
  6
Continuous
 62
   136
370
    -2
100
AcDbBlockReference
  2
_SE_FILLED
 10
124.1951009742437
 20
60.40392351309566
 30
0.0
 41
3.0
 42
3.0
 43
3.0
 50
180.0
  0
MTEXT
  5
3D7
330
118
100
AcDbEntity
  8
DEFAULT
  6
Continuous
 62
   136
370
     0
100
AcDbMText
 10
121.6951015292437
 20
63.40392351309566
 30
0.0
 40
3.0
 41
0.0
 71
     5
 72
     1
  1
\A1;\A1;5
  7
seiso_ttf
 73
     1
 44
1.0
1001
ACAD
1000
MTEXTBEGIN
1070
    73
1070
     1
1070
    44
1040
1.0
1070
    74
1070
     0
1000
MTEXTEND
  0
POINT
  5
3D8
330
118
100
AcDbEntity
  8
DEFPOINTS
  6
Continuous
 62
     0
370
     0
100
AcDbPoint
 10
119.1951020842437
 20
81.01572562913208
 30
0.0
  0
POINT
  5
3D9
330
118
100
AcDbEntity
  8
DEFPOINTS
  6
Continuous
 62
     0
370
     0
100
AcDbPoint
 10
124.1951009742437
 20
68.01573042513165
 30
0.0
  0
POINT
  5
3DA
330
118
100
AcDbEntity
  8
DEFPOINTS
  6
Continuous
 62
     0
370
     0
100
AcDbPoint
 10
124.1951009742437
 20
60.40392351309566
 30
0.0
  0
ENDBLK
  5
1F3
330
118
100
AcDbEntity
  8
DEFAULT
 62
     0
 48
0.0
370
     0
100
AcDbBlockEnd
  0
BLOCK
  5
1F4
330
11A
100
AcDbEntity
  8
DEFAULT
 62
     1
 48
0.0
370
     0
100
AcDbBlockBegin
  2
SE19
 70
     0
 10
0.0
 20
0.0
 30
0.0
  3
SE19
  1

  0
HATCH
  5
1F5
330
11A
100
AcDbEntity
  8
DEFAULT
  6
Continuous
 62
   136
100
AcDbHatch
 10
0.0
 20
0.0
 30
0.0
210
0.0
220
0.0
230
1.0
  2
SOLID
 70
     1
 71
     0
 91
        1
 92
        1
 93
        3
 72
     1
 10
135.0208892724507
 20
81.01572493705504
 11
134.5208892681045
 21
84.01572496313207
 72
     1
 10
134.5208892681045
 20
84.01572496313207
 11
134.0208892637584
 21
81.01572493705504
 72
     1
 10
134.0208892637584
 20
81.01572493705504
 11
135.0208892724507
 21
81.01572493705504
 97
        0
 75
     0
 76
     1
 98
        1
 10
0.0
 20
0.0
  0
HATCH
  5
1F6
330
11A
100
AcDbEntity
  8
DEFAULT
  6
Continuous
 62
   136
100
AcDbHatch
 10
0.0
 20
0.0
 30
0.0
210
0.0
220
0.0
230
1.0
  2
SOLID
 70
     1
 71
     0
 91
        1
 92
        1
 93
        3
 72
     1
 10
135.0208892724507
 20
95.01572321320912
 11
134.5208892681045
 21
92.01572318713209
 72
     1
 10
134.5208892681045
 20
92.01572318713209
 11
134.0208892637584
 21
95.01572321320912
 72
     1
 10
134.0208892637584
 20
95.01572321320912
 11
135.0208892724507
 21
95.01572321320912
 97
        0
 75
     0
 76
     1
 98
        1
 10
0.0
 20
0.0
  0
LINE
  5
1F7
330
11A
100
AcDbEntity
  8
DEFAULT
  6
Continuous
 62
   136
370
     0
100
AcDbLine
 10
127.1951003082437
 20
84.01572496313207
 30
0.0
 11
136.020889281143
 21
84.01572496313207
 31
0.0
  0
LINE
  5
1F8
330
11A
100
AcDbEntity
  8
DEFAULT
  6
Continuous
 62
   136
370
     0
100
AcDbLine
 10
127.1951003082437
 20
92.01572318713209
 30
0.0
 11
136.020889281143
 21
92.01572318713209
 31
0.0
  0
LINE
  5
1F9
330
11A
100
AcDbEntity
  8
DEFAULT
  6
Continuous
 62
   136
370
     0
100
AcDbLine
 10
134.5208892681045
 20
78.015724910978
 30
0.0
 11
134.5208892681045
 21
98.01572353262059
 31
0.0
  0
TEXT
  5
1FA
330
11A
100
AcDbEntity
  8
DEFAULT
  6
Continuous
 62
   136
370
     0
100
AcDbText
 10
133.7708892681045
 20
87.06117876725384
 30
0.0
 40
3.0
  1
8
 50
90.0
  7
seiso_ttf
 11
130.7708892681045
 21
87.06117876725384
 31
0.0
100
AcDbText
 73
     3
  0
ENDBLK
  5
26C
330
11A
100
AcDbEntity
  8
0
370
     0
100
AcDbBlockEnd
  0
BLOCK
  5
26D
330
11D
100
AcDbEntity
  8
0
370
     0
100
AcDbBlockBegin
  2
DMBLK1086
 70
     0
 10
0.0
 20
0.0
 30
0.0
  3
DMBLK1086
  1

  0
LINE
  5
3DB
330
11D
100
AcDbEntity
  8
DEFAULT
  6
Continuous
 62
   136
370
    -2
100
AcDbLine
 10
127.1951003082437
 20
84.01572496313207
 30
0.0
 11
136.0208892681046
 21
84.01572496313207
 31
0.0
  0
LINE
  5
3DC
330
11D
100
AcDbEntity
  8
DEFAULT
  6
Continuous
 62
   136
370
    -2
100
AcDbLine
 10
127.1951003082437
 20
92.01572318713209
 30
0.0
 11
136.0208892681046
 21
92.01572318713209
 31
0.0
  0
LINE
  5
3DD
330
11D
100
AcDbEntity
  8
DEFAULT
  6
Continuous
 62
   136
370
    -2
100
AcDbLine
 10
134.5208892681046
 20
81.01572496313208
 30
0.0
 11
134.5208892681046
 21
78.01572496313207
 31
0.0
  0
LINE
  5
3DE
330
11D
100
AcDbEntity
  8
DEFAULT
  6
Continuous
 62
   136
370
    -2
100
AcDbLine
 10
134.5208892681046
 20
95.01572318713208
 30
0.0
 11
134.5208892681046
 21
98.01572318713208
 31
0.0
  0
LINE
  5
3DF
330
11D
100
AcDbEntity
  8
DEFAULT
  6
Continuous
 62
   136
370
    -2
100
AcDbLine
 10
134.5208892681046
 20
84.01572496313207
 30
0.0
 11
134.5208892681046
 21
92.01572318713209
 31
0.0
  0
INSERT
  5
3E0
330
11D
100
AcDbEntity
  8
DEFAULT
  6
Continuous
 62
   136
370
    -2
100
AcDbBlockReference
  2
_SE_FILLED
 10
134.5208892681046
 20
84.01572496313207
 30
0.0
 41
3.0
 42
3.0
 43
3.0
 50
90.0
  0
INSERT
  5
3E1
330
11D
100
AcDbEntity
  8
DEFAULT
  6
Continuous
 62
   136
370
    -2
100
AcDbBlockReference
  2
_SE_FILLED
 10
134.5208892681046
 20
92.01572318713209
 30
0.0
 41
3.0
 42
3.0
 43
3.0
 50
270.0
  0
MTEXT
  5
3E2
330
11D
100
AcDbEntity
  8
DEFAULT
  6
Continuous
 62
   136
370
     0
100
AcDbMText
 10
131.5208892681045
 20
88.0157240751321
 30
0.0
 40
3.0
 41
0.0
 71
     5
 72
     1
  1
\A1;\A1;8
  7
seiso_ttf
 11
0.0000000000000001
 21
1.0
 31
0.0
 73
     1
 44
1.0
1001
ACAD
1000
MTEXTBEGIN
1070
    73
1070
     1
1070
    44
1040
1.0
1070
    74
1070
     0
1000
MTEXTEND
  0
POINT
  5
3E3
330
11D
100
AcDbEntity
  8
DEFPOINTS
  6
Continuous
 62
     0
370
     0
100
AcDbPoint
 10
127.1951003082437
 20
84.01572496313207
 30
0.0
  0
POINT
  5
3E4
330
11D
100
AcDbEntity
  8
DEFPOINTS
  6
Continuous
 62
     0
370
     0
100
AcDbPoint
 10
127.1951003082437
 20
92.01572318713209
 30
0.0
  0
POINT
  5
3E5
330
11D
100
AcDbEntity
  8
DEFPOINTS
  6
Continuous
 62
     0
370
     0
100
AcDbPoint
 10
134.5208892681046
 20
92.01572318713209
 30
0.0
  0
ENDBLK
  5
1FE
330
11D
100
AcDbEntity
  8
DEFAULT
 62
     0
 48
0.0
370
     0
100
AcDbBlockEnd
  0
ENDSEC
  0
SECTION
  2
ENTITIES
  0
LINE
  5
6C
330
A
100
AcDbEntity
  8
AM_0
  6
Continuous
 62
     7
370
     0
100
AcDbLine
 10
4.249999056500001
 20
61.18670821654778
 30
0.0
 11
6.384434232655294
 21
63.32114530270264
 31
0.0
  0
LINE
  5
6D
330
A
100
AcDbEntity
  8
AM_0
  6
Continuous
 62
     7
370
     0
100
AcDbLine
 10
4.249999056500001
 20
58.35827867445924
 30
0.0
 11
7.30071668924053
 21
61.40899820719939
 31
0.0
  0
LINE
  5
6E
330
A
100
AcDbEntity
  8
AM_0
  6
Continuous
 62
     7
370
     0
100
AcDbLine
 10
7.041290626833131
 20
58.32114641270258
 30
0.0
 11
7.499996425000432
 21
58.77985603086902
 31
0.0
  0
LINE
  5
6F
330
A
100
AcDbEntity
  8
AM_0
  6
Continuous
 62
     7
370
     0
100
AcDbLine
 10
16.71285830974463
 20
70.82114363770263
 30
0.0
 11
19.96285758824462
 21
74.07114291620264
 31
0.0
  0
LINE
  5
70
330
A
100
AcDbEntity
  8
AM_0
  6
Continuous
 62
     7
370
     0
100
AcDbLine
 10
14.9999947600004
 20
71.93670583004778
 30
0.0
 11
17.13443184615526
 21
74.07114291620264
 31
0.0
  0
LINE
  5
71
330
A
100
AcDbEntity
  8
AM_0
  6
Continuous
 62
     7
370
     0
100
AcDbLine
 10
13.88443256765528
 20
70.82114363770263
 30
0.0
 11
14.38443245665527
 21
71.32114352670261
 31
0.0
  0
LINE
  5
72
330
A
100
AcDbEntity
  8
AM_0
  6
Continuous
 62
     7
370
     0
100
AcDbLine
 10
11.05600683556594
 20
70.82114363770263
 30
0.0
 11
11.55600672456592
 21
71.32114352670261
 31
0.0
  0
LINE
  5
73
330
A
100
AcDbEntity
  8
AM_0
  6
Continuous
 62
     7
370
     0
100
AcDbLine
 10
6.999996536000409
 20
69.59355907022644
 30
0.0
 11
7.499996425000404
 21
70.09355895922642
 31
0.0
  0
LINE
  5
74
330
A
100
AcDbEntity
  8
AM_0
  6
Continuous
 62
     7
370
     0
100
AcDbLine
 10
8.227581103476595
 20
70.82114363770263
 30
0.0
 11
8.727580992476589
 21
71.32114352670261
 31
0.0
  0
LINE
  5
75
330
A
100
AcDbEntity
  8
AM_0
  6
Continuous
 62
     7
370
     0
100
AcDbLine
 10
19.54128785183312
 20
70.82114363770263
 30
0.0
 11
19.9999936500004
 21
71.2798532558691
 31
0.0
  0
LINE
  5
76
330
A
100
AcDbEntity
  8
AM_8
  6
Continuous
 62
     7
370
     0
100
AcDbLine
 10
-4.27241612152342
 20
58.32114641270258
 30
0.0
 11
-4.249999056500016
 21
58.34356156772641
 31
0.0
  0
LINE
  5
77
330
A
100
AcDbEntity
  8
AM_8
  6
Continuous
 62
     7
370
     0
100
AcDbLine
 10
-4.249999056500001
 20
61.17199111981496
 30
0.0
 11
-7.100841853612763
 21
58.32114641270262
 31
0.0
  0
LINE
  5
78
330
A
100
AcDbEntity
  8
AM_8
  6
Continuous
 62
     7
370
     0
100
AcDbLine
 10
-9.929269495701689
 20
58.32114641270258
 30
0.0
 11
-4.929270605701688
 21
63.32114530270259
 31
0.0
  0
LINE
  5
79
330
A
100
AcDbEntity
  8
AM_8
  6
Continuous
 62
     7
370
     0
100
AcDbLine
 10
-6.999998445999992
 20
64.07884319449367
 30
0.0
 11
-12.75769522779102
 21
58.32114641270262
 31
0.0
  0
LINE
  5
7A
330
A
100
AcDbEntity
  8
AM_8
  6
Continuous
 62
     7
370
     0
100
AcDbLine
 10
-15.58612095988037
 20
58.32114641270258
 30
0.0
 11
-6.999998446000006
 21
66.90726511658384
 31
0.0
  0
LINE
  5
7B
330
A
100
AcDbEntity
  8
AM_8
  6
Continuous
 62
     7
370
     0
100
AcDbLine
 10
-6.999998445999992
 20
69.73569465867235
 30
0.0
 11
-18.4145486019693
 21
58.32114641270262
 31
0.0
  0
LINE
  5
7C
330
A
100
AcDbEntity
  8
AM_8
  6
Continuous
 62
     7
370
     0
100
AcDbLine
 10
-19.99999556
 20
59.56412709676083
 30
0.0
 11
-8.242977220058648
 21
71.32114352670258
 31
0.0
  0
LINE
  5
7D
330
A
100
AcDbEntity
  8
AM_8
  6
Continuous
 62
     7
370
     0
100
AcDbLine
 10
-11.07140486214757
 20
71.32114352670261
 30
0.0
 11
-19.99999556
 21
62.39254901885103
 31
0.0
  0
LINE
  5
7E
330
A
100
AcDbEntity
  8
AM_8
  6
Continuous
 62
     7
370
     0
100
AcDbLine
 10
-19.99999556
 20
65.22097856093951
 30
0.0
 11
-13.89983059423693
 21
71.32114352670258
 31
0.0
  0
LINE
  5
7F
330
A
100
AcDbEntity
  8
AM_8
  6
Continuous
 62
     7
370
     0
100
AcDbLine
 10
-16.72825632632627
 20
71.32114352670261
 30
0.0
 11
-19.99999556000001
 21
68.04940048302971
 31
0.0
  0
LINE
  5
80
330
A
100
AcDbEntity
  8
AM_8
  6
Continuous
 62
     7
370
     0
100
AcDbLine
 10
-19.99999556
 20
70.87783002511826
 30
0.0
 11
-19.55668396841518
 21
71.32114352670261
 31
0.0
  0
LINE
  5
81
330
A
100
AcDbEntity
  8
AM_8
  6
Continuous
 62
     7
370
     0
100
AcDbLine
 10
19.97757849497658
 20
82.57114102920262
 30
0.0
 11
19.9999936500004
 21
82.59355618422643
 31
0.0
  0
LINE
  5
82
330
A
100
AcDbEntity
  8
AM_8
  6
Continuous
 62
     7
370
     0
100
AcDbLine
 10
22.99999298400043
 20
88.42198507031493
 30
0.0
 11
22.39915159738722
 21
87.82113986370259
 31
0.0
  0
LINE
  5
83
330
A
100
AcDbEntity
  8
AM_8
  6
Continuous
 62
     7
370
     0
100
AcDbLine
 10
19.9999936500004
 20
85.42198573631496
 30
0.0
 11
17.14915276288722
 21
82.57114102920262
 31
0.0
  0
LINE
  5
84
330
A
100
AcDbEntity
  8
AM_8
  6
Continuous
 62
     7
370
     0
100
AcDbLine
 10
14.9999947600004
 20
83.25040876840514
 30
0.0
 11
22.99999298400043
 21
91.25040699240512
 31
0.0
  0
LINE
  5
85
330
A
100
AcDbEntity
  8
AM_8
  6
Continuous
 62
     7
370
     0
100
AcDbLine
 10
22.99999298400043
 20
94.07883653449365
 30
0.0
 11
14.24229686820941
 21
85.3211404187026
 31
0.0
  0
LINE
  5
86
330
A
100
AcDbEntity
  8
AM_8
  6
Continuous
 62
     7
370
     0
100
AcDbLine
 10
11.41387113612005
 20
85.3211404187026
 30
0.0
 11
22.99999298400043
 21
96.90725845658382
 31
0.0
  0
LINE
  5
87
330
A
100
AcDbEntity
  8
AM_8
  6
Continuous
 62
     7
370
     0
100
AcDbLine
 10
21.58544251803068
 20
98.3211375327026
 30
0.0
 11
8.585445404030679
 21
85.3211404187026
 31
0.0
  0
LINE
  5
88
330
A
100
AcDbEntity
  8
AM_8
  6
Continuous
 62
     7
370
     0
100
AcDbLine
 10
6.999996536000409
 20
86.56412110276086
 30
0.0
 11
18.75701678594133
 21
98.32113753270263
 31
0.0
  0
LINE
  5
89
330
A
100
AcDbEntity
  8
AM_8
  6
Continuous
 62
     7
370
     0
100
AcDbLine
 10
15.92858723385285
 20
98.3211375327026
 30
0.0
 11
6.999996536000423
 21
89.39254302485101
 31
0.0
  0
LINE
  5
8A
330
A
100
AcDbEntity
  8
AM_8
  6
Continuous
 62
     7
370
     0
100
AcDbLine
 10
6.999996536000409
 20
92.22097256693954
 30
0.0
 11
13.10016150176348
 21
98.32113753270263
 31
0.0
  0
LINE
  5
8B
330
A
100
AcDbEntity
  8
AM_8
  6
Continuous
 62
     7
370
     0
100
AcDbLine
 10
10.27173576967415
 20
98.3211375327026
 30
0.0
 11
6.999996536000423
 21
95.0493944890297
 31
0.0
  0
LINE
  5
8C
330
A
100
AcDbEntity
  8
AM_8
  6
Continuous
 62
     7
370
     0
100
AcDbLine
 10
6.999996536000409
 20
97.87782403111824
 30
0.0
 11
7.443310037584794
 21
98.3211375327026
 31
0.0
  0
LINE
  5
8D
330
A
100
AcDbEntity
  8
AM_8
  6
Continuous
 62
     7
370
     0
100
AcDbLine
 10
-8.385112808504544
 20
85.3211404187026
 30
0.0
 11
-6.999998445999992
 21
86.70625669120672
 31
0.0
  0
LINE
  5
8E
330
A
100
AcDbEntity
  8
AM_8
  6
Continuous
 62
     7
370
     0
100
AcDbLine
 10
-6.999998445999992
 20
89.53467861329695
 30
0.0
 11
-11.21354045059345
 21
85.32114041870263
 31
0.0
  0
LINE
  5
8F
330
A
100
AcDbEntity
  8
AM_8
  6
Continuous
 62
     7
370
     0
100
AcDbLine
 10
-14.04196618268281
 20
85.3211404187026
 30
0.0
 11
-6.999998446000006
 21
92.36310815538541
 31
0.0
  0
LINE
  5
90
330
A
100
AcDbEntity
  8
AM_8
  6
Continuous
 62
     7
370
     0
100
AcDbLine
 10
-6.999998445999992
 20
95.19153007747563
 30
0.0
 11
-16.87039191477215
 21
85.32114041870263
 31
0.0
  0
LINE
  5
91
330
A
100
AcDbEntity
  8
AM_8
  6
Continuous
 62
     7
370
     0
100
AcDbLine
 10
-19.69881955686109
 20
85.3211404187026
 30
0.0
 11
-6.999998446000006
 21
98.01995961956414
 31
0.0
  0
LINE
  5
92
330
A
100
AcDbEntity
  8
AM_8
  6
Continuous
 62
     7
370
     0
100
AcDbLine
 10
-9.527248174950429
 20
98.3211375327026
 30
0.0
 11
-19.99999556
 21
87.84839205765264
 31
0.0
  0
LINE
  5
93
330
A
100
AcDbEntity
  8
AM_8
  6
Continuous
 62
     7
370
     0
100
AcDbLine
 10
-19.99999556
 20
90.67681397974281
 30
0.0
 11
-12.35567581703937
 21
98.3211375327026
 31
0.0
  0
LINE
  5
94
330
A
100
AcDbEntity
  8
AM_8
  6
Continuous
 62
     7
370
     0
100
AcDbLine
 10
-15.18410154912871
 20
98.3211375327026
 30
0.0
 11
-19.99999556
 21
93.50524352183134
 31
0.0
  0
LINE
  5
95
330
A
100
AcDbEntity
  8
AM_8
  6
Continuous
 62
     7
370
     0
100
AcDbLine
 10
-19.93155227519442
 20
96.4021087287271
 30
0.0
 11
-18.08097056602365
 21
98.25269424789702
 31
0.0
  0
LINE
  5
96
330
A
100
AcDbEntity
  8
PROFILATI-IN-ALLUMINIO
  6
Continuous
 62
     7
370
     0
100
AcDbLine
 10
19.9999936500004
 20
3.999999112000011
 30
0.0
 11
19.9999936500004
 21
-3.999999111999983
 31
0.0
  0
LINE
  5
9B
330
A
100
AcDbEntity
  8
PROFILATI-IN-ALLUMINIO
  6
Continuous
 62
     7
370
     0
100
AcDbLine
 10
4.249999056500001
 20
63.32114530270259
 30
0.0
 11
4.249999056500001
 21
58.32114641270258
 31
0.0
  0
LINE
  5
9C
330
A
100
AcDbEntity
  8
PROFILATI-IN-ALLUMINIO
  6
Continuous
 62
     7
370
     0
100
AcDbLine
 10
-4.249999056500001
 20
63.32114530270259
 30
0.0
 11
-4.249999056500001
 21
58.32114641270258
 31
0.0
  0
LINE
  5
9D
330
A
100
AcDbEntity
  8
PROFILATI-IN-ALLUMINIO
  6
Continuous
 62
     7
370
     0
100
AcDbLine
 10
14.9999947600004
 20
74.07114291620262
 30
0.0
 11
19.9999936500004
 21
74.07114291620262
 31
0.0
  0
LINE
  5
9E
330
A
100
AcDbEntity
  8
PROFILATI-IN-ALLUMINIO
  6
Continuous
 62
     7
370
     0
100
AcDbLine
 10
14.9999947600004
 20
82.57114102920262
 30
0.0
 11
19.9999936500004
 21
82.57114102920262
 31
0.0
  0
CIRCLE
  5
9F
330
A
100
AcDbEntity
  8
PROFILATI-IN-ALLUMINIO
  6
Continuous
 62
     7
370
     0
100
AcDbCircle
 10
0.0
 20
0.0
 30
0.0
 40
4.2499990565
  0
CIRCLE
  5
A0
330
A
100
AcDbEntity
  8
PROFILATI-IN-ALLUMINIO
  6
Continuous
 62
     7
370
     0
100
AcDbCircle
 10
0.0
 20
0.0
 30
0.0
 40
6.999996536000421
  0
LINE
  5
A2
330
A
100
AcDbEntity
  8
DEFAULT
  6
HIDDEN2
 62
     7
370
     0
100
AcDbLine
 10
-19.99999556
 20
6.999998445999992
 30
0.0
 11
14.9999947600004
 21
6.999998445999992
 31
0.0
  0
LINE
  5
A3
330
A
100
AcDbEntity
  8
DEFAULT
  6
HIDDEN2
 62
     7
370
     0
100
AcDbLine
 10
14.9999947600004
 20
6.999998445999992
 30
0.0
 11
14.9999947600004
 21
3.999999112000011
 31
0.0
  0
LINE
  5
A4
330
A
100
AcDbEntity
  8
DEFAULT
  6
HIDDEN2
 62
     7
370
     0
100
AcDbLine
 10
-19.99999556
 20
-6.999998445999992
 30
0.0
 11
14.9999947600004
 21
-6.999998445999992
 31
0.0
  0
LINE
  5
A5
330
A
100
AcDbEntity
  8
DEFAULT
  6
HIDDEN2
 62
     7
370
     0
100
AcDbLine
 10
14.9999947600004
 20
-6.999998445999992
 30
0.0
 11
14.9999947600004
 21
-3.999999111999997
 31
0.0
  0
LINE
  5
A6
330
A
100
AcDbEntity
  8
DEFAULT
  6
Continuous
 62
     7
370
     0
100
AcDbLine
 10
19.9999936500004
 20
-3.999999111999997
 30
0.0
 11
14.9999947600004
 21
-3.999999111999997
 31
0.0
  0
LINE
  5
A7
330
A
100
AcDbEntity
  8
DEFAULT
  6
HIDDEN2
 62
     7
370
     0
100
AcDbLine
 10
14.9999947600004
 20
-3.999999111999997
 30
0.0
 11
14.9999947600004
 21
3.999999112000011
 31
0.0
  0
LINE
  5
A8
330
A
100
AcDbEntity
  8
DEFAULT
  6
Continuous
 62
     7
370
     0
100
AcDbLine
 10
14.9999947600004
 20
3.999999112000011
 30
0.0
 11
19.9999936500004
 21
3.999999112000011
 31
0.0
  0
LINE
  5
A9
330
A
100
AcDbEntity
  8
DEFAULT
  6
Continuous
 62
     7
370
     0
100
AcDbLine
 10
19.9999936500004
 20
-3.999999111999997
 30
0.0
 11
7.499996425000432
 21
-3.999999111999997
 31
0.0
  0
LINE
  5
AA
330
A
100
AcDbEntity
  8
DEFAULT
  6
Continuous
 62
     7
370
     0
100
AcDbLine
 10
7.499996425000432
 20
-3.999999111999997
 30
0.0
 11
7.499996425000432
 21
3.999999112000011
 31
0.0
  0
LINE
  5
AB
330
A
100
AcDbEntity
  8
DEFAULT
  6
Continuous
 62
     7
370
     0
100
AcDbLine
 10
7.499996425000432
 20
3.999999112000011
 30
0.0
 11
19.9999936500004
 21
3.999999112000011
 31
0.0
  0
LINE
  5
AC
330
A
100
AcDbEntity
  8
DEFAULT
  6
Continuous
 62
     7
370
     0
100
AcDbLine
 10
-3.999999111999997
 20
19.99999556
 30
0.0
 11
-3.999999111999997
 21
9.499997891000006
 31
0.0
  0
LINE
  5
AD
330
A
100
AcDbEntity
  8
DEFAULT
  6
Continuous
 62
     7
370
     0
100
AcDbLine
 10
-3.999999111999997
 20
9.499997891000006
 30
0.0
 11
3.999999111999997
 21
9.499997891000006
 31
0.0
  0
LINE
  5
AE
330
A
100
AcDbEntity
  8
DEFAULT
  6
Continuous
 62
     7
370
     0
100
AcDbLine
 10
3.999999111999997
 20
9.499997891000006
 30
0.0
 11
3.999999111999997
 21
19.99999556
 31
0.0
  0
LINE
  5
AF
330
A
100
AcDbEntity
  8
DEFAULT
  6
Continuous
 62
     7
370
     0
100
AcDbLine
 10
-3.999999111999997
 20
-19.99999365000042
 30
0.0
 11
-3.999999111999997
 21
-9.499997890999992
 31
0.0
  0
LINE
  5
B0
330
A
100
AcDbEntity
  8
DEFAULT
  6
Continuous
 62
     7
370
     0
100
AcDbLine
 10
-3.999999111999997
 20
-9.499997890999992
 30
0.0
 11
3.999999111999997
 21
-9.499997890999992
 31
0.0
  0
LINE
  5
B1
330
A
100
AcDbEntity
  8
DEFAULT
  6
Continuous
 62
     7
370
     0
100
AcDbLine
 10
3.999999111999997
 20
-9.499997890999992
 30
0.0
 11
3.999999111999997
 21
-19.99999365000042
 31
0.0
  0
ARC
  5
3E7
330
A
100
AcDbEntity
  8
PROFILATI-IN-ALLUMINIO
  6
Continuous
 62
     7
370
     0
100
AcDbCircle
 10
-17.49999610487218
 20
17.49999610487218
 30
0.0
 40
2.499999455127806
100
AcDbArc
 50
90.00000023211271
 51
179.9999997678873
  0
LINE
  5
3E8
330
A
100
AcDbEntity
  8
PROFILATI-IN-ALLUMINIO
  6
Continuous
 62
     7
370
     0
100
AcDbLine
 10
-19.99999556
 20
17.49999611500001
 30
0.0
 11
-19.99999556
 21
-17.49999420500042
 31
0.0
  0
ARC
  5
3E9
330
A
100
AcDbEntity
  8
PROFILATI-IN-ALLUMINIO
  6
Continuous
 62
     7
370
     0
100
AcDbCircle
 10
-17.49999610487218
 20
-17.49999419487261
 30
0.0
 40
2.49999945512782
100
AcDbArc
 50
180.0000002321119
 51
269.9999997678873
  0
LINE
  5
3EA
330
A
100
AcDbEntity
  8
PROFILATI-IN-ALLUMINIO
  6
Continuous
 62
     7
370
     0
100
AcDbLine
 10
-17.499996115
 20
-19.99999365000042
 30
0.0
 11
19.9999936500004
 21
-19.99999365000042
 31
0.0
  0
LINE
  5
3EB
330
A
100
AcDbEntity
  8
PROFILATI-IN-ALLUMINIO
  6
Continuous
 62
     7
370
     0
100
AcDbLine
 10
19.9999936500004
 20
-19.99999365000042
 30
0.0
 11
19.9999936500004
 21
-3.999999111999997
 31
0.0
  0
LINE
  5
3EC
330
A
100
AcDbEntity
  8
PROFILATI-IN-ALLUMINIO
  6
Continuous
 62
     7
370
     0
100
AcDbLine
 10
19.9999936500004
 20
-3.999999111999997
 30
0.0
 11
22.99999298400043
 21
-3.999999111999997
 31
0.0
  0
LINE
  5
3ED
330
A
100
AcDbEntity
  8
PROFILATI-IN-ALLUMINIO
  6
Continuous
 62
     7
370
     0
100
AcDbLine
 10
22.99999298400043
 20
-3.999999111999997
 30
0.0
 11
22.99999298400043
 21
3.999999112000011
 31
0.0
  0
LINE
  5
3EE
330
A
100
AcDbEntity
  8
PROFILATI-IN-ALLUMINIO
  6
Continuous
 62
     7
370
     0
100
AcDbLine
 10
22.99999298400043
 20
3.999999112000011
 30
0.0
 11
19.9999936500004
 21
3.999999112000011
 31
0.0
  0
LINE
  5
3EF
330
A
100
AcDbEntity
  8
PROFILATI-IN-ALLUMINIO
  6
Continuous
 62
     7
370
     0
100
AcDbLine
 10
19.9999936500004
 20
3.999999112000011
 30
0.0
 11
19.9999936500004
 21
19.99999556
 31
0.0
  0
LINE
  5
3F0
330
A
100
AcDbEntity
  8
PROFILATI-IN-ALLUMINIO
  6
Continuous
 62
     7
370
     0
100
AcDbLine
 10
19.9999936500004
 20
19.99999556
 30
0.0
 11
-17.49999611500001
 21
19.99999556
 31
0.0
  0
LINE
  5
3F1
330
A
100
AcDbEntity
  8
PROFILATI-IN-ALLUMINIO
  6
Continuous
 62
     7
370
     0
100
AcDbLine
 10
-17.49999611500001
 20
19.99999556
 30
0.0
 11
-17.499996115
 21
19.99999555999998
 31
0.0
  0
ARC
  5
3F4
330
A
100
AcDbEntity
  8
AM_BOR
  6
Continuous
 62
     7
370
     0
100
AcDbCircle
 10
0.2860996970836567
 20
86.5969798160227
 30
0.0
 40
7.396958315307795
100
AcDbArc
 50
189.9321374892201
 51
267.7833598167843
  0
ARC
  5
3F5
330
A
100
AcDbEntity
  8
AM_BOR
  6
Continuous
 62
     7
370
     0
100
AcDbCircle
 10
-0.4358585764900198
 20
86.76839398138987
 30
0.0
 40
7.575386731293725
100
AcDbArc
 50
273.2984000345139
 51
348.9861181515147
  0
ARC
  5
3F6
330
A
100
AcDbEntity
  8
AM_BOR
  6
Continuous
 62
     7
370
     0
100
AcDbCircle
 10
0.2860951173312571
 20
70.04530016175245
 30
0.0
 40
7.396954488538131
100
AcDbArc
 50
92.21660582986523
 51
170.0678261200343
  0
ARC
  5
3F7
330
A
100
AcDbEntity
  8
AM_BOR
  6
Continuous
 62
     7
370
     0
100
AcDbCircle
 10
-0.4358539632074497
 20
69.8738858211813
 30
0.0
 40
7.575382994460455
100
AcDbArc
 50
11.01391927136305
 51
86.70163328670721
  0
LINE
  5
3F8
330
A
100
AcDbEntity
  8
PROFILATI-IN-ALLUMINIO
  6
Continuous
 62
     7
370
     0
100
AcDbLine
 10
-19.99999556
 20
58.32114641270258
 30
0.0
 11
-19.99999556
 21
95.82113808770261
 31
0.0
  0
ARC
  5
3F9
330
A
100
AcDbEntity
  8
PROFILATI-IN-ALLUMINIO
  6
Continuous
 62
     7
370
     0
100
AcDbCircle
 10
-17.49999610487218
 20
95.82113807757476
 30
0.0
 40
2.49999945512782
100
AcDbArc
 50
90.00000023211271
 51
179.9999997678864
  0
LINE
  5
3FA
330
A
100
AcDbEntity
  8
PROFILATI-IN-ALLUMINIO
  6
Continuous
 62
     7
370
     0
100
AcDbLine
 10
-17.499996115
 20
98.3211375327026
 30
0.0
 11
22.99999298400043
 21
98.3211375327026
 31
0.0
  0
LINE
  5
3FB
330
A
100
AcDbEntity
  8
PROFILATI-IN-ALLUMINIO
  6
Continuous
 62
     7
370
     0
100
AcDbLine
 10
22.99999298400043
 20
98.3211375327026
 30
0.0
 11
22.99999298400043
 21
87.8211398637026
 31
0.0
  0
LINE
  5
3FC
330
A
100
AcDbEntity
  8
PROFILATI-IN-ALLUMINIO
  6
Continuous
 62
     7
370
     0
100
AcDbLine
 10
22.99999298400043
 20
87.8211398637026
 30
0.0
 11
19.9999936500004
 21
87.8211398637026
 31
0.0
  0
LINE
  5
3FD
330
A
100
AcDbEntity
  8
PROFILATI-IN-ALLUMINIO
  6
Continuous
 62
     7
370
     0
100
AcDbLine
 10
19.9999936500004
 20
87.8211398637026
 30
0.0
 11
19.9999936500004
 21
70.82114363770263
 31
0.0
  0
LINE
  5
3FE
330
A
100
AcDbEntity
  8
PROFILATI-IN-ALLUMINIO
  6
Continuous
 62
     7
370
     0
100
AcDbLine
 10
19.9999936500004
 20
70.82114363770263
 30
0.0
 11
7.499996425000432
 21
70.82114363770263
 31
0.0
  0
LINE
  5
3FF
330
A
100
AcDbEntity
  8
PROFILATI-IN-ALLUMINIO
  6
Continuous
 62
     7
370
     0
100
AcDbLine
 10
7.499996425000432
 20
70.82114363770263
 30
0.0
 11
7.499996425000432
 21
58.32114641270258
 31
0.0
  0
LINE
  5
400
330
A
100
AcDbEntity
  8
PROFILATI-IN-ALLUMINIO
  6
Continuous
 62
     7
370
     0
100
AcDbLine
 10
7.499996425000432
 20
58.32114641270258
 30
0.0
 11
3.999999111999997
 21
58.32114641270258
 31
0.0
  0
LINE
  5
401
330
A
100
AcDbEntity
  8
PROFILATI-IN-ALLUMINIO
  6
Continuous
 62
     7
370
     0
100
AcDbLine
 10
3.999999111999997
 20
58.32114641270258
 30
0.0
 11
3.999999111999997
 21
55.3211470787026
 31
0.0
  0
LINE
  5
402
330
A
100
AcDbEntity
  8
PROFILATI-IN-ALLUMINIO
  6
Continuous
 62
     7
370
     0
100
AcDbLine
 10
3.999999111999997
 20
55.3211470787026
 30
0.0
 11
-3.999999111999997
 21
55.3211470787026
 31
0.0
  0
LINE
  5
403
330
A
100
AcDbEntity
  8
PROFILATI-IN-ALLUMINIO
  6
Continuous
 62
     7
370
     0
100
AcDbLine
 10
-3.999999111999997
 20
55.3211470787026
 30
0.0
 11
-3.999999111999997
 21
58.32114641270258
 31
0.0
  0
LINE
  5
404
330
A
100
AcDbEntity
  8
PROFILATI-IN-ALLUMINIO
  6
Continuous
 62
     7
370
     0
100
AcDbLine
 10
-3.999999111999997
 20
58.32114641270258
 30
0.0
 11
-19.99999556
 21
58.32114641270258
 31
0.0
  0
LINE
  5
405
330
A
100
AcDbEntity
  8
PROFILATI-IN-ALLUMINIO
  6
Continuous
 62
     7
370
     0
100
AcDbLine
 10
-19.99999556
 20
58.32114641270258
 30
0.0
 11
-19.99999556
 21
58.32114641270258
 31
0.0
  0
LINE
  5
406
330
A
100
AcDbEntity
  8
PROFILATI-IN-ALLUMINIO
  6
Continuous
 62
     7
370
     0
100
AcDbLine
 10
-3.999999111999997
 20
-19.99999365000042
 30
0.0
 11
-3.999999111999997
 21
-9.499997890999992
 31
0.0
  0
LINE
  5
407
330
A
100
AcDbEntity
  8
PROFILATI-IN-ALLUMINIO
  6
Continuous
 62
     7
370
     0
100
AcDbLine
 10
-3.999999111999997
 20
-9.499997890999992
 30
0.0
 11
3.999999111999997
 21
-9.499997890999992
 31
0.0
  0
LINE
  5
408
330
A
100
AcDbEntity
  8
PROFILATI-IN-ALLUMINIO
  6
Continuous
 62
     7
370
     0
100
AcDbLine
 10
3.999999111999997
 20
-9.499997890999992
 30
0.0
 11
3.999999111999997
 21
-18.8881660468262
 31
0.0
  0
LINE
  5
409
330
A
100
AcDbEntity
  8
PROFILATI-IN-ALLUMINIO
  6
Continuous
 62
     7
370
     0
100
AcDbLine
 10
7.499996425000432
 20
58.32114641270258
 30
0.0
 11
19.9999936500004
 21
58.32114641270258
 31
0.0
  0
LINE
  5
40A
330
A
100
AcDbEntity
  8
PROFILATI-IN-ALLUMINIO
  6
Continuous
 62
     7
370
     0
100
AcDbLine
 10
19.9999936500004
 20
58.32114641270258
 30
0.0
 11
19.9999936500004
 21
71.27985325586904
 31
0.0
  0
LINE
  5
40B
330
A
100
AcDbEntity
  8
PROFILATI-IN-ALLUMINIO
  6
Continuous
 62
     7
370
     0
100
AcDbLine
 10
-19.99999556
 20
85.3211404187026
 30
0.0
 11
-6.999998445999992
 21
85.3211404187026
 31
0.0
  0
LINE
  5
40C
330
A
100
AcDbEntity
  8
PROFILATI-IN-ALLUMINIO
  6
Continuous
 62
     7
370
     0
100
AcDbLine
 10
-6.999998445999992
 20
85.3211404187026
 30
0.0
 11
-6.999998445999992
 21
98.3211375327026
 31
0.0
  0
LINE
  5
40D
330
A
100
AcDbEntity
  8
PROFILATI-IN-ALLUMINIO
  6
Continuous
 62
     7
370
     0
100
AcDbLine
 10
6.999996536000409
 20
98.3211375327026
 30
0.0
 11
6.999996536000409
 21
85.3211404187026
 31
0.0
  0
LINE
  5
40E
330
A
100
AcDbEntity
  8
PROFILATI-IN-ALLUMINIO
  6
Continuous
 62
     7
370
     0
100
AcDbLine
 10
6.999996536000409
 20
85.3211404187026
 30
0.0
 11
14.9999947600004
 21
85.3211404187026
 31
0.0
  0
LINE
  5
40F
330
A
100
AcDbEntity
  8
PROFILATI-IN-ALLUMINIO
  6
Continuous
 62
     7
370
     0
100
AcDbLine
 10
14.9999947600004
 20
85.3211404187026
 30
0.0
 11
14.9999947600004
 21
71.32114352670261
 31
0.0
  0
LINE
  5
410
330
A
100
AcDbEntity
  8
PROFILATI-IN-ALLUMINIO
  6
Continuous
 62
     7
370
     0
100
AcDbLine
 10
14.9999947600004
 20
71.32114352670261
 30
0.0
 11
6.999996536000409
 21
71.32114352670261
 31
0.0
  0
LINE
  5
411
330
A
100
AcDbEntity
  8
PROFILATI-IN-ALLUMINIO
  6
Continuous
 62
     7
370
     0
100
AcDbLine
 10
6.999996536000409
 20
71.32114352670261
 30
0.0
 11
6.999996536000409
 21
63.32114530270259
 31
0.0
  0
LINE
  5
412
330
A
100
AcDbEntity
  8
PROFILATI-IN-ALLUMINIO
  6
Continuous
 62
     7
370
     0
100
AcDbLine
 10
6.999996536000409
 20
63.32114530270259
 30
0.0
 11
-6.999998445999992
 21
63.32114530270259
 31
0.0
  0
LINE
  5
413
330
A
100
AcDbEntity
  8
PROFILATI-IN-ALLUMINIO
  6
Continuous
 62
     7
370
     0
100
AcDbLine
 10
-6.999998445999992
 20
63.32114530270259
 30
0.0
 11
-6.999998445999992
 21
71.32114352670261
 31
0.0
  0
LINE
  5
414
330
A
100
AcDbEntity
  8
PROFILATI-IN-ALLUMINIO
  6
Continuous
 62
     7
370
     0
100
AcDbLine
 10
-6.999998445999992
 20
71.32114352670261
 30
0.0
 11
-19.99999556
 21
71.32114352670261
 31
0.0
  0
LINE
  5
415
330
A
100
AcDbEntity
  8
PROFILATI-IN-ALLUMINIO
  6
Continuous
 62
     7
370
     0
100
AcDbLine
 10
19.9999936500004
 20
70.82114363770263
 30
0.0
 11
7.499996425000432
 21
70.82114363770263
 31
0.0
  0
LINE
  5
416
330
A
100
AcDbEntity
  8
PROFILATI-IN-ALLUMINIO
  6
Continuous
 62
     7
370
     0
100
AcDbLine
 10
7.499996425000432
 20
70.82114363770263
 30
0.0
 11
7.499996425000432
 21
58.32114641270258
 31
0.0
  0
LINE
  5
417
330
A
100
AcDbEntity
  8
PROFILATI-IN-ALLUMINIO
  6
Continuous
 62
     7
370
     0
100
AcDbLine
 10
7.499996425000432
 20
58.32114641270258
 30
0.0
 11
19.9999936500004
 21
58.32114641270258
 31
0.0
  0
LINE
  5
418
330
A
100
AcDbEntity
  8
PROFILATI-IN-ALLUMINIO
  6
Continuous
 62
     7
370
     0
100
AcDbLine
 10
19.9999936500004
 20
58.32114641270258
 30
0.0
 11
19.9999936500004
 21
70.82114363770263
 31
0.0
  0
LINE
  5
419
330
A
100
AcDbEntity
  8
PROFILATI-IN-ALLUMINIO
  6
Continuous
 62
     7
370
     0
100
AcDbLine
 10
19.9999936500004
 20
70.82114363770263
 30
0.0
 11
19.9999936500004
 21
70.82114363770263
 31
0.0
  0
ENDSEC
  0
SECTION
  2
OBJECTS
  0
DICTIONARY
  5
19
330
0
100
AcDbDictionary
281
     1
  3
ACAD_COLOR
350
233
  3
ACAD_GROUP
350
1A
  3
ACAD_LAYOUT
350
1E
  3
ACAD_MATERIAL
350
201
  3
ACAD_MLEADERSTYLE
350
274
  3
ACAD_MLINESTYLE
350
1B
  3
ACAD_PLOTSETTINGS
350
22
  3
ACAD_PLOTSTYLENAME
350
1F
  3
ACAD_SCALELIST
350
234
  3
ACAD_TABLESTYLE
350
26E
  3
ACAD_VISUALSTYLE
350
21A
  3
ACAD_WIPEOUT_VARS
350
23
  3
ACDB_RECOMPOSE_DATA
350
444
  3
AcDbVariableDictionary
350
1FF
  3
ASE_INDEX_DICTIONARY
350
439
  3
DWGPROPS
350
445
  0
DICTIONARY
  5
41A
330
14
100
AcDbDictionary
280
     1
281
     1
  3
ADSK_XREC_LAYER_RECONCILED
360
41B
  0
DICTIONARY
  5
41C
330
2D
100
AcDbDictionary
280
     1
281
     1
  3
ADSK_XREC_LAYER_RECONCILED
360
41D
  0
DICTIONARY
  5
41E
330
2F
100
AcDbDictionary
280
     1
281
     1
  3
ADSK_XREC_LAYER_RECONCILED
360
41F
  0
DICTIONARY
  5
420
330
31
100
AcDbDictionary
280
     1
281
     1
  3
ADSK_XREC_LAYER_RECONCILED
360
421
  0
DICTIONARY
  5
422
330
33
100
AcDbDictionary
280
     1
281
     1
  3
ADSK_XREC_LAYER_RECONCILED
360
423
  0
DICTIONARY
  5
424
330
35
100
AcDbDictionary
280
     1
281
     1
  3
ADSK_XREC_LAYER_RECONCILED
360
425
  0
DICTIONARY
  5
426
330
37
100
AcDbDictionary
280
     1
281
     1
  3
ADSK_XREC_LAYER_RECONCILED
360
427
  0
DICTIONARY
  5
428
330
39
100
AcDbDictionary
280
     1
281
     1
  3
ADSK_XREC_LAYER_RECONCILED
360
429
  0
DICTIONARY
  5
42A
330
3B
100
AcDbDictionary
280
     1
281
     1
  3
ADSK_XREC_LAYER_RECONCILED
360
42B
  0
DICTIONARY
  5
42C
330
3D
100
AcDbDictionary
280
     1
281
     1
  3
ADSK_XREC_LAYER_RECONCILED
360
42D
  0
DICTIONARY
  5
42E
330
3F
100
AcDbDictionary
280
     1
281
     1
  3
ADSK_XREC_LAYER_RECONCILED
360
42F
  0
DICTIONARY
  5
430
330
41
100
AcDbDictionary
280
     1
281
     1
  3
ADSK_XREC_LAYER_RECONCILED
360
431
  0
DICTIONARY
  5
432
330
45
100
AcDbDictionary
280
     1
281
     1
  3
ADSK_XREC_LAYER_RECONCILED
360
433
  0
DICTIONARY
  5
434
330
47
100
AcDbDictionary
280
     1
281
     1
  3
ADSK_XREC_LAYER_RECONCILED
360
435
  0
DICTIONARY
  5
436
330
49
100
AcDbDictionary
280
     1
281
     1
  3
ADSK_XREC_LAYER_RECONCILED
360
437
  0
DICTIONARY
  5
3F2
330
A
100
AcDbDictionary
280
     1
281
     1
  3
ACAD_SORTENTS
360
3F3
  0
DICTIONARY
  5
233
102
{ACAD_REACTORS
330
19
102
}
330
19
100
AcDbDictionary
281
     1
  0
DICTIONARY
  5
1A
102
{ACAD_REACTORS
330
19
102
}
330
19
100
AcDbDictionary
281
     1
  0
DICTIONARY
  5
1E
102
{ACAD_REACTORS
330
19
102
}
330
19
100
AcDbDictionary
281
     1
  3
Layout1
350
21
  3
Model
350
20
  0
DICTIONARY
  5
201
102
{ACAD_REACTORS
330
19
102
}
330
19
100
AcDbDictionary
281
     1
  3
ByBlock
350
20A
  3
ByLayer
350
202
  3
Global
350
212
  0
DICTIONARY
  5
274
102
{ACAD_REACTORS
330
19
102
}
330
19
100
AcDbDictionary
281
     1
  3
Standard
350
275
  0
DICTIONARY
  5
1B
102
{ACAD_REACTORS
330
19
102
}
330
19
100
AcDbDictionary
281
     1
  3
Standard
350
1C
  0
DICTIONARY
  5
22
102
{ACAD_REACTORS
330
19
102
}
330
19
100
AcDbDictionary
281
     1
  0
ACDBDICTIONARYWDFLT
  5
1F
102
{ACAD_REACTORS
330
19
102
}
330
19
100
AcDbDictionary
281
     1
  3
Normal
350
1D
100
AcDbDictionaryWithDefault
340
1D
  0
DICTIONARY
  5
234
102
{ACAD_REACTORS
330
19
102
}
330
19
100
AcDbDictionary
281
     1
  3
A0
350
235
  3
A1
350
236
  3
A2
350
237
  3
A3
350
238
  3
A4
350
239
  3
A5
350
23A
  3
A6
350
23B
  3
A7
350
23C
  3
A8
350
23D
  3
A9
350
23E
  3
B0
350
23F
  3
B1
350
240
  3
B2
350
241
  3
B3
350
242
  3
B4
350
243
  3
B5
350
244
  3
B6
350
245
  0
DICTIONARY
  5
26E
102
{ACAD_REACTORS
330
19
102
}
330
19
100
AcDbDictionary
281
     1
  3
Standard
350
26F
  0
DICTIONARY
  5
21A
102
{ACAD_REACTORS
330
19
102
}
330
19
100
AcDbDictionary
281
     1
  3
2dWireframe
350
220
  3
Basic
350
21F
  3
Brighten
350
226
  3
ColorChange
350
22A
  3
Conceptual
350
223
  3
Dim
350
225
  3
EdgeColorOff
350
232
  3
Facepattern
350
229
  3
Flat
350
21B
  3
FlatWithEdges
350
21C
  3
Gouraud
350
21D
  3
GouraudWithEdges
350
21E
  3
Hidden
350
222
  3
JitterOff
350
230
  3
Linepattern
350
228
  3
OverhangOff
350
231
  3
Realistic
350
224
  3
Shaded
350
22F
  3
Shaded with edges
350
22E
  3
Shades of Gray
350
22B
  3
Sketchy
350
22C
  3
Thicken
350
227
  3
Wireframe
350
221
  3
X-Ray
350
22D
  0
WIPEOUTVARIABLES
  5
23
330
19
100
AcDbWipeoutVariables
 70
     1
  0
XRECORD
  5
444
102
{ACAD_REACTORS
330
19
102
}
330
19
100
AcDbXrecord
280
     1
 90
        1
330
26F
  0
DICTIONARY
  5
1FF
330
19
100
AcDbDictionary
281
     0
  3
CANNOSCALE
350
43E
  3
CMLEADERSTYLE
350
43D
  3
CTABLESTYLE
350
43C
  3
DIMASSOC
350
200
  3
INDEXCTL
350
440
  3
SORTENTS
350
43F
  3
XCLIPFRAME
350
441
  0
DICTIONARY
  5
439
102
{ACAD_REACTORS
330
19
102
}
330
19
100
AcDbDictionary
281
     1
  3
ASEBlockHierarchyIndexRecord
350
43B
1001
DCO15
1040
1717496870.833
  0
XRECORD
  5
445
102
{ACAD_REACTORS
330
19
102
}
330
19
100
AcDbXrecord
280
     1
  1
DWGPROPS COOKIE
  2

  3

  4

  6

  7

  8
mpistoia
  9

300
=
301
=
302
=
303
=
304
=
305
=
306
=
307
=
308
=
309
=
 40
0.0006592592592593
 41
2455681.647224537
 42
2455681.647856863
  1

 90
        0
  0
XRECORD
  5
41B
102
{ACAD_REACTORS
330
41A
102
}
330
41A
100
AcDbXrecord
280
     1
290
     1
  0
XRECORD
  5
41D
102
{ACAD_REACTORS
330
41C
102
}
330
41C
100
AcDbXrecord
280
     1
290
     1
  0
XRECORD
  5
41F
102
{ACAD_REACTORS
330
41E
102
}
330
41E
100
AcDbXrecord
280
     1
290
     1
  0
XRECORD
  5
421
102
{ACAD_REACTORS
330
420
102
}
330
420
100
AcDbXrecord
280
     1
290
     1
  0
XRECORD
  5
423
102
{ACAD_REACTORS
330
422
102
}
330
422
100
AcDbXrecord
280
     1
290
     1
  0
XRECORD
  5
425
102
{ACAD_REACTORS
330
424
102
}
330
424
100
AcDbXrecord
280
     1
290
     1
  0
XRECORD
  5
427
102
{ACAD_REACTORS
330
426
102
}
330
426
100
AcDbXrecord
280
     1
290
     1
  0
XRECORD
  5
429
102
{ACAD_REACTORS
330
428
102
}
330
428
100
AcDbXrecord
280
     1
290
     1
  0
XRECORD
  5
42B
102
{ACAD_REACTORS
330
42A
102
}
330
42A
100
AcDbXrecord
280
     1
290
     1
  0
XRECORD
  5
42D
102
{ACAD_REACTORS
330
42C
102
}
330
42C
100
AcDbXrecord
280
     1
290
     1
  0
XRECORD
  5
42F
102
{ACAD_REACTORS
330
42E
102
}
330
42E
100
AcDbXrecord
280
     1
290
     1
  0
XRECORD
  5
431
102
{ACAD_REACTORS
330
430
102
}
330
430
100
AcDbXrecord
280
     1
290
     1
  0
XRECORD
  5
433
102
{ACAD_REACTORS
330
432
102
}
330
432
100
AcDbXrecord
280
     1
290
     1
  0
XRECORD
  5
435
102
{ACAD_REACTORS
330
434
102
}
330
434
100
AcDbXrecord
280
     1
290
     1
  0
XRECORD
  5
437
102
{ACAD_REACTORS
330
436
102
}
330
436
100
AcDbXrecord
280
     1
290
     1
  0
SORTENTSTABLE
  5
3F3
102
{ACAD_REACTORS
330
3F2
102
}
330
3F2
100
AcDbSortentsTable
330
A
331
3E8
  5
410
331
40A
  5
AC
331
A5
  5
3EE
331
83
  5
83
331
3F9
  5
3FE
331
94
  5
94
331
73
  5
73
331
408
  5
3EA
331
A3
  5
3EC
331
81
  5
81
331
3F7
  5
40C
331
419
  5
9F
331
92
  5
92
331
71
  5
71
331
406
  5
3E8
331
7F
  5
7F
331
3F5
  5
40E
331
417
  5
9D
331
90
  5
90
331
6F
  5
6F
331
404
  5
409
331
9F
  5
B1
331
7D
  5
7D
331
415
  5
9B
331
B0
  5
3FB
331
8E
  5
8E
331
6D
  5
6D
331
402
  5
407
331
3F1
  5
419
331
9D
  5
AF
331
413
  5
A7
331
AE
  5
3F9
331
8C
  5
8C
331
7B
  5
7B
331
400
  5
405
331
3EF
  5
417
331
9B
  5
AD
331
411
  5
A5
331
AC
  5
3F7
331
8A
  5
8A
331
79
  5
79
331
3ED
  5
415
331
40F
  5
A3
331
3FE
  5
403
331
AA
  5
3F5
331
88
  5
88
331
3EB
  5
413
331
40D
  5
A0
331
A8
  5
3F1
331
86
  5
86
331
3FC
  5
401
331
76
  5
76
331
3E9
  5
411
331
40B
  5
A9
331
A6
  5
3EF
331
84
  5
84
331
3FA
  5
3FF
331
95
  5
95
331
74
  5
74
331
3E7
  5
40F
331
409
  5
AB
331
A4
  5
3ED
331
82
  5
82
331
3F8
  5
3FD
331
93
  5
93
331
72
  5
72
331
407
  5
3E9
331
A2
  5
3EB
331
80
  5
80
331
3F6
  5
40B
331
418
  5
9E
331
91
  5
91
331
70
  5
70
331
405
  5
40A
331
A0
  5
3E7
331
7E
  5
7E
331
3F4
  5
40D
331
416
  5
9C
331
B1
  5
3FC
331
8F
  5
8F
331
6E
  5
6E
331
403
  5
408
331
9E
  5
B0
331
7C
  5
7C
331
414
  5
A8
331
AF
  5
3FA
331
8D
  5
8D
331
6C
  5
6C
331
401
  5
406
331
3F0
  5
418
331
9C
  5
AE
331
412
  5
A6
331
AD
  5
3F8
331
8B
  5
8B
331
7A
  5
7A
331
3EE
  5
416
331
410
  5
A4
331
3FF
  5
404
331
AB
  5
3F6
331
89
  5
89
331
78
  5
78
331
3EC
  5
414
331
40E
  5
A2
331
A9
  5
3F4
331
87
  5
87
331
3FD
  5
402
331
77
  5
77
331
3EA
  5
412
331
40C
  5
AA
331
A7
  5
3F0
331
85
  5
85
331
3FB
  5
400
331
96
  5
96
331
75
  5
75
  0
LAYOUT
  5
21
102
{ACAD_XDICTIONARY
360
448
102
}
102
{ACAD_REACTORS
330
1E
102
}
330
1E
100
AcDbPlotSettings
  1

  2

  4

  6

 40
0.0
 41
0.0
 42
0.0
 43
0.0
 44
0.0
 45
0.0
 46
0.0
 47
0.0
 48
0.0
 49
0.0
140
0.0
141
0.0
142
1.0
143
1.0
 70
     0
 72
     0
 73
     0
 74
     0
  7

 75
     0
147
1.0
148
0.0
149
0.0
100
AcDbLayout
  1
Layout1
 70
     0
 71
     1
 10
0.0
 20
0.0
 11
12.0
 21
9.0
 12
0.0
 22
0.0
 32
0.0
 14
1.000000000000000E+20
 24
1.000000000000000E+20
 34
1.000000000000000E+20
 15
-1.000000000000000E+20
 25
-1.000000000000000E+20
 35
-1.000000000000000E+20
146
0.0
 13
0.0
 23
0.0
 33
0.0
 16
1.0
 26
0.0
 36
0.0
 17
0.0
 27
1.0
 37
0.0
 76
     0
330
B
  0
LAYOUT
  5
20
102
{ACAD_XDICTIONARY
360
446
102
}
102
{ACAD_REACTORS
330
1E
102
}
330
1E
100
AcDbPlotSettings
  1

  2

  4

  6

 40
0.0
 41
0.0
 42
0.0
 43
0.0
 44
0.0
 45
0.0
 46
0.0
 47
0.0
 48
0.0
 49
0.0
140
0.0
141
0.0
142
1.0
143
1.0
 70
  1024
 72
     0
 73
     0
 74
     0
  7

 75
     0
147
1.0
148
0.0
149
0.0
100
AcDbLayout
  1
Model
 70
     0
 71
     0
 10
0.0
 20
0.0
 11
0.0
 21
0.0
 12
0.0
 22
0.0
 32
0.0
 14
0.0
 24
0.0
 34
0.0
 15
0.0
 25
0.0
 35
0.0
146
0.0
 13
0.0
 23
0.0
 33
0.0
 16
0.0
 26
0.0
 36
0.0
 17
0.0
 27
0.0
 37
0.0
 76
     0
330
A
331
15
  0
MATERIAL
  5
20A
102
{ACAD_XDICTIONARY
360
20B
102
}
102
{ACAD_REACTORS
330
201
102
}
330
201
100
AcDbMaterial
  1
ByBlock
 72
     0
 43
0.0208333333333333
 43
0.0
 43
0.0
 43
0.0
 43
0.0
 43
0.0208333333333333
 43
0.0
 43
0.0
 43
0.0
 43
0.0
 43
1.0
 43
0.0
 43
0.0
 43
0.0
 43
0.0
 43
1.0
 77
     0
 47
0.0208333333333333
 47
0.0
 47
0.0
 47
0.0
 47
0.0
 47
0.0208333333333333
 47
0.0
 47
0.0
 47
0.0
 47
0.0
 47
1.0
 47
0.0
 47
0.0
 47
0.0
 47
0.0
 47
1.0
171
     0
 49
0.0208333333333333
 49
0.0
 49
0.0
 49
0.0
 49
0.0
 49
0.0208333333333333
 49
0.0
 49
0.0
 49
0.0
 49
0.0
 49
1.0
 49
0.0
 49
0.0
 49
0.0
 49
0.0
 49
1.0
175
     0
142
0.0208333333333333
142
0.0
142
0.0
142
0.0
142
0.0
142
0.0208333333333333
142
0.0
142
0.0
142
0.0
142
0.0
142
1.0
142
0.0
142
0.0
142
0.0
142
0.0
142
1.0
179
     0
144
0.0208333333333333
144
0.0
144
0.0
144
0.0
144
0.0
144
0.0208333333333333
144
0.0
144
0.0
144
0.0
144
0.0
144
1.0
144
0.0
144
0.0
144
0.0
144
0.0
144
1.0
147
0.0208333333333333
147
0.0
147
0.0
147
0.0
147
0.0
147
0.0208333333333333
147
0.0
147
0.0
147
0.0
147
0.0
147
1.0
147
0.0
147
0.0
147
0.0
147
0.0
147
1.0
  0
MATERIAL
  5
202
102
{ACAD_XDICTIONARY
360
203
102
}
102
{ACAD_REACTORS
330
201
102
}
330
201
100
AcDbMaterial
  1
ByLayer
 72
     0
 43
0.0208333333333333
 43
0.0
 43
0.0
 43
0.0
 43
0.0
 43
0.0208333333333333
 43
0.0
 43
0.0
 43
0.0
 43
0.0
 43
1.0
 43
0.0
 43
0.0
 43
0.0
 43
0.0
 43
1.0
 77
     0
 47
0.0208333333333333
 47
0.0
 47
0.0
 47
0.0
 47
0.0
 47
0.0208333333333333
 47
0.0
 47
0.0
 47
0.0
 47
0.0
 47
1.0
 47
0.0
 47
0.0
 47
0.0
 47
0.0
 47
1.0
171
     0
 49
0.0208333333333333
 49
0.0
 49
0.0
 49
0.0
 49
0.0
 49
0.0208333333333333
 49
0.0
 49
0.0
 49
0.0
 49
0.0
 49
1.0
 49
0.0
 49
0.0
 49
0.0
 49
0.0
 49
1.0
175
     0
142
0.0208333333333333
142
0.0
142
0.0
142
0.0
142
0.0
142
0.0208333333333333
142
0.0
142
0.0
142
0.0
142
0.0
142
1.0
142
0.0
142
0.0
142
0.0
142
0.0
142
1.0
179
     0
144
0.0208333333333333
144
0.0
144
0.0
144
0.0
144
0.0
144
0.0208333333333333
144
0.0
144
0.0
144
0.0
144
0.0
144
1.0
144
0.0
144
0.0
144
0.0
144
0.0
144
1.0
147
0.0208333333333333
147
0.0
147
0.0
147
0.0
147
0.0
147
0.0208333333333333
147
0.0
147
0.0
147
0.0
147
0.0
147
1.0
147
0.0
147
0.0
147
0.0
147
0.0
147
1.0
  0
MATERIAL
  5
212
102
{ACAD_XDICTIONARY
360
213
102
}
102
{ACAD_REACTORS
330
201
102
}
330
201
100
AcDbMaterial
  1
Global
 72
     0
 43
0.0208333333333333
 43
0.0
 43
0.0
 43
0.0
 43
0.0
 43
0.0208333333333333
 43
0.0
 43
0.0
 43
0.0
 43
0.0
 43
1.0
 43
0.0
 43
0.0
 43
0.0
 43
0.0
 43
1.0
 77
     0
 47
0.0208333333333333
 47
0.0
 47
0.0
 47
0.0
 47
0.0
 47
0.0208333333333333
 47
0.0
 47
0.0
 47
0.0
 47
0.0
 47
1.0
 47
0.0
 47
0.0
 47
0.0
 47
0.0
 47
1.0
171
     0
 49
0.0208333333333333
 49
0.0
 49
0.0
 49
0.0
 49
0.0
 49
0.0208333333333333
 49
0.0
 49
0.0
 49
0.0
 49
0.0
 49
1.0
 49
0.0
 49
0.0
 49
0.0
 49
0.0
 49
1.0
175
     0
142
0.0208333333333333
142
0.0
142
0.0
142
0.0
142
0.0
142
0.0208333333333333
142
0.0
142
0.0
142
0.0
142
0.0
142
1.0
142
0.0
142
0.0
142
0.0
142
0.0
142
1.0
179
     0
144
0.0208333333333333
144
0.0
144
0.0
144
0.0
144
0.0
144
0.0208333333333333
144
0.0
144
0.0
144
0.0
144
0.0
144
1.0
144
0.0
144
0.0
144
0.0
144
0.0
144
1.0
147
0.0208333333333333
147
0.0
147
0.0
147
0.0
147
0.0
147
0.0208333333333333
147
0.0
147
0.0
147
0.0
147
0.0
147
1.0
147
0.0
147
0.0
147
0.0
147
0.0
147
1.0
  0
MLEADERSTYLE
  5
275
102
{ACAD_REACTORS
330
274
102
}
330
274
100
AcDbMLeaderStyle
170
     2
171
     1
172
     0
 90
        2
 40
0.0
 41
0.0
173
     1
 91
-1056964608
340
11
 92
       -2
290
     1
 42
0.09
291
     1
 43
0.36
  3
Standard
 44
0.18
300

342
17
174
     1
178
     6
175
     1
176
     0
 93
-1056964608
 45
0.18
292
     0
297
     0
 46
0.18
 94
-1056964608
 47
1.0
 49
1.0
140
1.0
293
     1
141
0.0
294
     1
177
     0
142
1.0
295
     0
296
     0
143
0.125
1001
ACAD_MLEADERVER
1070
     2
  0
MLINESTYLE
  5
1C
102
{ACAD_REACTORS
330
1B
102
}
330
1B
100
AcDbMlineStyle
  2
STANDARD
 70
     0
  3

 62
     0
 51
90.0
 52
90.0
 71
     2
 49
0.5
 62
   256
  6
BYLAYER
 49
-0.5
 62
   256
  6
BYLAYER
  0
ACDBPLACEHOLDER
  5
1D
102
{ACAD_REACTORS
330
1F
102
}
330
1F
  0
SCALE
  5
235
102
{ACAD_REACTORS
330
234
102
}
330
234
100
AcDbScale
 70
     0
300
1:1
140
1.0
141
1.0
290
     1
  0
SCALE
  5
236
102
{ACAD_REACTORS
330
234
102
}
330
234
100
AcDbScale
 70
     0
300
1/128" = 1'-0"
140
0.0078125
141
12.0
290
     0
  0
SCALE
  5
237
102
{ACAD_REACTORS
330
234
102
}
330
234
100
AcDbScale
 70
     0
300
1/64" = 1'-0"
140
0.015625
141
12.0
290
     0
  0
SCALE
  5
238
102
{ACAD_REACTORS
330
234
102
}
330
234
100
AcDbScale
 70
     0
300
1/32" = 1'-0"
140
0.03125
141
12.0
290
     0
  0
SCALE
  5
239
102
{ACAD_REACTORS
330
234
102
}
330
234
100
AcDbScale
 70
     0
300
1/16" = 1'-0"
140
0.0625
141
12.0
290
     0
  0
SCALE
  5
23A
102
{ACAD_REACTORS
330
234
102
}
330
234
100
AcDbScale
 70
     0
300
3/32" = 1'-0"
140
0.09375
141
12.0
290
     0
  0
SCALE
  5
23B
102
{ACAD_REACTORS
330
234
102
}
330
234
100
AcDbScale
 70
     0
300
1/8" = 1'-0"
140
0.125
141
12.0
290
     0
  0
SCALE
  5
23C
102
{ACAD_REACTORS
330
234
102
}
330
234
100
AcDbScale
 70
     0
300
3/16" = 1'-0"
140
0.1875
141
12.0
290
     0
  0
SCALE
  5
23D
102
{ACAD_REACTORS
330
234
102
}
330
234
100
AcDbScale
 70
     0
300
1/4" = 1'-0"
140
0.25
141
12.0
290
     0
  0
SCALE
  5
23E
102
{ACAD_REACTORS
330
234
102
}
330
234
100
AcDbScale
 70
     0
300
3/8" = 1'-0"
140
0.375
141
12.0
290
     0
  0
SCALE
  5
23F
102
{ACAD_REACTORS
330
234
102
}
330
234
100
AcDbScale
 70
     0
300
1/2" = 1'-0"
140
0.5
141
12.0
290
     0
  0
SCALE
  5
240
102
{ACAD_REACTORS
330
234
102
}
330
234
100
AcDbScale
 70
     0
300
3/4" = 1'-0"
140
0.75
141
12.0
290
     0
  0
SCALE
  5
241
102
{ACAD_REACTORS
330
234
102
}
330
234
100
AcDbScale
 70
     0
300
1" = 1'-0"
140
1.0
141
12.0
290
     0
  0
SCALE
  5
242
102
{ACAD_REACTORS
330
234
102
}
330
234
100
AcDbScale
 70
     0
300
1-1/2" = 1'-0"
140
1.5
141
12.0
290
     0
  0
SCALE
  5
243
102
{ACAD_REACTORS
330
234
102
}
330
234
100
AcDbScale
 70
     0
300
3" = 1'-0"
140
3.0
141
12.0
290
     0
  0
SCALE
  5
244
102
{ACAD_REACTORS
330
234
102
}
330
234
100
AcDbScale
 70
     0
300
6" = 1'-0"
140
6.0
141
12.0
290
     0
  0
SCALE
  5
245
102
{ACAD_REACTORS
330
234
102
}
330
234
100
AcDbScale
 70
     0
300
1'-0" = 1'-0"
140
12.0
141
12.0
290
     0
  0
TABLESTYLE
  5
26F
102
{ACAD_XDICTIONARY
360
442
102
}
102
{ACAD_REACTORS
330
26E
102
}
330
26E
100
AcDbTableStyle
  3
Standard
 70
     0
 71
     0
 40
0.06
 41
0.06
280
     0
281
     0
  7
Standard
140
0.18
170
     2
 62
     0
 63
     7
283
     0
274
    -2
284
     1
 64
     0
275
    -2
285
     1
 65
     0
276
    -2
286
     1
 66
     0
277
    -2
287
     1
 67
     0
278
    -2
288
     1
 68
     0
279
    -2
289
     1
 69
     0
  7
Standard
140
0.25
170
     5
 62
     0
 63
     7
283
     0
274
    -2
284
     1
 64
     0
275
    -2
285
     1
 65
     0
276
    -2
286
     1
 66
     0
277
    -2
287
     1
 67
     0
278
    -2
288
     1
 68
     0
279
    -2
289
     1
 69
     0
  7
Standard
140
0.18
170
     5
 62
     0
 63
     7
283
     0
274
    -2
284
     1
 64
     0
275
    -2
285
     1
 65
     0
276
    -2
286
     1
 66
     0
277
    -2
287
     1
 67
     0
278
    -2
288
     1
 68
     0
279
    -2
289
     1
 69
     0
  0
VISUALSTYLE
  5
220
102
{ACAD_XDICTIONARY
360
457
102
}
102
{ACAD_REACTORS
330
21A
102
}
330
21A
100
AcDbVisualStyle
  2
2dWireframe
 70
     4
 71
     0
 72
     2
 73
     0
 90
        0
 40
-0.6
 41
-30.0
 62
     5
 63
     7
 74
     1
 91
        4
 64
     7
 65
   257
 75
     1
175
     1
 42
1.0
 92
        0
 66
   257
 43
1.0
 76
     1
 77
     6
 78
     2
 67
     7
 79
     5
170
     0
171
     0
290
     0
174
     0
 93
        1
 44
0.0
173
     0
291
     0
 45
0.0
1001
ACAD
1000
AcDbSavedByObjectVersion
1070
     0
  0
VISUALSTYLE
  5
21F
102
{ACAD_XDICTIONARY
360
455
102
}
102
{ACAD_REACTORS
330
21A
102
}
330
21A
100
AcDbVisualStyle
  2
Basic
 70
     7
 71
     1
 72
     0
 73
     1
 90
        0
 40
-0.6
 41
-30.0
 62
     5
 63
     7
 74
     0
 91
        4
 64
     7
 65
   257
 75
     1
175
     1
 42
1.0
 92
        8
 66
     7
 43
1.0
 76
     1
 77
     6
 78
     2
 67
     7
 79
     5
170
     0
171
     0
290
     0
174
     0
 93
        1
 44
0.0
173
     0
291
     1
 45
0.0
1001
ACAD
1000
AcDbSavedByObjectVersion
1070
     0
  0
VISUALSTYLE
  5
226
102
{ACAD_XDICTIONARY
360
463
102
}
102
{ACAD_REACTORS
330
21A
102
}
330
21A
100
AcDbVisualStyle
  2
Brighten
 70
    12
 71
     2
 72
     2
 73
     0
 90
        0
 40
-0.6
 41
-30.0
 62
     5
 63
     7
 74
     1
 91
        4
 64
     7
 65
   257
 75
     1
175
     1
 42
1.0
 92
        8
 66
     7
 43
1.0
 76
     1
 77
     6
 78
     2
 67
     7
 79
     5
170
     0
171
     0
290
     0
174
     0
 93
        1
 44
50.0
173
     0
291
     1
 45
0.0
1001
ACAD
1000
AcDbSavedByObjectVersion
1070
     0
  0
VISUALSTYLE
  5
22A
102
{ACAD_XDICTIONARY
360
46B
102
}
102
{ACAD_REACTORS
330
21A
102
}
330
21A
100
AcDbVisualStyle
  2
ColorChange
 70
    16
 71
     2
 72
     2
 73
     3
 90
        0
 40
-0.6
 41
-30.0
 62
     5
 63
     8
 74
     1
 91
        4
 64
     7
 65
   257
 75
     1
175
     1
 42
1.0
 92
        8
 66
     8
 43
1.0
 76
     1
 77
     6
 78
     2
 67
     7
 79
     5
170
     0
171
     0
290
     0
174
     0
 93
        1
 44
0.0
173
     0
291
     1
 45
0.0
1001
ACAD
1000
AcDbSavedByObjectVersion
1070
     0
  0
VISUALSTYLE
  5
223
102
{ACAD_XDICTIONARY
360
45D
102
}
102
{ACAD_REACTORS
330
21A
102
}
330
21A
100
AcDbVisualStyle
  2
Conceptual
 70
     9
 71
     3
 72
     2
 73
     0
 90
        0
 40
-0.6
 41
-30.0
 62
     5
 63
     7
 74
     2
 91
        2
 64
     7
 65
   257
 75
     1
175
     1
 42
179.0
 92
        8
 66
     7
 43
1.0
 76
     1
 77
     6
 78
     2
 67
     7
 79
     3
170
     0
171
     0
290
     0
174
     0
 93
        1
 44
0.0
173
     0
291
     0
 45
0.0
1001
ACAD
1000
AcDbSavedByObjectVersion
1070
     0
  0
VISUALSTYLE
  5
225
102
{ACAD_XDICTIONARY
360
461
102
}
102
{ACAD_REACTORS
330
21A
102
}
330
21A
100
AcDbVisualStyle
  2
Dim
 70
    11
 71
     2
 72
     2
 73
     0
 90
        0
 40
-0.6
 41
-30.0
 62
     5
 63
     7
 74
     1
 91
        4
 64
     7
 65
   257
 75
     1
175
     1
 42
1.0
 92
        8
 66
     7
 43
1.0
 76
     1
 77
     6
 78
     2
 67
     7
 79
     5
170
     0
171
     0
290
     0
174
     0
 93
        1
 44
-50.0
173
     0
291
     1
 45
0.0
1001
ACAD
1000
AcDbSavedByObjectVersion
1070
     0
  0
VISUALSTYLE
  5
232
102
{ACAD_XDICTIONARY
360
47B
102
}
102
{ACAD_REACTORS
330
21A
102
}
330
21A
100
AcDbVisualStyle
  2
EdgeColorOff
 70
    22
 71
     2
 72
     2
 73
     0
 90
        0
 40
-0.6
 41
-30.0
 62
     5
 63
     7
 74
     1
 91
        4
 64
     7
 65
   257
 75
     1
175
     1
 42
1.0
 92
        8
 66
     7
 43
1.0
 76
     1
 77
     6
 78
     2
 67
     7
 79
     5
170
     0
171
     0
290
     0
174
     0
 93
        1
 44
0.0
173
     0
291
     1
 45
0.0
1001
ACAD
1000
AcDbSavedByObjectVersion
1070
     0
  0
VISUALSTYLE
  5
229
102
{ACAD_XDICTIONARY
360
469
102
}
102
{ACAD_REACTORS
330
21A
102
}
330
21A
100
AcDbVisualStyle
  2
Facepattern
 70
    15
 71
     2
 72
     2
 73
     0
 90
        0
 40
-0.6
 41
-30.0
 62
     5
 63
     7
 74
     1
 91
        4
 64
     7
 65
   257
 75
     1
175
     1
 42
1.0
 92
        8
 66
     7
 43
1.0
 76
     1
 77
     6
 78
     2
 67
     7
 79
     5
170
     0
171
     0
290
     0
174
     0
 93
        1
 44
0.0
173
     0
291
     1
 45
0.0
1001
ACAD
1000
AcDbSavedByObjectVersion
1070
     0
  0
VISUALSTYLE
  5
21B
102
{ACAD_XDICTIONARY
360
44D
102
}
102
{ACAD_REACTORS
330
21A
102
}
330
21A
100
AcDbVisualStyle
  2
Flat
 70
     0
 71
     2
 72
     1
 73
     1
 90
        2
 40
-0.6
 41
30.0
 62
     5
 63
     7
 74
     0
 91
        0
 64
     7
 65
   257
 75
     1
175
     1
 42
1.0
 92
        8
 66
     7
 43
1.0
 76
     1
 77
     6
 78
     2
 67
     7
 79
     5
170
     0
171
     0
290
     0
174
     0
 93
       13
 44
0.0
173
     0
291
     1
 45
0.0
1001
ACAD
1000
AcDbSavedByObjectVersion
1070
     0
  0
VISUALSTYLE
  5
21C
102
{ACAD_XDICTIONARY
360
44F
102
}
102
{ACAD_REACTORS
330
21A
102
}
330
21A
100
AcDbVisualStyle
  2
FlatWithEdges
 70
     1
 71
     2
 72
     1
 73
     1
 90
        2
 40
-0.6
 41
30.0
 62
     5
 63
     7
 74
     1
 91
        0
 64
     7
 65
   257
 75
     1
175
     1
 42
1.0
 92
        0
 66
   257
 43
1.0
 76
     1
 77
     6
 78
     2
 67
     7
 79
     5
170
     0
171
     0
290
     0
174
     0
 93
       13
 44
0.0
173
     0
291
     1
 45
0.0
1001
ACAD
1000
AcDbSavedByObjectVersion
1070
     0
  0
VISUALSTYLE
  5
21D
102
{ACAD_XDICTIONARY
360
451
102
}
102
{ACAD_REACTORS
330
21A
102
}
330
21A
100
AcDbVisualStyle
  2
Gouraud
 70
     2
 71
     2
 72
     2
 73
     1
 90
        2
 40
-0.6
 41
30.0
 62
     5
 63
     7
 74
     0
 91
        0
 64
     7
 65
   257
 75
     1
175
     1
 42
1.0
 92
        0
 66
     7
 43
1.0
 76
     1
 77
     6
 78
     2
 67
     7
 79
     5
170
     0
171
     0
290
     0
174
     0
 93
       13
 44
0.0
173
     0
291
     1
 45
0.0
1001
ACAD
1000
AcDbSavedByObjectVersion
1070
     0
  0
VISUALSTYLE
  5
21E
102
{ACAD_XDICTIONARY
360
453
102
}
102
{ACAD_REACTORS
330
21A
102
}
330
21A
100
AcDbVisualStyle
  2
GouraudWithEdges
 70
     3
 71
     2
 72
     2
 73
     1
 90
        2
 40
-0.6
 41
30.0
 62
     5
 63
     7
 74
     1
 91
        0
 64
     7
 65
   257
 75
     1
175
     1
 42
1.0
 92
        0
 66
   257
 43
1.0
 76
     1
 77
     6
 78
     2
 67
     7
 79
     5
170
     0
171
     0
290
     0
174
     0
 93
       13
 44
0.0
173
     0
291
     1
 45
0.0
1001
ACAD
1000
AcDbSavedByObjectVersion
1070
     0
  0
VISUALSTYLE
  5
222
102
{ACAD_XDICTIONARY
360
45B
102
}
102
{ACAD_REACTORS
330
21A
102
}
330
21A
100
AcDbVisualStyle
  2
Hidden
 70
     6
 71
     1
 72
     2
 73
     2
 90
        0
 40
-0.6
 41
-30.0
 62
     5
 63
     7
 74
     2
 91
        2
 64
     7
 65
   257
 75
     2
175
     1
 42
40.0
 92
        0
 66
   257
 43
1.0
 76
     1
 77
     6
 78
     2
 67
     7
 79
     3
170
     0
171
     0
290
     0
174
     0
 93
        1
 44
0.0
173
     0
291
     0
 45
0.0
1001
ACAD
1000
AcDbSavedByObjectVersion
1070
     0
  0
VISUALSTYLE
  5
230
102
{ACAD_XDICTIONARY
360
477
102
}
102
{ACAD_REACTORS
330
21A
102
}
330
21A
100
AcDbVisualStyle
  2
JitterOff
 70
    20
 71
     2
 72
     2
 73
     0
 90
        0
 40
-0.6
 41
-30.0
 62
     5
 63
     7
 74
     1
 91
        4
 64
     7
 65
   257
 75
     1
175
     1
 42
1.0
 92
       10
 66
     7
 43
1.0
 76
     1
 77
     6
 78
     2
 67
     7
 79
     5
170
     0
171
     0
290
     0
174
     0
 93
        1
 44
0.0
173
     0
291
     1
 45
0.0
1001
ACAD
1000
AcDbSavedByObjectVersion
1070
     0
  0
VISUALSTYLE
  5
228
102
{ACAD_XDICTIONARY
360
467
102
}
102
{ACAD_REACTORS
330
21A
102
}
330
21A
100
AcDbVisualStyle
  2
Linepattern
 70
    14
 71
     2
 72
     2
 73
     0
 90
        0
 40
-0.6
 41
-30.0
 62
     5
 63
     7
 74
     1
 91
        4
 64
     7
 65
   257
 75
     7
175
     7
 42
1.0
 92
        8
 66
     7
 43
1.0
 76
     1
 77
     6
 78
     2
 67
     7
 79
     5
170
     0
171
     0
290
     0
174
     0
 93
        1
 44
0.0
173
     0
291
     1
 45
0.0
1001
ACAD
1000
AcDbSavedByObjectVersion
1070
     0
  0
VISUALSTYLE
  5
231
102
{ACAD_XDICTIONARY
360
479
102
}
102
{ACAD_REACTORS
330
21A
102
}
330
21A
100
AcDbVisualStyle
  2
OverhangOff
 70
    21
 71
     2
 72
     2
 73
     0
 90
        0
 40
-0.6
 41
-30.0
 62
     5
 63
     7
 74
     1
 91
        4
 64
     7
 65
   257
 75
     1
175
     1
 42
1.0
 92
        9
 66
     7
 43
1.0
 76
     1
 77
     6
 78
     2
 67
     7
 79
     5
170
     0
171
     0
290
     0
174
     0
 93
        1
 44
0.0
173
     0
291
     1
 45
0.0
1001
ACAD
1000
AcDbSavedByObjectVersion
1070
     0
  0
VISUALSTYLE
  5
224
102
{ACAD_XDICTIONARY
360
45F
102
}
102
{ACAD_REACTORS
330
21A
102
}
330
21A
100
AcDbVisualStyle
  2
Realistic
 70
     8
 71
     2
 72
     3
 73
     0
 90
        2
 40
-0.6
 41
30.0
 62
     5
 63
     7
 74
     0
 91
        0
 64
     7
 65
   257
 75
     1
175
     1
 42
1.0
 92
        8
 66
   257
 43
1.0
 76
     1
 77
     6
 78
     2
 67
     7
 79
     3
170
     0
171
     0
290
     0
174
     0
 93
       13
 44
0.0
173
     0
291
     0
 45
0.0
1001
ACAD
1000
AcDbSavedByObjectVersion
1070
     0
  0
VISUALSTYLE
  5
22F
102
{ACAD_XDICTIONARY
360
475
102
}
102
{ACAD_REACTORS
330
21A
102
}
330
21A
100
AcDbVisualStyle
  2
Shaded
 70
    27
 71
     2
 72
     2
 73
     1
 90
        2
 40
-0.6
 41
30.0
 62
     5
 63
     7
 74
     0
 91
        4
 64
     7
 65
   257
 75
     1
175
     1
 42
1.0
 92
        8
 66
   257
 43
1.0
 76
     1
 77
     6
 78
     2
 67
     8
 79
     3
170
     0
171
     0
290
     0
174
     0
 93
        5
 44
0.0
173
     0
291
     0
 45
0.0
1001
ACAD
1000
AcDbSavedByObjectVersion
1070
     0
  0
VISUALSTYLE
  5
22E
102
{ACAD_XDICTIONARY
360
473
102
}
102
{ACAD_REACTORS
330
21A
102
}
330
21A
100
AcDbVisualStyle
  2
Shaded with edges
 70
    26
 71
     2
 72
     2
 73
     1
 90
        2
 40
-0.6
 41
30.0
 62
     5
 63
     7
 74
     1
 91
       10
 64
     7
 65
   257
 75
     2
175
     1
 42
1.0
 92
        8
 66
   257
 43
1.0
 76
     1
 77
     6
 78
     2
 67
     7
 79
     3
170
     0
171
     0
290
     0
174
     0
 93
        5
 44
0.0
173
     0
291
     0
 45
0.0
1001
ACAD
1000
AcDbSavedByObjectVersion
1070
     0
  0
VISUALSTYLE
  5
22B
102
{ACAD_XDICTIONARY
360
46D
102
}
102
{ACAD_REACTORS
330
21A
102
}
330
21A
100
AcDbVisualStyle
  2
Shades of Gray
 70
    23
 71
     2
 72
     2
 73
     3
 90
        0
 40
-0.6
 41
-30.0
 62
     5
 63
     7
 74
     2
 91
        2
 64
     7
 65
     7
 75
     1
175
     1
 42
40.0
 92
        8
 66
     7
 43
1.0
 76
     1
 77
     6
 78
     2
 67
     7
 79
     3
170
     0
171
     0
290
     0
174
     0
 93
        1
 44
0.0
173
     0
291
     0
 45
0.0
1001
ACAD
1000
AcDbSavedByObjectVersion
1070
     0
  0
VISUALSTYLE
  5
22C
102
{ACAD_XDICTIONARY
360
46F
102
}
102
{ACAD_REACTORS
330
21A
102
}
330
21A
100
AcDbVisualStyle
  2
Sketchy
 70
    24
 71
     1
 72
     2
 73
     2
 90
        0
 40
-0.6
 41
-30.0
 62
     5
 63
     7
 74
     2
 91
        2
 64
     7
 65
     7
 75
     1
175
     1
 42
40.0
 92
       11
 66
     7
 43
1.0
 76
     1
 77
     6
 78
     2
 67
     7
 79
     6
170
     0
171
     0
290
     0
174
     0
 93
        1
 44
0.0
173
     0
291
     0
 45
0.0
1001
ACAD
1000
AcDbSavedByObjectVersion
1070
     0
  0
VISUALSTYLE
  5
227
102
{ACAD_XDICTIONARY
360
465
102
}
102
{ACAD_REACTORS
330
21A
102
}
330
21A
100
AcDbVisualStyle
  2
Thicken
 70
    13
 71
     2
 72
     2
 73
     0
 90
        0
 40
-0.6
 41
-30.0
 62
     5
 63
     7
 74
     1
 91
        4
 64
     7
 65
   257
 75
     1
175
     1
 42
1.0
 92
       12
 66
     7
 43
1.0
 76
     1
 77
     6
 78
     2
 67
     7
 79
     5
170
     0
171
     0
290
     0
174
     0
 93
        1
 44
0.0
173
     0
291
     1
 45
0.0
1001
ACAD
1000
AcDbSavedByObjectVersion
1070
     0
  0
VISUALSTYLE
  5
221
102
{ACAD_XDICTIONARY
360
459
102
}
102
{ACAD_REACTORS
330
21A
102
}
330
21A
100
AcDbVisualStyle
  2
Wireframe
 70
     5
 71
     0
 72
     2
 73
     0
 90
        0
 40
-0.6
 41
-30.0
 62
     5
 63
     7
 74
     1
 91
        4
 64
     7
 65
   257
 75
     1
175
     1
 42
1.0
 92
        0
 66
   257
 43
1.0
 76
     1
 77
     6
 78
     2
 67
     7
 79
     3
170
     0
171
     0
290
     0
174
     0
 93
        1
 44
0.0
173
     0
291
     0
 45
0.0
1001
ACAD
1000
AcDbSavedByObjectVersion
1070
     0
  0
VISUALSTYLE
  5
22D
102
{ACAD_XDICTIONARY
360
471
102
}
102
{ACAD_REACTORS
330
21A
102
}
330
21A
100
AcDbVisualStyle
  2
X-Ray
 70
    25
 71
     2
 72
     2
 73
     1
 90
        1
 40
0.5
 41
-30.0
 62
     5
 63
     7
 74
     1
 91
        0
 64
     7
 65
   257
 75
     1
175
     1
 42
1.0
 92
        8
 66
     7
 43
1.0
 76
     1
 77
     6
 78
     2
 67
     7
 79
     3
170
     0
171
     0
290
     0
174
     0
 93
       13
 44
0.0
173
     0
291
     0
 45
0.0
1001
ACAD
1000
AcDbSavedByObjectVersion
1070
     0
  0
DICTIONARYVAR
  5
43E
102
{ACAD_REACTORS
330
1FF
102
}
330
1FF
100
DictionaryVariables
280
     0
  1
1:1
  0
DICTIONARYVAR
  5
43D
102
{ACAD_REACTORS
330
1FF
102
}
330
1FF
100
DictionaryVariables
280
     0
  1
STANDARD
  0
DICTIONARYVAR
  5
43C
102
{ACAD_REACTORS
330
1FF
102
}
330
1FF
100
DictionaryVariables
280
     0
  1
STANDARD
  0
DICTIONARYVAR
  5
200
330
1FF
100
DictionaryVariables
280
     0
  1
2
  0
DICTIONARYVAR
  5
440
102
{ACAD_REACTORS
330
1FF
102
}
330
1FF
100
DictionaryVariables
280
     0
  1
0
  0
DICTIONARYVAR
  5
43F
102
{ACAD_REACTORS
330
1FF
102
}
330
1FF
100
DictionaryVariables
280
     0
  1
127
  0
DICTIONARYVAR
  5
441
102
{ACAD_REACTORS
330
1FF
102
}
330
1FF
100
DictionaryVariables
280
     0
  1
2
  0
XRECORD
  5
43B
102
{ACAD_REACTORS
330
439
102
}
330
439
100
AcDbXrecord
280
     1
330
12C
330
332
330
333
330
33B
330
33C
330
346
330
347
330
34F
330
350
330
358
330
359
330
363
330
364
330
36C
330
36D
330
377
330
378
330
380
330
381
330
389
330
38A
330
394
330
395
330
39D
330
39E
330
3A6
330
3A7
330
3AF
330
3B0
330
3B8
330
3B9
330
3C1
330
3C2
330
3CA
330
3CB
330
3D5
330
3D6
330
3E0
330
3E1
  0
DICTIONARY
  5
448
330
21
100
AcDbDictionary
280
     1
281
     1
  3
ACAD_XREC_ROUNDTRIP
360
449
  0
DICTIONARY
  5
446
330
20
100
AcDbDictionary
280
     1
281
     1
  3
ACAD_XREC_ROUNDTRIP
360
447
  0
DICTIONARY
  5
20B
330
20A
100
AcDbDictionary
280
     1
281
     1
  3
ACAD_XREC_ROUNDTRIP
360
44B
  3
BUMPTILE
360
20D
  3
DIFFUSETILE
360
20C
  3
OPACITYTILE
360
210
  3
REFLECTIONTILE
360
20F
  3
REFRACTIONTILE
360
211
  3
SPECULARTILE
360
20E
  0
DICTIONARY
  5
203
330
202
100
AcDbDictionary
280
     1
281
     1
  3
ACAD_XREC_ROUNDTRIP
360
44A
  3
BUMPTILE
360
205
  3
DIFFUSETILE
360
204
  3
OPACITYTILE
360
208
  3
REFLECTIONTILE
360
207
  3
REFRACTIONTILE
360
209
  3
SPECULARTILE
360
206
  0
DICTIONARY
  5
213
330
212
100
AcDbDictionary
280
     1
281
     1
  3
ACAD_XREC_ROUNDTRIP
360
44C
  3
BUMPTILE
360
215
  3
DIFFUSETILE
360
214
  3
OPACITYTILE
360
218
  3
REFLECTIONTILE
360
217
  3
REFRACTIONTILE
360
219
  3
SPECULARTILE
360
216
  0
DICTIONARY
  5
442
330
26F
100
AcDbDictionary
280
     1
281
     1
  3
ACAD_ROUNDTRIP_2008_TABLESTYLE_CELLSTYLEMAP
360
443
  3
ACAD_XREC_ROUNDTRIP
360
47D
  0
DICTIONARY
  5
457
330
220
100
AcDbDictionary
280
     1
281
     1
  3
ACAD_XREC_ROUNDTRIP
360
458
  0
DICTIONARY
  5
455
330
21F
100
AcDbDictionary
280
     1
281
     1
  3
ACAD_XREC_ROUNDTRIP
360
456
  0
DICTIONARY
  5
463
330
226
100
AcDbDictionary
280
     1
281
     1
  3
ACAD_XREC_ROUNDTRIP
360
464
  0
DICTIONARY
  5
46B
330
22A
100
AcDbDictionary
280
     1
281
     1
  3
ACAD_XREC_ROUNDTRIP
360
46C
  0
DICTIONARY
  5
45D
330
223
100
AcDbDictionary
280
     1
281
     1
  3
ACAD_XREC_ROUNDTRIP
360
45E
  0
DICTIONARY
  5
461
330
225
100
AcDbDictionary
280
     1
281
     1
  3
ACAD_XREC_ROUNDTRIP
360
462
  0
DICTIONARY
  5
47B
330
232
100
AcDbDictionary
280
     1
281
     1
  3
ACAD_XREC_ROUNDTRIP
360
47C
  0
DICTIONARY
  5
469
330
229
100
AcDbDictionary
280
     1
281
     1
  3
ACAD_XREC_ROUNDTRIP
360
46A
  0
DICTIONARY
  5
44D
330
21B
100
AcDbDictionary
280
     1
281
     1
  3
ACAD_XREC_ROUNDTRIP
360
44E
  0
DICTIONARY
  5
44F
330
21C
100
AcDbDictionary
280
     1
281
     1
  3
ACAD_XREC_ROUNDTRIP
360
450
  0
DICTIONARY
  5
451
330
21D
100
AcDbDictionary
280
     1
281
     1
  3
ACAD_XREC_ROUNDTRIP
360
452
  0
DICTIONARY
  5
453
330
21E
100
AcDbDictionary
280
     1
281
     1
  3
ACAD_XREC_ROUNDTRIP
360
454
  0
DICTIONARY
  5
45B
330
222
100
AcDbDictionary
280
     1
281
     1
  3
ACAD_XREC_ROUNDTRIP
360
45C
  0
DICTIONARY
  5
477
330
230
100
AcDbDictionary
280
     1
281
     1
  3
ACAD_XREC_ROUNDTRIP
360
478
  0
DICTIONARY
  5
467
330
228
100
AcDbDictionary
280
     1
281
     1
  3
ACAD_XREC_ROUNDTRIP
360
468
  0
DICTIONARY
  5
479
330
231
100
AcDbDictionary
280
     1
281
     1
  3
ACAD_XREC_ROUNDTRIP
360
47A
  0
DICTIONARY
  5
45F
330
224
100
AcDbDictionary
280
     1
281
     1
  3
ACAD_XREC_ROUNDTRIP
360
460
  0
DICTIONARY
  5
475
330
22F
100
AcDbDictionary
280
     1
281
     1
  3
ACAD_XREC_ROUNDTRIP
360
476
  0
DICTIONARY
  5
473
330
22E
100
AcDbDictionary
280
     1
281
     1
  3
ACAD_XREC_ROUNDTRIP
360
474
  0
DICTIONARY
  5
46D
330
22B
100
AcDbDictionary
280
     1
281
     1
  3
ACAD_XREC_ROUNDTRIP
360
46E
  0
DICTIONARY
  5
46F
330
22C
100
AcDbDictionary
280
     1
281
     1
  3
ACAD_XREC_ROUNDTRIP
360
470
  0
DICTIONARY
  5
465
330
227
100
AcDbDictionary
280
     1
281
     1
  3
ACAD_XREC_ROUNDTRIP
360
466
  0
DICTIONARY
  5
459
330
221
100
AcDbDictionary
280
     1
281
     1
  3
ACAD_XREC_ROUNDTRIP
360
45A
  0
DICTIONARY
  5
471
330
22D
100
AcDbDictionary
280
     1
281
     1
  3
ACAD_XREC_ROUNDTRIP
360
472
  0
XRECORD
  5
449
102
{ACAD_REACTORS
330
448
102
}
330
448
100
AcDbXrecord
280
     1
102
SHADEPLOT
 70
     0
102
SHADEPLOTRESLEVEL
 70
     2
102
SHADEPLOTCUSTOMDPI
 70
   300
  0
XRECORD
  5
447
102
{ACAD_REACTORS
330
446
102
}
330
446
100
AcDbXrecord
280
     1
102
SHADEPLOT
 70
     0
102
SHADEPLOTRESLEVEL
 70
     2
102
SHADEPLOTCUSTOMDPI
 70
   300
  0
XRECORD
  5
44B
102
{ACAD_REACTORS
330
20B
102
}
330
20B
100
AcDbXrecord
280
     1
102
MATERIAL
148
0.0
149
0.0
149
0.0
 93
        0
 94
      127
282
     0
 72
     0
 77
     0
171
     0
175
     0
179
     0
273
     0
  0
XRECORD
  5
20D
102
{ACAD_REACTORS
330
20B
102
}
330
20B
100
AcDbXrecord
280
     1
270
     1
271
     1
  0
XRECORD
  5
20C
102
{ACAD_REACTORS
330
20B
102
}
330
20B
100
AcDbXrecord
280
     1
270
     1
271
     1
  0
XRECORD
  5
210
102
{ACAD_REACTORS
330
20B
102
}
330
20B
100
AcDbXrecord
280
     1
270
     1
271
     1
  0
XRECORD
  5
20F
102
{ACAD_REACTORS
330
20B
102
}
330
20B
100
AcDbXrecord
280
     1
270
     1
271
     1
  0
XRECORD
  5
211
102
{ACAD_REACTORS
330
20B
102
}
330
20B
100
AcDbXrecord
280
     1
270
     1
271
     1
  0
XRECORD
  5
20E
102
{ACAD_REACTORS
330
20B
102
}
330
20B
100
AcDbXrecord
280
     1
270
     1
271
     1
  0
XRECORD
  5
44A
102
{ACAD_REACTORS
330
203
102
}
330
203
100
AcDbXrecord
280
     1
102
MATERIAL
148
0.0
149
0.0
149
0.0
 93
        0
 94
      127
282
     0
 72
     0
 77
     0
171
     0
175
     0
179
     0
273
     0
  0
XRECORD
  5
205
102
{ACAD_REACTORS
330
203
102
}
330
203
100
AcDbXrecord
280
     1
270
     1
271
     1
  0
XRECORD
  5
204
102
{ACAD_REACTORS
330
203
102
}
330
203
100
AcDbXrecord
280
     1
270
     1
271
     1
  0
XRECORD
  5
208
102
{ACAD_REACTORS
330
203
102
}
330
203
100
AcDbXrecord
280
     1
270
     1
271
     1
  0
XRECORD
  5
207
102
{ACAD_REACTORS
330
203
102
}
330
203
100
AcDbXrecord
280
     1
270
     1
271
     1
  0
XRECORD
  5
209
102
{ACAD_REACTORS
330
203
102
}
330
203
100
AcDbXrecord
280
     1
270
     1
271
     1
  0
XRECORD
  5
206
102
{ACAD_REACTORS
330
203
102
}
330
203
100
AcDbXrecord
280
     1
270
     1
271
     1
  0
XRECORD
  5
44C
102
{ACAD_REACTORS
330
213
102
}
330
213
100
AcDbXrecord
280
     1
102
MATERIAL
148
0.0
149
0.0
149
0.0
 93
        0
 94
      127
282
     0
 72
     0
 77
     0
171
     0
175
     0
179
     0
273
     0
  0
XRECORD
  5
215
102
{ACAD_REACTORS
330
213
102
}
330
213
100
AcDbXrecord
280
     1
270
     1
271
     1
  0
XRECORD
  5
214
102
{ACAD_REACTORS
330
213
102
}
330
213
100
AcDbXrecord
280
     1
270
     1
271
     1
  0
XRECORD
  5
218
102
{ACAD_REACTORS
330
213
102
}
330
213
100
AcDbXrecord
280
     1
270
     1
271
     1
  0
XRECORD
  5
217
102
{ACAD_REACTORS
330
213
102
}
330
213
100
AcDbXrecord
280
     1
270
     1
271
     1
  0
XRECORD
  5
219
102
{ACAD_REACTORS
330
213
102
}
330
213
100
AcDbXrecord
280
     1
270
     1
271
     1
  0
XRECORD
  5
216
102
{ACAD_REACTORS
330
213
102
}
330
213
100
AcDbXrecord
280
     1
270
     1
271
     1
  0
CELLSTYLEMAP
  5
443
102
{ACAD_REACTORS
330
442
102
}
330
442
100
AcDbCellStyleMap
 90
        3
300
CELLSTYLE
  1
TABLEFORMAT_BEGIN
 90
        5
170
     1
 91
        0
 92
    32768
 62
   257
 93
        1
300
CONTENTFORMAT
  1
CONTENTFORMAT_BEGIN
 90
        0
 91
        0
 92
      512
 93
        0
300

 40
0.0
140
1.0
 94
        5
 62
     0
340
17
144
0.25
309
CONTENTFORMAT_END
171
     0
 94
        0
309
TABLEFORMAT_END
  1
CELLSTYLE_BEGIN
 90
        1
 91
        1
300
_TITLE
309
CELLSTYLE_END
300
CELLSTYLE
  1
TABLEFORMAT_BEGIN
 90
        5
170
     1
 91
        0
 92
        0
 62
   257
 93
        1
300
CONTENTFORMAT
  1
CONTENTFORMAT_BEGIN
 90
        0
 91
        0
 92
      512
 93
        0
300

 40
0.0
140
1.0
 94
        5
 62
     0
340
17
144
0.18
309
CONTENTFORMAT_END
171
     0
 94
        0
309
TABLEFORMAT_END
  1
CELLSTYLE_BEGIN
 90
        2
 91
        1
300
_HEADER
309
CELLSTYLE_END
300
CELLSTYLE
  1
TABLEFORMAT_BEGIN
 90
        5
170
     1
 91
        0
 92
        0
 62
   257
 93
        1
300
CONTENTFORMAT
  1
CONTENTFORMAT_BEGIN
 90
        0
 91
        0
 92
      512
 93
        0
300

 40
0.0
140
1.0
 94
        2
 62
     0
340
17
144
0.18
309
CONTENTFORMAT_END
171
     0
 94
        0
309
TABLEFORMAT_END
  1
CELLSTYLE_BEGIN
 90
        3
 91
        2
300
_DATA
309
CELLSTYLE_END
  0
XRECORD
  5
47D
102
{ACAD_REACTORS
330
442
102
}
330
442
100
AcDbXrecord
280
     1
102
ACAD_ROUNDTRIP_PRE2007_TABLESTYLE
 90
      512
 91
        0
  1

 92
      512
 93
        0
  2

 94
      512
 95
        0
  3

  0
XRECORD
  5
458
102
{ACAD_REACTORS
330
457
102
}
330
457
100
AcDbXrecord
280
     1
102
RTVSPropertyOp0
 70
     1
102
RTVSPropertyOp1
 70
     1
102
RTVSPropertyOp2
 70
     1
102
RTVSPropertyOp3
 70
     1
102
RTVSPropertyOp4
 70
     1
102
RTVSPropertyOp5
 70
     1
102
RTVSPropertyOp6
 70
     1
102
RTVSPropertyOp7
 70
     1
102
RTVSPropertyOp8
 70
     1
102
RTVSPropertyOp9
 70
     1
102
RTVSPropertyOp10
 70
     1
102
RTVSPropertyOp11
 70
     1
102
RTVSPropertyOp12
 70
     1
102
RTVSPropertyOp13
 70
     1
102
RTVSPropertyOp14
 70
     1
102
RTVSPropertyOp15
 70
     1
102
RTVSPropertyOp16
 70
     1
102
RTVSPropertyOp17
 70
     1
102
RTVSPropertyOp18
 70
     1
102
RTVSPropertyOp19
 70
     1
102
RTVSPropertyOp20
 70
     1
102
RTVSPropertyOp21
 70
     1
102
RTVSPropertyOp22
 70
     1
102
RTVSPropertyOp23
 70
     1
102
RTVSPropertyOp24
 70
     1
102
RTVSPropertyOp25
 70
     1
102
RTVSPropertyOp26
 70
     1
102
RTVSPropertyOp27
 70
     1
102
RTVSPropertyOp28
 70
     1
102
RTVSPropertyOp29
 70
     1
102
RTVSPropertyOp30
 70
     1
102
RTVSPropertyOp31
 70
     1
102
RTVSPropertyOp32
 70
     1
  0
XRECORD
  5
456
102
{ACAD_REACTORS
330
455
102
}
330
455
100
AcDbXrecord
280
     1
102
RTVSPropertyOp0
 70
     1
102
RTVSPropertyOp1
 70
     1
102
RTVSPropertyOp2
 70
     1
102
RTVSPropertyOp3
 70
     1
102
RTVSPropertyOp4
 70
     1
102
RTVSPropertyOp5
 70
     1
102
RTVSPropertyOp6
 70
     1
102
RTVSPropertyOp7
 70
     1
102
RTVSPropertyOp8
 70
     1
102
RTVSPropertyOp9
 70
     1
102
RTVSPropertyOp10
 70
     1
102
RTVSPropertyOp11
 70
     1
102
RTVSPropertyOp12
 70
     1
102
RTVSPropertyOp13
 70
     1
102
RTVSPropertyOp14
 70
     1
102
RTVSPropertyOp15
 70
     1
102
RTVSPropertyOp16
 70
     1
102
RTVSPropertyOp17
 70
     1
102
RTVSPropertyOp18
 70
     1
102
RTVSPropertyOp19
 70
     1
102
RTVSPropertyOp20
 70
     1
102
RTVSPropertyOp21
 70
     1
102
RTVSPropertyOp22
 70
     1
102
RTVSPropertyOp23
 70
     1
102
RTVSPropertyOp24
 70
     1
102
RTVSPropertyOp25
 70
     1
102
RTVSPropertyOp26
 70
     1
102
RTVSPropertyOp27
 70
     1
102
RTVSPropertyOp28
 70
     1
102
RTVSPropertyOp29
 70
     1
102
RTVSPropertyOp30
 70
     1
102
RTVSPropertyOp31
 70
     1
102
RTVSPropertyOp32
 70
     1
  0
XRECORD
  5
464
102
{ACAD_REACTORS
330
463
102
}
330
463
100
AcDbXrecord
280
     1
102
RTVSPropertyOp0
 70
     1
102
RTVSPropertyOp1
 70
     1
102
RTVSPropertyOp2
 70
     1
102
RTVSPropertyOp3
 70
     1
102
RTVSPropertyOp4
 70
     1
102
RTVSPropertyOp5
 70
     1
102
RTVSPropertyOp6
 70
     1
102
RTVSPropertyOp7
 70
     1
102
RTVSPropertyOp8
 70
     1
102
RTVSPropertyOp9
 70
     1
102
RTVSPropertyOp10
 70
     1
102
RTVSPropertyOp11
 70
     1
102
RTVSPropertyOp12
 70
     1
102
RTVSPropertyOp13
 70
     1
102
RTVSPropertyOp14
 70
     1
102
RTVSPropertyOp15
 70
     1
102
RTVSPropertyOp16
 70
     1
102
RTVSPropertyOp17
 70
     1
102
RTVSPropertyOp18
 70
     1
102
RTVSPropertyOp19
 70
     1
102
RTVSPropertyOp20
 70
     1
102
RTVSPropertyOp21
 70
     1
102
RTVSPropertyOp22
 70
     1
102
RTVSPropertyOp23
 70
     1
102
RTVSPropertyOp24
 70
     1
102
RTVSPropertyOp25
 70
     1
102
RTVSPropertyOp26
 70
     1
102
RTVSPropertyOp27
 70
     1
102
RTVSPropertyOp28
 70
     1
102
RTVSPropertyOp29
 70
     1
102
RTVSPropertyOp30
 70
     1
102
RTVSPropertyOp31
 70
     1
102
RTVSPropertyOp32
 70
     1
  0
XRECORD
  5
46C
102
{ACAD_REACTORS
330
46B
102
}
330
46B
100
AcDbXrecord
280
     1
102
RTVSPropertyOp0
 70
     1
102
RTVSPropertyOp1
 70
     1
102
RTVSPropertyOp2
 70
     1
102
RTVSPropertyOp3
 70
     1
102
RTVSPropertyOp4
 70
     1
102
RTVSPropertyOp5
 70
     1
102
RTVSPropertyOp6
 70
     1
102
RTVSPropertyOp7
 70
     1
102
RTVSPropertyOp8
 70
     1
102
RTVSPropertyOp9
 70
     1
102
RTVSPropertyOp10
 70
     1
102
RTVSPropertyOp11
 70
     1
102
RTVSPropertyOp12
 70
     1
102
RTVSPropertyOp13
 70
     1
102
RTVSPropertyOp14
 70
     1
102
RTVSPropertyOp15
 70
     1
102
RTVSPropertyOp16
 70
     1
102
RTVSPropertyOp17
 70
     1
102
RTVSPropertyOp18
 70
     1
102
RTVSPropertyOp19
 70
     1
102
RTVSPropertyOp20
 70
     1
102
RTVSPropertyOp21
 70
     1
102
RTVSPropertyOp22
 70
     1
102
RTVSPropertyOp23
 70
     1
102
RTVSPropertyOp24
 70
     1
102
RTVSPropertyOp25
 70
     1
102
RTVSPropertyOp26
 70
     1
102
RTVSPropertyOp27
 70
     1
102
RTVSPropertyOp28
 70
     1
102
RTVSPropertyOp29
 70
     1
102
RTVSPropertyOp30
 70
     1
102
RTVSPropertyOp31
 70
     1
102
RTVSPropertyOp32
 70
     1
  0
XRECORD
  5
45E
102
{ACAD_REACTORS
330
45D
102
}
330
45D
100
AcDbXrecord
280
     1
102
RTVSPropertyOp0
 70
     1
102
RTVSPropertyOp1
 70
     1
102
RTVSPropertyOp2
 70
     1
102
RTVSPropertyOp3
 70
     1
102
RTVSPropertyOp4
 70
     1
102
RTVSPropertyOp5
 70
     1
102
RTVSPropertyOp6
 70
     1
102
RTVSPropertyOp7
 70
     1
102
RTVSPropertyOp8
 70
     1
102
RTVSPropertyOp9
 70
     1
102
RTVSPropertyOp10
 70
     1
102
RTVSPropertyOp11
 70
     1
102
RTVSPropertyOp12
 70
     1
102
RTVSPropertyOp13
 70
     1
102
RTVSPropertyOp14
 70
     1
102
RTVSPropertyOp15
 70
     1
102
RTVSPropertyOp16
 70
     1
102
RTVSPropertyOp17
 70
     1
102
RTVSPropertyOp18
 70
     1
102
RTVSPropertyOp19
 70
     1
102
RTVSPropertyOp20
 70
     1
102
RTVSPropertyOp21
 70
     1
102
RTVSPropertyOp22
 70
     1
102
RTVSPropertyOp23
 70
     1
102
RTVSPropertyOp24
 70
     1
102
RTVSPropertyOp25
 70
     1
102
RTVSPropertyOp26
 70
     1
102
RTVSPropertyOp27
 70
     1
102
RTVSPropertyOp28
 70
     1
102
RTVSPropertyOp29
 70
     1
102
RTVSPropertyOp30
 70
     1
102
RTVSPropertyOp31
 70
     1
102
RTVSPropertyOp32
 70
     1
  0
XRECORD
  5
462
102
{ACAD_REACTORS
330
461
102
}
330
461
100
AcDbXrecord
280
     1
102
RTVSPropertyOp0
 70
     1
102
RTVSPropertyOp1
 70
     1
102
RTVSPropertyOp2
 70
     1
102
RTVSPropertyOp3
 70
     1
102
RTVSPropertyOp4
 70
     1
102
RTVSPropertyOp5
 70
     1
102
RTVSPropertyOp6
 70
     1
102
RTVSPropertyOp7
 70
     1
102
RTVSPropertyOp8
 70
     1
102
RTVSPropertyOp9
 70
     1
102
RTVSPropertyOp10
 70
     1
102
RTVSPropertyOp11
 70
     1
102
RTVSPropertyOp12
 70
     1
102
RTVSPropertyOp13
 70
     1
102
RTVSPropertyOp14
 70
     1
102
RTVSPropertyOp15
 70
     1
102
RTVSPropertyOp16
 70
     1
102
RTVSPropertyOp17
 70
     1
102
RTVSPropertyOp18
 70
     1
102
RTVSPropertyOp19
 70
     1
102
RTVSPropertyOp20
 70
     1
102
RTVSPropertyOp21
 70
     1
102
RTVSPropertyOp22
 70
     1
102
RTVSPropertyOp23
 70
     1
102
RTVSPropertyOp24
 70
     1
102
RTVSPropertyOp25
 70
     1
102
RTVSPropertyOp26
 70
     1
102
RTVSPropertyOp27
 70
     1
102
RTVSPropertyOp28
 70
     1
102
RTVSPropertyOp29
 70
     1
102
RTVSPropertyOp30
 70
     1
102
RTVSPropertyOp31
 70
     1
102
RTVSPropertyOp32
 70
     1
  0
XRECORD
  5
47C
102
{ACAD_REACTORS
330
47B
102
}
330
47B
100
AcDbXrecord
280
     1
102
RTVSPropertyOp0
 70
     0
102
RTVSPropertyOp1
 70
     0
102
RTVSPropertyOp2
 70
     0
102
RTVSPropertyOp3
 70
     0
102
RTVSPropertyOp4
 70
     0
102
RTVSPropertyOp5
 70
     0
102
RTVSPropertyOp6
 70
     0
102
RTVSPropertyOp7
 70
     0
102
RTVSPropertyOp8
 70
     0
102
RTVSPropertyOp9
 70
     0
102
RTVSPropertyOp10
 70
     0
102
RTVSPropertyOp11
 70
     0
102
RTVSPropertyOp12
 70
     0
102
RTVSPropertyOp13
 70
     0
102
RTVSPropertyOp14
 70
     2
102
RTVSPropertyOp15
 70
     0
102
RTVSPropertyOp16
 70
     0
102
RTVSPropertyOp17
 70
     0
102
RTVSPropertyOp18
 70
     0
102
RTVSPropertyOp19
 70
     0
102
RTVSPropertyOp20
 70
     0
102
RTVSPropertyOp21
 70
     0
102
RTVSPropertyOp22
 70
     0
102
RTVSPropertyOp23
 70
     0
102
RTVSPropertyOp24
 70
     0
102
RTVSPropertyOp25
 70
     0
102
RTVSPropertyOp26
 70
     0
102
RTVSPropertyOp27
 70
     0
102
RTVSPropertyOp28
 70
     0
102
RTVSPropertyOp29
 70
     0
102
RTVSPropertyOp30
 70
     0
102
RTVSPropertyOp31
 70
     0
102
RTVSPropertyOp32
 70
     0
  0
XRECORD
  5
46A
102
{ACAD_REACTORS
330
469
102
}
330
469
100
AcDbXrecord
280
     1
102
RTVSPropertyOp0
 70
     1
102
RTVSPropertyOp1
 70
     1
102
RTVSPropertyOp2
 70
     1
102
RTVSPropertyOp3
 70
     1
102
RTVSPropertyOp4
 70
     1
102
RTVSPropertyOp5
 70
     1
102
RTVSPropertyOp6
 70
     1
102
RTVSPropertyOp7
 70
     1
102
RTVSPropertyOp8
 70
     1
102
RTVSPropertyOp9
 70
     1
102
RTVSPropertyOp10
 70
     1
102
RTVSPropertyOp11
 70
     1
102
RTVSPropertyOp12
 70
     1
102
RTVSPropertyOp13
 70
     1
102
RTVSPropertyOp14
 70
     1
102
RTVSPropertyOp15
 70
     1
102
RTVSPropertyOp16
 70
     1
102
RTVSPropertyOp17
 70
     1
102
RTVSPropertyOp18
 70
     1
102
RTVSPropertyOp19
 70
     1
102
RTVSPropertyOp20
 70
     1
102
RTVSPropertyOp21
 70
     1
102
RTVSPropertyOp22
 70
     1
102
RTVSPropertyOp23
 70
     1
102
RTVSPropertyOp24
 70
     1
102
RTVSPropertyOp25
 70
     1
102
RTVSPropertyOp26
 70
     1
102
RTVSPropertyOp27
 70
     1
102
RTVSPropertyOp28
 70
     1
102
RTVSPropertyOp29
 70
     1
102
RTVSPropertyOp30
 70
     1
102
RTVSPropertyOp31
 70
     1
102
RTVSPropertyOp32
 70
     1
  0
XRECORD
  5
44E
102
{ACAD_REACTORS
330
44D
102
}
330
44D
100
AcDbXrecord
280
     1
102
RTVSPropertyOp0
 70
     1
102
RTVSPropertyOp1
 70
     1
102
RTVSPropertyOp2
 70
     1
102
RTVSPropertyOp3
 70
     1
102
RTVSPropertyOp4
 70
     1
102
RTVSPropertyOp5
 70
     1
102
RTVSPropertyOp6
 70
     1
102
RTVSPropertyOp7
 70
     1
102
RTVSPropertyOp8
 70
     1
102
RTVSPropertyOp9
 70
     1
102
RTVSPropertyOp10
 70
     1
102
RTVSPropertyOp11
 70
     1
102
RTVSPropertyOp12
 70
     1
102
RTVSPropertyOp13
 70
     1
102
RTVSPropertyOp14
 70
     1
102
RTVSPropertyOp15
 70
     1
102
RTVSPropertyOp16
 70
     1
102
RTVSPropertyOp17
 70
     1
102
RTVSPropertyOp18
 70
     1
102
RTVSPropertyOp19
 70
     1
102
RTVSPropertyOp20
 70
     1
102
RTVSPropertyOp21
 70
     1
102
RTVSPropertyOp22
 70
     1
102
RTVSPropertyOp23
 70
     1
102
RTVSPropertyOp24
 70
     1
102
RTVSPropertyOp25
 70
     1
102
RTVSPropertyOp26
 70
     1
102
RTVSPropertyOp27
 70
     1
102
RTVSPropertyOp28
 70
     1
102
RTVSPropertyOp29
 70
     1
102
RTVSPropertyOp30
 70
     1
102
RTVSPropertyOp31
 70
     1
102
RTVSPropertyOp32
 70
     1
  0
XRECORD
  5
450
102
{ACAD_REACTORS
330
44F
102
}
330
44F
100
AcDbXrecord
280
     1
102
RTVSPropertyOp0
 70
     1
102
RTVSPropertyOp1
 70
     1
102
RTVSPropertyOp2
 70
     1
102
RTVSPropertyOp3
 70
     1
102
RTVSPropertyOp4
 70
     1
102
RTVSPropertyOp5
 70
     1
102
RTVSPropertyOp6
 70
     1
102
RTVSPropertyOp7
 70
     1
102
RTVSPropertyOp8
 70
     1
102
RTVSPropertyOp9
 70
     1
102
RTVSPropertyOp10
 70
     1
102
RTVSPropertyOp11
 70
     1
102
RTVSPropertyOp12
 70
     1
102
RTVSPropertyOp13
 70
     1
102
RTVSPropertyOp14
 70
     1
102
RTVSPropertyOp15
 70
     1
102
RTVSPropertyOp16
 70
     1
102
RTVSPropertyOp17
 70
     1
102
RTVSPropertyOp18
 70
     1
102
RTVSPropertyOp19
 70
     1
102
RTVSPropertyOp20
 70
     1
102
RTVSPropertyOp21
 70
     1
102
RTVSPropertyOp22
 70
     1
102
RTVSPropertyOp23
 70
     1
102
RTVSPropertyOp24
 70
     1
102
RTVSPropertyOp25
 70
     1
102
RTVSPropertyOp26
 70
     1
102
RTVSPropertyOp27
 70
     1
102
RTVSPropertyOp28
 70
     1
102
RTVSPropertyOp29
 70
     1
102
RTVSPropertyOp30
 70
     1
102
RTVSPropertyOp31
 70
     1
102
RTVSPropertyOp32
 70
     1
  0
XRECORD
  5
452
102
{ACAD_REACTORS
330
451
102
}
330
451
100
AcDbXrecord
280
     1
102
RTVSPropertyOp0
 70
     1
102
RTVSPropertyOp1
 70
     1
102
RTVSPropertyOp2
 70
     1
102
RTVSPropertyOp3
 70
     1
102
RTVSPropertyOp4
 70
     1
102
RTVSPropertyOp5
 70
     1
102
RTVSPropertyOp6
 70
     1
102
RTVSPropertyOp7
 70
     1
102
RTVSPropertyOp8
 70
     1
102
RTVSPropertyOp9
 70
     1
102
RTVSPropertyOp10
 70
     1
102
RTVSPropertyOp11
 70
     1
102
RTVSPropertyOp12
 70
     1
102
RTVSPropertyOp13
 70
     1
102
RTVSPropertyOp14
 70
     1
102
RTVSPropertyOp15
 70
     1
102
RTVSPropertyOp16
 70
     1
102
RTVSPropertyOp17
 70
     1
102
RTVSPropertyOp18
 70
     1
102
RTVSPropertyOp19
 70
     1
102
RTVSPropertyOp20
 70
     1
102
RTVSPropertyOp21
 70
     1
102
RTVSPropertyOp22
 70
     1
102
RTVSPropertyOp23
 70
     1
102
RTVSPropertyOp24
 70
     1
102
RTVSPropertyOp25
 70
     1
102
RTVSPropertyOp26
 70
     1
102
RTVSPropertyOp27
 70
     1
102
RTVSPropertyOp28
 70
     1
102
RTVSPropertyOp29
 70
     1
102
RTVSPropertyOp30
 70
     1
102
RTVSPropertyOp31
 70
     1
102
RTVSPropertyOp32
 70
     1
  0
XRECORD
  5
454
102
{ACAD_REACTORS
330
453
102
}
330
453
100
AcDbXrecord
280
     1
102
RTVSPropertyOp0
 70
     1
102
RTVSPropertyOp1
 70
     1
102
RTVSPropertyOp2
 70
     1
102
RTVSPropertyOp3
 70
     1
102
RTVSPropertyOp4
 70
     1
102
RTVSPropertyOp5
 70
     1
102
RTVSPropertyOp6
 70
     1
102
RTVSPropertyOp7
 70
     1
102
RTVSPropertyOp8
 70
     1
102
RTVSPropertyOp9
 70
     1
102
RTVSPropertyOp10
 70
     1
102
RTVSPropertyOp11
 70
     1
102
RTVSPropertyOp12
 70
     1
102
RTVSPropertyOp13
 70
     1
102
RTVSPropertyOp14
 70
     1
102
RTVSPropertyOp15
 70
     1
102
RTVSPropertyOp16
 70
     1
102
RTVSPropertyOp17
 70
     1
102
RTVSPropertyOp18
 70
     1
102
RTVSPropertyOp19
 70
     1
102
RTVSPropertyOp20
 70
     1
102
RTVSPropertyOp21
 70
     1
102
RTVSPropertyOp22
 70
     1
102
RTVSPropertyOp23
 70
     1
102
RTVSPropertyOp24
 70
     1
102
RTVSPropertyOp25
 70
     1
102
RTVSPropertyOp26
 70
     1
102
RTVSPropertyOp27
 70
     1
102
RTVSPropertyOp28
 70
     1
102
RTVSPropertyOp29
 70
     1
102
RTVSPropertyOp30
 70
     1
102
RTVSPropertyOp31
 70
     1
102
RTVSPropertyOp32
 70
     1
  0
XRECORD
  5
45C
102
{ACAD_REACTORS
330
45B
102
}
330
45B
100
AcDbXrecord
280
     1
102
RTVSPropertyOp0
 70
     1
102
RTVSPropertyOp1
 70
     1
102
RTVSPropertyOp2
 70
     1
102
RTVSPropertyOp3
 70
     1
102
RTVSPropertyOp4
 70
     1
102
RTVSPropertyOp5
 70
     1
102
RTVSPropertyOp6
 70
     1
102
RTVSPropertyOp7
 70
     1
102
RTVSPropertyOp8
 70
     1
102
RTVSPropertyOp9
 70
     1
102
RTVSPropertyOp10
 70
     1
102
RTVSPropertyOp11
 70
     1
102
RTVSPropertyOp12
 70
     1
102
RTVSPropertyOp13
 70
     1
102
RTVSPropertyOp14
 70
     1
102
RTVSPropertyOp15
 70
     1
102
RTVSPropertyOp16
 70
     1
102
RTVSPropertyOp17
 70
     1
102
RTVSPropertyOp18
 70
     1
102
RTVSPropertyOp19
 70
     1
102
RTVSPropertyOp20
 70
     1
102
RTVSPropertyOp21
 70
     1
102
RTVSPropertyOp22
 70
     1
102
RTVSPropertyOp23
 70
     1
102
RTVSPropertyOp24
 70
     1
102
RTVSPropertyOp25
 70
     1
102
RTVSPropertyOp26
 70
     1
102
RTVSPropertyOp27
 70
     1
102
RTVSPropertyOp28
 70
     1
102
RTVSPropertyOp29
 70
     1
102
RTVSPropertyOp30
 70
     1
102
RTVSPropertyOp31
 70
     1
102
RTVSPropertyOp32
 70
     1
  0
XRECORD
  5
478
102
{ACAD_REACTORS
330
477
102
}
330
477
100
AcDbXrecord
280
     1
102
RTVSPropertyOp0
 70
     0
102
RTVSPropertyOp1
 70
     0
102
RTVSPropertyOp2
 70
     0
102
RTVSPropertyOp3
 70
     0
102
RTVSPropertyOp4
 70
     0
102
RTVSPropertyOp5
 70
     0
102
RTVSPropertyOp6
 70
     0
102
RTVSPropertyOp7
 70
     0
102
RTVSPropertyOp8
 70
     0
102
RTVSPropertyOp9
 70
     0
102
RTVSPropertyOp10
 70
     0
102
RTVSPropertyOp11
 70
     0
102
RTVSPropertyOp12
 70
     0
102
RTVSPropertyOp13
 70
     0
102
RTVSPropertyOp14
 70
     2
102
RTVSPropertyOp15
 70
     0
102
RTVSPropertyOp16
 70
     0
102
RTVSPropertyOp17
 70
     0
102
RTVSPropertyOp18
 70
     0
102
RTVSPropertyOp19
 70
     0
102
RTVSPropertyOp20
 70
     0
102
RTVSPropertyOp21
 70
     0
102
RTVSPropertyOp22
 70
     0
102
RTVSPropertyOp23
 70
     0
102
RTVSPropertyOp24
 70
     0
102
RTVSPropertyOp25
 70
     0
102
RTVSPropertyOp26
 70
     0
102
RTVSPropertyOp27
 70
     0
102
RTVSPropertyOp28
 70
     0
102
RTVSPropertyOp29
 70
     0
102
RTVSPropertyOp30
 70
     0
102
RTVSPropertyOp31
 70
     0
102
RTVSPropertyOp32
 70
     0
  0
XRECORD
  5
468
102
{ACAD_REACTORS
330
467
102
}
330
467
100
AcDbXrecord
280
     1
102
RTVSPropertyOp0
 70
     1
102
RTVSPropertyOp1
 70
     1
102
RTVSPropertyOp2
 70
     1
102
RTVSPropertyOp3
 70
     1
102
RTVSPropertyOp4
 70
     1
102
RTVSPropertyOp5
 70
     1
102
RTVSPropertyOp6
 70
     1
102
RTVSPropertyOp7
 70
     1
102
RTVSPropertyOp8
 70
     1
102
RTVSPropertyOp9
 70
     1
102
RTVSPropertyOp10
 70
     1
102
RTVSPropertyOp11
 70
     1
102
RTVSPropertyOp12
 70
     1
102
RTVSPropertyOp13
 70
     1
102
RTVSPropertyOp14
 70
     1
102
RTVSPropertyOp15
 70
     1
102
RTVSPropertyOp16
 70
     1
102
RTVSPropertyOp17
 70
     1
102
RTVSPropertyOp18
 70
     1
102
RTVSPropertyOp19
 70
     1
102
RTVSPropertyOp20
 70
     1
102
RTVSPropertyOp21
 70
     1
102
RTVSPropertyOp22
 70
     1
102
RTVSPropertyOp23
 70
     1
102
RTVSPropertyOp24
 70
     1
102
RTVSPropertyOp25
 70
     1
102
RTVSPropertyOp26
 70
     1
102
RTVSPropertyOp27
 70
     1
102
RTVSPropertyOp28
 70
     1
102
RTVSPropertyOp29
 70
     1
102
RTVSPropertyOp30
 70
     1
102
RTVSPropertyOp31
 70
     1
102
RTVSPropertyOp32
 70
     1
  0
XRECORD
  5
47A
102
{ACAD_REACTORS
330
479
102
}
330
479
100
AcDbXrecord
280
     1
102
RTVSPropertyOp0
 70
     0
102
RTVSPropertyOp1
 70
     0
102
RTVSPropertyOp2
 70
     0
102
RTVSPropertyOp3
 70
     0
102
RTVSPropertyOp4
 70
     0
102
RTVSPropertyOp5
 70
     0
102
RTVSPropertyOp6
 70
     0
102
RTVSPropertyOp7
 70
     0
102
RTVSPropertyOp8
 70
     0
102
RTVSPropertyOp9
 70
     0
102
RTVSPropertyOp10
 70
     0
102
RTVSPropertyOp11
 70
     0
102
RTVSPropertyOp12
 70
     0
102
RTVSPropertyOp13
 70
     0
102
RTVSPropertyOp14
 70
     2
102
RTVSPropertyOp15
 70
     0
102
RTVSPropertyOp16
 70
     0
102
RTVSPropertyOp17
 70
     0
102
RTVSPropertyOp18
 70
     0
102
RTVSPropertyOp19
 70
     0
102
RTVSPropertyOp20
 70
     0
102
RTVSPropertyOp21
 70
     0
102
RTVSPropertyOp22
 70
     0
102
RTVSPropertyOp23
 70
     0
102
RTVSPropertyOp24
 70
     0
102
RTVSPropertyOp25
 70
     0
102
RTVSPropertyOp26
 70
     0
102
RTVSPropertyOp27
 70
     0
102
RTVSPropertyOp28
 70
     0
102
RTVSPropertyOp29
 70
     0
102
RTVSPropertyOp30
 70
     0
102
RTVSPropertyOp31
 70
     0
102
RTVSPropertyOp32
 70
     0
  0
XRECORD
  5
460
102
{ACAD_REACTORS
330
45F
102
}
330
45F
100
AcDbXrecord
280
     1
102
RTVSPropertyOp0
 70
     1
102
RTVSPropertyOp1
 70
     1
102
RTVSPropertyOp2
 70
     1
102
RTVSPropertyOp3
 70
     1
102
RTVSPropertyOp4
 70
     1
102
RTVSPropertyOp5
 70
     1
102
RTVSPropertyOp6
 70
     1
102
RTVSPropertyOp7
 70
     1
102
RTVSPropertyOp8
 70
     1
102
RTVSPropertyOp9
 70
     1
102
RTVSPropertyOp10
 70
     1
102
RTVSPropertyOp11
 70
     1
102
RTVSPropertyOp12
 70
     1
102
RTVSPropertyOp13
 70
     1
102
RTVSPropertyOp14
 70
     1
102
RTVSPropertyOp15
 70
     1
102
RTVSPropertyOp16
 70
     1
102
RTVSPropertyOp17
 70
     1
102
RTVSPropertyOp18
 70
     1
102
RTVSPropertyOp19
 70
     1
102
RTVSPropertyOp20
 70
     1
102
RTVSPropertyOp21
 70
     1
102
RTVSPropertyOp22
 70
     1
102
RTVSPropertyOp23
 70
     1
102
RTVSPropertyOp24
 70
     1
102
RTVSPropertyOp25
 70
     1
102
RTVSPropertyOp26
 70
     1
102
RTVSPropertyOp27
 70
     1
102
RTVSPropertyOp28
 70
     1
102
RTVSPropertyOp29
 70
     1
102
RTVSPropertyOp30
 70
     1
102
RTVSPropertyOp31
 70
     1
102
RTVSPropertyOp32
 70
     1
  0
XRECORD
  5
476
102
{ACAD_REACTORS
330
475
102
}
330
475
100
AcDbXrecord
280
     1
102
RTVSPropertyOp0
 70
     1
102
RTVSPropertyOp1
 70
     1
102
RTVSPropertyOp2
 70
     1
102
RTVSPropertyOp3
 70
     1
102
RTVSPropertyOp4
 70
     1
102
RTVSPropertyOp5
 70
     1
102
RTVSPropertyOp6
 70
     1
102
RTVSPropertyOp7
 70
     1
102
RTVSPropertyOp8
 70
     1
102
RTVSPropertyOp9
 70
     1
102
RTVSPropertyOp10
 70
     1
102
RTVSPropertyOp11
 70
     1
102
RTVSPropertyOp12
 70
     1
102
RTVSPropertyOp13
 70
     1
102
RTVSPropertyOp14
 70
     1
102
RTVSPropertyOp15
 70
     1
102
RTVSPropertyOp16
 70
     1
102
RTVSPropertyOp17
 70
     1
102
RTVSPropertyOp18
 70
     1
102
RTVSPropertyOp19
 70
     1
102
RTVSPropertyOp20
 70
     1
102
RTVSPropertyOp21
 70
     1
102
RTVSPropertyOp22
 70
     1
102
RTVSPropertyOp23
 70
     1
102
RTVSPropertyOp24
 70
     1
102
RTVSPropertyOp25
 70
     1
102
RTVSPropertyOp26
 70
     1
102
RTVSPropertyOp27
 70
     1
102
RTVSPropertyOp28
 70
     1
102
RTVSPropertyOp29
 70
     1
102
RTVSPropertyOp30
 70
     1
102
RTVSPropertyOp31
 70
     1
102
RTVSPropertyOp32
 70
     1
  0
XRECORD
  5
474
102
{ACAD_REACTORS
330
473
102
}
330
473
100
AcDbXrecord
280
     1
102
RTVSPropertyOp0
 70
     1
102
RTVSPropertyOp1
 70
     1
102
RTVSPropertyOp2
 70
     1
102
RTVSPropertyOp3
 70
     1
102
RTVSPropertyOp4
 70
     1
102
RTVSPropertyOp5
 70
     1
102
RTVSPropertyOp6
 70
     1
102
RTVSPropertyOp7
 70
     1
102
RTVSPropertyOp8
 70
     1
102
RTVSPropertyOp9
 70
     1
102
RTVSPropertyOp10
 70
     1
102
RTVSPropertyOp11
 70
     1
102
RTVSPropertyOp12
 70
     1
102
RTVSPropertyOp13
 70
     1
102
RTVSPropertyOp14
 70
     1
102
RTVSPropertyOp15
 70
     1
102
RTVSPropertyOp16
 70
     1
102
RTVSPropertyOp17
 70
     1
102
RTVSPropertyOp18
 70
     1
102
RTVSPropertyOp19
 70
     1
102
RTVSPropertyOp20
 70
     1
102
RTVSPropertyOp21
 70
     1
102
RTVSPropertyOp22
 70
     1
102
RTVSPropertyOp23
 70
     1
102
RTVSPropertyOp24
 70
     1
102
RTVSPropertyOp25
 70
     1
102
RTVSPropertyOp26
 70
     1
102
RTVSPropertyOp27
 70
     1
102
RTVSPropertyOp28
 70
     1
102
RTVSPropertyOp29
 70
     1
102
RTVSPropertyOp30
 70
     1
102
RTVSPropertyOp31
 70
     1
102
RTVSPropertyOp32
 70
     1
  0
XRECORD
  5
46E
102
{ACAD_REACTORS
330
46D
102
}
330
46D
100
AcDbXrecord
280
     1
102
RTVSPropertyOp0
 70
     1
102
RTVSPropertyOp1
 70
     1
102
RTVSPropertyOp2
 70
     1
102
RTVSPropertyOp3
 70
     1
102
RTVSPropertyOp4
 70
     1
102
RTVSPropertyOp5
 70
     1
102
RTVSPropertyOp6
 70
     1
102
RTVSPropertyOp7
 70
     1
102
RTVSPropertyOp8
 70
     1
102
RTVSPropertyOp9
 70
     1
102
RTVSPropertyOp10
 70
     1
102
RTVSPropertyOp11
 70
     1
102
RTVSPropertyOp12
 70
     1
102
RTVSPropertyOp13
 70
     1
102
RTVSPropertyOp14
 70
     1
102
RTVSPropertyOp15
 70
     1
102
RTVSPropertyOp16
 70
     1
102
RTVSPropertyOp17
 70
     1
102
RTVSPropertyOp18
 70
     1
102
RTVSPropertyOp19
 70
     1
102
RTVSPropertyOp20
 70
     1
102
RTVSPropertyOp21
 70
     1
102
RTVSPropertyOp22
 70
     1
102
RTVSPropertyOp23
 70
     1
102
RTVSPropertyOp24
 70
     1
102
RTVSPropertyOp25
 70
     1
102
RTVSPropertyOp26
 70
     1
102
RTVSPropertyOp27
 70
     1
102
RTVSPropertyOp28
 70
     1
102
RTVSPropertyOp29
 70
     1
102
RTVSPropertyOp30
 70
     1
102
RTVSPropertyOp31
 70
     1
102
RTVSPropertyOp32
 70
     1
  0
XRECORD
  5
470
102
{ACAD_REACTORS
330
46F
102
}
330
46F
100
AcDbXrecord
280
     1
102
RTVSPropertyOp0
 70
     1
102
RTVSPropertyOp1
 70
     1
102
RTVSPropertyOp2
 70
     1
102
RTVSPropertyOp3
 70
     1
102
RTVSPropertyOp4
 70
     1
102
RTVSPropertyOp5
 70
     1
102
RTVSPropertyOp6
 70
     1
102
RTVSPropertyOp7
 70
     1
102
RTVSPropertyOp8
 70
     1
102
RTVSPropertyOp9
 70
     1
102
RTVSPropertyOp10
 70
     1
102
RTVSPropertyOp11
 70
     1
102
RTVSPropertyOp12
 70
     1
102
RTVSPropertyOp13
 70
     1
102
RTVSPropertyOp14
 70
     1
102
RTVSPropertyOp15
 70
     1
102
RTVSPropertyOp16
 70
     1
102
RTVSPropertyOp17
 70
     1
102
RTVSPropertyOp18
 70
     1
102
RTVSPropertyOp19
 70
     1
102
RTVSPropertyOp20
 70
     1
102
RTVSPropertyOp21
 70
     1
102
RTVSPropertyOp22
 70
     1
102
RTVSPropertyOp23
 70
     1
102
RTVSPropertyOp24
 70
     1
102
RTVSPropertyOp25
 70
     1
102
RTVSPropertyOp26
 70
     1
102
RTVSPropertyOp27
 70
     1
102
RTVSPropertyOp28
 70
     1
102
RTVSPropertyOp29
 70
     1
102
RTVSPropertyOp30
 70
     1
102
RTVSPropertyOp31
 70
     1
102
RTVSPropertyOp32
 70
     1
  0
XRECORD
  5
466
102
{ACAD_REACTORS
330
465
102
}
330
465
100
AcDbXrecord
280
     1
102
RTVSPropertyOp0
 70
     1
102
RTVSPropertyOp1
 70
     1
102
RTVSPropertyOp2
 70
     1
102
RTVSPropertyOp3
 70
     1
102
RTVSPropertyOp4
 70
     1
102
RTVSPropertyOp5
 70
     1
102
RTVSPropertyOp6
 70
     1
102
RTVSPropertyOp7
 70
     1
102
RTVSPropertyOp8
 70
     1
102
RTVSPropertyOp9
 70
     1
102
RTVSPropertyOp10
 70
     1
102
RTVSPropertyOp11
 70
     1
102
RTVSPropertyOp12
 70
     1
102
RTVSPropertyOp13
 70
     1
102
RTVSPropertyOp14
 70
     1
102
RTVSPropertyOp15
 70
     1
102
RTVSPropertyOp16
 70
     1
102
RTVSPropertyOp17
 70
     1
102
RTVSPropertyOp18
 70
     1
102
RTVSPropertyOp19
 70
     1
102
RTVSPropertyOp20
 70
     1
102
RTVSPropertyOp21
 70
     1
102
RTVSPropertyOp22
 70
     1
102
RTVSPropertyOp23
 70
     1
102
RTVSPropertyOp24
 70
     1
102
RTVSPropertyOp25
 70
     1
102
RTVSPropertyOp26
 70
     1
102
RTVSPropertyOp27
 70
     1
102
RTVSPropertyOp28
 70
     1
102
RTVSPropertyOp29
 70
     1
102
RTVSPropertyOp30
 70
     1
102
RTVSPropertyOp31
 70
     1
102
RTVSPropertyOp32
 70
     1
  0
XRECORD
  5
45A
102
{ACAD_REACTORS
330
459
102
}
330
459
100
AcDbXrecord
280
     1
102
RTVSPropertyOp0
 70
     1
102
RTVSPropertyOp1
 70
     1
102
RTVSPropertyOp2
 70
     1
102
RTVSPropertyOp3
 70
     1
102
RTVSPropertyOp4
 70
     1
102
RTVSPropertyOp5
 70
     1
102
RTVSPropertyOp6
 70
     1
102
RTVSPropertyOp7
 70
     1
102
RTVSPropertyOp8
 70
     1
102
RTVSPropertyOp9
 70
     1
102
RTVSPropertyOp10
 70
     1
102
RTVSPropertyOp11
 70
     1
102
RTVSPropertyOp12
 70
     1
102
RTVSPropertyOp13
 70
     1
102
RTVSPropertyOp14
 70
     1
102
RTVSPropertyOp15
 70
     1
102
RTVSPropertyOp16
 70
     1
102
RTVSPropertyOp17
 70
     1
102
RTVSPropertyOp18
 70
     1
102
RTVSPropertyOp19
 70
     1
102
RTVSPropertyOp20
 70
     1
102
RTVSPropertyOp21
 70
     1
102
RTVSPropertyOp22
 70
     1
102
RTVSPropertyOp23
 70
     1
102
RTVSPropertyOp24
 70
     1
102
RTVSPropertyOp25
 70
     1
102
RTVSPropertyOp26
 70
     1
102
RTVSPropertyOp27
 70
     1
102
RTVSPropertyOp28
 70
     1
102
RTVSPropertyOp29
 70
     1
102
RTVSPropertyOp30
 70
     1
102
RTVSPropertyOp31
 70
     1
102
RTVSPropertyOp32
 70
     1
  0
XRECORD
  5
472
102
{ACAD_REACTORS
330
471
102
}
330
471
100
AcDbXrecord
280
     1
102
RTVSPropertyOp0
 70
     1
102
RTVSPropertyOp1
 70
     1
102
RTVSPropertyOp2
 70
     1
102
RTVSPropertyOp3
 70
     1
102
RTVSPropertyOp4
 70
     1
102
RTVSPropertyOp5
 70
     1
102
RTVSPropertyOp6
 70
     1
102
RTVSPropertyOp7
 70
     1
102
RTVSPropertyOp8
 70
     1
102
RTVSPropertyOp9
 70
     1
102
RTVSPropertyOp10
 70
     1
102
RTVSPropertyOp11
 70
     1
102
RTVSPropertyOp12
 70
     1
102
RTVSPropertyOp13
 70
     1
102
RTVSPropertyOp14
 70
     1
102
RTVSPropertyOp15
 70
     1
102
RTVSPropertyOp16
 70
     1
102
RTVSPropertyOp17
 70
     1
102
RTVSPropertyOp18
 70
     1
102
RTVSPropertyOp19
 70
     1
102
RTVSPropertyOp20
 70
     1
102
RTVSPropertyOp21
 70
     1
102
RTVSPropertyOp22
 70
     1
102
RTVSPropertyOp23
 70
     1
102
RTVSPropertyOp24
 70
     1
102
RTVSPropertyOp25
 70
     1
102
RTVSPropertyOp26
 70
     1
102
RTVSPropertyOp27
 70
     1
102
RTVSPropertyOp28
 70
     1
102
RTVSPropertyOp29
 70
     1
102
RTVSPropertyOp30
 70
     1
102
RTVSPropertyOp31
 70
     1
102
RTVSPropertyOp32
 70
     1
  0
ENDSEC
  0
EOF
