ISO-10303-21;
HEADER;
/****************************************************************
 * Generated by software with PDE/Lib inside                    *
 * PDElib Version v4.4, created Mon 02/23/2004                  *
 * International Technegroup Inc. (www.iti-oh.com)              *
 ****************************************************************/
FILE_DESCRIPTION(('STEP AP203'),'2;1');
FILE_NAME('26.023.00.stp','2011-03-21T16:17:24',(''),(''),'2009.3.110','THINKDESIGN','');
FILE_SCHEMA(('CONFIG_CONTROL_DESIGN'));
ENDSEC;
DATA;
#2=CARTESIAN_POINT('',(0.000000955008076,6.999998446000063,0.000011410006200));
#3=DIRECTION('',(0.0,-1.0,6.123234E-017));
#4=DIRECTION('',(1.0,0.0,0.0));
#5=AXIS2_PLACEMENT_3D('',#2,#3,#4);
#6=CYLINDRICAL_SURFACE('',#5,6.999998446010341);
#7=CARTESIAN_POINT('',(-6.999997490998145,6.999998446000063,0.000003814998640));
#8=VERTEX_POINT('',#7);
#9=CARTESIAN_POINT('',(6.999999401001861,6.999998446000063,-0.000003814999682));
#10=VERTEX_POINT('',#9);
#11=CARTESIAN_POINT('',(0.000000955008076,6.999998446000063,0.000011410006200));
#12=DIRECTION('',(0.0,-1.0,6.123234E-017));
#13=DIRECTION('',(1.0,0.0,0.0));
#14=AXIS2_PLACEMENT_3D('',#11,#12,#13);
#15=CIRCLE('',#14,6.999998446010341);
#16=EDGE_CURVE('',#8,#10,#15,.T.);
#17=ORIENTED_EDGE('',*,*,#16,.T.);
#18=CARTESIAN_POINT('',(6.999999401001861,-15.000001553999937,-0.000003814999682));
#19=VERTEX_POINT('',#18);
#20=CARTESIAN_POINT('',(6.999999401001861,6.999998446000063,-0.000003814999682));
#21=DIRECTION('',(0.0,-1.0,0.0));
#22=VECTOR('',#21,22.0);
#23=LINE('',#20,#22);
#24=EDGE_CURVE('',#10,#19,#23,.T.);
#25=ORIENTED_EDGE('',*,*,#24,.T.);
#26=CARTESIAN_POINT('',(-6.999997490998145,-15.000001553999937,0.000003814998640));
#27=VERTEX_POINT('',#26);
#28=CARTESIAN_POINT('',(0.000000955008076,-15.000001553999937,0.000011410006200));
#29=DIRECTION('',(0.0,-1.0,6.123234E-017));
#30=DIRECTION('',(1.0,0.0,0.0));
#31=AXIS2_PLACEMENT_3D('',#28,#29,#30);
#32=CIRCLE('',#31,6.999998446010341);
#33=EDGE_CURVE('',#27,#19,#32,.T.);
#34=ORIENTED_EDGE('',*,*,#33,.F.);
#35=CARTESIAN_POINT('',(-6.999997490998145,6.999998446000063,0.000003814998640));
#36=DIRECTION('',(0.0,-1.0,0.0));
#37=VECTOR('',#36,22.0);
#38=LINE('',#35,#37);
#39=EDGE_CURVE('',#8,#27,#38,.T.);
#40=ORIENTED_EDGE('',*,*,#39,.F.);
#41=EDGE_LOOP('',(#17,#25,#34,#40));
#42=FACE_OUTER_BOUND('',#41,.T.);
#43=CARTESIAN_POINT('',(-4.500002922228521,0.0,-5.361885954640273));
#44=VERTEX_POINT('',#43);
#45=CARTESIAN_POINT('',(4.499978868485204,0.000054725868777,-5.361925810213300));
#46=VERTEX_POINT('',#45);
#47=CARTESIAN_POINT('',(-4.500002922228521,0.0,-5.361885954640272));
#48=CARTESIAN_POINT('',(-4.500002922228521,-0.124382540495731,-5.361885954640272));
#49=CARTESIAN_POINT('',(-4.486388617604725,-0.452300811140276,-5.373334004467590));
#50=CARTESIAN_POINT('',(-4.383934891676775,-1.125558832824368,-5.458573556864799));
#51=CARTESIAN_POINT('',(-4.106523612056181,-1.919612972519758,-5.676495760153702));
#52=CARTESIAN_POINT('',(-3.579083132923550,-2.790073667572187,-6.029555105051699));
#53=CARTESIAN_POINT('',(-2.929139922717465,-3.463186899030006,-6.376607993357975));
#54=CARTESIAN_POINT('',(-2.118317893089109,-4.002206225519558,-6.688006479704495));
#55=CARTESIAN_POINT('',(-1.308218164995339,-4.338588107241435,-6.896469132019096));
#56=CARTESIAN_POINT('',(-0.453137508614086,-4.501759853319754,-7.001082511267152));
#57=CARTESIAN_POINT('',(0.455995343884257,-4.508868761913732,-7.005725536485434));
#58=CARTESIAN_POINT('',(1.401784608947014,-4.319468593491251,-6.883847913905690));
#59=CARTESIAN_POINT('',(2.379896207844233,-3.868526848480315,-6.606942661208260));
#60=CARTESIAN_POINT('',(3.190296559387984,-3.229685854141621,-6.248826146085474));
#61=CARTESIAN_POINT('',(3.824889784052728,-2.436490494433997,-5.873752582698098));
#62=CARTESIAN_POINT('',(4.243130562166136,-1.592221271639914,-5.572039505078903));
#63=CARTESIAN_POINT('',(4.458845984270420,-0.760486392829812,-5.396715399603909));
#64=CARTESIAN_POINT('',(4.499931756188771,-0.232104364323509,-5.362015882419433));
#65=CARTESIAN_POINT('',(4.499978868485204,0.000054725868777,-5.361925810213300));
#66=B_SPLINE_CURVE_WITH_KNOTS('',3,(#47,#48,#49,#50,#51,#52,#53,#54,#55,#56,#57,#58,#59,#60,#61,#62,#63,#64,#65),.UNSPECIFIED.,.F.,.U.,(4,1,1,1,1,1,1,1,1,1,1,1,1,1,1,1,4),(0.0,0.373308412530541,0.983394858447814,2.051273943206279,2.958252584742286,4.202095483010217,5.022644652348850,6.013481954160236,6.888559097362895,7.636255445615499,8.727185152767634,9.776886729737393,10.947922008410785,11.980894688500245,13.009318494008264,13.897600532590689,14.594185618625053),.UNSPECIFIED.);
#67=EDGE_CURVE('',#44,#46,#66,.T.);
#68=ORIENTED_EDGE('',*,*,#67,.T.);
#69=CARTESIAN_POINT('',(4.499978868485204,0.000054725868777,-5.361925810213300));
#70=CARTESIAN_POINT('',(4.499988380757108,0.046929120838553,-5.361907624062749));
#71=CARTESIAN_POINT('',(4.494606899374162,0.394972565416717,-5.366362015125483));
#72=CARTESIAN_POINT('',(4.406671627914833,1.053418430197098,-5.440892377354638));
#73=CARTESIAN_POINT('',(4.094820398176814,1.947447042807994,-5.684684147286676));
#74=CARTESIAN_POINT('',(3.617568050237735,2.728211230643183,-6.004817620026319));
#75=CARTESIAN_POINT('',(2.953550539072290,3.440309589744629,-6.362888457392914));
#76=CARTESIAN_POINT('',(2.221113127725162,3.950616875087349,-6.657328347360357));
#77=CARTESIAN_POINT('',(1.383628133563787,4.307447388193168,-6.876838418175531));
#78=CARTESIAN_POINT('',(0.565072648802158,4.493456925317673,-6.995689244435292));
#79=CARTESIAN_POINT('',(-0.292341587097957,4.516732490017489,-7.010748074077581));
#80=CARTESIAN_POINT('',(-1.216568940488214,4.367830738693556,-6.915115005426508));
#81=CARTESIAN_POINT('',(-2.182363041842009,3.990627737010982,-6.679499163608748));
#82=CARTESIAN_POINT('',(-3.061023407311676,3.355988101825915,-6.315257065776176));
#83=CARTESIAN_POINT('',(-3.704906762930064,2.606557140682980,-5.949276290089384));
#84=CARTESIAN_POINT('',(-4.156726839940037,1.800826648799330,-5.638387851773146));
#85=CARTESIAN_POINT('',(-4.435304201381274,0.937244823796505,-5.417106284654120));
#86=CARTESIAN_POINT('',(-4.500002922228521,0.300425314472250,-5.361885954640273));
#87=CARTESIAN_POINT('',(-4.500002922228521,0.0,-5.361885954640273));
#88=B_SPLINE_CURVE_WITH_KNOTS('',3,(#69,#70,#71,#72,#73,#74,#75,#76,#77,#78,#79,#80,#81,#82,#83,#84,#85,#86,#87),.UNSPECIFIED.,.F.,.U.,(4,1,1,1,1,1,1,1,1,1,1,1,1,1,1,1,4),(14.594185618625053,14.734830572160089,15.638547347679157,16.583153759163491,17.649071063294485,18.529803259861563,19.684344852681740,20.448274184862129,21.327680909534465,22.211887035689610,23.004220263961802,24.135400411424925,25.372696369393729,26.406431960857049,27.280631643791281,28.284656200492389,29.188371237250106),.UNSPECIFIED.);
#89=EDGE_CURVE('',#46,#44,#88,.T.);
#90=ORIENTED_EDGE('',*,*,#89,.T.);
#91=EDGE_LOOP('',(#68,#90));
#92=FACE_BOUND('',#91,.T.);
#93=ADVANCED_FACE('',(#42,#92),#6,.T.);
#94=CARTESIAN_POINT('',(6.999999401001861,6.999998446000063,-0.000003814999682));
#95=DIRECTION('',(0.000000545000001,6.123234E-017,0.999999999999852));
#96=DIRECTION('',(-0.999999999999852,3.337163E-023,0.000000545000001));
#97=AXIS2_PLACEMENT_3D('',#94,#95,#96);
#98=PLANE('',#97);
#99=ORIENTED_EDGE('',*,*,#39,.T.);
#100=CARTESIAN_POINT('',(6.999999401001861,-15.000001553999937,-0.000003814999682));
#101=DIRECTION('',(-0.999999999999852,0.0,0.000000545000001));
#102=VECTOR('',#101,13.999996892002077);
#103=LINE('',#100,#102);
#104=EDGE_CURVE('',#19,#27,#103,.T.);
#105=ORIENTED_EDGE('',*,*,#104,.F.);
#106=ORIENTED_EDGE('',*,*,#24,.F.);
#107=CARTESIAN_POINT('',(6.999999401001861,6.999998446000063,-0.000003814999682));
#108=DIRECTION('',(-0.999999999999852,0.0,0.000000545000001));
#109=VECTOR('',#108,13.999996892002077);
#110=LINE('',#107,#109);
#111=EDGE_CURVE('',#10,#8,#110,.T.);
#112=ORIENTED_EDGE('',*,*,#111,.T.);
#113=EDGE_LOOP('',(#99,#105,#106,#112));
#114=FACE_OUTER_BOUND('',#113,.T.);
#115=CARTESIAN_POINT('',(4.499999999999332,-1.501723E-022,-0.000002452500005));
#116=VERTEX_POINT('',#115);
#117=CARTESIAN_POINT('',(-4.499999999999332,0.0,0.000002452500005));
#118=VERTEX_POINT('',#117);
#119=CARTESIAN_POINT('',(0.0,0.0,0.0));
#120=DIRECTION('',(0.000000545000001,6.123234E-017,0.999999999999852));
#121=DIRECTION('',(-0.999999999999852,3.337163E-023,0.000000545000001));
#122=AXIS2_PLACEMENT_3D('',#119,#120,#121);
#123=CIRCLE('',#122,4.500000000000000);
#124=EDGE_CURVE('',#116,#118,#123,.T.);
#125=ORIENTED_EDGE('',*,*,#124,.F.);
#126=CARTESIAN_POINT('',(0.0,0.0,0.0));
#127=DIRECTION('',(0.000000545000001,6.123234E-017,0.999999999999852));
#128=DIRECTION('',(-0.999999999999852,3.337163E-023,0.000000545000001));
#129=AXIS2_PLACEMENT_3D('',#126,#127,#128);
#130=CIRCLE('',#129,4.500000000000000);
#131=EDGE_CURVE('',#118,#116,#130,.T.);
#132=ORIENTED_EDGE('',*,*,#131,.F.);
#133=EDGE_LOOP('',(#125,#132));
#134=FACE_BOUND('',#133,.T.);
#135=ADVANCED_FACE('',(#114,#134),#98,.T.);
#136=CARTESIAN_POINT('',(-8.400117182650138,6.999998446000063,-7.700106123539294));
#137=DIRECTION('',(0.0,-1.0,0.0));
#138=DIRECTION('',(1.0,0.0,0.0));
#139=AXIS2_PLACEMENT_3D('',#136,#137,#138);
#140=PLANE('',#139);
#141=ORIENTED_EDGE('',*,*,#111,.F.);
#142=ORIENTED_EDGE('',*,*,#16,.F.);
#143=EDGE_LOOP('',(#141,#142));
#144=FACE_OUTER_BOUND('',#143,.T.);
#145=ADVANCED_FACE('',(#144),#140,.F.);
#146=CARTESIAN_POINT('',(-8.400117182650138,-15.000001553999937,-7.700106123539294));
#147=DIRECTION('',(0.0,-1.0,0.0));
#148=DIRECTION('',(1.0,0.0,0.0));
#149=AXIS2_PLACEMENT_3D('',#146,#147,#148);
#150=PLANE('',#149);
#151=ORIENTED_EDGE('',*,*,#33,.T.);
#152=ORIENTED_EDGE('',*,*,#104,.T.);
#153=EDGE_LOOP('',(#151,#152));
#154=FACE_OUTER_BOUND('',#153,.T.);
#155=ADVANCED_FACE('',(#154),#150,.T.);
#156=CARTESIAN_POINT('',(0.0,0.0,0.0));
#157=DIRECTION('',(0.000000545000001,6.123234E-017,0.999999999999852));
#158=DIRECTION('',(-0.999999999999852,3.337163E-023,0.000000545000001));
#159=AXIS2_PLACEMENT_3D('',#156,#157,#158);
#160=CYLINDRICAL_SURFACE('',#159,4.500000000000000);
#161=CARTESIAN_POINT('',(-4.499999999999332,0.0,0.000002452500005));
#162=DIRECTION('',(-0.000000545000001,0.0,-0.999999999999851));
#163=VECTOR('',#162,5.361888407141076);
#164=LINE('',#161,#163);
#165=EDGE_CURVE('',#118,#44,#164,.T.);
#166=ORIENTED_EDGE('',*,*,#165,.T.);
#167=ORIENTED_EDGE('',*,*,#89,.F.);
#168=ORIENTED_EDGE('',*,*,#67,.F.);
#169=ORIENTED_EDGE('',*,*,#165,.F.);
#170=ORIENTED_EDGE('',*,*,#131,.T.);
#171=ORIENTED_EDGE('',*,*,#124,.T.);
#172=EDGE_LOOP('',(#166,#167,#168,#169,#170,#171));
#173=FACE_OUTER_BOUND('',#172,.T.);
#174=ADVANCED_FACE('',(#173),#160,.F.);
#175=CLOSED_SHELL('',(#93,#135,#145,#155,#174));
#176=MANIFOLD_SOLID_BREP('',#175);
#177=CARTESIAN_POINT('',(8.881784E-016,0.0,-1.694066E-021));
#183=(NAMED_UNIT(*)PLANE_ANGLE_UNIT()SI_UNIT($,.RADIAN.));
#184=DIMENSIONAL_EXPONENTS(0.0,0.0,0.0,0.0,0.0,0.0,0.0);
#185=PLANE_ANGLE_MEASURE_WITH_UNIT(PLANE_ANGLE_MEASURE(0.017453292500000),#183);
#189=(CONVERSION_BASED_UNIT('DEGREE',#185)NAMED_UNIT(#184)PLANE_ANGLE_UNIT());
#193=(NAMED_UNIT(*)SI_UNIT($,.STERADIAN.)SOLID_ANGLE_UNIT());
#197=(LENGTH_UNIT()NAMED_UNIT(*)SI_UNIT(.MILLI.,.METRE.));
#199=UNCERTAINTY_MEASURE_WITH_UNIT(LENGTH_MEASURE(0.001000000000000),#197,'DISTANCE_ACCURACY_VALUE','');
#201=(GEOMETRIC_REPRESENTATION_CONTEXT(3)GLOBAL_UNCERTAINTY_ASSIGNED_CONTEXT((#199))GLOBAL_UNIT_ASSIGNED_CONTEXT((#189,#193,#197))REPRESENTATION_CONTEXT('thinkdesign','2009.3.110'));
#202=ADVANCED_BREP_SHAPE_REPRESENTATION('',(#176),#201);
#203=APPLICATION_CONTEXT('configuration controlled 3D designs of mechanical parts and assemblies');
#204=APPLICATION_PROTOCOL_DEFINITION('International Standard','config_control_design',1995,#203);
#205=MECHANICAL_CONTEXT('None',#203,'mechanical');
#206=PRODUCT('None','None','None',(#205));
#207=PRODUCT_RELATED_PRODUCT_CATEGORY('detail',$,(#206));
#208=PRODUCT_CATEGORY('part',$);
#209=PRODUCT_CATEGORY_RELATIONSHIP('None','None',#208,#207);
#210=PERSON('PERSON1','None','None',$,$,$);
#211=ORGANIZATION('','None','None');
#212=PERSON_AND_ORGANIZATION(#210,#211);
#213=PERSON_AND_ORGANIZATION_ROLE('design_owner');
#214=CC_DESIGN_PERSON_AND_ORGANIZATION_ASSIGNMENT(#212,#213,(#206));
#215=PRODUCT_DEFINITION_FORMATION_WITH_SPECIFIED_SOURCE('None','None',#206,.NOT_KNOWN.);
#216=PERSON('PERSON2','None','None',$,$,$);
#217=ORGANIZATION('','None','None');
#218=PERSON_AND_ORGANIZATION(#216,#217);
#219=PERSON_AND_ORGANIZATION_ROLE('creator');
#220=CC_DESIGN_PERSON_AND_ORGANIZATION_ASSIGNMENT(#218,#219,(#215));
#221=PERSON('PERSON3','None','None',$,$,$);
#222=ORGANIZATION('','None','None');
#223=PERSON_AND_ORGANIZATION(#221,#222);
#224=PERSON_AND_ORGANIZATION_ROLE('part_supplier');
#225=CC_DESIGN_PERSON_AND_ORGANIZATION_ASSIGNMENT(#223,#224,(#215));
#226=APPROVAL_STATUS('approved');
#227=APPROVAL(#226,'None');
#228=PERSON('PERSON4','None','None',$,$,$);
#229=ORGANIZATION('','None','None');
#230=PERSON_AND_ORGANIZATION(#228,#229);
#231=APPROVAL_ROLE('None');
#232=APPROVAL_PERSON_ORGANIZATION(#230,#227,#231);
#233=CALENDAR_DATE(2011,21,3);
#234=COORDINATED_UNIVERSAL_TIME_OFFSET(0,0,.AHEAD.);
#235=LOCAL_TIME(16,17,24.0,#234);
#236=DATE_AND_TIME(#233,#235);
#237=APPROVAL_DATE_TIME(#236,#227);
#238=CC_DESIGN_APPROVAL(#227,(#215));
#239=SECURITY_CLASSIFICATION_LEVEL('unclassified');
#240=SECURITY_CLASSIFICATION('None','None',#239);
#241=CC_DESIGN_SECURITY_CLASSIFICATION(#240,(#215));
#242=APPROVAL_STATUS('approved');
#243=APPROVAL(#242,'None');
#244=PERSON('PERSON5','None','None',$,$,$);
#245=ORGANIZATION('','None','None');
#246=PERSON_AND_ORGANIZATION(#244,#245);
#247=APPROVAL_ROLE('None');
#248=APPROVAL_PERSON_ORGANIZATION(#246,#243,#247);
#249=CALENDAR_DATE(2011,21,3);
#250=COORDINATED_UNIVERSAL_TIME_OFFSET(0,0,.AHEAD.);
#251=LOCAL_TIME(16,17,24.0,#250);
#252=DATE_AND_TIME(#249,#251);
#253=APPROVAL_DATE_TIME(#252,#243);
#254=CC_DESIGN_APPROVAL(#243,(#240));
#255=PERSON('PERSON6','None','None',$,$,$);
#256=ORGANIZATION('','None','None');
#257=PERSON_AND_ORGANIZATION(#255,#256);
#258=PERSON_AND_ORGANIZATION_ROLE('classification_officer');
#259=CC_DESIGN_PERSON_AND_ORGANIZATION_ASSIGNMENT(#257,#258,(#240));
#260=DATE_TIME_ROLE('classification_date');
#261=CALENDAR_DATE(2011,21,3);
#262=COORDINATED_UNIVERSAL_TIME_OFFSET(0,0,.AHEAD.);
#263=LOCAL_TIME(16,17,24.0,#262);
#264=DATE_AND_TIME(#261,#263);
#265=CC_DESIGN_DATE_AND_TIME_ASSIGNMENT(#264,#260,(#240));
#266=DESIGN_CONTEXT('part definition',#203,'design');
#267=DOCUMENT_TYPE('cad_filename');
#268=DOCUMENT('None','None','None',#267);
#269=PRODUCT_DEFINITION_WITH_ASSOCIATED_DOCUMENTS('None','None',#215,#266,(#268));
#270=PERSON('PERSON7','None','None',$,$,$);
#271=ORGANIZATION('','None','None');
#272=PERSON_AND_ORGANIZATION(#270,#271);
#273=PERSON_AND_ORGANIZATION_ROLE('creator');
#274=CC_DESIGN_PERSON_AND_ORGANIZATION_ASSIGNMENT(#272,#273,(#269));
#275=DATE_TIME_ROLE('creation_date');
#276=CALENDAR_DATE(2011,21,3);
#277=COORDINATED_UNIVERSAL_TIME_OFFSET(0,0,.AHEAD.);
#278=LOCAL_TIME(16,17,24.0,#277);
#279=DATE_AND_TIME(#276,#278);
#280=CC_DESIGN_DATE_AND_TIME_ASSIGNMENT(#279,#275,(#269));
#281=APPROVAL_STATUS('approved');
#282=APPROVAL(#281,'None');
#283=PERSON('PERSON8','None','None',$,$,$);
#284=ORGANIZATION('','None','None');
#285=PERSON_AND_ORGANIZATION(#283,#284);
#286=APPROVAL_ROLE('None');
#287=APPROVAL_PERSON_ORGANIZATION(#285,#282,#286);
#288=CALENDAR_DATE(2011,21,3);
#289=COORDINATED_UNIVERSAL_TIME_OFFSET(0,0,.AHEAD.);
#290=LOCAL_TIME(16,17,24.0,#289);
#291=DATE_AND_TIME(#288,#290);
#292=APPROVAL_DATE_TIME(#291,#282);
#293=CC_DESIGN_APPROVAL(#282,(#269));
#294=PRODUCT_DEFINITION_SHAPE('None','None',#269);
#295=SHAPE_DEFINITION_REPRESENTATION(#294,#202);
#296=DIMENSIONAL_EXPONENTS(0.0,0.0,0.0,0.0,0.0,0.0,0.0);
#297=DIMENSIONAL_EXPONENTS(1.0,0.0,0.0,0.0,0.0,0.0,0.0);
ENDSEC;
END-ISO-10303-21;
