ISO-10303-21;
HEADER;
/****************************************************************
 * Generated by software with PDE/Lib inside                    *
 * PDElib Version v4.4, created Mon 02/23/2004                  *
 * International Technegroup Inc. (www.iti-oh.com)              *
 ****************************************************************/
FILE_DESCRIPTION(('STEP AP203'),'2;1');
FILE_NAME('26.022.00.stp','2011-03-21T16:18:14',(''),(''),'2009.3.110','THINKDESIGN','');
FILE_SCHEMA(('CONFIG_CONTROL_DESIGN'));
ENDSEC;
DATA;
#2=CARTESIAN_POINT('',(0.000000955008075,6.999998446000063,0.000011410006200));
#3=DIRECTION('',(0.0,-1.0,6.123234E-017));
#4=DIRECTION('',(1.0,0.0,0.0));
#5=AXIS2_PLACEMENT_3D('',#2,#3,#4);
#6=CYLINDRICAL_SURFACE('',#5,6.999998446010341);
#7=CARTESIAN_POINT('',(-6.999997490998146,6.999998446000063,0.000003814998640));
#8=VERTEX_POINT('',#7);
#9=CARTESIAN_POINT('',(6.999999401001860,6.999998446000063,-0.000003814999682));
#10=VERTEX_POINT('',#9);
#11=CARTESIAN_POINT('',(0.000000955008075,6.999998446000063,0.000011410006200));
#12=DIRECTION('',(0.0,-1.0,6.123234E-017));
#13=DIRECTION('',(1.0,0.0,0.0));
#14=AXIS2_PLACEMENT_3D('',#11,#12,#13);
#15=CIRCLE('',#14,6.999998446010341);
#16=EDGE_CURVE('',#8,#10,#15,.T.);
#17=ORIENTED_EDGE('',*,*,#16,.T.);
#18=CARTESIAN_POINT('',(6.999999401001860,-15.000001553999937,-0.000003814999682));
#19=VERTEX_POINT('',#18);
#20=CARTESIAN_POINT('',(6.999999401001860,6.999998446000063,-0.000003814999682));
#21=DIRECTION('',(0.0,-1.0,0.0));
#22=VECTOR('',#21,22.0);
#23=LINE('',#20,#22);
#24=EDGE_CURVE('',#10,#19,#23,.T.);
#25=ORIENTED_EDGE('',*,*,#24,.T.);
#26=CARTESIAN_POINT('',(-6.999997490998146,-15.000001553999937,0.000003814998640));
#27=VERTEX_POINT('',#26);
#28=CARTESIAN_POINT('',(0.000000955008075,-15.000001553999937,0.000011410006200));
#29=DIRECTION('',(0.0,-1.0,6.123234E-017));
#30=DIRECTION('',(1.0,0.0,0.0));
#31=AXIS2_PLACEMENT_3D('',#28,#29,#30);
#32=CIRCLE('',#31,6.999998446010341);
#33=EDGE_CURVE('',#27,#19,#32,.T.);
#34=ORIENTED_EDGE('',*,*,#33,.F.);
#35=CARTESIAN_POINT('',(-6.999997490998146,6.999998446000063,0.000003814998640));
#36=DIRECTION('',(0.0,-1.0,0.0));
#37=VECTOR('',#36,22.0);
#38=LINE('',#35,#37);
#39=EDGE_CURVE('',#8,#27,#38,.T.);
#40=ORIENTED_EDGE('',*,*,#39,.F.);
#41=EDGE_LOOP('',(#17,#25,#34,#40));
#42=FACE_OUTER_BOUND('',#41,.T.);
#43=CARTESIAN_POINT('',(-3.300003364456766,0.0,-6.173314252524539));
#44=VERTEX_POINT('',#43);
#45=CARTESIAN_POINT('',(3.299992852333285,-0.000020889490975,-6.173319727199589));
#46=VERTEX_POINT('',#45);
#47=CARTESIAN_POINT('',(-3.300003364456767,0.0,-6.173314252524538));
#48=CARTESIAN_POINT('',(-3.300003364456767,-0.216592287537082,-6.173314252524538));
#49=CARTESIAN_POINT('',(-3.253570001160712,-0.684654513216174,-6.198432082927015));
#50=CARTESIAN_POINT('',(-3.038407654959035,-1.353613326221307,-6.309011421462197));
#51=CARTESIAN_POINT('',(-2.681524053115545,-1.963923112969724,-6.471027704297446));
#52=CARTESIAN_POINT('',(-2.138626438944582,-2.562897121306833,-6.676672728039712));
#53=CARTESIAN_POINT('',(-1.366635591082300,-3.063597930802757,-6.888619192103640));
#54=CARTESIAN_POINT('',(-0.478608482021251,-3.301211996315487,-7.000583489241347));
#55=CARTESIAN_POINT('',(0.321421266252973,-3.307981518365068,-7.003731042625636));
#56=CARTESIAN_POINT('',(1.041146720527176,-3.163393036934508,-6.935721788578824));
#57=CARTESIAN_POINT('',(1.682582575151504,-2.867134064475636,-6.803843863030280));
#58=CARTESIAN_POINT('',(2.263291411441778,-2.433535280280353,-6.631354257933576));
#59=CARTESIAN_POINT('',(2.679408314933848,-1.963797782228880,-6.471102793983822));
#60=CARTESIAN_POINT('',(3.074221040633775,-1.285098186845858,-6.292858814741878));
#61=CARTESIAN_POINT('',(3.268011320131505,-0.637386430379658,-6.190397753453220));
#62=CARTESIAN_POINT('',(3.299987240869187,-0.142129667646134,-6.173322918863830));
#63=CARTESIAN_POINT('',(3.299992852333285,-0.000020889490975,-6.173319727199589));
#64=B_SPLINE_CURVE_WITH_KNOTS('',3,(#47,#48,#49,#50,#51,#52,#53,#54,#55,#56,#57,#58,#59,#60,#61,#62,#63),.UNSPECIFIED.,.F.,.U.,(4,1,1,1,1,1,1,1,1,1,1,1,1,1,4),(0.0,0.651094446390009,1.402267899264770,2.119441001419518,2.814718008005210,3.892921611442397,4.916324967857486,5.554774339244308,6.278809135607546,7.112399148425639,7.693260843069978,8.505932766317709,9.042314635357180,10.101491428501644,10.527734594299886),.UNSPECIFIED.);
#65=EDGE_CURVE('',#44,#46,#64,.T.);
#66=ORIENTED_EDGE('',*,*,#65,.T.);
#67=CARTESIAN_POINT('',(3.299992852333285,-0.000020889490975,-6.173319727199589));
#68=CARTESIAN_POINT('',(3.299994695736959,0.046662799289979,-6.173318678716433));
#69=CARTESIAN_POINT('',(3.295215840773426,0.272522576113141,-6.175870129219019));
#70=CARTESIAN_POINT('',(3.243911903063554,0.683772560741204,-6.203357878924277));
#71=CARTESIAN_POINT('',(3.059784871582622,1.300149212919109,-6.297806809865221));
#72=CARTESIAN_POINT('',(2.709602884174238,1.940990930712360,-6.461121946065397));
#73=CARTESIAN_POINT('',(2.208799636140926,2.484790815747715,-6.650341600900499));
#74=CARTESIAN_POINT('',(1.553513318095340,2.949222237708682,-6.838111675993170));
#75=CARTESIAN_POINT('',(0.723628266827463,3.275119530491111,-6.987699098873556));
#76=CARTESIAN_POINT('',(-0.175528433830671,3.329947100106892,-7.014111747605420));
#77=CARTESIAN_POINT('',(-0.962879635065766,3.180911178429824,-6.944043435715090));
#78=CARTESIAN_POINT('',(-1.656636344469283,2.893442479632199,-6.814733912651117));
#79=CARTESIAN_POINT('',(-2.257516735172318,2.445039672208736,-6.633870000951496));
#80=CARTESIAN_POINT('',(-2.815772811084056,1.791648917962903,-6.416649661340756));
#81=CARTESIAN_POINT('',(-3.153275891358001,1.095033506260620,-6.251078085550209));
#82=CARTESIAN_POINT('',(-3.284160287048595,0.422340401687507,-6.181800436693315));
#83=CARTESIAN_POINT('',(-3.300003364456767,0.112304639146146,-6.173314252524538));
#84=CARTESIAN_POINT('',(-3.300003364456767,0.0,-6.173314252524538));
#85=B_SPLINE_CURVE_WITH_KNOTS('',3,(#67,#68,#69,#70,#71,#72,#73,#74,#75,#76,#77,#78,#79,#80,#81,#82,#83,#84),.UNSPECIFIED.,.F.,.U.,(4,1,1,1,1,1,1,1,1,1,1,1,1,1,1,4),(10.527734594299886,10.667758339176558,11.205190802664079,11.768643395944075,12.610024459917462,13.432569248399009,14.042363182200283,15.075063922416453,16.108852976160737,16.705722975605507,17.476218501787852,18.378407614823661,18.999549015439069,20.125712919640915,20.718379559958585,21.055469188599773),.UNSPECIFIED.);
#86=EDGE_CURVE('',#46,#44,#85,.T.);
#87=ORIENTED_EDGE('',*,*,#86,.T.);
#88=EDGE_LOOP('',(#66,#87));
#89=FACE_BOUND('',#88,.T.);
#90=ADVANCED_FACE('',(#42,#89),#6,.T.);
#91=CARTESIAN_POINT('',(6.999999401001860,6.999998446000063,-0.000003814999682));
#92=DIRECTION('',(0.000000545000001,6.123234E-017,0.999999999999852));
#93=DIRECTION('',(-0.999999999999852,3.337163E-023,0.000000545000001));
#94=AXIS2_PLACEMENT_3D('',#91,#92,#93);
#95=PLANE('',#94);
#96=ORIENTED_EDGE('',*,*,#39,.T.);
#97=CARTESIAN_POINT('',(6.999999401001860,-15.000001553999937,-0.000003814999682));
#98=DIRECTION('',(-0.999999999999852,0.0,0.000000545000001));
#99=VECTOR('',#98,13.999996892002077);
#100=LINE('',#97,#99);
#101=EDGE_CURVE('',#19,#27,#100,.T.);
#102=ORIENTED_EDGE('',*,*,#101,.F.);
#103=ORIENTED_EDGE('',*,*,#24,.F.);
#104=CARTESIAN_POINT('',(6.999999401001860,6.999998446000063,-0.000003814999682));
#105=DIRECTION('',(-0.999999999999852,0.0,0.000000545000001));
#106=VECTOR('',#105,13.999996892002077);
#107=LINE('',#104,#106);
#108=EDGE_CURVE('',#10,#8,#107,.T.);
#109=ORIENTED_EDGE('',*,*,#108,.T.);
#110=EDGE_LOOP('',(#96,#102,#103,#109));
#111=FACE_OUTER_BOUND('',#110,.T.);
#112=CARTESIAN_POINT('',(3.299999999999510,-1.101264E-022,-0.000001798500004));
#113=VERTEX_POINT('',#112);
#114=CARTESIAN_POINT('',(-3.299999999999510,0.0,0.000001798500004));
#115=VERTEX_POINT('',#114);
#116=CARTESIAN_POINT('',(0.0,0.0,0.0));
#117=DIRECTION('',(0.000000545000001,6.123234E-017,0.999999999999852));
#118=DIRECTION('',(-0.999999999999852,3.337163E-023,0.000000545000001));
#119=AXIS2_PLACEMENT_3D('',#116,#117,#118);
#120=CIRCLE('',#119,3.300000000000000);
#121=EDGE_CURVE('',#113,#115,#120,.T.);
#122=ORIENTED_EDGE('',*,*,#121,.F.);
#123=CARTESIAN_POINT('',(0.0,0.0,0.0));
#124=DIRECTION('',(0.000000545000001,6.123234E-017,0.999999999999852));
#125=DIRECTION('',(-0.999999999999852,3.337163E-023,0.000000545000001));
#126=AXIS2_PLACEMENT_3D('',#123,#124,#125);
#127=CIRCLE('',#126,3.300000000000000);
#128=EDGE_CURVE('',#115,#113,#127,.T.);
#129=ORIENTED_EDGE('',*,*,#128,.F.);
#130=EDGE_LOOP('',(#122,#129));
#131=FACE_BOUND('',#130,.T.);
#132=ADVANCED_FACE('',(#111,#131),#95,.T.);
#133=CARTESIAN_POINT('',(-8.400117182650140,6.999998446000063,-7.700106123539294));
#134=DIRECTION('',(0.0,-1.0,0.0));
#135=DIRECTION('',(1.0,0.0,0.0));
#136=AXIS2_PLACEMENT_3D('',#133,#134,#135);
#137=PLANE('',#136);
#138=ORIENTED_EDGE('',*,*,#108,.F.);
#139=ORIENTED_EDGE('',*,*,#16,.F.);
#140=EDGE_LOOP('',(#138,#139));
#141=FACE_OUTER_BOUND('',#140,.T.);
#142=ADVANCED_FACE('',(#141),#137,.F.);
#143=CARTESIAN_POINT('',(-8.400117182650140,-15.000001553999937,-7.700106123539294));
#144=DIRECTION('',(0.0,-1.0,0.0));
#145=DIRECTION('',(1.0,0.0,0.0));
#146=AXIS2_PLACEMENT_3D('',#143,#144,#145);
#147=PLANE('',#146);
#148=ORIENTED_EDGE('',*,*,#33,.T.);
#149=ORIENTED_EDGE('',*,*,#101,.T.);
#150=EDGE_LOOP('',(#148,#149));
#151=FACE_OUTER_BOUND('',#150,.T.);
#152=ADVANCED_FACE('',(#151),#147,.T.);
#153=CARTESIAN_POINT('',(0.0,0.0,0.0));
#154=DIRECTION('',(0.000000545000001,6.123234E-017,0.999999999999852));
#155=DIRECTION('',(-0.999999999999852,3.337163E-023,0.000000545000001));
#156=AXIS2_PLACEMENT_3D('',#153,#154,#155);
#157=CYLINDRICAL_SURFACE('',#156,3.300000000000000);
#158=CARTESIAN_POINT('',(-3.299999999999510,0.0,0.000001798500004));
#159=DIRECTION('',(-0.000000545000001,0.0,-0.999999999999852));
#160=VECTOR('',#159,6.173316051025458);
#161=LINE('',#158,#160);
#162=EDGE_CURVE('',#115,#44,#161,.T.);
#163=ORIENTED_EDGE('',*,*,#162,.T.);
#164=ORIENTED_EDGE('',*,*,#86,.F.);
#165=ORIENTED_EDGE('',*,*,#65,.F.);
#166=ORIENTED_EDGE('',*,*,#162,.F.);
#167=ORIENTED_EDGE('',*,*,#128,.T.);
#168=ORIENTED_EDGE('',*,*,#121,.T.);
#169=EDGE_LOOP('',(#163,#164,#165,#166,#167,#168));
#170=FACE_OUTER_BOUND('',#169,.T.);
#171=ADVANCED_FACE('',(#170),#157,.F.);
#172=CLOSED_SHELL('',(#90,#132,#142,#152,#171));
#173=MANIFOLD_SOLID_BREP('',#172);
#179=(NAMED_UNIT(*)PLANE_ANGLE_UNIT()SI_UNIT($,.RADIAN.));
#180=DIMENSIONAL_EXPONENTS(0.0,0.0,0.0,0.0,0.0,0.0,0.0);
#181=PLANE_ANGLE_MEASURE_WITH_UNIT(PLANE_ANGLE_MEASURE(0.017453292500000),#179);
#185=(CONVERSION_BASED_UNIT('DEGREE',#181)NAMED_UNIT(#180)PLANE_ANGLE_UNIT());
#189=(NAMED_UNIT(*)SI_UNIT($,.STERADIAN.)SOLID_ANGLE_UNIT());
#193=(LENGTH_UNIT()NAMED_UNIT(*)SI_UNIT(.MILLI.,.METRE.));
#195=UNCERTAINTY_MEASURE_WITH_UNIT(LENGTH_MEASURE(0.001000000000000),#193,'DISTANCE_ACCURACY_VALUE','');
#197=(GEOMETRIC_REPRESENTATION_CONTEXT(3)GLOBAL_UNCERTAINTY_ASSIGNED_CONTEXT((#195))GLOBAL_UNIT_ASSIGNED_CONTEXT((#185,#189,#193))REPRESENTATION_CONTEXT('thinkdesign','2009.3.110'));
#198=ADVANCED_BREP_SHAPE_REPRESENTATION('',(#173),#197);
#199=APPLICATION_CONTEXT('configuration controlled 3D designs of mechanical parts and assemblies');
#200=APPLICATION_PROTOCOL_DEFINITION('International Standard','config_control_design',1995,#199);
#201=MECHANICAL_CONTEXT('None',#199,'mechanical');
#202=PRODUCT('None','None','None',(#201));
#203=PRODUCT_RELATED_PRODUCT_CATEGORY('detail',$,(#202));
#204=PRODUCT_CATEGORY('part',$);
#205=PRODUCT_CATEGORY_RELATIONSHIP('None','None',#204,#203);
#206=PERSON('PERSON1','None','None',$,$,$);
#207=ORGANIZATION('','None','None');
#208=PERSON_AND_ORGANIZATION(#206,#207);
#209=PERSON_AND_ORGANIZATION_ROLE('design_owner');
#210=CC_DESIGN_PERSON_AND_ORGANIZATION_ASSIGNMENT(#208,#209,(#202));
#211=PRODUCT_DEFINITION_FORMATION_WITH_SPECIFIED_SOURCE('None','None',#202,.NOT_KNOWN.);
#212=PERSON('PERSON2','None','None',$,$,$);
#213=ORGANIZATION('','None','None');
#214=PERSON_AND_ORGANIZATION(#212,#213);
#215=PERSON_AND_ORGANIZATION_ROLE('creator');
#216=CC_DESIGN_PERSON_AND_ORGANIZATION_ASSIGNMENT(#214,#215,(#211));
#217=PERSON('PERSON3','None','None',$,$,$);
#218=ORGANIZATION('','None','None');
#219=PERSON_AND_ORGANIZATION(#217,#218);
#220=PERSON_AND_ORGANIZATION_ROLE('part_supplier');
#221=CC_DESIGN_PERSON_AND_ORGANIZATION_ASSIGNMENT(#219,#220,(#211));
#222=APPROVAL_STATUS('approved');
#223=APPROVAL(#222,'None');
#224=PERSON('PERSON4','None','None',$,$,$);
#225=ORGANIZATION('','None','None');
#226=PERSON_AND_ORGANIZATION(#224,#225);
#227=APPROVAL_ROLE('None');
#228=APPROVAL_PERSON_ORGANIZATION(#226,#223,#227);
#229=CALENDAR_DATE(2011,21,3);
#230=COORDINATED_UNIVERSAL_TIME_OFFSET(0,0,.AHEAD.);
#231=LOCAL_TIME(16,18,14.0,#230);
#232=DATE_AND_TIME(#229,#231);
#233=APPROVAL_DATE_TIME(#232,#223);
#234=CC_DESIGN_APPROVAL(#223,(#211));
#235=SECURITY_CLASSIFICATION_LEVEL('unclassified');
#236=SECURITY_CLASSIFICATION('None','None',#235);
#237=CC_DESIGN_SECURITY_CLASSIFICATION(#236,(#211));
#238=APPROVAL_STATUS('approved');
#239=APPROVAL(#238,'None');
#240=PERSON('PERSON5','None','None',$,$,$);
#241=ORGANIZATION('','None','None');
#242=PERSON_AND_ORGANIZATION(#240,#241);
#243=APPROVAL_ROLE('None');
#244=APPROVAL_PERSON_ORGANIZATION(#242,#239,#243);
#245=CALENDAR_DATE(2011,21,3);
#246=COORDINATED_UNIVERSAL_TIME_OFFSET(0,0,.AHEAD.);
#247=LOCAL_TIME(16,18,14.0,#246);
#248=DATE_AND_TIME(#245,#247);
#249=APPROVAL_DATE_TIME(#248,#239);
#250=CC_DESIGN_APPROVAL(#239,(#236));
#251=PERSON('PERSON6','None','None',$,$,$);
#252=ORGANIZATION('','None','None');
#253=PERSON_AND_ORGANIZATION(#251,#252);
#254=PERSON_AND_ORGANIZATION_ROLE('classification_officer');
#255=CC_DESIGN_PERSON_AND_ORGANIZATION_ASSIGNMENT(#253,#254,(#236));
#256=DATE_TIME_ROLE('classification_date');
#257=CALENDAR_DATE(2011,21,3);
#258=COORDINATED_UNIVERSAL_TIME_OFFSET(0,0,.AHEAD.);
#259=LOCAL_TIME(16,18,14.0,#258);
#260=DATE_AND_TIME(#257,#259);
#261=CC_DESIGN_DATE_AND_TIME_ASSIGNMENT(#260,#256,(#236));
#262=DESIGN_CONTEXT('part definition',#199,'design');
#263=DOCUMENT_TYPE('cad_filename');
#264=DOCUMENT('None','None','None',#263);
#265=PRODUCT_DEFINITION_WITH_ASSOCIATED_DOCUMENTS('None','None',#211,#262,(#264));
#266=PERSON('PERSON7','None','None',$,$,$);
#267=ORGANIZATION('','None','None');
#268=PERSON_AND_ORGANIZATION(#266,#267);
#269=PERSON_AND_ORGANIZATION_ROLE('creator');
#270=CC_DESIGN_PERSON_AND_ORGANIZATION_ASSIGNMENT(#268,#269,(#265));
#271=DATE_TIME_ROLE('creation_date');
#272=CALENDAR_DATE(2011,21,3);
#273=COORDINATED_UNIVERSAL_TIME_OFFSET(0,0,.AHEAD.);
#274=LOCAL_TIME(16,18,14.0,#273);
#275=DATE_AND_TIME(#272,#274);
#276=CC_DESIGN_DATE_AND_TIME_ASSIGNMENT(#275,#271,(#265));
#277=APPROVAL_STATUS('approved');
#278=APPROVAL(#277,'None');
#279=PERSON('PERSON8','None','None',$,$,$);
#280=ORGANIZATION('','None','None');
#281=PERSON_AND_ORGANIZATION(#279,#280);
#282=APPROVAL_ROLE('None');
#283=APPROVAL_PERSON_ORGANIZATION(#281,#278,#282);
#284=CALENDAR_DATE(2011,21,3);
#285=COORDINATED_UNIVERSAL_TIME_OFFSET(0,0,.AHEAD.);
#286=LOCAL_TIME(16,18,14.0,#285);
#287=DATE_AND_TIME(#284,#286);
#288=APPROVAL_DATE_TIME(#287,#278);
#289=CC_DESIGN_APPROVAL(#278,(#265));
#290=PRODUCT_DEFINITION_SHAPE('None','None',#265);
#291=SHAPE_DEFINITION_REPRESENTATION(#290,#198);
#292=DIMENSIONAL_EXPONENTS(0.0,0.0,0.0,0.0,0.0,0.0,0.0);
#293=DIMENSIONAL_EXPONENTS(1.0,0.0,0.0,0.0,0.0,0.0,0.0);
ENDSEC;
END-ISO-10303-21;
