  0
SECTION
  2
HEADER
  9
$ACADVER
  1
AC1015
  9
$ACADMAINTVER
 70
    20
  9
$DWGCODEPAGE
  3
ANSI_1252
  9
$INSBASE
 10
0.0
 20
0.0
 30
0.0
  9
$EXTMIN
 10
94.16931212200939
 20
141.430298707716
 30
-0.0015258207003583
  9
$EXTMAX
 10
112.1777347500642
 20
239.86230531249
 30
0.0000000349246037
  9
$LIMMIN
 10
0.0
 20
0.0
  9
$LIMMAX
 10
210.0
 20
297.0
  9
$ORTHOMODE
 70
     0
  9
$REGENMODE
 70
     1
  9
$FILLMODE
 70
     1
  9
$QTEXTMODE
 70
     0
  9
$MIRRTEXT
 70
     0
  9
$LTSCALE
 40
1.0
  9
$ATTMODE
 70
     1
  9
$TEXTSIZE
 40
3.0
  9
$TRACEWID
 40
0.05
  9
$TEXTSTYLE
  7
ROMANS
  9
$CLAYER
  8
P-0004
  9
$CELTYPE
  6
CONTINUOUS
  9
$CECOLOR
 62
     7
  9
$CELTSCALE
 40
1.0
  9
$DISPSILH
 70
     0
  9
$DIMSCALE
 40
1.0
  9
$DIMASZ
 40
2.0
  9
$DIMEXO
 40
1.0
  9
$DIMDLI
 40
10.0
  9
$DIMRND
 40
0.0
  9
$DIMDLE
 40
0.0
  9
$DIMEXE
 40
1.5
  9
$DIMTP
 40
0.0
  9
$DIMTM
 40
0.0
  9
$DIMTXT
 40
2.0
  9
$DIMCEN
 40
2.0
  9
$DIMTSZ
 40
0.0
  9
$DIMTOL
 70
     0
  9
$DIMLIM
 70
     0
  9
$DIMTIH
 70
     0
  9
$DIMTOH
 70
     0
  9
$DIMSE1
 70
     0
  9
$DIMSE2
 70
     0
  9
$DIMTAD
 70
     1
  9
$DIMZIN
 70
     8
  9
$DIMBLK
  1

  9
$DIMASO
 70
     1
  9
$DIMSHO
 70
     1
  9
$DIMPOST
  1

  9
$DIMAPOST
  1

  9
$DIMALT
 70
     0
  9
$DIMALTD
 70
     2
  9
$DIMALTF
 40
25.4
  9
$DIMLFAC
 40
1.0
  9
$DIMTOFL
 70
     1
  9
$DIMTVP
 40
0.0
  9
$DIMTIX
 70
     0
  9
$DIMSOXD
 70
     0
  9
$DIMSAH
 70
     0
  9
$DIMBLK1
  1

  9
$DIMBLK2
  1

  9
$DIMSTYLE
  2
ACADTOP
  9
$DIMCLRD
 70
     2
  9
$DIMCLRE
 70
     2
  9
$DIMCLRT
 70
     1
  9
$DIMTFAC
 40
0.6
  9
$DIMGAP
 40
1.0
  9
$DIMJUST
 70
     0
  9
$DIMSD1
 70
     0
  9
$DIMSD2
 70
     0
  9
$DIMTOLJ
 70
     1
  9
$DIMTZIN
 70
     8
  9
$DIMALTZ
 70
     0
  9
$DIMALTTZ
 70
     0
  9
$DIMUPT
 70
     0
  9
$DIMDEC
 70
     2
  9
$DIMTDEC
 70
     2
  9
$DIMALTU
 70
     2
  9
$DIMALTTD
 70
     2
  9
$DIMTXSTY
  7
Stile_Quota
  9
$DIMAUNIT
 70
     0
  9
$DIMADEC
 70
     1
  9
$DIMALTRND
 40
0.0
  9
$DIMAZIN
 70
     2
  9
$DIMDSEP
 70
    46
  9
$DIMATFIT
 70
     0
  9
$DIMFRAC
 70
     0
  9
$DIMLDRBLK
  1

  9
$DIMLUNIT
 70
     2
  9
$DIMLWD
 70
    -2
  9
$DIMLWE
 70
    -2
  9
$DIMTMOVE
 70
     0
  9
$LUNITS
 70
     2
  9
$LUPREC
 70
     3
  9
$SKETCHINC
 40
0.1
  9
$FILLETRAD
 40
0.5
  9
$AUNITS
 70
     0
  9
$AUPREC
 70
     3
  9
$MENU
  1
.
  9
$ELEVATION
 40
0.0
  9
$PELEVATION
 40
0.0
  9
$THICKNESS
 40
0.0
  9
$LIMCHECK
 70
     0
  9
$CHAMFERA
 40
0.5
  9
$CHAMFERB
 40
0.5
  9
$CHAMFERC
 40
1.0
  9
$CHAMFERD
 40
0.0
  9
$SKPOLY
 70
     1
  9
$TDCREATE
 40
2451886.511842130
  9
$TDUCREATE
 40
2451886.428508796
  9
$TDUPDATE
 40
2455699.646959641
  9
$TDUUPDATE
 40
2455699.563626308
  9
$TDINDWG
 40
0.3054955324
  9
$TDUSRTIMER
 40
0.3054955324
  9
$USRTIMER
 70
     1
  9
$ANGBASE
 50
0.0
  9
$ANGDIR
 70
     0
  9
$PDMODE
 70
     0
  9
$PDSIZE
 40
0.0
  9
$PLINEWID
 40
0.0
  9
$SPLFRAME
 70
     0
  9
$SPLINETYPE
 70
     6
  9
$SPLINESEGS
 70
     8
  9
$HANDSEED
  5
B3B
  9
$SURFTAB1
 70
     6
  9
$SURFTAB2
 70
     6
  9
$SURFTYPE
 70
     6
  9
$SURFU
 70
     6
  9
$SURFV
 70
     6
  9
$UCSBASE
  2

  9
$UCSNAME
  2

  9
$UCSORG
 10
0.0
 20
0.0
 30
0.0
  9
$UCSXDIR
 10
1.0
 20
0.0
 30
0.0
  9
$UCSYDIR
 10
0.0
 20
1.0
 30
0.0
  9
$UCSORTHOREF
  2

  9
$UCSORTHOVIEW
 70
     0
  9
$UCSORGTOP
 10
0.0
 20
0.0
 30
0.0
  9
$UCSORGBOTTOM
 10
0.0
 20
0.0
 30
0.0
  9
$UCSORGLEFT
 10
0.0
 20
0.0
 30
0.0
  9
$UCSORGRIGHT
 10
0.0
 20
0.0
 30
0.0
  9
$UCSORGFRONT
 10
0.0
 20
0.0
 30
0.0
  9
$UCSORGBACK
 10
0.0
 20
0.0
 30
0.0
  9
$PUCSBASE
  2

  9
$PUCSNAME
  2

  9
$PUCSORG
 10
0.0
 20
0.0
 30
0.0
  9
$PUCSXDIR
 10
1.0
 20
0.0
 30
0.0
  9
$PUCSYDIR
 10
0.0
 20
1.0
 30
0.0
  9
$PUCSORTHOREF
  2

  9
$PUCSORTHOVIEW
 70
     0
  9
$PUCSORGTOP
 10
0.0
 20
0.0
 30
0.0
  9
$PUCSORGBOTTOM
 10
0.0
 20
0.0
 30
0.0
  9
$PUCSORGLEFT
 10
0.0
 20
0.0
 30
0.0
  9
$PUCSORGRIGHT
 10
0.0
 20
0.0
 30
0.0
  9
$PUCSORGFRONT
 10
0.0
 20
0.0
 30
0.0
  9
$PUCSORGBACK
 10
0.0
 20
0.0
 30
0.0
  9
$USERI1
 70
     0
  9
$USERI2
 70
     0
  9
$USERI3
 70
     0
  9
$USERI4
 70
     0
  9
$USERI5
 70
     0
  9
$USERR1
 40
0.0
  9
$USERR2
 40
0.0
  9
$USERR3
 40
0.0
  9
$USERR4
 40
0.0
  9
$USERR5
 40
0.0
  9
$WORLDVIEW
 70
     1
  9
$SHADEDGE
 70
     3
  9
$SHADEDIF
 70
    70
  9
$TILEMODE
 70
     1
  9
$MAXACTVP
 70
    48
  9
$PINSBASE
 10
0.0
 20
0.0
 30
0.0
  9
$PLIMCHECK
 70
     0
  9
$PEXTMIN
 10
0.0
 20
0.0
 30
0.0
  9
$PEXTMAX
 10
210.0
 20
297.0
 30
0.0
  9
$PLIMMIN
 10
0.0
 20
0.0
  9
$PLIMMAX
 10
210.0
 20
297.0
  9
$UNITMODE
 70
     0
  9
$VISRETAIN
 70
     1
  9
$PLINEGEN
 70
     0
  9
$PSLTSCALE
 70
     1
  9
$TREEDEPTH
 70
  3020
  9
$CMLSTYLE
  2
STANDARD
  9
$CMLJUST
 70
     0
  9
$CMLSCALE
 40
1.0
  9
$PROXYGRAPHICS
 70
     1
  9
$MEASUREMENT
 70
     1
  9
$CELWEIGHT
370
    -1
  9
$ENDCAPS
280
     0
  9
$JOINSTYLE
280
     0
  9
$LWDISPLAY
290
     0
  9
$INSUNITS
 70
     4
  9
$HYPERLINKBASE
  1

  9
$STYLESHEET
  1

  9
$XEDIT
290
     1
  9
$CEPSNTYPE
380
     0
  9
$PSTYLEMODE
290
     1
  9
$FINGERPRINTGUID
  2
{2BC13366-CC32-11D4-9A33-0050DA45A434}
  9
$VERSIONGUID
  2
{39F1B971-5524-4756-85A6-7095EEAB71B3}
  9
$EXTNAMES
290
     1
  9
$PSVPSCALE
 40
0.0
  9
$OLESTARTUP
290
     0
  0
ENDSEC
  0
SECTION
  2
CLASSES
  0
CLASS
  1
DICTIONARYVAR
  2
AcDbDictionaryVar
  3
ObjectDBX Classes
 90
        0
280
     0
281
     0
  0
CLASS
  1
ACDBDICTIONARYWDFLT
  2
AcDbDictionaryWithDefault
  3
ObjectDBX Classes
 90
        0
280
     0
281
     0
  0
CLASS
  1
ACDBPLACEHOLDER
  2
AcDbPlaceHolder
  3
ObjectDBX Classes
 90
        0
280
     0
281
     0
  0
CLASS
  1
LAYOUT
  2
AcDbLayout
  3
ObjectDBX Classes
 90
        0
280
     0
281
     0
  0
CLASS
  1
PLOTSETTINGS
  2
AcDbPlotSettings
  3
ObjectDBX Classes
 90
        0
280
     0
281
     0
  0
CLASS
  1
MATERIAL
  2
AcDbMaterial
  3
ObjectDBX Classes
 90
     1153
280
     0
281
     0
  0
CLASS
  1
VISUALSTYLE
  2
AcDbVisualStyle
  3
ObjectDBX Classes
 90
     4095
280
     0
281
     0
  0
CLASS
  1
TABLESTYLE
  2
AcDbTableStyle
  3
ObjectDBX Classes
 90
     4095
280
     0
281
     0
  0
CLASS
  1
SCALE
  2
AcDbScale
  3
ObjectDBX Classes
 90
     1153
280
     0
281
     0
  0
CLASS
  1
MLEADERSTYLE
  2
AcDbMLeaderStyle
  3
ACDB_MLEADERSTYLE_CLASS
 90
     4095
280
     0
281
     0
  0
CLASS
  1
CELLSTYLEMAP
  2
AcDbCellStyleMap
  3
ObjectDBX Classes
 90
     1152
280
     0
281
     0
  0
CLASS
  1
DIMASSOC
  2
AcDbDimAssoc
  3
"AcDbDimAssoc|Product Desc:     AcDim ARX App For Dimension|Company:          Autodesk, Inc.|WEB Address:      www.autodesk.com"
 90
    32768
280
     0
281
     0
  0
CLASS
  1
ACDBQSCATEGORY
  2
AcQsCategory
  3
categories
 90
     1024
280
     0
281
     0
  0
CLASS
  1
ACDBQSPALLSTYLE
  2
AcQsPallStyle
  3
pallcart
 90
     1024
280
     0
281
     0
  0
ENDSEC
  0
SECTION
  2
TABLES
  0
TABLE
  2
VPORT
  5
12
102
{ACAD_XDICTIONARY
360
300
102
}
330
0
100
AcDbSymbolTable
 70
     1
  0
VPORT
  5
2AE
330
12
100
AcDbSymbolTableRecord
100
AcDbViewportTableRecord
  2
*Active
 70
     0
 10
0.0
 20
0.0
 11
1.0
 21
1.0
 12
125.1636068632787
 22
204.4795612885893
 13
0.0
 23
0.0
 14
1.0
 24
1.0
 15
1.0
 25
1.0
 16
0.0
 26
0.0
 36
1.0
 17
0.0
 27
0.0
 37
0.0
 40
158.5486641605843
 41
1.892052194543297
 42
50.0
 43
0.0
 44
0.0
 50
0.0
 51
0.0
 71
     0
 72
   100
 73
     1
 74
     0
 75
     0
 76
     0
 77
     0
 78
     0
281
     0
 65
     1
110
0.0
120
0.0
130
0.0
111
1.0
121
0.0
131
0.0
112
0.0
122
1.0
132
0.0
 79
     0
146
0.0
  0
ENDTAB
  0
TABLE
  2
LTYPE
  5
D
330
0
100
AcDbSymbolTable
 70
    63
  0
LTYPE
  5
E
330
D
100
AcDbSymbolTableRecord
100
AcDbLinetypeTableRecord
  2
BYBLOCK
 70
     0
  3

 72
    65
 73
     0
 40
0.0
  0
LTYPE
  5
F
330
D
100
AcDbSymbolTableRecord
100
AcDbLinetypeTableRecord
  2
BYLAYER
 70
     0
  3

 72
    65
 73
     0
 40
0.0
  0
LTYPE
  5
5
330
D
100
AcDbSymbolTableRecord
100
AcDbLinetypeTableRecord
  2
CONTINUOUS
 70
     0
  3
Solid line
 72
    65
 73
     0
 40
0.0
  0
LTYPE
  5
3E
330
D
100
AcDbSymbolTableRecord
100
AcDbLinetypeTableRecord
  2
ASSI
 70
     0
  3
-.-.-.-.-.-.-.-.-.-.-.-.-.-.-.-.-.-.-.-.-.-.-.-
 72
    65
 73
     4
 40
16.0
 49
10.0
 74
     0
 49
-2.0
 74
     0
 49
2.0
 74
     0
 49
-2.0
 74
     0
  0
LTYPE
  5
3F
330
D
100
AcDbSymbolTableRecord
100
AcDbLinetypeTableRecord
  2
INGOMBRI
 70
     0
  3
--..--..--..--..--..--..--..--..--..--..--..--
 72
    65
 73
     6
 40
20.0
 49
10.0
 74
     0
 49
-2.0
 74
     0
 49
2.0
 74
     0
 49
-2.0
 74
     0
 49
2.0
 74
     0
 49
-2.0
 74
     0
  0
LTYPE
  5
40
330
D
100
AcDbSymbolTableRecord
100
AcDbLinetypeTableRecord
  2
TRATTEGGIO
 70
     0
  3
- - - - - - - - - - - - - - - - - - - - - -
 72
    65
 73
     2
 40
5.5
 49
4.0
 74
     0
 49
-1.5
 74
     0
  0
LTYPE
  5
277
330
D
100
AcDbSymbolTableRecord
100
AcDbLinetypeTableRecord
  2
PUNTO
 70
     0
  3
Punto . . . . . . . . . . . . . . . . . . . . .
 72
    65
 73
     2
 40
6.349999999999999
 49
0.0
 74
     0
 49
-6.349999999999999
 74
     0
  0
LTYPE
  5
764
330
D
100
AcDbSymbolTableRecord
100
AcDbLinetypeTableRecord
  2
Section_View_Lines
 70
     0
  3
Section View Lines
 72
    65
 73
     4
 40
0.8406
 49
0.6614
 74
     0
 49
-0.0827
 74
     0
 49
0.0138
 74
     0
 49
-0.0827
 74
     0
  0
LTYPE
  5
765
330
D
100
AcDbSymbolTableRecord
100
AcDbLinetypeTableRecord
  2
CHAIN
 70
     0
  3
Chain ____ _ ____ _ ____ _ ____ _ ____ _ ____
 72
    65
 73
     4
 40
0.3543
 49
0.2362
 74
     0
 49
-0.0295
 74
     0
 49
0.0591
 74
     0
 49
-0.0295
 74
     0
  0
LTYPE
  5
766
330
D
100
AcDbSymbolTableRecord
100
AcDbLinetypeTableRecord
  2
DASH_DOT
 70
     0
  3
Dash dot _._._._._._._._._._._._._._._.
 72
    65
 73
     4
 40
0.182
 49
0.1181
 74
     0
 49
-0.0295
 74
     0
 49
0.0049
 74
     0
 49
-0.0295
 74
     0
  0
LTYPE
  5
767
330
D
100
AcDbSymbolTableRecord
100
AcDbLinetypeTableRecord
  2
DASH_DOUBLE_DOT
 70
     0
  3
Dash Double Dot __ __ . __ __ . __ __ . __ _
 72
    65
 73
     6
 40
0.2164
 49
0.1181
 74
     0
 49
-0.0295
 74
     0
 49
0.0049
 74
     0
 49
-0.0295
 74
     0
 49
0.0049
 74
     0
 49
-0.0295
 74
     0
  0
LTYPE
  5
768
330
D
100
AcDbSymbolTableRecord
100
AcDbLinetypeTableRecord
  2
DASH_TRIPLE_DOT
 70
     0
  3
Dash Triple-Dot _ . . . _ . . . _ . . . _
 72
    65
 73
     8
 40
0.2508
 49
0.1181
 74
     0
 49
-0.0295
 74
     0
 49
0.0049
 74
     0
 49
-0.0295
 74
     0
 49
0.0049
 74
     0
 49
-0.0295
 74
     0
 49
0.0049
 74
     0
 49
-0.0295
 74
     0
  0
LTYPE
  5
769
330
D
100
AcDbSymbolTableRecord
100
AcDbLinetypeTableRecord
  2
DASHED
 70
     0
  3
Dashed __ __ __ __ __ __ __ __ __ __ __ __ __ _
 72
    65
 73
     2
 40
0.2068
 49
0.1655
 74
     0
 49
-0.0413
 74
     0
  0
LTYPE
  5
76A
330
D
100
AcDbSymbolTableRecord
100
AcDbLinetypeTableRecord
  2
DASHED_SPACE
 70
     0
  3
Dashed Space __ __ __ __ __ __ __ __ __ __ __ _
 72
    65
 73
     2
 40
0.2067
 49
0.1654
 74
     0
 49
-0.0413
 74
     0
  0
LTYPE
  5
76B
330
D
100
AcDbSymbolTableRecord
100
AcDbLinetypeTableRecord
  2
DOTTED
 70
     0
  3
Dotted . . . . . . . . . . . . . . . . . . . . 
 72
    65
 73
     2
 40
0.0481
 49
0.0068
 74
     0
 49
-0.0413
 74
     0
  0
LTYPE
  5
76C
330
D
100
AcDbSymbolTableRecord
100
AcDbLinetypeTableRecord
  2
DOUBLE_DASH_CHAIN
 70
     0
  3
Double Dash Chain ___ _ _ ___ _ _ ___ _ _ ___ _
 72
    65
 73
     6
 40
1.240299999999999
 49
0.6614
 74
     0
 49
-0.0827
 74
     0
 49
0.1654
 74
     0
 49
-0.0827
 74
     0
 49
0.1654
 74
     0
 49
-0.0827
 74
     0
  0
LTYPE
  5
76D
330
D
100
AcDbSymbolTableRecord
100
AcDbLinetypeTableRecord
  2
DOUBLE_DASH_DOT
 70
     0
  3
Double Dash Dot __ __ . __ __ . __ __ . __ _
 72
    65
 73
     6
 40
0.3296
 49
0.1181
 74
     0
 49
-0.0295
 74
     0
 49
0.1181
 74
     0
 49
-0.0295
 74
     0
 49
0.0049
 74
     0
 49
-0.0295
 74
     0
  0
LTYPE
  5
76E
330
D
100
AcDbSymbolTableRecord
100
AcDbLinetypeTableRecord
  2
DOUBLE_DASH_DOUBLE_DOT
 70
     0
  3
Double Dash Double Dot _ _ . . _ _ . . _ _
 72
    65
 73
     8
 40
0.364
 49
0.1181
 74
     0
 49
-0.0295
 74
     0
 49
0.1181
 74
     0
 49
-0.0295
 74
     0
 49
0.0049
 74
     0
 49
-0.0295
 74
     0
 49
0.0049
 74
     0
 49
-0.0295
 74
     0
  0
LTYPE
  5
76F
330
D
100
AcDbSymbolTableRecord
100
AcDbLinetypeTableRecord
  2
DOUBLE_DASH_TRIPLE_DOT
 70
     0
  3
Double Dash Triple Dot __ __ . . . __ __ . . .
 72
    65
 73
    10
 40
0.3984
 49
0.1181
 74
     0
 49
-0.0295
 74
     0
 49
0.1181
 74
     0
 49
-0.0295
 74
     0
 49
0.0049
 74
     0
 49
-0.0295
 74
     0
 49
0.0049
 74
     0
 49
-0.0295
 74
     0
 49
0.0049
 74
     0
 49
-0.0295
 74
     0
  0
LTYPE
  5
770
330
D
100
AcDbSymbolTableRecord
100
AcDbLinetypeTableRecord
  2
LONG_DASH_DOTTED
 70
     0
  3
Long Dash Dotted ____ . ____ . ____ . ____ . _
 72
    65
 73
     4
 40
0.3001
 49
0.2362
 74
     0
 49
-0.0295
 74
     0
 49
0.0049
 74
     0
 49
-0.0295
 74
     0
  0
LTYPE
  5
771
330
D
100
AcDbSymbolTableRecord
100
AcDbLinetypeTableRecord
  2
LONG_DASH_DOUBLE_DOT
 70
     0
  3
Long Dash Double Dot ____ . . ____ . . ____ . .
 72
    65
 73
     6
 40
0.3345
 49
0.2362
 74
     0
 49
-0.0295
 74
     0
 49
0.0049
 74
     0
 49
-0.0295
 74
     0
 49
0.0049
 74
     0
 49
-0.0295
 74
     0
  0
LTYPE
  5
772
330
D
100
AcDbSymbolTableRecord
100
AcDbLinetypeTableRecord
  2
LONG_DASH_TRIPLE_DOT
 70
     0
  3
Long Dash Triple Dot ____ ... ____ ... ____
 72
    65
 73
     8
 40
0.3689
 49
0.2362
 74
     0
 49
-0.0295
 74
     0
 49
0.0049
 74
     0
 49
-0.0295
 74
     0
 49
0.0049
 74
     0
 49
-0.0295
 74
     0
 49
0.0049
 74
     0
 49
-0.0295
 74
     0
  0
LTYPE
  5
773
330
D
100
AcDbSymbolTableRecord
100
AcDbLinetypeTableRecord
  2
BORDER
 70
     0
  3
Border __ __ . __ __ . __ __ . __ __ . __ __ .
 72
    65
 73
     6
 40
44.45
 49
12.7
 74
     0
 49
-6.349999999999999
 74
     0
 49
12.7
 74
     0
 49
-6.349999999999999
 74
     0
 49
0.0
 74
     0
 49
-6.349999999999999
 74
     0
  0
LTYPE
  5
774
330
D
100
AcDbSymbolTableRecord
100
AcDbLinetypeTableRecord
  2
BORDER2
 70
     0
  3
Border (.5x) __.__.__.__.__.__.__.__.__.__.__.
 72
    65
 73
     6
 40
22.225
 49
6.349999999999999
 74
     0
 49
-3.174999999999999
 74
     0
 49
6.349999999999999
 74
     0
 49
-3.174999999999999
 74
     0
 49
0.0
 74
     0
 49
-3.174999999999999
 74
     0
  0
LTYPE
  5
775
330
D
100
AcDbSymbolTableRecord
100
AcDbLinetypeTableRecord
  2
BORDERX2
 70
     0
  3
Border (2x) ____  ____  .  ____  ____  .  ___
 72
    65
 73
     6
 40
88.9
 49
25.4
 74
     0
 49
-12.7
 74
     0
 49
25.4
 74
     0
 49
-12.7
 74
     0
 49
0.0
 74
     0
 49
-12.7
 74
     0
  0
LTYPE
  5
776
330
D
100
AcDbSymbolTableRecord
100
AcDbLinetypeTableRecord
  2
CENTER
 70
     0
  3
Center ____ _ ____ _ ____ _ ____ _ ____ _ ____
 72
    65
 73
     4
 40
50.8
 49
31.75
 74
     0
 49
-6.349999999999999
 74
     0
 49
6.349999999999999
 74
     0
 49
-6.349999999999999
 74
     0
  0
LTYPE
  5
777
330
D
100
AcDbSymbolTableRecord
100
AcDbLinetypeTableRecord
  2
CENTER2
 70
     0
  3
Center (.5x) ___ _ ___ _ ___ _ ___ _ ___ _ ___
 72
    65
 73
     4
 40
28.575
 49
19.05
 74
     0
 49
-3.174999999999999
 74
     0
 49
3.174999999999999
 74
     0
 49
-3.174999999999999
 74
     0
  0
LTYPE
  5
778
330
D
100
AcDbSymbolTableRecord
100
AcDbLinetypeTableRecord
  2
CENTERX2
 70
     0
  3
Center (2x) ________  __  ________  __  _____
 72
    65
 73
     4
 40
101.6
 49
63.5
 74
     0
 49
-12.7
 74
     0
 49
12.7
 74
     0
 49
-12.7
 74
     0
  0
LTYPE
  5
779
330
D
100
AcDbSymbolTableRecord
100
AcDbLinetypeTableRecord
  2
DASHDOT2
 70
     0
  3
Dash dot (.5x) _._._._._._._._._._._._._._._.
 72
    65
 73
     4
 40
12.7
 49
6.349999999999999
 74
     0
 49
-3.174999999999999
 74
     0
 49
0.0
 74
     0
 49
-3.174999999999999
 74
     0
  0
LTYPE
  5
77A
330
D
100
AcDbSymbolTableRecord
100
AcDbLinetypeTableRecord
  2
DASHDOTX2
 70
     0
  3
Dash dot (2x) ____  .  ____  .  ____  .  ___
 72
    65
 73
     4
 40
50.8
 49
25.4
 74
     0
 49
-12.7
 74
     0
 49
0.0
 74
     0
 49
-12.7
 74
     0
  0
LTYPE
  5
77B
330
D
100
AcDbSymbolTableRecord
100
AcDbLinetypeTableRecord
  2
DASHED2
 70
     0
  3
Dashed (.5x) _ _ _ _ _ _ _ _ _ _ _ _ _ _ _ _ _
 72
    65
 73
     2
 40
9.524999999999998
 49
6.349999999999999
 74
     0
 49
-3.174999999999999
 74
     0
  0
LTYPE
  5
77C
330
D
100
AcDbSymbolTableRecord
100
AcDbLinetypeTableRecord
  2
DASHEDX2
 70
     0
  3
Dashed (2x) ____  ____  ____  ____  ____  ___
 72
    65
 73
     2
 40
38.1
 49
25.4
 74
     0
 49
-12.7
 74
     0
  0
LTYPE
  5
77D
330
D
100
AcDbSymbolTableRecord
100
AcDbLinetypeTableRecord
  2
DIVIDE
 70
     0
  3
Divide ____ . . ____ . . ____ . . ____ . . ____
 72
    65
 73
     6
 40
31.75
 49
12.7
 74
     0
 49
-6.349999999999999
 74
     0
 49
0.0
 74
     0
 49
-6.349999999999999
 74
     0
 49
0.0
 74
     0
 49
-6.349999999999999
 74
     0
  0
LTYPE
  5
77E
330
D
100
AcDbSymbolTableRecord
100
AcDbLinetypeTableRecord
  2
DIVIDE2
 70
     0
  3
Divide (.5x) __..__..__..__..__..__..__..__.._
 72
    65
 73
     6
 40
15.875
 49
6.349999999999999
 74
     0
 49
-3.174999999999999
 74
     0
 49
0.0
 74
     0
 49
-3.174999999999999
 74
     0
 49
0.0
 74
     0
 49
-3.174999999999999
 74
     0
  0
LTYPE
  5
77F
330
D
100
AcDbSymbolTableRecord
100
AcDbLinetypeTableRecord
  2
DIVIDEX2
 70
     0
  3
Divide (2x) ________  .  .  ________  .  .  _
 72
    65
 73
     6
 40
63.49999999999999
 49
25.4
 74
     0
 49
-12.7
 74
     0
 49
0.0
 74
     0
 49
-12.7
 74
     0
 49
0.0
 74
     0
 49
-12.7
 74
     0
  0
LTYPE
  5
780
330
D
100
AcDbSymbolTableRecord
100
AcDbLinetypeTableRecord
  2
DOT
 70
     0
  3
Dot . . . . . . . . . . . . . . . . . . . . . .
 72
    65
 73
     2
 40
6.349999999999999
 49
0.0
 74
     0
 49
-6.349999999999999
 74
     0
  0
LTYPE
  5
781
330
D
100
AcDbSymbolTableRecord
100
AcDbLinetypeTableRecord
  2
DOT2
 70
     0
  3
Dot (.5x) .....................................
 72
    65
 73
     2
 40
3.174999999999999
 49
0.0
 74
     0
 49
-3.174999999999999
 74
     0
  0
LTYPE
  5
782
330
D
100
AcDbSymbolTableRecord
100
AcDbLinetypeTableRecord
  2
DOTX2
 70
     0
  3
Dot (2x) .  .  .  .  .  .  .  .  .  .  .  .  . 
 72
    65
 73
     2
 40
12.7
 49
0.0
 74
     0
 49
-12.7
 74
     0
  0
LTYPE
  5
783
330
D
100
AcDbSymbolTableRecord
100
AcDbLinetypeTableRecord
  2
HIDDEN
 70
     0
  3
Hidden __ __ __ __ __ __ __ __ __ __ __ __ __ _
 72
    65
 73
     2
 40
9.524999999999998
 49
6.349999999999999
 74
     0
 49
-3.174999999999999
 74
     0
  0
LTYPE
  5
784
330
D
100
AcDbSymbolTableRecord
100
AcDbLinetypeTableRecord
  2
HIDDEN2
 70
     0
  3
Hidden (.5x) _ _ _ _ _ _ _ _ _ _ _ _ _ _ _ _ _
 72
    65
 73
     2
 40
4.762499999999999
 49
3.174999999999999
 74
     0
 49
-1.587499999999999
 74
     0
  0
LTYPE
  5
785
330
D
100
AcDbSymbolTableRecord
100
AcDbLinetypeTableRecord
  2
HIDDENX2
 70
     0
  3
Hidden (2x) ____ ____ ____ ____ ____ ____ ____
 72
    65
 73
     2
 40
19.05
 49
12.7
 74
     0
 49
-6.349999999999999
 74
     0
  0
LTYPE
  5
786
330
D
100
AcDbSymbolTableRecord
100
AcDbLinetypeTableRecord
  2
PHANTOM
 70
     0
  3
Phantom ______  __  __  ______  __  __  ______
 72
    65
 73
     6
 40
63.5
 49
31.75
 74
     0
 49
-6.349999999999999
 74
     0
 49
6.349999999999999
 74
     0
 49
-6.349999999999999
 74
     0
 49
6.349999999999999
 74
     0
 49
-6.349999999999999
 74
     0
  0
LTYPE
  5
787
330
D
100
AcDbSymbolTableRecord
100
AcDbLinetypeTableRecord
  2
PHANTOM2
 70
     0
  3
Phantom (.5x) ___ _ _ ___ _ _ ___ _ _ ___ _ _
 72
    65
 73
     6
 40
31.75
 49
15.875
 74
     0
 49
-3.174999999999999
 74
     0
 49
3.174999999999999
 74
     0
 49
-3.174999999999999
 74
     0
 49
3.174999999999999
 74
     0
 49
-3.174999999999999
 74
     0
  0
LTYPE
  5
788
330
D
100
AcDbSymbolTableRecord
100
AcDbLinetypeTableRecord
  2
PHANTOMX2
 70
     0
  3
Phantom (2x) ____________    ____    ____   _
 72
    65
 73
     6
 40
127.0
 49
63.5
 74
     0
 49
-12.7
 74
     0
 49
12.7
 74
     0
 49
-12.7
 74
     0
 49
12.7
 74
     0
 49
-12.7
 74
     0
  0
LTYPE
  5
789
330
D
100
AcDbSymbolTableRecord
100
AcDbLinetypeTableRecord
  2
ACAD_ISO02W100
 70
     0
  3
ISO dash __ __ __ __ __ __ __ __ __ __ __ __ __
 72
    65
 73
     2
 40
15.0
 49
12.0
 74
     0
 49
-3.0
 74
     0
  0
LTYPE
  5
78A
330
D
100
AcDbSymbolTableRecord
100
AcDbLinetypeTableRecord
  2
ACAD_ISO03W100
 70
     0
  3
ISO dash space __    __    __    __    __    __
 72
    65
 73
     2
 40
30.0
 49
12.0
 74
     0
 49
-18.0
 74
     0
  0
LTYPE
  5
78B
330
D
100
AcDbSymbolTableRecord
100
AcDbLinetypeTableRecord
  2
ACAD_ISO04W100
 70
     0
  3
ISO long-dash dot ____ . ____ . ____ . ____ . _
 72
    65
 73
     4
 40
30.0
 49
24.0
 74
     0
 49
-3.0
 74
     0
 49
0.0
 74
     0
 49
-3.0
 74
     0
  0
LTYPE
  5
78C
330
D
100
AcDbSymbolTableRecord
100
AcDbLinetypeTableRecord
  2
ACAD_ISO05W100
 70
     0
  3
ISO long-dash double-dot ____ .. ____ .. ____ .
 72
    65
 73
     6
 40
33.0
 49
24.0
 74
     0
 49
-3.0
 74
     0
 49
0.0
 74
     0
 49
-3.0
 74
     0
 49
0.0
 74
     0
 49
-3.0
 74
     0
  0
LTYPE
  5
78D
330
D
100
AcDbSymbolTableRecord
100
AcDbLinetypeTableRecord
  2
ACAD_ISO06W100
 70
     0
  3
ISO long-dash triple-dot ____ ... ____ ... ____
 72
    65
 73
     8
 40
36.0
 49
24.0
 74
     0
 49
-3.0
 74
     0
 49
0.0
 74
     0
 49
-3.0
 74
     0
 49
0.0
 74
     0
 49
-3.0
 74
     0
 49
0.0
 74
     0
 49
-3.0
 74
     0
  0
LTYPE
  5
78E
330
D
100
AcDbSymbolTableRecord
100
AcDbLinetypeTableRecord
  2
ACAD_ISO07W100
 70
     0
  3
ISO dot . . . . . . . . . . . . . . . . . . . .
 72
    65
 73
     2
 40
3.0
 49
0.0
 74
     0
 49
-3.0
 74
     0
  0
LTYPE
  5
78F
330
D
100
AcDbSymbolTableRecord
100
AcDbLinetypeTableRecord
  2
ACAD_ISO08W100
 70
     0
  3
ISO long-dash short-dash ____ __ ____ __ ____ _
 72
    65
 73
     4
 40
36.0
 49
24.0
 74
     0
 49
-3.0
 74
     0
 49
6.0
 74
     0
 49
-3.0
 74
     0
  0
LTYPE
  5
790
330
D
100
AcDbSymbolTableRecord
100
AcDbLinetypeTableRecord
  2
ACAD_ISO09W100
 70
     0
  3
ISO long-dash double-short-dash ____ __ __ ____
 72
    65
 73
     6
 40
45.0
 49
24.0
 74
     0
 49
-3.0
 74
     0
 49
6.0
 74
     0
 49
-3.0
 74
     0
 49
6.0
 74
     0
 49
-3.0
 74
     0
  0
LTYPE
  5
791
330
D
100
AcDbSymbolTableRecord
100
AcDbLinetypeTableRecord
  2
ACAD_ISO10W100
 70
     0
  3
ISO dash dot __ . __ . __ . __ . __ . __ . __ .
 72
    65
 73
     4
 40
18.0
 49
12.0
 74
     0
 49
-3.0
 74
     0
 49
0.0
 74
     0
 49
-3.0
 74
     0
  0
LTYPE
  5
792
330
D
100
AcDbSymbolTableRecord
100
AcDbLinetypeTableRecord
  2
ACAD_ISO11W100
 70
     0
  3
ISO double-dash dot __ __ . __ __ . __ __ . __ 
 72
    65
 73
     6
 40
33.0
 49
12.0
 74
     0
 49
-3.0
 74
     0
 49
12.0
 74
     0
 49
-3.0
 74
     0
 49
0.0
 74
     0
 49
-3.0
 74
     0
  0
LTYPE
  5
793
330
D
100
AcDbSymbolTableRecord
100
AcDbLinetypeTableRecord
  2
ACAD_ISO12W100
 70
     0
  3
ISO dash double-dot __ . . __ . . __ . . __ . .
 72
    65
 73
     6
 40
21.0
 49
12.0
 74
     0
 49
-3.0
 74
     0
 49
0.0
 74
     0
 49
-3.0
 74
     0
 49
0.0
 74
     0
 49
-3.0
 74
     0
  0
LTYPE
  5
794
330
D
100
AcDbSymbolTableRecord
100
AcDbLinetypeTableRecord
  2
ACAD_ISO13W100
 70
     0
  3
ISO double-dash double-dot __ __ . . __ __ . . 
 72
    65
 73
     8
 40
36.0
 49
12.0
 74
     0
 49
-3.0
 74
     0
 49
12.0
 74
     0
 49
-3.0
 74
     0
 49
0.0
 74
     0
 49
-3.0
 74
     0
 49
0.0
 74
     0
 49
-3.0
 74
     0
  0
LTYPE
  5
795
330
D
100
AcDbSymbolTableRecord
100
AcDbLinetypeTableRecord
  2
ACAD_ISO14W100
 70
     0
  3
ISO dash triple-dot __ . . . __ . . . __ . . . 
 72
    65
 73
     8
 40
24.0
 49
12.0
 74
     0
 49
-3.0
 74
     0
 49
0.0
 74
     0
 49
-3.0
 74
     0
 49
0.0
 74
     0
 49
-3.0
 74
     0
 49
0.0
 74
     0
 49
-3.0
 74
     0
  0
LTYPE
  5
796
330
D
100
AcDbSymbolTableRecord
100
AcDbLinetypeTableRecord
  2
ACAD_ISO15W100
 70
     0
  3
ISO double-dash triple-dot __ __ . . . __ __ . 
 72
    65
 73
    10
 40
39.0
 49
12.0
 74
     0
 49
-3.0
 74
     0
 49
12.0
 74
     0
 49
-3.0
 74
     0
 49
0.0
 74
     0
 49
-3.0
 74
     0
 49
0.0
 74
     0
 49
-3.0
 74
     0
 49
0.0
 74
     0
 49
-3.0
 74
     0
  0
LTYPE
  5
798
330
D
100
AcDbSymbolTableRecord
100
AcDbLinetypeTableRecord
  2
FENCELINE1
 70
     0
  3
Fenceline circle ----0-----0----0-----0----0---
 72
    65
 73
     4
 40
36.83
 49
6.349999999999999
 74
     0
 49
-2.54
 74
     4
 75
   133
340
25
 46
2.54
 50
0.0
 44
-2.54
 45
0.0
 49
-2.54
 74
     0
 49
25.4
 74
     0
  0
LTYPE
  5
799
330
D
100
AcDbSymbolTableRecord
100
AcDbLinetypeTableRecord
  2
FENCELINE2
 70
     0
  3
Fenceline square ----[]-----[]----[]-----[]----
 72
    65
 73
     4
 40
36.83
 49
6.349999999999999
 74
     0
 49
-2.54
 74
     4
 75
   132
340
25
 46
2.54
 50
0.0
 44
-2.54
 45
0.0
 49
-2.54
 74
     0
 49
25.4
 74
     0
  0
LTYPE
  5
79A
330
D
100
AcDbSymbolTableRecord
100
AcDbLinetypeTableRecord
  2
TRACKS
 70
     0
  3
Tracks -|-|-|-|-|-|-|-|-|-|-|-|-|-|-|-|-|-|-|-|
 72
    65
 73
     2
 40
7.62
 49
3.81
 74
     4
 75
   130
340
25
 46
6.349999999999999
 50
0.0
 44
0.0
 45
0.0
 49
3.81
 74
     0
  0
LTYPE
  5
79B
330
D
100
AcDbSymbolTableRecord
100
AcDbLinetypeTableRecord
  2
BATTING
 70
     0
  3
Batting SSSSSSSSSSSSSSSSSSSSSSSSSSSSSSSSSSSSSSS
 72
    65
 73
     4
 40
10.16254
 49
0.00254
 74
     0
 49
-2.54
 74
     4
 75
   134
340
25
 46
2.54
 50
0.0
 44
-2.54
 45
0.0
 49
-5.08
 74
     4
 75
   134
340
25
 46
2.54
 50
180.0
 44
2.54
 45
0.0
 49
-2.54
 74
     0
  0
LTYPE
  5
79C
330
D
100
AcDbSymbolTableRecord
100
AcDbLinetypeTableRecord
  2
HOT_WATER_SUPPLY
 70
     0
  3
Hot water supply ---- HW ---- HW ---- HW ----
 72
    65
 73
     3
 40
22.86
 49
12.7
 74
     0
 49
-5.08
 74
     2
 75
     0
340
C
 46
2.54
 50
0.0
 44
-2.54
 45
-1.27
  9
HW
 49
-5.08
 74
     0
  0
LTYPE
  5
79D
330
D
100
AcDbSymbolTableRecord
100
AcDbLinetypeTableRecord
  2
GAS_LINE
 70
     0
  3
Gas line ----GAS----GAS----GAS----GAS----GAS---
 72
    65
 73
     3
 40
24.13
 49
12.7
 74
     0
 49
-5.08
 74
     2
 75
     0
340
C
 46
2.54
 50
0.0
 44
-2.54
 45
-1.27
  9
GAS
 49
-6.349999999999999
 74
     0
  0
LTYPE
  5
79E
330
D
100
AcDbSymbolTableRecord
100
AcDbLinetypeTableRecord
  2
ZIGZAG
 70
     0
  3
Zig zag /\/\/\/\/\/\/\/\/\/\/\/\/\/\/\/\/\/\/\/
 72
    65
 73
     4
 40
20.32254
 49
0.00254
 74
     0
 49
-5.08
 74
     4
 75
   131
340
25
 46
5.08
 50
0.0
 44
-5.08
 45
0.0
 49
-10.16
 74
     4
 75
   131
340
25
 46
5.08
 50
180.0
 44
5.08
 45
0.0
 49
-5.08
 74
     0
  0
ENDTAB
  0
TABLE
  2
LAYER
  5
A
102
{ACAD_XDICTIONARY
360
758
102
}
330
0
100
AcDbSymbolTable
 70
    21
  0
LAYER
  5
4
102
{ACAD_XDICTIONARY
360
37B
102
}
330
A
100
AcDbSymbolTableRecord
100
AcDbLayerTableRecord
  2
0
 70
     0
 62
     7
  6
CONTINUOUS
370
    -3
390
44
  0
LAYER
  5
7A0
102
{ACAD_XDICTIONARY
360
AA6
102
}
330
A
100
AcDbSymbolTableRecord
100
AcDbLayerTableRecord
  2
ASSI
 70
     0
 62
     2
  6
CHAIN
370
     5
390
44
  0
LAYER
  5
7A1
102
{ACAD_XDICTIONARY
360
AA8
102
}
330
A
100
AcDbSymbolTableRecord
100
AcDbLayerTableRecord
  2
CAMPITURE
 70
     0
 62
     4
  6
CONTINUOUS
370
    15
390
44
  0
LAYER
  5
7A2
102
{ACAD_XDICTIONARY
360
AAA
102
}
330
A
100
AcDbSymbolTableRecord
100
AcDbLayerTableRecord
  2
CARTIGLIO
 70
     0
 62
     7
  6
CONTINUOUS
370
    30
390
44
  0
LAYER
  5
7A3
102
{ACAD_XDICTIONARY
360
AAC
102
}
330
A
100
AcDbSymbolTableRecord
100
AcDbLayerTableRecord
  2
CARTIGLIO SOTTILE
 70
     0
 62
     3
  6
CONTINUOUS
370
    15
390
44
  0
LAYER
  5
7A4
102
{ACAD_XDICTIONARY
360
AAE
102
}
330
A
100
AcDbSymbolTableRecord
100
AcDbLayerTableRecord
  2
CARTIGLIO SOTTILE 2
 70
     0
 62
     1
  6
CONTINUOUS
370
    15
390
44
  0
LAYER
  5
7A5
102
{ACAD_XDICTIONARY
360
AB0
102
}
330
A
100
AcDbSymbolTableRecord
100
AcDbLayerTableRecord
  2
CARTIGLIO SOTTILE 3
 70
     0
 62
     2
  6
CONTINUOUS
370
     5
390
44
  0
LAYER
  5
7A8
102
{ACAD_XDICTIONARY
360
AB2
102
}
330
A
100
AcDbSymbolTableRecord
100
AcDbLayerTableRecord
  2
GEOMETRIA SCHIZZO
 70
     0
 62
     4
  6
CONTINUOUS
370
    20
390
44
  0
LAYER
  5
7AE
102
{ACAD_XDICTIONARY
360
AB4
102
}
330
A
100
AcDbSymbolTableRecord
100
AcDbLayerTableRecord
  2
LOGO
 70
     0
 62
     7
  6
CONTINUOUS
370
    30
390
44
  0
LAYER
  5
7B7
102
{ACAD_XDICTIONARY
360
AB6
102
}
330
A
100
AcDbSymbolTableRecord
100
AcDbLayerTableRecord
  2
SQUADRATURA
 70
     0
 62
     7
  6
CONTINUOUS
370
    30
390
44
  0
LAYER
  5
7B8
102
{ACAD_XDICTIONARY
360
AB8
102
}
330
A
100
AcDbSymbolTableRecord
100
AcDbLayerTableRecord
  2
SQUADRATURA SOTTILE
 70
     0
 62
     3
  6
CONTINUOUS
370
    15
390
44
  0
LAYER
  5
7B9
102
{ACAD_XDICTIONARY
360
ABA
102
}
330
A
100
AcDbSymbolTableRecord
100
AcDbLayerTableRecord
  2
SQUADRATURA SOTTILE 2
 70
     0
 62
     1
  6
CONTINUOUS
370
     9
390
44
  0
LAYER
  5
7BB
102
{ACAD_XDICTIONARY
360
ABC
102
}
330
A
100
AcDbSymbolTableRecord
100
AcDbLayerTableRecord
  2
TESTI CARTIGLIO
 70
     0
 62
     7
  6
CONTINUOUS
370
    30
390
44
  0
LAYER
  5
7BC
102
{ACAD_XDICTIONARY
360
ABE
102
}
330
A
100
AcDbSymbolTableRecord
100
AcDbLayerTableRecord
  2
TESTI CARTIGLIO SOTTILE
 70
     0
 62
     1
  6
CONTINUOUS
370
     9
390
44
  0
LAYER
  5
7BE
102
{ACAD_XDICTIONARY
360
AC0
102
}
330
A
100
AcDbSymbolTableRecord
100
AcDbLayerTableRecord
  2
TESTO NORMALE
 70
     0
 62
     7
  6
CONTINUOUS
370
    30
390
44
  0
LAYER
  5
A96
102
{ACAD_XDICTIONARY
360
AC2
102
}
330
A
100
AcDbSymbolTableRecord
100
AcDbLayerTableRecord
  2
P-0004
 70
     0
 62
     7
  6
CONTINUOUS
370
    -3
390
44
  0
LAYER
  5
A9C
330
A
100
AcDbSymbolTableRecord
100
AcDbLayerTableRecord
  2
Defpoints
 70
     0
 62
     7
  6
CONTINUOUS
290
     0
370
    -3
390
44
  0
ENDTAB
  0
TABLE
  2
STYLE
  5
B
330
0
100
AcDbSymbolTable
 70
    31
  0
STYLE
  5
C
330
B
100
AcDbSymbolTableRecord
100
AcDbTextStyleTableRecord
  2
STANDARD
 70
     0
 40
0.0
 41
0.8
 50
0.0
 71
     0
 42
0.2
  3
romans.shx
  4

  0
STYLE
  5
1B
330
B
100
AcDbSymbolTableRecord
100
AcDbTextStyleTableRecord
  2
ROMANS
 70
     0
 40
0.0
 41
0.8
 50
0.0
 71
     0
 42
3.0
  3
ROMANS.shx
  4

  0
STYLE
  5
25
330
B
100
AcDbSymbolTableRecord
100
AcDbTextStyleTableRecord
  2

 70
     1
 40
0.0
 41
1.0
 50
0.0
 71
     0
 42
0.2
  3
ltypeshp.shx
  4

  0
STYLE
  5
35C
330
B
100
AcDbSymbolTableRecord
100
AcDbTextStyleTableRecord
  2
Stile_Quota
 70
     0
 40
0.0
 41
1.0
 50
0.0
 71
     0
 42
3.0
  3

  4

1001
ACAD
1000
Bodoni MT
1071
 16777234
  0
STYLE
  5
635
330
B
100
AcDbSymbolTableRecord
100
AcDbTextStyleTableRecord
  2
Stile_Quota_FISSO
 70
     0
 40
20.0
 41
1.0
 50
0.0
 71
     0
 42
3.0
  3

  4

1001
ACAD
1000
Bodoni MT
1071
 16777234
  0
STYLE
  5
7C2
330
B
100
AcDbSymbolTableRecord
100
AcDbTextStyleTableRecord
  2
QUOTE
 70
     0
 40
0.0
 41
1.0
 50
0.0
 71
     0
 42
3.0
  3

  4

1001
ACAD
1000
Bodoni MT
1071
 16777472
  0
STYLE
  5
7C3
330
B
100
AcDbSymbolTableRecord
100
AcDbTextStyleTableRecord
  2
SS-CART
 70
     0
 40
0.0
 41
1.0
 50
0.0
 71
     0
 42
3.0
  3
sanss___.ttf
  4

1001
ACAD
1000
SansSerif
1071
      256
  0
STYLE
  5
7C4
330
B
100
AcDbSymbolTableRecord
100
AcDbTextStyleTableRecord
  2
Standard_87
 70
     0
 40
0.0
 41
1.0
 50
0.0
 71
     0
 42
3.0
  3
monotxt.shx
  4

  0
STYLE
  5
7C5
330
B
100
AcDbSymbolTableRecord
100
AcDbTextStyleTableRecord
  2
Stile_Cart
 70
     0
 40
0.0
 41
1.0
 50
0.0
 71
     0
 42
3.0
  3
times.ttf
  4

1001
ACAD
1000
Times New Roman
1071
      256
  0
STYLE
  5
7C6
330
B
100
AcDbSymbolTableRecord
100
AcDbTextStyleTableRecord
  2
STYLE1_63
 70
     0
 40
0.0
 41
1.0
 50
0.0
 71
     0
 42
3.0
  3
eurr____.ttf
  4

1001
ACAD
1000
EuroRoman
1071
      256
  0
STYLE
  5
7C7
330
B
100
AcDbSymbolTableRecord
100
AcDbTextStyleTableRecord
  2
STYLE1_82
 70
     0
 40
0.0
 41
1.0
 50
0.0
 71
     0
 42
3.0
  3
eurr____.ttf
  4

1001
ACAD
1000
EuroRoman
1071
      256
  0
STYLE
  5
7C8
330
B
100
AcDbSymbolTableRecord
100
AcDbTextStyleTableRecord
  2
STYLE1_83
 70
     0
 40
0.0
 41
1.0
 50
0.0
 71
     0
 42
3.0
  3
eurr____.ttf
  4

1001
ACAD
1000
EuroRoman
1071
      256
  0
STYLE
  5
7C9
330
B
100
AcDbSymbolTableRecord
100
AcDbTextStyleTableRecord
  2
STYLE1_85
 70
     0
 40
0.0
 41
1.0
 50
0.0
 71
     0
 42
3.0
  3
eurr____.ttf
  4

1001
ACAD
1000
EuroRoman
1071
      256
  0
STYLE
  5
7CA
330
B
100
AcDbSymbolTableRecord
100
AcDbTextStyleTableRecord
  2
STYLE1_94
 70
     0
 40
0.0
 41
1.0
 50
0.0
 71
     0
 42
3.0
  3
eurr____.ttf
  4

1001
ACAD
1000
EuroRoman
1071
      256
  0
STYLE
  5
7CB
330
B
100
AcDbSymbolTableRecord
100
AcDbTextStyleTableRecord
  2
STYLE1_97
 70
     0
 40
0.0
 41
1.0
 50
0.0
 71
     0
 42
3.0
  3
eurr____.ttf
  4

1001
ACAD
1000
EuroRoman
1071
      256
  0
STYLE
  5
7CC
330
B
100
AcDbSymbolTableRecord
100
AcDbTextStyleTableRecord
  2
TESTO EVIDENZIATO
 70
     0
 40
0.0
 41
1.0
 50
0.0
 71
     0
 42
3.0
  3
sanss___.ttf
  4

1001
ACAD
1000
SansSerif
1071
      256
  0
STYLE
  5
7CD
330
B
100
AcDbSymbolTableRecord
100
AcDbTextStyleTableRecord
  2
TESTO EVIDENZIATO PER TABELLE
 70
     0
 40
0.0
 41
1.0
 50
0.0
 71
     0
 42
3.0
  3
sanss___.ttf
  4

1001
ACAD
1000
SansSerif
1071
      256
  0
STYLE
  5
7CE
330
B
100
AcDbSymbolTableRecord
100
AcDbTextStyleTableRecord
  2
TESTO NORMALE
 70
     0
 40
0.0
 41
1.0
 50
0.0
 71
     0
 42
3.0
  3
sanss___.ttf
  4

1001
ACAD
1000
SansSerif
1071
      256
  0
STYLE
  5
7CF
330
B
100
AcDbSymbolTableRecord
100
AcDbTextStyleTableRecord
  2
TESTO NORMALE PER TABELLE
 70
     0
 40
0.0
 41
0.899999976158142
 50
0.0
 71
     0
 42
3.0
  3
times.ttf
  4

1001
ACAD
1000
Times New Roman
1071
      256
  0
STYLE
  5
7D0
330
B
100
AcDbSymbolTableRecord
100
AcDbTextStyleTableRecord
  2
TESTO PALLINATURA
 70
     0
 40
0.0
 41
1.0
 50
0.0
 71
     0
 42
3.0
  3
times.ttf
  4

1001
ACAD
1000
Times New Roman
1071
      256
  0
STYLE
  5
7D1
330
B
100
AcDbSymbolTableRecord
100
AcDbTextStyleTableRecord
  2
TESTO RUGOSITA
 70
     0
 40
0.0
 41
1.0
 50
0.0
 71
     0
 42
3.0
  3
sanss___.ttf
  4

1001
ACAD
1000
SansSerif
1071
      256
  0
STYLE
  5
7D2
330
B
100
AcDbSymbolTableRecord
100
AcDbTextStyleTableRecord
  2
TESTO TITOLO TABELLE
 70
     0
 40
0.0
 41
0.899999976158142
 50
0.0
 71
     0
 42
3.0
  3
sanss___.ttf
  4

1001
ACAD
1000
SansSerif
1071
      256
  0
STYLE
  5
7D3
330
B
100
AcDbSymbolTableRecord
100
AcDbTextStyleTableRecord
  2
TESTO TOLL GEOMETRICHE
 70
     0
 40
0.0
 41
1.0
 50
0.0
 71
     0
 42
3.0
  3
sanss___.ttf
  4

1001
ACAD
1000
SansSerif
1071
      256
  0
STYLE
  5
7D4
330
B
100
AcDbSymbolTableRecord
100
AcDbTextStyleTableRecord
  2
TESTO TOLLERANZE
 70
     0
 40
0.0
 41
1.0
 50
0.0
 71
     0
 42
3.0
  3
BOD_R.TTF
  4

1001
ACAD
1000
Bodoni MT
1071
      256
  0
STYLE
  5
93B
330
B
100
AcDbSymbolTableRecord
100
AcDbTextStyleTableRecord
  2
Stile testo67
 70
     0
 40
0.0
 41
1.100000023841857
 50
0.0
 71
     0
 42
3.0
  3
eurr____.ttf
  4

1001
ACAD
1000
EuroRoman
1071
      256
  0
STYLE
  5
95E
330
B
100
AcDbSymbolTableRecord
100
AcDbTextStyleTableRecord
  2
Stile testo102
 70
     0
 40
0.0
 41
1.0
 50
0.0
 71
     0
 42
3.0
  3
times.ttf
  4

1001
ACAD
1000
Times New Roman
1071
      256
  0
STYLE
  5
961
330
B
100
AcDbSymbolTableRecord
100
AcDbTextStyleTableRecord
  2
Stile testo71
 70
     0
 40
0.0
 41
1.0
 50
0.0
 71
     0
 42
3.0
  3
times.ttf
  4

1001
ACAD
1000
Times New Roman
1071
      256
  0
STYLE
  5
965
330
B
100
AcDbSymbolTableRecord
100
AcDbTextStyleTableRecord
  2
Stile testo75
 70
     0
 40
0.0
 41
1.0
 50
0.0
 71
     0
 42
3.0
  3
times.ttf
  4

1001
ACAD
1000
Times New Roman
1071
      256
  0
STYLE
  5
96A
330
B
100
AcDbSymbolTableRecord
100
AcDbTextStyleTableRecord
  2
Stile testo78
 70
     0
 40
0.0
 41
1.0
 50
0.0
 71
     0
 42
3.0
  3
times.ttf
  4

1001
ACAD
1000
Times New Roman
1071
      256
  0
STYLE
  5
96D
330
B
100
AcDbSymbolTableRecord
100
AcDbTextStyleTableRecord
  2
Stile testo103
 70
     0
 40
0.0
 41
1.0
 50
0.0
 71
     0
 42
3.0
  3
times.ttf
  4

1001
ACAD
1000
Times New Roman
1071
      256
  0
STYLE
  5
972
330
B
100
AcDbSymbolTableRecord
100
AcDbTextStyleTableRecord
  2
Stile testo68
 70
     0
 40
0.0
 41
1.0
 50
0.0
 71
     0
 42
3.0
  3
times.ttf
  4

1001
ACAD
1000
Times New Roman
1071
      256
  0
ENDTAB
  0
TABLE
  2
VIEW
  5
10
330
0
100
AcDbSymbolTable
 70
     0
  0
ENDTAB
  0
TABLE
  2
UCS
  5
11
330
0
100
AcDbSymbolTable
 70
     0
  0
ENDTAB
  0
TABLE
  2
APPID
  5
14
330
0
100
AcDbSymbolTable
 70
     9
  0
APPID
  5
15
330
14
100
AcDbSymbolTableRecord
100
AcDbRegAppTableRecord
  2
ACAD
 70
     0
  0
APPID
  5
53
330
14
100
AcDbSymbolTableRecord
100
AcDbRegAppTableRecord
  2
TOP
 70
     0
  0
APPID
  5
356
330
14
100
AcDbSymbolTableRecord
100
AcDbRegAppTableRecord
  2
ACAD_MLEADERVER
 70
     0
  0
APPID
  5
35A
330
14
100
AcDbSymbolTableRecord
100
AcDbRegAppTableRecord
  2
ACAD_DSTYLE_DIMJAG
 70
     0
  0
APPID
  5
35B
330
14
100
AcDbSymbolTableRecord
100
AcDbRegAppTableRecord
  2
ACAD_DSTYLE_DIMTALN
 70
     0
  0
APPID
  5
35D
330
14
100
AcDbSymbolTableRecord
100
AcDbRegAppTableRecord
  2
AcadAnnoPO
 70
     0
  0
APPID
  5
374
330
14
100
AcDbSymbolTableRecord
100
AcDbRegAppTableRecord
  2
ACAD_EXEMPT_FROM_CAD_STANDARDS
 70
     0
  0
APPID
  5
38F
330
14
100
AcDbSymbolTableRecord
100
AcDbRegAppTableRecord
  2
ACAD_PSEXT
 70
     0
  0
APPID
  5
3BC
330
14
100
AcDbSymbolTableRecord
100
AcDbRegAppTableRecord
  2
ACAD_DSTYLE_DIMBREAK
 70
     0
  0
ENDTAB
  0
TABLE
  2
DIMSTYLE
  5
16
330
0
100
AcDbSymbolTable
 70
     6
100
AcDbDimStyleTable
 71
     3
340
1D
340
3BD
340
3BE
  0
DIMSTYLE
105
1D
330
16
100
AcDbSymbolTableRecord
100
AcDbDimStyleTableRecord
  2
ACADTOP
 70
     0
 41
2.0
 42
1.0
 43
10.0
 44
1.5
 73
     0
 74
     0
 77
     1
 78
     8
 79
     2
140
2.0
141
2.0
146
0.6
147
1.0
172
     1
176
     2
177
     2
178
     1
179
     1
271
     2
272
     2
284
     8
289
     0
340
35C
1001
ACAD_DSTYLE_DIMJAG
1070
   388
1040
1.5
1001
ACAD_DSTYLE_DIMTALN
1070
   392
1070
     0
  0
DIMSTYLE
105
3BD
330
16
100
AcDbSymbolTableRecord
100
AcDbDimStyleTableRecord
  2
DIERRE_LUNG-ALT
 70
     0
 41
3.0
 42
1.0
 43
10.0
 44
1.5
 73
     0
 74
     0
 75
     1
 76
     1
 78
     8
 79
     2
140
20.0
141
2.0
146
0.6
147
1.0
172
     1
176
     3
177
     3
178
    30
179
     1
271
     1
272
     1
281
     1
282
     1
284
     8
340
635
1001
ACAD_DSTYLE_DIMBREAK
1070
   391
1040
3.75
1001
ACAD_DSTYLE_DIMJAG
1070
   388
1040
1.5
1001
ACAD_DSTYLE_DIMTALN
1070
   392
1070
     0
  0
DIMSTYLE
105
3BE
330
16
100
AcDbSymbolTableRecord
100
AcDbDimStyleTableRecord
  2
DIERRE_LARG
 70
     0
 41
3.0
 42
1.0
 43
10.0
 44
1.5
 73
     0
 74
     0
 75
     1
 76
     1
 78
     8
 79
     2
140
20.0
141
2.0
146
0.6
147
1.0
172
     1
176
     4
177
     4
178
     4
179
     1
271
     1
272
     1
281
     1
282
     1
284
     8
340
635
1001
ACAD_DSTYLE_DIMBREAK
1070
   391
1040
3.75
1001
ACAD_DSTYLE_DIMJAG
1070
   388
1040
1.5
1001
ACAD_DSTYLE_DIMTALN
1070
   392
1070
     0
  0
DIMSTYLE
105
7F1
330
16
100
AcDbSymbolTableRecord
100
AcDbDimStyleTableRecord
  2
PALLINATURA
 70
     0
 41
1.5
340
C
342
7F2
  0
DIMSTYLE
105
7F9
330
16
100
AcDbSymbolTableRecord
100
AcDbDimStyleTableRecord
  2
PALLINATURA GRANDE
 70
     0
 41
3.0
340
C
342
7F2
  0
DIMSTYLE
105
7FA
330
16
100
AcDbSymbolTableRecord
100
AcDbDimStyleTableRecord
  2
RIFERIMENTO
 70
     0
 41
2.0
340
C
342
7F2
  0
ENDTAB
  0
TABLE
  2
BLOCK_RECORD
  5
1
330
0
100
AcDbSymbolTable
 70
     7
  0
BLOCK_RECORD
  5
2
330
1
100
AcDbSymbolTableRecord
100
AcDbBlockTableRecord
  2
*MODEL_SPACE
340
47
  0
BLOCK_RECORD
  5
7
330
1
100
AcDbSymbolTableRecord
100
AcDbBlockTableRecord
  2
*PAPER_SPACE
340
48
  0
BLOCK_RECORD
  5
7D5
330
1
100
AcDbSymbolTableRecord
100
AcDbBlockTableRecord
  2
Filled-1
340
0
  0
BLOCK_RECORD
  5
7E3
330
1
100
AcDbSymbolTableRecord
100
AcDbBlockTableRecord
  2
Filled-2
340
0
  0
BLOCK_RECORD
  5
7F2
330
1
100
AcDbSymbolTableRecord
100
AcDbBlockTableRecord
  2
_Closed
340
0
  0
BLOCK_RECORD
  5
7FB
330
1
100
AcDbSymbolTableRecord
100
AcDbBlockTableRecord
  2
__
340
0
  0
BLOCK_RECORD
  5
803
330
1
100
AcDbSymbolTableRecord
100
AcDbBlockTableRecord
  2
Bordi Standard
340
0
  0
BLOCK_RECORD
  5
821
330
1
100
AcDbSymbolTableRecord
100
AcDbBlockTableRecord
  2
Cartigli DIERRE
340
0
  0
ENDTAB
  0
ENDSEC
  0
SECTION
  2
BLOCKS
  0
BLOCK
  5
3
330
2
100
AcDbEntity
  8
0
100
AcDbBlockBegin
  2
*MODEL_SPACE
 70
     0
 10
0.0
 20
0.0
 30
0.0
  3
*MODEL_SPACE
  1

  0
ENDBLK
  5
6
330
2
100
AcDbEntity
  8
0
100
AcDbBlockEnd
  0
BLOCK
  5
8
330
7
100
AcDbEntity
 67
     1
  8
0
100
AcDbBlockBegin
  2
*PAPER_SPACE
 70
     0
 10
0.0
 20
0.0
 30
0.0
  3
*PAPER_SPACE
  1

  0
ENDBLK
  5
9
330
7
100
AcDbEntity
 67
     1
  8
0
100
AcDbBlockEnd
  0
BLOCK
  5
7D6
330
7D5
100
AcDbEntity
  8
0
 62
     7
100
AcDbBlockBegin
  2
Filled-1
 70
     0
 10
0.0
 20
0.0
 30
0.0
  3
Filled-1
  1

  0
LINE
  5
7D8
330
7D5
100
AcDbEntity
  8
0
 62
     0
100
AcDbLine
 10
-1.0
 20
0.0
 30
0.0
 11
0.0
 21
0.0
 31
0.0
  0
POLYLINE
  5
7D9
330
7D5
100
AcDbEntity
  8
0
 62
     0
100
AcDb2dPolyline
 66
     1
 10
0.0
 20
0.0
 30
0.0
 70
   128
  0
VERTEX
  5
7DA
330
7D9
100
AcDbEntity
  8
0
 62
     0
100
AcDbVertex
100
AcDb2dVertex
 10
-1.0
 20
-0.125
 30
0.0
  0
VERTEX
  5
7DB
330
7D9
100
AcDbEntity
  8
0
 62
     0
100
AcDbVertex
100
AcDb2dVertex
 10
0.0
 20
0.0
 30
0.0
  0
VERTEX
  5
7DD
330
7D9
100
AcDbEntity
  8
0
 62
     0
100
AcDbVertex
100
AcDb2dVertex
 10
-1.0
 20
0.125
 30
0.0
  0
VERTEX
  5
7DE
330
7D9
100
AcDbEntity
  8
0
 62
     0
100
AcDbVertex
100
AcDb2dVertex
 10
-1.0
 20
-0.125
 30
0.0
  0
SEQEND
  5
7DC
330
7D9
100
AcDbEntity
  8
0
 62
     0
  0
SOLID
  5
7DF
330
7D5
100
AcDbEntity
  8
0
  6
Continuous
 62
     0
100
AcDbTrace
 10
-1.0
 20
-0.125
 30
0.0
 11
0.0
 21
0.0
 31
0.0
 12
-1.0
 22
0.125
 32
0.0
 13
-1.0
 23
-0.125
 33
0.0
  0
LINE
  5
7E0
330
7D5
100
AcDbEntity
  8
0
 62
     0
100
AcDbLine
 10
-1.0
 20
-0.125
 30
0.0
 11
0.0
 21
0.0
 31
0.0
  0
LINE
  5
7E1
330
7D5
100
AcDbEntity
  8
0
 62
     0
100
AcDbLine
 10
0.0
 20
0.0
 30
0.0
 11
-1.0
 21
0.125
 31
0.0
  0
LINE
  5
7E2
330
7D5
100
AcDbEntity
  8
0
 62
     0
100
AcDbLine
 10
-1.0
 20
0.125
 30
0.0
 11
-1.0
 21
-0.125
 31
0.0
  0
ENDBLK
  5
7D7
330
7D5
100
AcDbEntity
  8
0
 62
     7
100
AcDbBlockEnd
  0
BLOCK
  5
7E4
330
7E3
100
AcDbEntity
  8
0
 62
     7
100
AcDbBlockBegin
  2
Filled-2
 70
     0
 10
0.0
 20
0.0
 30
0.0
  3
Filled-2
  1

  0
LINE
  5
7E6
330
7E3
100
AcDbEntity
  8
0
 62
     0
100
AcDbLine
 10
-1.0
 20
0.0
 30
0.0
 11
0.0
 21
0.0
 31
0.0
  0
POLYLINE
  5
7E7
330
7E3
100
AcDbEntity
  8
0
 62
     0
100
AcDb2dPolyline
 66
     1
 10
0.0
 20
0.0
 30
0.0
 70
   128
  0
VERTEX
  5
7E8
330
7E7
100
AcDbEntity
  8
0
 62
     0
100
AcDbVertex
100
AcDb2dVertex
 10
-1.0
 20
-0.25
 30
0.0
  0
VERTEX
  5
7E9
330
7E7
100
AcDbEntity
  8
0
 62
     0
100
AcDbVertex
100
AcDb2dVertex
 10
0.0
 20
0.0
 30
0.0
  0
VERTEX
  5
7EB
330
7E7
100
AcDbEntity
  8
0
 62
     0
100
AcDbVertex
100
AcDb2dVertex
 10
-1.0
 20
0.25
 30
0.0
  0
VERTEX
  5
7EC
330
7E7
100
AcDbEntity
  8
0
 62
     0
100
AcDbVertex
100
AcDb2dVertex
 10
-1.0
 20
-0.25
 30
0.0
  0
SEQEND
  5
7EA
330
7E7
100
AcDbEntity
  8
0
 62
     0
  0
SOLID
  5
7ED
330
7E3
100
AcDbEntity
  8
0
  6
Continuous
 62
     0
100
AcDbTrace
 10
-1.0
 20
-0.25
 30
0.0
 11
0.0
 21
0.0
 31
0.0
 12
-1.0
 22
0.25
 32
0.0
 13
-1.0
 23
-0.25
 33
0.0
  0
LINE
  5
7EE
330
7E3
100
AcDbEntity
  8
0
 62
     0
100
AcDbLine
 10
-1.0
 20
-0.25
 30
0.0
 11
0.0
 21
0.0
 31
0.0
  0
LINE
  5
7EF
330
7E3
100
AcDbEntity
  8
0
 62
     0
100
AcDbLine
 10
0.0
 20
0.0
 30
0.0
 11
-1.0
 21
0.25
 31
0.0
  0
LINE
  5
7F0
330
7E3
100
AcDbEntity
  8
0
 62
     0
100
AcDbLine
 10
-1.0
 20
0.25
 30
0.0
 11
-1.0
 21
-0.25
 31
0.0
  0
ENDBLK
  5
7E5
330
7E3
100
AcDbEntity
  8
0
 62
     7
100
AcDbBlockEnd
  0
BLOCK
  5
7F7
330
7F2
100
AcDbEntity
  8
0
 62
     7
100
AcDbBlockBegin
  2
_Closed
 70
     0
 10
0.0
 20
0.0
 30
0.0
  3
_Closed
  1

  0
LINE
  5
7F3
330
7F2
100
AcDbEntity
  8
0
  6
ByBlock
 62
     0
370
    -2
100
AcDbLine
 10
-1.0
 20
0.1666666666666666
 30
0.0
 11
0.0
 21
0.0
 31
0.0
  0
LINE
  5
7F4
330
7F2
100
AcDbEntity
  8
0
  6
ByBlock
 62
     0
370
    -2
100
AcDbLine
 10
0.0
 20
0.0
 30
0.0
 11
-1.0
 21
-0.1666666666666666
 31
0.0
  0
LINE
  5
7F5
330
7F2
100
AcDbEntity
  8
0
  6
ByBlock
 62
     0
370
    -2
100
AcDbLine
 10
-1.0
 20
0.1666666666666666
 30
0.0
 11
-1.0
 21
-0.1666666666666666
 31
0.0
  0
LINE
  5
7F6
330
7F2
100
AcDbEntity
  8
0
  6
ByBlock
 62
     0
370
    -2
100
AcDbLine
 10
0.0
 20
0.0
 30
0.0
 11
-1.0
 21
0.0
 31
0.0
  0
ENDBLK
  5
7F8
330
7F2
100
AcDbEntity
  8
0
 62
     7
100
AcDbBlockEnd
  0
BLOCK
  5
7FC
330
7FB
100
AcDbEntity
  8
0
 62
     7
100
AcDbBlockBegin
  2
__
 70
     0
 10
0.0
 20
0.0
 30
0.0
  3
__
  1

  0
HATCH
  5
7FF
330
7FB
100
AcDbEntity
  8
CAMPITURE
100
AcDbHatch
 10
0.0
 20
0.0
 30
0.0
210
0.0
220
0.0
230
1.0
  2
SOLID
 70
     1
 71
     0
 91
        1
 92
        1
 93
        1
 72
     2
 10
0.0
 20
0.0
 40
0.7500000000000001
 50
0.0
 51
360.0
 73
     1
 97
        0
 75
     0
 76
     1
 98
        1
 10
0.0
 20
0.0
  0
CIRCLE
  5
800
330
7FB
100
AcDbEntity
  8
GEOMETRIA SCHIZZO
100
AcDbCircle
 10
0.0
 20
0.0
 30
0.0
 40
0.7500000000000001
  0
MTEXT
  5
801
330
7FB
100
AcDbEntity
  8
TESTO NORMALE
  6
Continuous
100
AcDbMText
 10
0.0
 20
0.5858034193515849
 30
0.0
 40
5.0
 41
15.63962578773498
 71
     2
 72
     1
  1
=    =
  7
TESTO EVIDENZIATO
 73
     1
 44
1.0
1001
ACAD
1000
MTEXTBEGIN
1070
    73
1070
     1
1070
    44
1040
1.0
1070
    74
1070
     0
1000
MTEXTEND
  0
ENDBLK
  5
7FD
330
7FB
100
AcDbEntity
  8
0
 62
     7
100
AcDbBlockEnd
  0
BLOCK
  5
804
330
803
100
AcDbEntity
  8
0
 62
     7
100
AcDbBlockBegin
  2
Bordi Standard
 70
     0
 10
0.0
 20
0.0
 30
0.0
  3
Bordi Standard
  1

  0
LINE
  5
806
330
803
100
AcDbEntity
  8
SQUADRATURA
 62
     0
100
AcDbLine
 10
4.999999999999893
 20
292.0
 30
0.0
 11
205.0
 21
292.0
 31
0.0
1001
TOP
1070
   256
  0
LINE
  5
807
330
803
100
AcDbEntity
  8
SQUADRATURA
 62
     0
100
AcDbLine
 10
205.0
 20
292.0
 30
0.0
 11
205.0
 21
5.0
 31
0.0
1001
TOP
1070
   256
  0
LINE
  5
808
330
803
100
AcDbEntity
  8
SQUADRATURA
 62
     0
100
AcDbLine
 10
205.0
 20
5.0
 30
0.0
 11
5.0
 21
4.999999999999975
 31
0.0
1001
TOP
1070
   256
  0
LINE
  5
809
330
803
100
AcDbEntity
  8
SQUADRATURA
 62
     0
100
AcDbLine
 10
5.000000000000017
 20
4.999999999999975
 30
0.0
 11
4.999999999999893
 21
292.0
 31
0.0
1001
TOP
1070
   256
  0
LINE
  5
80A
330
803
100
AcDbEntity
  8
SQUADRATURA SOTTILE
 62
     0
100
AcDbLine
 10
209.85
 20
296.85
 30
0.0
 11
0.1499999999998991
 21
296.85
 31
0.0
1001
TOP
1070
   256
  0
LINE
  5
80B
330
803
100
AcDbEntity
  8
SQUADRATURA SOTTILE
 62
     0
100
AcDbLine
 10
0.1499999999998991
 20
296.85
 30
0.0
 11
0.1500000000000234
 21
0.1499999999999702
 31
0.0
1001
TOP
1070
   256
  0
LINE
  5
80C
330
803
100
AcDbEntity
  8
SQUADRATURA SOTTILE
 62
     0
100
AcDbLine
 10
0.1500000000000234
 20
0.1499999999999609
 30
0.0
 11
209.85
 21
0.1500000000000122
 31
0.0
1001
TOP
1070
   256
  0
LINE
  5
80D
330
803
100
AcDbEntity
  8
SQUADRATURA SOTTILE
 62
     0
100
AcDbLine
 10
209.85
 20
0.1500000000000122
 30
0.0
 11
209.85
 21
296.85
 31
0.0
1001
TOP
1070
   256
  0
LINE
  5
80E
330
803
100
AcDbEntity
  8
SQUADRATURA
 62
     0
100
AcDbLine
 10
0.0
 20
4.999999999999975
 30
0.0
 11
0.0
 21
0.1499999999999613
 31
0.0
1001
TOP
1070
   256
  0
LINE
  5
80F
330
803
100
AcDbEntity
  8
SQUADRATURA
 62
     0
100
AcDbLine
 10
112.0
 20
291.9999999999999
 30
0.0
 11
205.0000000000001
 21
292.0
 31
0.0
1001
TOP
1070
   256
  0
LINE
  5
810
330
803
100
AcDbEntity
  8
SQUADRATURA
 62
     0
100
AcDbLine
 10
203.0000000000001
 20
259.9999999999998
 30
0.0
 11
112.0
 21
259.9999999999998
 31
0.0
1001
TOP
1070
   256
  0
LINE
  5
811
330
803
100
AcDbEntity
  8
SQUADRATURA SOTTILE 2
 62
     0
100
AcDbLine
 10
112.0
 20
291.0
 30
0.0
 11
203.0000000000001
 21
291.0
 31
0.0
1001
TOP
1070
   256
  0
ARC
  5
812
330
803
100
AcDbEntity
  8
SQUADRATURA SOTTILE 2
 62
     0
100
AcDbCircle
 10
112.0
 20
290.0
 30
0.0
 40
1.0
100
AcDbArc
 50
90.0
 51
180.0
1001
TOP
1070
   256
  0
ARC
  5
813
330
803
100
AcDbEntity
  8
SQUADRATURA
 62
     0
100
AcDbCircle
 10
112.0
 20
290.0
 30
0.0
 40
2.0
100
AcDbArc
 50
90.0
 51
180.0
1001
TOP
1070
   256
  0
LINE
  5
814
330
803
100
AcDbEntity
  8
SQUADRATURA SOTTILE 2
 62
     0
100
AcDbLine
 10
111.0
 20
261.9999999999998
 30
0.0
 11
111.0
 21
290.0
 31
0.0
1001
TOP
1070
   256
  0
LINE
  5
815
330
803
100
AcDbEntity
  8
SQUADRATURA
 62
     0
100
AcDbLine
 10
110.0
 20
261.9999999999998
 30
0.0
 11
110.0
 21
290.0
 31
0.0
1001
TOP
1070
   256
  0
ARC
  5
816
330
803
100
AcDbEntity
  8
SQUADRATURA
 62
     0
100
AcDbCircle
 10
112.0
 20
261.9999999999998
 30
0.0
 40
2.0
100
AcDbArc
 50
180.0
 51
270.0
1001
TOP
1070
   256
  0
LINE
  5
817
330
803
100
AcDbEntity
  8
SQUADRATURA SOTTILE 2
 62
     0
100
AcDbLine
 10
203.0000000000001
 20
260.9999999999998
 30
0.0
 11
112.0
 21
260.9999999999998
 31
0.0
1001
TOP
1070
   256
  0
ARC
  5
818
330
803
100
AcDbEntity
  8
SQUADRATURA SOTTILE 2
 62
     0
100
AcDbCircle
 10
112.0
 20
261.9999999999998
 30
0.0
 40
1.0
100
AcDbArc
 50
180.0
 51
270.0
1001
TOP
1070
   256
  0
LINE
  5
819
330
803
100
AcDbEntity
  8
SQUADRATURA SOTTILE 2
 62
     0
100
AcDbLine
 10
204.0000000000001
 20
290.0
 30
0.0
 11
204.0000000000001
 21
261.9999999999998
 31
0.0
1001
TOP
1070
   256
  0
ARC
  5
81A
330
803
100
AcDbEntity
  8
SQUADRATURA SOTTILE 2
 62
     0
100
AcDbCircle
 10
203.0000000000001
 20
261.9999999999998
 30
0.0
 40
1.0
100
AcDbArc
 50
270.0
 51
0.0
1001
TOP
1070
   256
  0
ARC
  5
81B
330
803
100
AcDbEntity
  8
SQUADRATURA
 62
     0
100
AcDbCircle
 10
203.0000000000001
 20
261.9999999999998
 30
0.0
 40
2.0
100
AcDbArc
 50
270.0
 51
0.0
1001
TOP
1070
   256
  0
LINE
  5
81C
330
803
100
AcDbEntity
  8
SQUADRATURA
 62
     0
100
AcDbLine
 10
205.0000000000001
 20
292.0
 30
0.0
 11
205.0000000000001
 21
261.9999999999998
 31
0.0
1001
TOP
1070
   256
  0
ARC
  5
81D
330
803
100
AcDbEntity
  8
SQUADRATURA SOTTILE 2
 62
     0
100
AcDbCircle
 10
203.0000000000001
 20
290.0
 30
0.0
 40
1.0
100
AcDbArc
 50
0.0
 51
90.0
1001
TOP
1070
   256
  0
MTEXT
  5
81E
330
803
100
AcDbEntity
  8
TESTI CARTIGLIO
  6
Continuous
 62
     0
100
AcDbMText
 10
134.5853581142873
 20
284.0131137944525
 30
0.0
 40
6.000000238418579
 41
55.06813444284208
 71
     1
 72
     1
  1
{\fVrinda|b0|i0;\H6.0000;BAR CODE\PMontaggio}
  7
Standard_87
 73
     2
 44
0.9959999918937683
1001
TOP
1070
   256
1001
ACAD
1000
MTEXTBEGIN
1070
    73
1070
     2
1070
    44
1040
0.9959999918937683
1070
    74
1070
     0
1000
MTEXTEND
  0
ENDBLK
  5
805
330
803
100
AcDbEntity
  8
0
 62
     7
100
AcDbBlockEnd
  0
BLOCK
  5
822
330
821
100
AcDbEntity
  8
0
 62
     7
100
AcDbBlockBegin
  2
Cartigli DIERRE
 70
     2
 10
0.0
 20
0.0
 30
0.0
  3
Cartigli DIERRE
  1

  0
HATCH
  5
828
330
821
100
AcDbEntity
  8
CAMPITURE
 62
     0
100
AcDbHatch
 10
0.0
 20
0.0
 30
0.0
210
0.0
220
0.0
230
1.0
  2
SOLID
 70
     1
 71
     0
 91
        1
 92
        1
 93
        4
 72
     2
 10
16.62227853183705
 20
28.63383667834967
 40
7.793069760000001
 50
230.1466606584018
 51
405.3625857098611
 73
     1
 72
     1
 10
22.09782851449668
 20
34.17913096013693
 11
20.5196942813029
 21
32.54561571719387
 72
     2
 10
15.9727702478842
 20
28.05306437542822
 40
6.391989965892939
 50
315.3446315247951
 51
396.6470225937641
 73
     0
 72
     2
 10
15.47406206409434
 20
28.76254089855251
 40
7.220700683144739
 50
38.80235799376523
 51
122.1815725390078
 73
     0
 97
        0
 75
     0
 76
     1
 98
        1
 10
0.0
 20
0.0
1001
TOP
1070
     3
  0
HATCH
  5
82C
330
821
100
AcDbEntity
  8
CAMPITURE
 62
     0
100
AcDbHatch
 10
0.0
 20
0.0
 30
0.0
210
0.0
220
0.0
230
1.0
  2
SOLID
 70
     1
 71
     0
 91
        1
 92
        1
 93
        3
 72
     2
 10
16.81885121802244
 20
28.7931767617331
 40
4.763630338834137
 50
227.8543072058696
 51
406.8522865263628
 73
     1
 72
     1
 10
20.07661028255845
 20
32.26868821797836
 11
19.10736403530447
 21
31.21636372095896
 72
     2
 10
16.17002821100252
 20
28.4182512479257
 40
4.056769053873
 50
316.3905354587986
 51
488.9028708089719
 73
     0
 97
        0
 75
     0
 76
     1
 98
        1
 10
0.0
 20
0.0
1001
TOP
1070
     3
  0
HATCH
  5
832
330
821
100
AcDbEntity
  8
CAMPITURE
 62
     0
100
AcDbHatch
 10
0.0
 20
0.0
 30
0.0
210
0.0
220
0.0
230
1.0
  2
SOLID
 70
     1
 71
     0
 91
        1
 92
        1
 93
        5
 72
     2
 10
16.45690671951999
 20
30.05594897763183
 40
5.558875133404747
 50
125.3768514667706
 51
178.6115147484838
 73
     1
 72
     2
 10
16.49783519669401
 20
29.33437419505527
 40
5.663278842528497
 50
171.3036725542784
 51
228.0269063594487
 73
     1
 72
     1
 10
12.7103388034225
 20
25.12395873821656
 11
10.96271911221253
 21
23.27647506464784
 72
     2
 10
16.62227853183705
 20
28.63383667834967
 40
7.793069759999999
 50
136.5712482747769
 51
310.1738990574639
 73
     0
 72
     2
 10
17.44412459906672
 20
28.66560919669609
 40
7.26405660414231
 50
54.62314853322836
 51
125.3768514667716
 73
     1
 97
        0
 75
     0
 76
     1
 98
        1
 10
0.0
 20
0.0
1001
TOP
1070
     3
  0
HATCH
  5
836
330
821
100
AcDbEntity
  8
CAMPITURE
 62
     0
100
AcDbHatch
 10
0.0
 20
0.0
 30
0.0
210
0.0
220
0.0
230
1.0
  2
SOLID
 70
     1
 71
     0
 91
        1
 92
        1
 93
        3
 72
     1
 10
14.28882554895235
 20
26.59167448405853
 11
13.31957930169637
 21
25.53934998704055
 72
     2
 10
16.57733836623376
 20
29.01486144328487
 40
4.763630338834137
 50
133.1477134736566
 51
312.1456927941124
 73
     0
 72
     2
 10
17.22616137325187
 20
29.3897869570925
 40
4.056769053873
 50
51.09712919102806
 51
223.6094645412325
 73
     1
 97
        0
 75
     0
 76
     1
 98
        1
 10
0.0
 20
0.0
1001
TOP
1070
     3
  0
HATCH
  5
83B
330
821
100
AcDbEntity
  8
CAMPITURE
 62
     0
100
AcDbHatch
 10
0.0
 20
0.0
 30
0.0
210
0.0
220
0.0
230
1.0
  2
SOLID
 70
     1
 71
     0
 91
        1
 92
        1
 93
        4
 72
     1
 10
33.59747200909241
 20
36.52417213444659
 11
34.69527835789437
 21
36.52417213444659
 72
     1
 10
34.69527835789437
 20
36.52417213444659
 11
34.69527835789437
 21
37.50000000004681
 72
     1
 10
34.69527835789437
 20
37.50000000004681
 11
33.59747200909241
 21
37.50000000004681
 72
     1
 10
33.59747200909241
 20
37.50000000004681
 11
33.59747200909241
 21
36.52417213444659
 97
        0
 75
     0
 76
     1
 98
        1
 10
0.0
 20
0.0
1001
TOP
1070
     3
  0
HATCH
  5
848
330
821
100
AcDbEntity
  8
CAMPITURE
 62
     0
100
AcDbHatch
 10
0.0
 20
0.0
 30
0.0
210
0.0
220
0.0
230
1.0
  2
SOLID
 70
     1
 71
     0
 91
        2
 92
        0
 93
        6
 72
     1
 10
31.76689732019566
 20
33.84064550404673
 11
31.76689732019566
 21
34.81647336964636
 72
     2
 10
30.18117703859566
 20
34.81647336964636
 40
1.5857202816
 50
0.0
 51
90.0
 73
     1
 72
     1
 10
30.18117703859566
 20
36.40219365124636
 11
28.59545675699515
 21
36.40219365124654
 72
     1
 10
28.59545675699515
 20
36.40219365124654
 11
28.59545675699515
 21
32.2549252224467
 72
     1
 10
28.59545675699515
 20
32.2549252224467
 11
30.18117703859566
 21
32.25492522244674
 72
     2
 10
30.18117703859566
 20
33.84064550404673
 40
1.5857202816
 50
270.0
 51
360.0
 73
     1
 97
        0
 92
        1
 93
        6
 72
     1
 10
27.49765040819579
 20
31.15711887364663
 11
30.42513400499493
 21
31.15711887364663
 72
     2
 10
30.42513400499493
 20
33.59668853764663
 40
2.439569663999999
 50
270.0
 51
360.0
 73
     1
 72
     1
 10
32.86470366899493
 20
33.59668853764663
 11
32.86470366899493
 21
35.06043033604644
 72
     2
 10
30.42513400499493
 20
35.06043033604644
 40
2.439569663999999
 50
0.0
 51
90.0
 73
     1
 72
     1
 10
30.42513400499493
 20
37.50000000004681
 11
27.49765040819579
 21
37.50000000004681
 72
     1
 10
27.49765040819579
 20
37.50000000004681
 11
27.49765040819579
 21
31.15711887364663
 97
        0
 75
     0
 76
     1
 98
        1
 10
0.0
 20
0.0
1001
TOP
1070
     5
  0
HATCH
  5
84D
330
821
100
AcDbEntity
  8
CAMPITURE
 62
     0
100
AcDbHatch
 10
0.0
 20
0.0
 30
0.0
210
0.0
220
0.0
230
1.0
  2
SOLID
 70
     1
 71
     0
 91
        1
 92
        1
 93
        4
 72
     1
 10
34.69527835789437
 20
31.15711887364663
 11
34.69527835789437
 21
36.03625820164649
 72
     1
 10
34.69527835789437
 20
36.03625820164649
 11
33.59747200909241
 21
36.03625820164649
 72
     1
 10
33.59747200909241
 20
36.03625820164649
 11
33.59747200909241
 21
31.15711887364663
 72
     1
 10
33.59747200909241
 20
31.15711887364663
 11
34.69527835789437
 21
31.15711887364663
 97
        0
 75
     0
 76
     1
 98
        1
 10
0.0
 20
0.0
1001
TOP
1070
     5
  0
HATCH
  5
854
330
821
100
AcDbEntity
  8
CAMPITURE
 62
     0
100
AcDbHatch
 10
0.0
 20
0.0
 30
0.0
210
0.0
220
0.0
230
1.0
  2
SOLID
 70
     1
 71
     0
 91
        2
 92
        0
 93
        2
 72
     1
 10
36.6655913799339
 20
34.29665420191658
 11
39.0681007204374
 21
34.29665420191658
 72
     2
 10
37.86684605018565
 20
33.77532249424928
 40
1.309503544180366
 50
23.46032899247159
 51
156.5396710075284
 73
     1
 97
        0
 92
        1
 93
        4
 72
     2
 10
37.8667189210941
 20
33.59668853764663
 40
2.439569664000001
 50
354.0835439993975
 51
702.357417533675
 73
     1
 72
     1
 10
40.19154508968521
 20
32.85730810015653
 11
39.05018876106895
 21
32.85730810015664
 72
     2
 10
37.8667189210941
 20
33.71866702084651
 40
1.463741798400002
 50
36.04806361998216
 51
165.2186896277143
 73
     0
 72
     1
 10
36.45141722414005
 20
33.34522203295672
 11
40.29329361446912
 21
33.34522203295664
 97
        0
 75
     0
 76
     1
 98
        1
 10
0.0
 20
0.0
1001
TOP
1070
     5
  0
HATCH
  5
85E
330
821
100
AcDbEntity
  8
CAMPITURE
 62
     0
100
AcDbHatch
 10
0.0
 20
0.0
 30
0.0
210
0.0
220
0.0
230
1.0
  2
SOLID
 70
     1
 71
     0
 91
        1
 92
        1
 93
        9
 72
     2
 10
43.43211012991381
 20
34.3394191817174
 40
1.700520210299701
 50
93.77067625264224
 51
154.912967180733
 73
     1
 72
     1
 10
41.89200886669399
 20
35.06043033604618
 11
41.89200886669389
 21
36.0362582016465
 72
     1
 10
41.89200886669389
 20
36.03625820164649
 11
40.79420251789389
 21
36.03625820164649
 72
     1
 10
40.79420251789389
 20
36.03625820164649
 11
40.79420251789389
 21
31.15711887364663
 72
     1
 10
40.79420251789389
 20
31.15711887364663
 11
41.89200886669389
 21
31.15711887364663
 72
     1
 10
41.89200886669389
 20
31.15711887364663
 11
41.89200886669491
 21
34.08460247044668
 72
     2
 10
43.77544761583407
 20
32.75491065838392
 40
2.30551986259622
 50
215.2217679857613
 51
270.0229488686928
 73
     0
 72
     1
 10
43.77637105333035
 20
35.06043033604639
 11
43.7763710533296
 21
36.03625820164649
 72
     1
 10
43.77637105332959
 20
36.03625820164649
 11
43.3202784435059
 21
36.03625820164649
 97
        0
 75
     0
 76
     1
 98
        1
 10
0.0
 20
0.0
1001
TOP
1070
     5
  0
HATCH
  5
868
330
821
100
AcDbEntity
  8
CAMPITURE
 62
     0
100
AcDbHatch
 10
0.0
 20
0.0
 30
0.0
210
0.0
220
0.0
230
1.0
  2
SOLID
 70
     1
 71
     0
 91
        1
 92
        1
 93
        9
 72
     1
 10
45.6050338953021
 20
35.06043033604618
 11
45.60503389530264
 21
36.0362582016465
 72
     1
 10
45.60503389530264
 20
36.03625820164649
 11
44.50722754650199
 21
36.03625820164649
 72
     1
 10
44.50722754650199
 20
36.03625820164649
 11
44.50722754650199
 21
31.15711887364663
 72
     1
 10
44.50722754650199
 20
31.15711887364663
 11
45.60503389530265
 21
31.15711887364663
 72
     1
 10
45.60503389530264
 20
31.15711887364663
 11
45.60503389530264
 21
34.08460247044656
 72
     2
 10
47.48847264444086
 20
32.75491065838392
 40
2.30551986259622
 50
215.2217679857723
 51
270.0229488686928
 73
     0
 72
     1
 10
47.48939608193714
 20
35.06043033604639
 11
47.4893960819377
 21
36.03625820164649
 72
     1
 10
47.48939608193769
 20
36.03625820164649
 11
47.03330347211468
 21
36.03625820164624
 72
     2
 10
47.1451351585219
 20
34.3394191817174
 40
1.700520210299701
 50
93.77067625261974
 51
154.9129671807329
 73
     1
 97
        0
 75
     0
 76
     1
 98
        1
 10
0.0
 20
0.0
1001
TOP
1070
     5
  0
HATCH
  5
86F
330
821
100
AcDbEntity
  8
CAMPITURE
 62
     0
100
AcDbHatch
 10
0.0
 20
0.0
 30
0.0
210
0.0
220
0.0
230
1.0
  2
SOLID
 70
     1
 71
     0
 91
        2
 92
        0
 93
        2
 72
     1
 10
51.36353182699732
 20
34.29665420191658
 11
48.96102248649381
 21
34.29665420191658
 72
     2
 10
50.16227715674556
 20
33.77532249424928
 40
1.309503544180366
 50
203.4603289924716
 51
336.5396710075286
 73
     0
 97
        0
 92
        1
 93
        4
 72
     2
 10
50.16215002765402
 20
33.59668853764663
 40
2.439569664000001
 50
354.0835439993975
 51
702.357417533673
 73
     1
 72
     1
 10
52.48697619624445
 20
32.85730810015664
 11
51.34561986762887
 21
32.85730810015664
 72
     2
 10
50.16215002765402
 20
33.71866702084651
 40
1.463741798400002
 50
36.04806361998227
 51
165.2186896277337
 73
     0
 72
     1
 10
48.746848330698
 20
33.34522203295672
 11
52.58872472102904
 21
33.34522203295664
 97
        0
 75
     0
 76
     1
 98
        1
 10
0.0
 20
0.0
1001
TOP
1070
     5
  0
LINE
  5
870
330
821
100
AcDbEntity
  8
ASSI
 62
     0
 48
4.951167106628417
100
AcDbLine
 10
186.3571688111378
 20
13.95908273017323
 30
0.0
 11
202.1449550471707
 21
13.95908273017323
 31
0.0
1001
TOP
1070
   256
  0
LINE
  5
871
330
821
100
AcDbEntity
  8
CARTIGLIO
 62
     0
100
AcDbLine
 10
38.75
 20
18.0
 30
0.0
 11
38.75
 21
10.0
 31
0.0
1001
TOP
1070
   256
  0
LINE
  5
872
330
821
100
AcDbEntity
  8
CARTIGLIO
 62
     0
100
AcDbLine
 10
72.5
 20
18.0
 30
0.0
 11
72.5
 21
10.0
 31
0.0
1001
TOP
1070
   256
  0
LINE
  5
873
330
821
100
AcDbEntity
  8
CARTIGLIO
 62
     0
100
AcDbLine
 10
140.0
 20
18.0
 30
0.0
 11
205.0
 21
18.0
 31
0.0
1001
TOP
1070
   256
  0
LINE
  5
874
330
821
100
AcDbEntity
  8
CARTIGLIO
 62
     0
100
AcDbLine
 10
183.5
 20
10.0
 30
0.0
 11
183.5
 21
18.0
 31
0.0
1001
TOP
1070
   256
  0
LINE
  5
875
330
821
100
AcDbEntity
  8
CARTIGLIO
 62
     0
100
AcDbLine
 10
140.0
 20
55.00000000000011
 30
0.0
 11
205.0
 21
55.00000000000011
 31
0.0
1001
TOP
1070
   256
  0
LINE
  5
876
330
821
100
AcDbEntity
  8
CARTIGLIO
 62
     0
100
AcDbLine
 10
140.0
 20
62.50000000000011
 30
0.0
 11
205.0
 21
62.50000000000011
 31
0.0
1001
TOP
1070
   256
  0
LINE
  5
877
330
821
100
AcDbEntity
  8
CARTIGLIO
 62
     0
100
AcDbLine
 10
140.0
 20
47.50000000000011
 30
0.0
 11
205.0
 21
47.50000000000011
 31
0.0
1001
TOP
1070
   256
  0
LINE
  5
878
330
821
100
AcDbEntity
  8
CARTIGLIO
 62
     0
100
AcDbLine
 10
177.0
 20
70.00000000000011
 30
0.0
 11
177.0
 21
55.0
 31
0.0
1001
TOP
1070
   256
  0
LINE
  5
879
330
821
100
AcDbEntity
  8
CARTIGLIO
 62
     0
100
AcDbLine
 10
106.25
 20
18.0
 30
0.0
 11
106.25
 21
10.0
 31
0.0
1001
TOP
1070
   256
  0
LINE
  5
87A
330
821
100
AcDbEntity
  8
CARTIGLIO
 62
     0
100
AcDbLine
 10
140.0
 20
33.75000000000011
 30
0.0
 11
205.0
 21
33.75000000000011
 31
0.0
1001
TOP
1070
   256
  0
LINE
  5
87B
330
821
100
AcDbEntity
  8
CARTIGLIO
 62
     0
100
AcDbLine
 10
140.0
 20
23.75000000000011
 30
0.0
 11
205.0
 21
23.75000000000011
 31
0.0
1001
TOP
1070
   256
  0
LINE
  5
87C
330
821
100
AcDbEntity
  8
CARTIGLIO SOTTILE
 62
     0
100
AcDbLine
 10
5.0
 20
70.0
 30
0.0
 11
205.0
 21
70.00000000000011
 31
0.0
1001
TOP
1070
   256
  0
LINE
  5
87D
330
821
100
AcDbEntity
  8
CARTIGLIO SOTTILE
 62
     0
100
AcDbLine
 10
140.0
 20
70.0
 30
0.0
 11
140.0
 21
10.0
 31
0.0
1001
TOP
1070
   256
  0
LINE
  5
87E
330
821
100
AcDbEntity
  8
CARTIGLIO SOTTILE
 62
     0
100
AcDbLine
 10
5.0
 20
81.5
 30
0.0
 11
204.9999999999991
 21
81.5
 31
0.0
1001
TOP
1070
   256
  0
LINE
  5
87F
330
821
100
AcDbEntity
  8
CARTIGLIO SOTTILE
 62
     0
100
AcDbLine
 10
205.0
 20
10.0
 30
0.0
 11
5.0
 21
10.0
 31
0.0
1001
TOP
1070
   256
  0
LINE
  5
880
330
821
100
AcDbEntity
  8
CARTIGLIO SOTTILE
 62
     0
100
AcDbLine
 10
5.0
 20
77.5
 30
0.0
 11
204.9999999999991
 21
77.49999999999989
 31
0.0
1001
TOP
1070
   256
  0
LINE
  5
881
330
821
100
AcDbEntity
  8
CARTIGLIO SOTTILE
 62
     0
100
AcDbLine
 10
5.000000000000078
 20
86.49999999999998
 30
0.0
 11
204.9999999999991
 21
86.50000000000011
 31
0.0
1001
TOP
1070
   256
  0
LINE
  5
882
330
821
100
AcDbEntity
  8
CARTIGLIO SOTTILE 2
 62
     0
100
AcDbLine
 10
5.0
 20
18.0
 30
0.0
 11
140.0
 21
18.0
 31
0.0
1001
TOP
1070
   256
  0
LINE
  5
883
330
821
100
AcDbEntity
  8
CARTIGLIO SOTTILE 2
 62
     0
100
AcDbLine
 10
5.0
 20
40.0
 30
0.0
 11
140.0
 21
40.0
 31
0.0
1001
TOP
1070
   256
  0
LINE
  5
884
330
821
100
AcDbEntity
  8
CARTIGLIO SOTTILE 2
 62
     0
100
AcDbLine
 10
119.9999999999991
 20
77.49999999999977
 30
0.0
 11
120.0
 21
70.0
 31
0.0
1001
TOP
1070
   256
  0
LINE
  5
885
330
821
100
AcDbEntity
  8
CARTIGLIO SOTTILE 2
 62
     0
100
AcDbLine
 10
185.0
 20
86.50000000000011
 30
0.0
 11
185.0000000000009
 21
77.49999999999989
 31
0.0
1001
TOP
1070
   256
  0
LINE
  5
886
330
821
100
AcDbEntity
  8
CARTIGLIO SOTTILE 2
 62
     0
100
AcDbLine
 10
5.0
 20
50.0
 30
0.0
 11
140.0
 21
50.0
 31
0.0
1001
TOP
1070
   256
  0
LINE
  5
887
330
821
100
AcDbEntity
  8
CARTIGLIO SOTTILE 2
 62
     0
100
AcDbLine
 10
170.0000000000003
 20
86.50000000000009
 30
0.0
 11
170.0000000000009
 21
77.49999999999886
 31
0.0
1001
TOP
1070
   256
  0
LINE
  5
888
330
821
100
AcDbEntity
  8
CARTIGLIO SOTTILE 2
 62
     0
100
AcDbLine
 10
77.5
 20
45.0
 30
0.0
 11
140.0000000000009
 21
45.0
 31
0.0
1001
TOP
1070
   256
  0
LINE
  5
889
330
821
100
AcDbEntity
  8
CARTIGLIO SOTTILE 2
 62
     0
100
AcDbLine
 10
20.0
 20
86.5
 30
0.0
 11
20.0
 21
70.0
 31
0.0
1001
TOP
1070
   256
  0
LINE
  5
88A
330
821
100
AcDbEntity
  8
CARTIGLIO SOTTILE 2
 62
     0
100
AcDbLine
 10
77.5
 20
50.0
 30
0.0
 11
77.5
 21
40.0
 31
0.0
1001
TOP
1070
   256
  0
LINE
  5
88B
330
821
100
AcDbEntity
  8
CARTIGLIO SOTTILE 3
 62
     0
100
AcDbLine
 10
193.5117378886862
 20
16.95908273017323
 30
0.0
 11
186.3571688111378
 21
15.45908273017323
 31
0.0
1001
TOP
1070
   256
  0
LINE
  5
88C
330
821
100
AcDbEntity
  8
CARTIGLIO SOTTILE 3
 62
     0
100
AcDbLine
 10
83.34407416882067
 20
13.20005696797174
 30
0.0
 11
81.84407416882066
 21
10.20005696797174
 31
0.0
1001
TOP
1070
   256
  0
LINE
  5
88D
330
821
100
AcDbEntity
  8
CARTIGLIO SOTTILE 3
 62
     0
100
AcDbLine
 10
81.84407416882066
 20
10.20005696797174
 30
0.0
 11
80.34407416882066
 21
13.20005696797174
 31
0.0
1001
TOP
1070
   256
  0
LINE
  5
88E
330
821
100
AcDbEntity
  8
CARTIGLIO SOTTILE 3
 62
     0
100
AcDbLine
 10
80.34407416882066
 20
13.20005696797174
 30
0.0
 11
83.34407416882067
 21
13.20005696797174
 31
0.0
1001
TOP
1070
   256
  0
LINE
  5
88F
330
821
100
AcDbEntity
  8
CARTIGLIO SOTTILE 3
 62
     0
100
AcDbLine
 10
93.90592583117934
 20
13.20005696797174
 30
0.0
 11
95.40592583117932
 21
10.20005696797174
 31
0.0
1001
TOP
1070
   256
  0
LINE
  5
890
330
821
100
AcDbEntity
  8
CARTIGLIO SOTTILE 3
 62
     0
100
AcDbLine
 10
186.3571688111378
 20
12.45908273017323
 30
0.0
 11
193.5117378886862
 21
10.67011664676306
 31
0.0
1001
TOP
1070
   256
  0
LINE
  5
891
330
821
100
AcDbEntity
  8
CARTIGLIO SOTTILE 3
 62
     0
100
AcDbLine
 10
193.5117378886862
 20
16.95908273017323
 30
0.0
 11
193.5117378886862
 21
10.67011664676306
 31
0.0
1001
TOP
1070
   256
  0
LINE
  5
892
330
821
100
AcDbEntity
  8
CARTIGLIO SOTTILE 3
 62
     0
100
AcDbLine
 10
120.686302671082
 20
10.24405803475882
 30
0.0
 11
122.1863026710819
 21
13.24405803475882
 31
0.0
1001
TOP
1070
   256
  0
LINE
  5
893
330
821
100
AcDbEntity
  8
CARTIGLIO SOTTILE 3
 62
     0
100
AcDbLine
 10
122.1863026710819
 20
13.24405803475882
 30
0.0
 11
119.1863026710819
 21
13.24405803475882
 31
0.0
1001
TOP
1070
   256
  0
LINE
  5
894
330
821
100
AcDbEntity
  8
CARTIGLIO SOTTILE 3
 62
     0
100
AcDbLine
 10
119.1863026710819
 20
13.24405803475882
 30
0.0
 11
117.6863026710819
 21
10.24405803475882
 31
0.0
1001
TOP
1070
   256
  0
LINE
  5
895
330
821
100
AcDbEntity
  8
CARTIGLIO SOTTILE 3
 62
     0
100
AcDbLine
 10
117.6863026710819
 20
10.24405803475882
 30
0.0
 11
116.1863026710819
 21
13.24405803475882
 31
0.0
1001
TOP
1070
   256
  0
LINE
  5
896
330
821
100
AcDbEntity
  8
CARTIGLIO SOTTILE 3
 62
     0
100
AcDbLine
 10
116.1863026710819
 20
13.24405803475882
 30
0.0
 11
119.1863026710819
 21
13.24405803475882
 31
0.0
1001
TOP
1070
   256
  0
LINE
  5
897
330
821
100
AcDbEntity
  8
CARTIGLIO SOTTILE 3
 62
     0
100
AcDbLine
 10
116.1863026710819
 20
13.24405803475882
 30
0.0
 11
114.6863026710819
 21
10.24405803475882
 31
0.0
1001
TOP
1070
   256
  0
LINE
  5
898
330
821
100
AcDbEntity
  8
CARTIGLIO SOTTILE 3
 62
     0
100
AcDbLine
 10
114.6863026710819
 20
10.24405803475882
 30
0.0
 11
113.186302671082
 21
13.24405803475882
 31
0.0
1001
TOP
1070
   256
  0
LINE
  5
899
330
821
100
AcDbEntity
  8
CARTIGLIO SOTTILE 3
 62
     0
100
AcDbLine
 10
113.186302671082
 20
13.24405803475882
 30
0.0
 11
116.1863026710819
 21
13.24405803475882
 31
0.0
1001
TOP
1070
   256
  0
LINE
  5
89A
330
821
100
AcDbEntity
  8
CARTIGLIO SOTTILE 3
 62
     0
100
AcDbLine
 10
127.0491049055133
 20
13.27324288156815
 30
0.0
 11
128.5491049055133
 21
10.27324288156815
 31
0.0
1001
TOP
1070
   256
  0
LINE
  5
89B
330
821
100
AcDbEntity
  8
CARTIGLIO SOTTILE 3
 62
     0
100
AcDbLine
 10
128.5491049055133
 20
10.27324288156815
 30
0.0
 11
131.5491049055134
 21
16.27324288156815
 31
0.0
1001
TOP
1070
   256
  0
LINE
  5
89C
330
821
100
AcDbEntity
  8
CARTIGLIO SOTTILE 3
 62
     0
100
AcDbLine
 10
119.1863026710819
 20
13.24405803475882
 30
0.0
 11
120.686302671082
 21
10.24405803475882
 31
0.0
1001
TOP
1070
   256
  0
CIRCLE
  5
89D
330
821
100
AcDbEntity
  8
CARTIGLIO SOTTILE 3
 62
     0
100
AcDbCircle
 10
199.1449550471707
 20
13.95908273017323
 30
0.0
 40
3.0
1001
TOP
1070
   256
  0
LINE
  5
89E
330
821
100
AcDbEntity
  8
CARTIGLIO SOTTILE 3
 62
     0
100
AcDbLine
 10
199.1449550471707
 20
16.95908273017323
 30
0.0
 11
199.1449550471707
 21
10.95908273017323
 31
0.0
1001
TOP
1070
   256
  0
CIRCLE
  5
89F
330
821
100
AcDbEntity
  8
CARTIGLIO SOTTILE 3
 62
     0
100
AcDbCircle
 10
199.1449550471707
 20
13.95908273017323
 30
0.0
 40
1.5
1001
TOP
1070
   256
  0
LINE
  5
8A0
330
821
100
AcDbEntity
  8
CARTIGLIO SOTTILE 3
 62
     0
100
AcDbLine
 10
186.3571688111378
 20
15.45908273017323
 30
0.0
 11
186.3571688111378
 21
12.45908273017323
 31
0.0
1001
TOP
1070
   256
  0
LINE
  5
8A1
330
821
100
AcDbEntity
  8
CARTIGLIO SOTTILE 3
 62
     0
100
AcDbLine
 10
61.3188375510694
 20
13.16020560119236
 30
0.0
 11
62.81883755106941
 21
10.16020560119236
 31
0.0
1001
TOP
1070
   256
  0
LINE
  5
8A2
330
821
100
AcDbEntity
  8
CARTIGLIO SOTTILE 3
 62
     0
100
AcDbLine
 10
20.375
 20
13.21463226117144
 30
0.0
 11
21.875
 21
10.21463226117144
 31
0.0
1001
TOP
1070
   256
  0
LINE
  5
8A3
330
821
100
AcDbEntity
  8
CARTIGLIO SOTTILE 3
 62
     0
100
AcDbLine
 10
62.81883755106941
 20
10.16020560119236
 30
0.0
 11
65.8188375510694
 21
16.16020560119236
 31
0.0
1001
TOP
1070
   256
  0
LINE
  5
8A4
330
821
100
AcDbEntity
  8
CARTIGLIO SOTTILE 3
 62
     0
100
AcDbLine
 10
46.93116244893059
 20
13.16020560119236
 30
0.0
 11
48.4311624489306
 21
10.16020560119236
 31
0.0
1001
TOP
1070
   256
  0
LINE
  5
8A5
330
821
100
AcDbEntity
  8
CARTIGLIO SOTTILE 3
 62
     0
100
AcDbLine
 10
95.40592583117932
 20
10.20005696797174
 30
0.0
 11
98.40592583117933
 21
16.20005696797174
 31
0.0
1001
TOP
1070
   256
  0
LINE
  5
8A6
330
821
100
AcDbEntity
  8
CARTIGLIO SOTTILE 3
 62
     0
100
AcDbLine
 10
21.875
 20
10.21463226117144
 30
0.0
 11
24.87500000000001
 21
16.21463226117144
 31
0.0
1001
TOP
1070
   256
  0
LINE
  5
8A7
330
821
100
AcDbEntity
  8
CARTIGLIO SOTTILE 3
 62
     0
100
AcDbLine
 10
49.93116244893059
 20
13.16020560119236
 30
0.0
 11
46.93116244893059
 21
13.16020560119236
 31
0.0
1001
TOP
1070
   256
  0
LINE
  5
8A8
330
821
100
AcDbEntity
  8
CARTIGLIO SOTTILE 3
 62
     0
100
AcDbLine
 10
48.4311624489306
 20
10.16020560119236
 30
0.0
 11
49.93116244893059
 21
13.16020560119236
 31
0.0
1001
TOP
1070
   256
  0
LINE
  5
8A9
330
821
100
AcDbEntity
  8
CARTIGLIO SOTTILE 3
 62
     0
100
AcDbLine
 10
83.34407416882067
 20
13.20005696797174
 30
0.0
 11
84.84407416882067
 21
10.20005696797174
 31
0.0
1001
TOP
1070
   256
  0
CIRCLE
  5
8AA
330
821
100
AcDbEntity
  8
CARTIGLIO SOTTILE 3
 62
     0
100
AcDbCircle
 10
21.875
 20
12.34860685738704
 30
0.0
 40
0.8660254037843873
1001
TOP
1070
   256
  0
LINE
  5
8AB
330
821
100
AcDbEntity
  8
CARTIGLIO SOTTILE 3
 62
     0
100
AcDbLine
 10
84.84407416882067
 20
10.20005696797174
 30
0.0
 11
86.34407416882067
 21
13.20005696797174
 31
0.0
1001
TOP
1070
   256
  0
LINE
  5
8AC
330
821
100
AcDbEntity
  8
CARTIGLIO SOTTILE 3
 62
     0
100
AcDbLine
 10
86.34407416882067
 20
13.20005696797174
 30
0.0
 11
83.34407416882067
 21
13.20005696797174
 31
0.0
1001
TOP
1070
   256
  0
LINE
  5
8AD
330
821
100
AcDbEntity
  8
LOGO
 62
     0
100
AcDbLine
 10
27.49765040819579
 20
24.44455623301195
 30
0.0
 11
29.74535668585389
 21
24.44455623301195
 31
0.0
1001
TOP
1070
   256
  0
LINE
  5
8AE
330
821
100
AcDbEntity
  8
LOGO
 62
     0
100
AcDbLine
 10
29.74535668585389
 20
24.44455623301195
 30
0.0
 11
27.49765040819579
 21
24.44455623301195
 31
0.0
1001
TOP
1070
   256
  0
LINE
  5
8AF
330
821
100
AcDbEntity
  8
LOGO
 62
     0
100
AcDbLine
 10
27.49765040819579
 20
29.88098682769641
 30
0.0
 11
29.74535668585389
 21
29.88098682769641
 31
0.0
1001
TOP
1070
   256
  0
LINE
  5
8B0
330
821
100
AcDbEntity
  8
LOGO
 62
     0
100
AcDbLine
 10
27.49765040819579
 20
24.44455623301195
 30
0.0
 11
27.49765040819579
 21
29.88098682769641
 31
0.0
1001
TOP
1070
   256
  0
LINE
  5
8B1
330
821
100
AcDbEntity
  8
LOGO
 62
     0
100
AcDbLine
 10
27.49765040819579
 20
24.44455623301195
 30
0.0
 11
27.49765040819579
 21
29.88098682769641
 31
0.0
1001
TOP
1070
   256
  0
LINE
  5
8B2
330
821
100
AcDbEntity
  8
LOGO
 62
     0
100
AcDbLine
 10
32.52193502884332
 20
26.7335796413002
 30
0.0
 11
31.13364585734859
 21
24.44455623301195
 31
0.0
1001
TOP
1070
   256
  0
LINE
  5
8B3
330
821
100
AcDbEntity
  8
LOGO
 62
     0
100
AcDbLine
 10
32.52193502884332
 20
26.7335796413002
 30
0.0
 11
32.52193502884332
 21
24.44455623301195
 31
0.0
1001
TOP
1070
   256
  0
LINE
  5
8B4
330
821
100
AcDbEntity
  8
LOGO
 62
     0
100
AcDbLine
 10
32.52193502884332
 20
26.7335796413002
 30
0.0
 11
31.13364585734859
 21
24.44455623301195
 31
0.0
1001
TOP
1070
   256
  0
LINE
  5
8B5
330
821
100
AcDbEntity
  8
LOGO
 62
     0
100
AcDbLine
 10
32.52193502884332
 20
24.44455623301195
 30
0.0
 11
32.52193502884332
 21
26.7335796413002
 31
0.0
1001
TOP
1070
   256
  0
LINE
  5
8B6
330
821
100
AcDbEntity
  8
LOGO
 62
     0
100
AcDbLine
 10
29.74535668585389
 20
24.44455623301195
 30
0.0
 11
29.74535668585389
 21
26.7335796413002
 31
0.0
1001
TOP
1070
   256
  0
LINE
  5
8B7
330
821
100
AcDbEntity
  8
LOGO
 62
     0
100
AcDbLine
 10
29.74535668585389
 20
26.7335796413002
 30
0.0
 11
29.74535668585389
 21
24.44455623301195
 31
0.0
1001
TOP
1070
   256
  0
LINE
  5
8B8
330
821
100
AcDbEntity
  8
LOGO
 62
     0
100
AcDbLine
 10
29.74535668585389
 20
26.7335796413002
 30
0.0
 11
31.13364585734859
 21
24.44455623301195
 31
0.0
1001
TOP
1070
   256
  0
LINE
  5
8B9
330
821
100
AcDbEntity
  8
LOGO
 62
     0
100
AcDbLine
 10
31.13364585734859
 20
24.44455623301195
 30
0.0
 11
29.74535668585389
 21
26.7335796413002
 31
0.0
1001
TOP
1070
   256
  0
LINE
  5
8BA
330
821
100
AcDbEntity
  8
LOGO
 62
     0
100
AcDbLine
 10
32.52193502884332
 20
29.88098682769641
 30
0.0
 11
31.13364585734859
 21
27.59196341940827
 31
0.0
1001
TOP
1070
   256
  0
LINE
  5
8BB
330
821
100
AcDbEntity
  8
LOGO
 62
     0
100
AcDbLine
 10
31.13364585734859
 20
27.59196341940827
 30
0.0
 11
32.52193502884332
 21
29.88098682769641
 31
0.0
1001
TOP
1070
   256
  0
LINE
  5
8BC
330
821
100
AcDbEntity
  8
LOGO
 62
     0
100
AcDbLine
 10
29.74535668585389
 20
29.88098682769641
 30
0.0
 11
31.13364585734859
 21
27.59196341940827
 31
0.0
1001
TOP
1070
   256
  0
LINE
  5
8BD
330
821
100
AcDbEntity
  8
LOGO
 62
     0
100
AcDbLine
 10
29.74535668585389
 20
29.88098682769641
 30
0.0
 11
31.13364585734859
 21
27.59196341940827
 31
0.0
1001
TOP
1070
   256
  0
ELLIPSE
  5
8BE
330
821
100
AcDbEntity
  8
LOGO
 62
     0
100
AcDbEllipse
 10
39.89836754380895
 20
28.45034719751635
 30
0.0
 11
0.0000000000000069
 21
1.430639630180138
 31
0.0
210
0.0
220
0.0
230
1.0
 40
0.9241881291669729
 41
0.0000000000000258
 42
2.205823062185234
1001
TOP
1070
   256
  0
LINE
  5
8BF
330
821
100
AcDbEntity
  8
LOGO
 62
     0
100
AcDbLine
 10
40.45501600881316
 20
24.44455623301195
 30
0.0
 11
36.75291155149392
 21
29.88098682769641
 31
0.0
1001
TOP
1070
   256
  0
LINE
  5
8C0
330
821
100
AcDbEntity
  8
LOGO
 62
     0
100
AcDbLine
 10
36.75291155149392
 20
29.88098682769641
 30
0.0
 11
40.45501600881316
 21
24.44455623301195
 31
0.0
1001
TOP
1070
   256
  0
ELLIPSE
  5
8C1
330
821
100
AcDbEntity
  8
LOGO
 62
     0
100
AcDbEllipse
 10
39.89836754380895
 20
28.45034719751635
 30
0.0
 11
0.0000000000000073
 21
1.430639630180138
 31
0.0
210
0.0
220
0.0
230
1.0
 40
0.9241881291669608
 41
0.0000000000000258
 42
2.205823062185229
1001
TOP
1070
   256
  0
LINE
  5
8C2
330
821
100
AcDbEntity
  8
LOGO
 62
     0
100
AcDbLine
 10
40.98388807414448
 20
24.44455623301195
 30
0.0
 11
38.83393868528866
 21
27.60169314509747
 31
0.0
1001
TOP
1070
   256
  0
LINE
  5
8C3
330
821
100
AcDbEntity
  8
LOGO
 62
     0
100
AcDbLine
 10
38.83393868528866
 20
27.60169314509747
 30
0.0
 11
40.98388807414448
 21
24.44455623301195
 31
0.0
1001
TOP
1070
   256
  0
LINE
  5
8C4
330
821
100
AcDbEntity
  8
LOGO
 62
     0
100
AcDbLine
 10
37.57677368913107
 20
26.01825982621012
 30
0.0
 11
36.75291155149392
 21
27.2280769403647
 31
0.0
1001
TOP
1070
   256
  0
LINE
  5
8C5
330
821
100
AcDbEntity
  8
LOGO
 62
     0
100
AcDbLine
 10
36.75291155149392
 20
27.2280769403647
 30
0.0
 11
37.57677368913107
 21
26.01825982621012
 31
0.0
1001
TOP
1070
   256
  0
LINE
  5
8C6
330
821
100
AcDbEntity
  8
LOGO
 62
     0
100
AcDbLine
 10
35.92904941385677
 20
26.01825982621012
 30
0.0
 11
36.75291155149392
 21
27.2280769403647
 31
0.0
1001
TOP
1070
   256
  0
LINE
  5
8C7
330
821
100
AcDbEntity
  8
LOGO
 62
     0
100
AcDbLine
 10
35.92904941385677
 20
26.01825982621012
 30
0.0
 11
36.75291155149392
 21
27.2280769403647
 31
0.0
1001
TOP
1070
   256
  0
LINE
  5
8C8
330
821
100
AcDbEntity
  8
LOGO
 62
     0
100
AcDbLine
 10
35.92904941385677
 20
26.01825982621012
 30
0.0
 11
37.57677368913107
 21
26.01825982621012
 31
0.0
1001
TOP
1070
   256
  0
LINE
  5
8C9
330
821
100
AcDbEntity
  8
LOGO
 62
     0
100
AcDbLine
 10
37.57677368913107
 20
26.01825982621012
 30
0.0
 11
35.92904941385677
 21
26.01825982621012
 31
0.0
1001
TOP
1070
   256
  0
LINE
  5
8CA
330
821
100
AcDbEntity
  8
LOGO
 62
     0
100
AcDbLine
 10
40.98388807414448
 20
24.44455623301195
 30
0.0
 11
42.55252007617436
 21
26.74804580386314
 31
0.0
1001
TOP
1070
   256
  0
LINE
  5
8CB
330
821
100
AcDbEntity
  8
LOGO
 62
     0
100
AcDbLine
 10
40.98388807414448
 20
24.44455623301195
 30
0.0
 11
42.55252007617436
 21
26.74804580386314
 31
0.0
1001
TOP
1070
   256
  0
LINE
  5
8CC
330
821
100
AcDbEntity
  8
LOGO
 62
     0
100
AcDbLine
 10
42.55252007617436
 20
26.74804580386314
 30
0.0
 11
41.53074433343987
 21
26.74804580386314
 31
0.0
1001
TOP
1070
   256
  0
LINE
  5
8CD
330
821
100
AcDbEntity
  8
LOGO
 62
     0
100
AcDbLine
 10
41.53074433343987
 20
27.57749725684523
 30
0.0
 11
43.11736052943384
 21
27.57749725684523
 31
0.0
1001
TOP
1070
   256
  0
LINE
  5
8CE
330
821
100
AcDbEntity
  8
LOGO
 62
     0
100
AcDbLine
 10
42.55252007617436
 20
26.74804580386314
 30
0.0
 11
41.53074433343987
 21
26.74804580386314
 31
0.0
1001
TOP
1070
   256
  0
LINE
  5
8CF
330
821
100
AcDbEntity
  8
LOGO
 62
     0
100
AcDbLine
 10
43.11736052943384
 20
27.57749725684523
 30
0.0
 11
41.53074433343987
 21
27.57749725684523
 31
0.0
1001
TOP
1070
   256
  0
ELLIPSE
  5
8D0
330
821
100
AcDbEntity
  8
LOGO
 62
     0
100
AcDbEllipse
 10
41.53074433343987
 20
27.16277153035418
 30
0.0
 11
-0.0000000000000006
 21
0.4147257264910956
 31
0.0
210
0.0
220
0.0
230
1.0
 40
0.9241881291669779
 41
0.0
 42
3.141592653589791
1001
TOP
1070
   256
  0
ELLIPSE
  5
8D1
330
821
100
AcDbEntity
  8
LOGO
 62
     0
100
AcDbEllipse
 10
41.53074433343987
 20
27.16277153035418
 30
0.0
 11
0.000000000000002
 21
0.4147257264910956
 31
0.0
210
0.0
220
0.0
230
1.0
 40
0.9241881291669436
 41
0.0000000000000053
 42
3.141592653589798
1001
TOP
1070
   256
  0
ELLIPSE
  5
8D2
330
821
100
AcDbEntity
  8
LOGO
 62
     0
100
AcDbEllipse
 10
49.44584111944561
 20
28.16421927148028
 30
0.0
 11
0.000000000000003
 21
0.6294814372792281
 31
0.0
210
0.0
220
0.0
230
1.0
 40
0.9241881291670022
 41
3.141592653589859
 42
6.283185307179636
1001
TOP
1070
   256
  0
ELLIPSE
  5
8D3
330
821
100
AcDbEntity
  8
LOGO
 62
     0
100
AcDbEllipse
 10
49.44584111944561
 20
28.16421927148025
 30
0.0
 11
0.0000000000000086
 21
1.716767556216168
 31
0.0
210
0.0
220
0.0
230
1.0
 40
0.702904104034317
 41
3.1415926535898
 42
6.283185307179593
1001
TOP
1070
   256
  0
LINE
  5
8D4
330
821
100
AcDbEntity
  8
LOGO
 62
     0
370
     5
100
AcDbLine
 10
19.10736403530447
 20
31.21636372095896
 30
0.0
 11
20.07661028255845
 21
32.26868821797836
 31
0.0
1001
TOP
1070
   256
  0
ELLIPSE
  5
8D5
330
821
100
AcDbEntity
  8
LOGO
 62
     0
100
AcDbEllipse
 10
49.44584111944561
 20
28.16421927148025
 30
0.0
 11
0.0000000000000086
 21
1.716767556216167
 31
0.0
210
0.0
220
0.0
230
1.0
 40
0.7028906291023329
 41
3.1415926535898
 42
6.283185307179593
1001
TOP
1070
   256
  0
LINE
  5
8D6
330
821
100
AcDbEntity
  8
LOGO
 62
     0
100
AcDbLine
 10
45.21486459679504
 20
27.2280769403647
 30
0.0
 11
46.03872673443219
 21
26.01825982621012
 31
0.0
1001
TOP
1070
   256
  0
LINE
  5
8D7
330
821
100
AcDbEntity
  8
LOGO
 62
     0
100
AcDbLine
 10
46.03872673443219
 20
26.01825982621012
 30
0.0
 11
45.21486459679504
 21
27.2280769403647
 31
0.0
1001
TOP
1070
   256
  0
LINE
  5
8D8
330
821
100
AcDbEntity
  8
LOGO
 62
     0
100
AcDbLine
 10
48.91696905411429
 20
24.44455623301195
 30
0.0
 11
45.21486459679504
 21
29.88098682769641
 31
0.0
1001
TOP
1070
   256
  0
LINE
  5
8D9
330
821
100
AcDbEntity
  8
LOGO
 62
     0
100
AcDbLine
 10
49.44584111944561
 20
24.44455623301195
 30
0.0
 11
45.74373666212635
 21
29.88098682769641
 31
0.0
1001
TOP
1070
   256
  0
LINE
  5
8DA
330
821
100
AcDbEntity
  8
LOGO
 62
     0
100
AcDbLine
 10
49.44584111944561
 20
24.44455623301195
 30
0.0
 11
45.74373666212635
 21
29.88098682769641
 31
0.0
1001
TOP
1070
   256
  0
LINE
  5
8DB
330
821
100
AcDbEntity
  8
LOGO
 62
     0
100
AcDbLine
 10
48.91696905411429
 20
24.44455623301195
 30
0.0
 11
45.21486459679504
 21
29.88098682769641
 31
0.0
1001
TOP
1070
   256
  0
LINE
  5
8DC
330
821
100
AcDbEntity
  8
LOGO
 62
     0
100
AcDbLine
 10
49.44584111944561
 20
24.44455623301195
 30
0.0
 11
49.44584111944561
 21
26.44745171526408
 31
0.0
1001
TOP
1070
   256
  0
LINE
  5
8DD
330
821
100
AcDbEntity
  8
LOGO
 62
     0
100
AcDbLine
 10
49.44584111944561
 20
26.44745171526408
 30
0.0
 11
49.44584111944561
 21
24.44455623301195
 31
0.0
1001
TOP
1070
   256
  0
LINE
  5
8DE
330
821
100
AcDbEntity
  8
LOGO
 62
     0
100
AcDbLine
 10
45.74373666212635
 20
29.88098682769641
 30
0.0
 11
49.44584111944561
 21
29.88098682769642
 31
0.0
1001
TOP
1070
   256
  0
LINE
  5
8DF
330
821
100
AcDbEntity
  8
LOGO
 62
     0
100
AcDbLine
 10
45.74373666212635
 20
29.88098682769641
 30
0.0
 11
49.44584111944561
 21
29.88098682769642
 31
0.0
1001
TOP
1070
   256
  0
LINE
  5
8E0
330
821
100
AcDbEntity
  8
LOGO
 62
     0
100
AcDbLine
 10
49.44584111944564
 20
27.53473783420105
 30
0.0
 11
48.58851166617167
 21
28.79370070875956
 31
0.0
1001
TOP
1070
   256
  0
LINE
  5
8E1
330
821
100
AcDbEntity
  8
LOGO
 62
     0
100
AcDbLine
 10
48.58851166617167
 20
28.79370070875956
 30
0.0
 11
49.44584111944561
 21
28.79370070875951
 31
0.0
1001
TOP
1070
   256
  0
ARC
  5
8E2
330
821
100
AcDbEntity
  8
LOGO
 62
     0
370
     5
100
AcDbCircle
 10
17.44412459906672
 20
28.66560919669609
 30
0.0
 40
7.264056604142309
100
AcDbArc
 50
54.62314853322836
 51
125.3768514667716
1001
TOP
1070
   256
  0
ARC
  5
8E3
330
821
100
AcDbEntity
  8
LOGO
 62
     0
370
     5
100
AcDbCircle
 10
16.62227853183705
 20
28.63383667834967
 30
0.0
 40
7.793069759999999
100
AcDbArc
 50
49.82610094253605
 51
223.428751725223
1001
TOP
1070
   256
  0
ARC
  5
8E4
330
821
100
AcDbEntity
  8
LOGO
 62
     0
370
     5
100
AcDbCircle
 10
17.22616137325187
 20
29.3897869570925
 30
0.0
 40
4.056769053873
100
AcDbArc
 50
51.097129191028
 51
223.6094645412325
1001
TOP
1070
   256
  0
ARC
  5
8E5
330
821
100
AcDbEntity
  8
LOGO
 62
     0
370
     5
100
AcDbCircle
 10
16.57733836623376
 20
29.01486144328487
 30
0.0
 40
4.763630338834137
100
AcDbArc
 50
47.85430720588766
 51
226.8522865263435
1001
TOP
1070
   256
  0
ARC
  5
8E6
330
821
100
AcDbEntity
  8
LOGO
 62
     0
370
     5
100
AcDbCircle
 10
16.17002821100252
 20
28.4182512479257
 30
0.0
 40
4.056769053873
100
AcDbArc
 50
231.0971291910281
 51
43.60946454120151
1001
TOP
1070
   256
  0
ARC
  5
8E7
330
821
100
AcDbEntity
  8
LOGO
 62
     0
370
     5
100
AcDbCircle
 10
16.81885121802244
 20
28.7931767617331
 30
0.0
 40
4.763630338834137
100
AcDbArc
 50
227.8543072058696
 51
46.85228652636341
1001
TOP
1070
   256
  0
ARC
  5
8E8
330
821
100
AcDbEntity
  8
LOGO
 62
     0
370
     5
100
AcDbCircle
 10
16.62227853183705
 20
28.63383667834967
 30
0.0
 40
7.793069759999999
100
AcDbArc
 50
230.1466606584018
 51
45.36258570986114
1001
TOP
1070
   256
  0
ARC
  5
8E9
330
821
100
AcDbEntity
  8
LOGO
 62
     0
370
     5
100
AcDbCircle
 10
15.47406206409434
 20
28.76254089855251
 30
0.0
 40
7.22070068314474
100
AcDbArc
 50
237.8184274609922
 51
321.1976420062348
1001
TOP
1070
   256
  0
ARC
  5
8EA
330
821
100
AcDbEntity
  8
LOGO
 62
     0
370
     5
100
AcDbCircle
 10
16.49783519669401
 20
29.33437419505527
 30
0.0
 40
5.663278842528496
100
AcDbArc
 50
171.3036725542784
 51
228.0269063594487
1001
TOP
1070
   256
  0
LINE
  5
8EB
330
821
100
AcDbEntity
  8
LOGO
 62
     0
370
     5
100
AcDbLine
 10
12.7103388034225
 20
25.12395873821656
 30
0.0
 11
10.96271911221253
 21
23.27647506464784
 31
0.0
1001
TOP
1070
   256
  0
LINE
  5
8EC
330
821
100
AcDbEntity
  8
LOGO
 62
     0
370
     5
100
AcDbLine
 10
14.28882554895235
 20
26.59167448405853
 30
0.0
 11
13.31957930169637
 21
25.53934998704055
 31
0.0
1001
TOP
1070
   256
  0
ARC
  5
8ED
330
821
100
AcDbEntity
  8
LOGO
 62
     0
370
     5
100
AcDbCircle
 10
16.45690671951999
 20
30.05594897763183
 30
0.0
 40
5.558875133404747
100
AcDbArc
 50
125.3768514667706
 51
178.6115147484838
1001
TOP
1070
   256
  0
LINE
  5
8EE
330
821
100
AcDbEntity
  8
LOGO
 62
     0
370
     5
100
AcDbLine
 10
51.34561986762887
 20
32.85730810015664
 30
0.0
 11
52.48697619624445
 21
32.85730810015664
 31
0.0
1001
TOP
1070
   256
  0
ARC
  5
8EF
330
821
100
AcDbEntity
  8
LOGO
 62
     0
370
     5
100
AcDbCircle
 10
50.16215002765402
 20
33.59668853764663
 30
0.0
 40
2.439569664000001
100
AcDbArc
 50
354.0835439993975
 51
342.3574175336727
1001
TOP
1070
   256
  0
LINE
  5
8F0
330
821
100
AcDbEntity
  8
LOGO
 62
     0
370
     5
100
AcDbLine
 10
48.746848330698
 20
33.34522203295672
 30
0.0
 11
52.60170813361192
 21
33.34522203295672
 31
0.0
1001
TOP
1070
   256
  0
ARC
  5
8F1
330
821
100
AcDbEntity
  8
LOGO
 62
     0
370
     5
100
AcDbCircle
 10
37.8667189210941
 20
33.59668853764663
 30
0.0
 40
2.439569664000001
100
AcDbArc
 50
354.0835439993975
 51
342.3574175336751
1001
TOP
1070
   256
  0
LINE
  5
8F2
330
821
100
AcDbEntity
  8
LOGO
 62
     0
370
     5
100
AcDbLine
 10
27.49765040819579
 20
31.15711887364663
 30
0.0
 11
30.42513400499493
 21
31.15711887364663
 31
0.0
1001
TOP
1070
   256
  0
LINE
  5
8F3
330
821
100
AcDbEntity
  8
LOGO
 62
     0
370
     5
100
AcDbLine
 10
30.42513400499493
 20
37.50000000004681
 30
0.0
 11
27.49765040819579
 21
37.50000000004681
 31
0.0
1001
TOP
1070
   256
  0
LINE
  5
8F4
330
821
100
AcDbEntity
  8
LOGO
 62
     0
370
     5
100
AcDbLine
 10
22.09782851449668
 20
34.17913096013693
 30
0.0
 11
20.51969428130289
 21
32.54561571719387
 31
0.0
1001
TOP
1070
   256
  0
ARC
  5
8F5
330
821
100
AcDbEntity
  8
LOGO
 62
     0
370
     5
100
AcDbCircle
 10
15.9727702478842
 20
28.05306437542822
 30
0.0
 40
6.391989965892939
100
AcDbArc
 50
323.3529774062358
 51
44.65536847520496
1001
TOP
1070
   256
  0
LINE
  5
8F6
330
821
100
AcDbEntity
  8
LOGO
 62
     0
370
     5
100
AcDbLine
 10
44.50722754650199
 20
36.03625820164649
 30
0.0
 11
44.50722754650199
 21
31.15711887364663
 31
0.0
1001
TOP
1070
   256
  0
LINE
  5
8F7
330
821
100
AcDbEntity
  8
LOGO
 62
     0
370
     5
100
AcDbLine
 10
27.49765040819579
 20
37.50000000004681
 30
0.0
 11
27.49765040819579
 21
31.15711887364663
 31
0.0
1001
TOP
1070
   256
  0
ARC
  5
8F8
330
821
100
AcDbEntity
  8
LOGO
 62
     0
370
     5
100
AcDbCircle
 10
30.18117703859566
 20
34.81647336964636
 30
0.0
 40
1.5857202816
100
AcDbArc
 50
0.0
 51
90.0
1001
TOP
1070
   256
  0
ARC
  5
8F9
330
821
100
AcDbEntity
  8
LOGO
 62
     0
370
     5
100
AcDbCircle
 10
30.18117703859566
 20
33.84064550404673
 30
0.0
 40
1.5857202816
100
AcDbArc
 50
270.0
 51
0.0
1001
TOP
1070
   256
  0
ARC
  5
8FA
330
821
100
AcDbEntity
  8
LOGO
 62
     0
370
     5
100
AcDbCircle
 10
30.42513400499493
 20
33.59668853764663
 30
0.0
 40
2.439569663999999
100
AcDbArc
 50
270.0
 51
0.0
1001
TOP
1070
   256
  0
ARC
  5
8FB
330
821
100
AcDbEntity
  8
LOGO
 62
     0
370
     5
100
AcDbCircle
 10
30.42513400499493
 20
35.06043033604644
 30
0.0
 40
2.439569663999999
100
AcDbArc
 50
0.0
 51
90.0
1001
TOP
1070
   256
  0
LINE
  5
8FC
330
821
100
AcDbEntity
  8
LOGO
 62
     0
370
     5
100
AcDbLine
 10
28.59545675699515
 20
36.40219365124654
 30
0.0
 11
28.59545675699515
 21
32.2549252224467
 31
0.0
1001
TOP
1070
   256
  0
LINE
  5
8FD
330
821
100
AcDbEntity
  8
LOGO
 62
     0
370
     5
100
AcDbLine
 10
28.59545675699515
 20
32.2549252224467
 30
0.0
 11
30.18117703859566
 21
32.25492522244674
 31
0.0
1001
TOP
1070
   256
  0
LINE
  5
8FE
330
821
100
AcDbEntity
  8
LOGO
 62
     0
370
     5
100
AcDbLine
 10
30.18117703859566
 20
36.40219365124636
 30
0.0
 11
28.59545675699515
 21
36.40219365124654
 31
0.0
1001
TOP
1070
   256
  0
LINE
  5
8FF
330
821
100
AcDbEntity
  8
LOGO
 62
     0
370
     5
100
AcDbLine
 10
34.69527835789437
 20
31.15711887364663
 30
0.0
 11
34.69527835789437
 21
36.03625820164649
 31
0.0
1001
TOP
1070
   256
  0
LINE
  5
900
330
821
100
AcDbEntity
  8
LOGO
 62
     0
370
     5
100
AcDbLine
 10
33.59747200909241
 20
36.03625820164649
 30
0.0
 11
33.59747200909241
 21
31.15711887364663
 31
0.0
1001
TOP
1070
   256
  0
LINE
  5
901
330
821
100
AcDbEntity
  8
LOGO
 62
     0
370
     5
100
AcDbLine
 10
33.59747200909241
 20
31.15711887364663
 30
0.0
 11
34.69527835789437
 21
31.15711887364663
 31
0.0
1001
TOP
1070
   256
  0
LINE
  5
902
330
821
100
AcDbEntity
  8
LOGO
 62
     0
370
     5
100
AcDbLine
 10
33.59747200909241
 20
36.52417213444659
 30
0.0
 11
34.69527835789437
 21
36.52417213444659
 31
0.0
1001
TOP
1070
   256
  0
LINE
  5
903
330
821
100
AcDbEntity
  8
LOGO
 62
     0
370
     5
100
AcDbLine
 10
34.69527835789437
 20
37.50000000004681
 30
0.0
 11
33.59747200909241
 21
37.50000000004681
 31
0.0
1001
TOP
1070
   256
  0
LINE
  5
904
330
821
100
AcDbEntity
  8
LOGO
 62
     0
370
     5
100
AcDbLine
 10
34.69527835789437
 20
36.03625820164649
 30
0.0
 11
33.59747200909241
 21
36.03625820164649
 31
0.0
1001
TOP
1070
   256
  0
LINE
  5
905
330
821
100
AcDbEntity
  8
LOGO
 62
     0
370
     5
100
AcDbLine
 10
31.76689732019566
 20
33.84064550404673
 30
0.0
 11
31.76689732019566
 21
34.81647336964636
 31
0.0
1001
TOP
1070
   256
  0
LINE
  5
906
330
821
100
AcDbEntity
  8
LOGO
 62
     0
370
     5
100
AcDbLine
 10
32.86470366899493
 20
33.59668853764663
 30
0.0
 11
32.86470366899493
 21
35.06043033604644
 31
0.0
1001
TOP
1070
   256
  0
LINE
  5
907
330
821
100
AcDbEntity
  8
LOGO
 62
     0
370
     5
100
AcDbLine
 10
33.59747200909241
 20
37.50000000004681
 30
0.0
 11
33.59747200909241
 21
36.52417213444659
 31
0.0
1001
TOP
1070
   256
  0
LINE
  5
908
330
821
100
AcDbEntity
  8
LOGO
 62
     0
370
     5
100
AcDbLine
 10
34.69527835789437
 20
36.52417213444659
 30
0.0
 11
34.69527835789437
 21
37.50000000004681
 31
0.0
1001
TOP
1070
   256
  0
LINE
  5
909
330
821
100
AcDbEntity
  8
LOGO
 62
     0
370
     5
100
AcDbLine
 10
43.3202784435059
 20
36.03625820164649
 30
0.0
 11
43.77637105332959
 21
36.03625820164649
 31
0.0
1001
TOP
1070
   256
  0
ARC
  5
90A
330
821
100
AcDbEntity
  8
LOGO
 62
     0
370
     5
100
AcDbCircle
 10
43.77544761583407
 20
32.75491065838392
 30
0.0
 40
2.30551986259622
100
AcDbArc
 50
89.97705113130722
 51
144.7782320142388
1001
TOP
1070
   256
  0
LINE
  5
90B
330
821
100
AcDbEntity
  8
LOGO
 62
     0
370
     5
100
AcDbLine
 10
39.05018876106895
 20
32.85730810015664
 30
0.0
 11
40.19154508968521
 21
32.85730810015653
 31
0.0
1001
TOP
1070
   256
  0
LINE
  5
90C
330
821
100
AcDbEntity
  8
LOGO
 62
     0
370
     5
100
AcDbLine
 10
36.45141722414005
 20
33.34522203295672
 30
0.0
 11
40.30627702705134
 21
33.34522203295672
 31
0.0
1001
TOP
1070
   256
  0
ARC
  5
90D
330
821
100
AcDbEntity
  8
LOGO
 62
     0
370
     5
100
AcDbCircle
 10
37.8667189210941
 20
33.71866702084651
 30
0.0
 40
1.463741798400002
100
AcDbArc
 50
194.7813103722857
 51
323.9519363800176
1001
TOP
1070
   256
  0
ARC
  5
90E
330
821
100
AcDbEntity
  8
LOGO
 62
     0
370
     5
100
AcDbCircle
 10
37.86684605018565
 20
33.77532249424928
 30
0.0
 40
1.309503544180366
100
AcDbArc
 50
23.46032899247159
 51
156.5396710075284
1001
TOP
1070
   256
  0
LINE
  5
90F
330
821
100
AcDbEntity
  8
LOGO
 62
     0
370
     5
100
AcDbLine
 10
36.6655913799339
 20
34.29665420191658
 30
0.0
 11
39.0681007204374
 21
34.29665420191658
 31
0.0
1001
TOP
1070
   256
  0
LINE
  5
910
330
821
100
AcDbEntity
  8
LOGO
 62
     0
370
     5
100
AcDbLine
 10
41.89200886669389
 20
31.15711887364663
 30
0.0
 11
41.8920088666949
 21
34.08460247044668
 31
0.0
1001
TOP
1070
   256
  0
LINE
  5
911
330
821
100
AcDbEntity
  8
LOGO
 62
     0
370
     5
100
AcDbLine
 10
40.79420251789389
 20
36.03625820164649
 30
0.0
 11
40.79420251789389
 21
31.15711887364663
 31
0.0
1001
TOP
1070
   256
  0
LINE
  5
912
330
821
100
AcDbEntity
  8
LOGO
 62
     0
370
     5
100
AcDbLine
 10
40.79420251789389
 20
31.15711887364663
 30
0.0
 11
41.89200886669389
 21
31.15711887364663
 31
0.0
1001
TOP
1070
   256
  0
LINE
  5
913
330
821
100
AcDbEntity
  8
LOGO
 62
     0
370
     5
100
AcDbLine
 10
41.89200886669389
 20
36.03625820164649
 30
0.0
 11
40.79420251789389
 21
36.03625820164649
 31
0.0
1001
TOP
1070
   256
  0
ARC
  5
914
330
821
100
AcDbEntity
  8
LOGO
 62
     0
370
     5
100
AcDbCircle
 10
43.43211012991381
 20
34.3394191817174
 30
0.0
 40
1.700520210299701
100
AcDbArc
 50
93.77067625264222
 51
154.912967180733
1001
TOP
1070
   256
  0
LINE
  5
915
330
821
100
AcDbEntity
  8
LOGO
 62
     0
370
     5
100
AcDbLine
 10
41.89200886669399
 20
35.06043033604618
 30
0.0
 11
41.89200886669389
 21
36.03625820164649
 31
0.0
1001
TOP
1070
   256
  0
LINE
  5
916
330
821
100
AcDbEntity
  8
LOGO
 62
     0
370
     5
100
AcDbLine
 10
41.89200886669389
 20
36.03625820164649
 30
0.0
 11
41.89200886669399
 21
35.06043033604618
 31
0.0
1001
TOP
1070
   256
  0
LINE
  5
917
330
821
100
AcDbEntity
  8
LOGO
 62
     0
370
     5
100
AcDbLine
 10
45.60503389530264
 20
31.15711887364663
 30
0.0
 11
45.60503389530264
 21
34.08460247044656
 31
0.0
1001
TOP
1070
   256
  0
LINE
  5
918
330
821
100
AcDbEntity
  8
LOGO
 62
     0
370
     5
100
AcDbLine
 10
44.50722754650199
 20
31.15711887364663
 30
0.0
 11
45.60503389530264
 21
31.15711887364663
 31
0.0
1001
TOP
1070
   256
  0
ARC
  5
919
330
821
100
AcDbEntity
  8
LOGO
 62
     0
370
     5
100
AcDbCircle
 10
47.1451351585219
 20
34.3394191817174
 30
0.0
 40
1.700520210299701
100
AcDbArc
 50
93.77067625261972
 51
154.9129671807329
1001
TOP
1070
   256
  0
ARC
  5
91A
330
821
100
AcDbEntity
  8
LOGO
 62
     0
370
     5
100
AcDbCircle
 10
47.48847264444086
 20
32.75491065838392
 30
0.0
 40
2.30551986259622
100
AcDbArc
 50
89.97705113130722
 51
144.7782320142279
1001
TOP
1070
   256
  0
LINE
  5
91B
330
821
100
AcDbEntity
  8
LOGO
 62
     0
370
     5
100
AcDbLine
 10
45.6050338953021
 20
35.06043033604618
 30
0.0
 11
45.60503389530264
 21
36.03625820164649
 31
0.0
1001
TOP
1070
   256
  0
LINE
  5
91C
330
821
100
AcDbEntity
  8
LOGO
 62
     0
370
     5
100
AcDbLine
 10
43.77637105333035
 20
35.06043033604639
 30
0.0
 11
43.77637105332959
 21
36.03625820164649
 31
0.0
1001
TOP
1070
   256
  0
LINE
  5
91D
330
821
100
AcDbEntity
  8
LOGO
 62
     0
370
     5
100
AcDbLine
 10
45.60503389530264
 20
36.03625820164649
 30
0.0
 11
45.6050338953021
 21
35.06043033604618
 31
0.0
1001
TOP
1070
   256
  0
LINE
  5
91E
330
821
100
AcDbEntity
  8
LOGO
 62
     0
370
     5
100
AcDbLine
 10
45.60503389530264
 20
36.03625820164649
 30
0.0
 11
44.50722754650199
 21
36.03625820164649
 31
0.0
1001
TOP
1070
   256
  0
LINE
  5
91F
330
821
100
AcDbEntity
  8
LOGO
 62
     0
370
     5
100
AcDbLine
 10
47.48939608193714
 20
35.06043033604639
 30
0.0
 11
47.48939608193769
 21
36.03625820164649
 31
0.0
1001
TOP
1070
   256
  0
LINE
  5
920
330
821
100
AcDbEntity
  8
LOGO
 62
     0
370
     5
100
AcDbLine
 10
47.03330347211468
 20
36.03625820164624
 30
0.0
 11
47.48939608193769
 21
36.03625820164649
 31
0.0
1001
TOP
1070
   256
  0
ARC
  5
921
330
821
100
AcDbEntity
  8
LOGO
 62
     0
370
     5
100
AcDbCircle
 10
50.16215002765402
 20
33.71866702084651
 30
0.0
 40
1.463741798400002
100
AcDbArc
 50
194.7813103722661
 51
323.9519363800174
1001
TOP
1070
   256
  0
ARC
  5
922
330
821
100
AcDbEntity
  8
LOGO
 62
     0
370
     5
100
AcDbCircle
 10
50.16227715674556
 20
33.77532249424928
 30
0.0
 40
1.309503544180366
100
AcDbArc
 50
23.4603289924714
 51
156.5396710075284
1001
TOP
1070
   256
  0
LINE
  5
923
330
821
100
AcDbEntity
  8
LOGO
 62
     0
370
     5
100
AcDbLine
 10
48.96102248649381
 20
34.29665420191658
 30
0.0
 11
51.36353182699732
 21
34.29665420191658
 31
0.0
1001
TOP
1070
   256
  0
LINE
  5
924
330
821
100
AcDbEntity
  8
LOGO
 62
     0
100
AcDbLine
 10
44.68599253146373
 20
29.88098682769641
 30
0.0
 11
39.89836754380891
 21
29.88098682769649
 31
0.0
1001
TOP
1070
   256
  0
LINE
  5
925
330
821
100
AcDbEntity
  8
LOGO
 62
     0
100
AcDbLine
 10
39.89836754380891
 20
29.88098682769649
 30
0.0
 11
44.68599253146373
 21
29.88098682769641
 31
0.0
1001
TOP
1070
   256
  0
LINE
  5
926
330
821
100
AcDbEntity
  8
LOGO
 62
     0
100
AcDbLine
 10
44.39100245915789
 20
26.01825982621012
 30
0.0
 11
45.21486459679504
 21
27.2280769403647
 31
0.0
1001
TOP
1070
   256
  0
LINE
  5
927
330
821
100
AcDbEntity
  8
LOGO
 62
     0
100
AcDbLine
 10
44.39100245915789
 20
26.01825982621012
 30
0.0
 11
45.21486459679504
 21
27.2280769403647
 31
0.0
1001
TOP
1070
   256
  0
LINE
  5
928
330
821
100
AcDbEntity
  8
LOGO
 62
     0
100
AcDbLine
 10
44.39100245915789
 20
26.01825982621012
 30
0.0
 11
46.03872673443219
 21
26.01825982621012
 31
0.0
1001
TOP
1070
   256
  0
LINE
  5
929
330
821
100
AcDbEntity
  8
LOGO
 62
     0
100
AcDbLine
 10
46.03872673443219
 20
26.01825982621012
 30
0.0
 11
44.39100245915789
 21
26.01825982621012
 31
0.0
1001
TOP
1070
   256
  0
LINE
  5
92A
330
821
100
AcDbEntity
  8
LOGO
 62
     0
100
AcDbLine
 10
41.51276013947579
 20
24.44455623301195
 30
0.0
 11
48.91696905411429
 21
24.44455623301195
 31
0.0
1001
TOP
1070
   256
  0
LINE
  5
92B
330
821
100
AcDbEntity
  8
LOGO
 62
     0
100
AcDbLine
 10
41.51276013947579
 20
24.44455623301195
 30
0.0
 11
48.91696905411429
 21
24.44455623301195
 31
0.0
1001
TOP
1070
   256
  0
LINE
  5
92C
330
821
100
AcDbEntity
  8
LOGO
 62
     0
100
AcDbLine
 10
43.11736052943384
 20
27.57749725684523
 30
0.0
 11
44.68599253146373
 21
29.88098682769641
 31
0.0
1001
TOP
1070
   256
  0
LINE
  5
92D
330
821
100
AcDbEntity
  8
LOGO
 62
     0
100
AcDbLine
 10
43.11736052943384
 20
27.57749725684523
 30
0.0
 11
44.68599253146373
 21
29.88098682769641
 31
0.0
1001
TOP
1070
   256
  0
LINE
  5
92E
330
821
100
AcDbEntity
  8
LOGO
 62
     0
100
AcDbLine
 10
41.51276013947579
 20
24.44455623301195
 30
0.0
 11
45.21486459679504
 21
29.88098682769641
 31
0.0
1001
TOP
1070
   256
  0
LINE
  5
92F
330
821
100
AcDbEntity
  8
LOGO
 62
     0
100
AcDbLine
 10
45.21486459679504
 20
29.88098682769641
 30
0.0
 11
41.51276013947579
 21
24.44455623301195
 31
0.0
1001
TOP
1070
   256
  0
LINE
  5
930
330
821
100
AcDbEntity
  8
LOGO
 62
     0
100
AcDbLine
 10
32.52193502884332
 20
29.88098682769641
 30
0.0
 11
36.22403948616258
 21
29.88098682769641
 31
0.0
1001
TOP
1070
   256
  0
LINE
  5
931
330
821
100
AcDbEntity
  8
LOGO
 62
     0
100
AcDbLine
 10
32.52193502884332
 20
29.88098682769641
 30
0.0
 11
36.22403948616258
 21
29.88098682769641
 31
0.0
1001
TOP
1070
   256
  0
LINE
  5
932
330
821
100
AcDbEntity
  8
LOGO
 62
     0
100
AcDbLine
 10
33.05080709417467
 20
24.44455623301195
 30
0.0
 11
36.75291155149392
 21
29.88098682769641
 31
0.0
1001
TOP
1070
   256
  0
LINE
  5
933
330
821
100
AcDbEntity
  8
LOGO
 62
     0
100
AcDbLine
 10
32.52193502884332
 20
24.44455623301195
 30
0.0
 11
36.22403948616258
 21
29.88098682769641
 31
0.0
1001
TOP
1070
   256
  0
LINE
  5
934
330
821
100
AcDbEntity
  8
LOGO
 62
     0
100
AcDbLine
 10
33.05080709417467
 20
24.44455623301195
 30
0.0
 11
36.75291155149392
 21
29.88098682769641
 31
0.0
1001
TOP
1070
   256
  0
LINE
  5
935
330
821
100
AcDbEntity
  8
LOGO
 62
     0
100
AcDbLine
 10
36.22403948616258
 20
29.88098682769641
 30
0.0
 11
32.52193502884332
 21
24.44455623301195
 31
0.0
1001
TOP
1070
   256
  0
LINE
  5
936
330
821
100
AcDbEntity
  8
LOGO
 62
     0
100
AcDbLine
 10
33.05080709417467
 20
24.44455623301195
 30
0.0
 11
40.45501600881316
 21
24.44455623301195
 31
0.0
1001
TOP
1070
   256
  0
LINE
  5
937
330
821
100
AcDbEntity
  8
LOGO
 62
     0
100
AcDbLine
 10
40.45501600881316
 20
24.44455623301195
 30
0.0
 11
33.05080709417467
 21
24.44455623301195
 31
0.0
1001
TOP
1070
   256
  0
LINE
  5
938
330
821
100
AcDbEntity
  8
LOGO
 62
     0
100
AcDbLine
 10
27.49765040819579
 20
29.88098682769641
 30
0.0
 11
29.74535668585389
 21
29.88098682769641
 31
0.0
1001
TOP
1070
   256
  0
LINE
  5
939
330
821
100
AcDbEntity
  8
SQUADRATURA
 62
     0
100
AcDbLine
 10
5.000000000000105
 20
5.0
 30
0.0
 11
205.0
 21
5.0
 31
0.0
1001
TOP
1070
   256
  0
LINE
  5
93A
330
821
100
AcDbEntity
  8
CARTIGLIO
 62
     0
100
AcDbLine
 10
5.000000000000078
 20
86.49999999999998
 30
0.0
 11
5.000000000000105
 21
5.0
 31
0.0
1001
TOP
1070
   256
  0
TEXT
  5
93C
330
821
100
AcDbEntity
  8
CARTIGLIO SOTTILE 3
  6
Continuous
 62
     0
100
AcDbText
 10
93.06706327193763
 20
13.70005693816942
 30
0.0
 40
2.000000029802322
  1
1,6
 41
1.099999904632568
  7
Stile testo67
 11
93.06706327193763
 21
15.70005696797174
 31
0.0
100
AcDbText
 73
     3
1001
TOP
1070
   256
  0
TEXT
  5
93F
330
821
100
AcDbEntity
  8
CARTIGLIO SOTTILE 3
  6
Continuous
 62
     0
100
AcDbText
 10
126.2102423462716
 20
13.77324285176583
 30
0.0
 40
2.000000029802322
  1
0,8
 41
1.099999904632568
  7
Stile testo67
 11
126.2102423462716
 21
15.77324288156815
 31
0.0
100
AcDbText
 73
     3
1001
TOP
1070
   256
  0
TEXT
  5
940
330
821
100
AcDbEntity
  8
CARTIGLIO SOTTILE 3
  6
Continuous
 62
     0
100
AcDbText
 10
60.4799749918277
 20
13.66020557139004
 30
0.0
 40
2.000000029802322
  1
6,3
 41
1.099999904632568
  7
Stile testo67
 11
60.4799749918277
 21
15.66020560119236
 31
0.0
100
AcDbText
 73
     3
1001
TOP
1070
   256
  0
TEXT
  5
941
330
821
100
AcDbEntity
  8
TESTI CARTIGLIO
  6
Continuous
 62
     0
100
AcDbText
 10
141.7015961023471
 20
15.06431884614473
 30
0.0
 40
1.500000059604644
  1
Negli spigoli non quotati smussi 0,5 x 45°
  7
Stile_Cart
100
AcDbText
1001
TOP
1070
   256
  0
TEXT
  5
943
330
821
100
AcDbEntity
  8
TESTI CARTIGLIO
  6
Continuous
 62
     0
100
AcDbText
 10
141.6572557995353
 20
20.81431884614485
 30
0.0
 40
1.500000059604644
  1
Le QUOTE senza tolleranze si intendono h 11 / H 11
  7
Stile_Cart
100
AcDbText
1001
TOP
1070
   256
  0
TEXT
  5
944
330
821
100
AcDbEntity
  8
TESTI CARTIGLIO
  6
Continuous
 62
     0
100
AcDbText
 10
141.5631678399102
 20
11.71909434677367
 30
0.0
 40
1.500000059604644
  1
Smussi e raggi non quotati = 1 mm
  7
Stile_Cart
100
AcDbText
1001
TOP
1070
   256
  0
MTEXT
  5
945
330
821
100
AcDbEntity
  8
TESTI CARTIGLIO
  6
Continuous
 62
     0
100
AcDbMText
 10
141.7015961023471
 20
32.30641869289502
 30
0.0
 40
2.000000029802322
 41
187.5479004999999
 71
     1
 72
     1
  1
\fTimes New Roman|b0|i0;\W0.98;\H2.0000;{LE TOLLERANZE SI INTENDONO SU PEZZO\PFINITO COMPLETO DI TRATTAMENTI SUPER.}
  7
Stile_Cart
 73
     2
 44
0.9959999322891235
1001
TOP
1070
   256
1001
ACAD
1000
MTEXTBEGIN
1070
    73
1070
     2
1070
    44
1040
0.9959999322891235
1070
    74
1070
     0
1000
MTEXTEND
  0
MTEXT
  5
947
330
821
100
AcDbEntity
  8
TESTI CARTIGLIO
  6
Continuous
 62
     0
100
AcDbMText
 10
105.0093571941604
 20
7.139705897619327
 30
0.0
 40
1.500000059604644
 41
199.5843948348242
 71
     5
 72
     1
  1
SI VIETA L'USO E LA RIPRODUZIONE O LA VISIONE A TERZI DEL PRESENTE DISEGNO SENZA ESPLICITA AUTORIZZAZIONE, \fTimes New Roman|b0|i0;\H2.0000;Dierre\fTimes New Roman|b0|i0;\H1.5000; TUTELERA' I PROPRI DIRITTI A NORMA DI LEGGE
  7
Stile_Cart
 73
     2
 44
1.0
1001
TOP
1070
   256
1001
ACAD
1000
MTEXTBEGIN
1070
    73
1070
     2
1070
    44
1040
1.0
1070
    74
1070
     0
1000
MTEXTEND
  0
TEXT
  5
948
330
821
100
AcDbEntity
  8
TESTI CARTIGLIO
  6
Continuous
 62
     0
100
AcDbText
 10
58.60700254363584
 20
35.36327579483753
 30
0.0
 40
1.846799999475479
  1
Sedi operative: Fiorano Circ.le S. Giovanni Ev.,23   41042 Spezzano (MO)
  7
STYLE1_82
 72
     2
 11
137.0729514200287
 21
35.36327579483753
 31
0.0
100
AcDbText
1001
TOP
1070
   256
  0
TEXT
  5
949
330
821
100
AcDbEntity
  8
TESTI CARTIGLIO
  6
Continuous
 62
     0
100
AcDbText
 10
98.48678517202589
 20
31.43079771305236
 30
0.0
 40
1.846799999475479
  1
Tel. 0536 921322  Fax 0536 921218
  7
STYLE1_83
 72
     2
 11
137.0390741478605
 21
31.43079771305236
 31
0.0
100
AcDbText
1001
TOP
1070
   256
  0
TEXT
  5
94A
330
821
100
AcDbEntity
  8
TESTI CARTIGLIO
  6
Continuous
 62
     0
100
AcDbText
 10
90.06802305164095
 20
27.71434793139304
 30
0.0
 40
1.846799999475479
  1
Bologna Via Del Selciatore, 12   40127 (BO)
  7
STYLE1_82
 72
     2
 11
137.0244723775116
 21
27.71434793139304
 31
0.0
100
AcDbText
1001
TOP
1070
   256
  0
TEXT
  5
94B
330
821
100
AcDbEntity
  8
TESTI CARTIGLIO
  6
Continuous
 62
     0
100
AcDbText
 10
101.0496503033155
 20
24.07492979731872
 30
0.0
 40
1.846799999475479
  1
Tel. 051 535318  Fax 051 531297
  7
STYLE1_83
 72
     2
 11
136.9985207776869
 21
24.07492979731872
 31
0.0
100
AcDbText
1001
TOP
1070
   256
  0
TEXT
  5
94C
330
821
100
AcDbEntity
  8
TESTI CARTIGLIO
  6
Continuous
 62
     0
100
AcDbText
 10
89.29363142082875
 20
20.69339020736533
 30
0.0
 40
1.500000059604644
  1
www.dierremacap.com . tecnico@dierreprotezioni.com
  7
STYLE1_85
 72
     2
 11
136.9478183364623
 21
20.69339020736533
 31
0.0
100
AcDbText
1001
TOP
1070
   256
  0
TEXT
  5
94D
330
821
100
AcDbEntity
  8
TESTI CARTIGLIO SOTTILE
  6
Continuous
 62
     0
100
AcDbText
 10
78.25666370485942
 20
46.25
 30
0.0
 40
1.599999964237213
  1
COD. CLIENTE:
  7
STYLE1_94
100
AcDbText
1001
TOP
1070
   256
  0
TEXT
  5
94E
330
821
100
AcDbEntity
  8
TESTI CARTIGLIO SOTTILE
  6
Continuous
 62
     0
100
AcDbText
 10
20.7566637048576
 20
72.5
 30
0.0
 40
1.599999964237213
  1
MATERIALE:
  7
STYLE1_94
100
AcDbText
1001
TOP
1070
   256
  0
TEXT
  5
94F
330
821
100
AcDbEntity
  8
TESTI CARTIGLIO SOTTILE
  6
Continuous
 62
     0
100
AcDbText
 10
5.75666370485851
 20
72.5
 30
0.0
 40
1.599999964237213
  1
POS.
  7
STYLE1_94
100
AcDbText
1001
TOP
1070
   256
  0
TEXT
  5
950
330
821
100
AcDbEntity
  8
TESTI CARTIGLIO SOTTILE
  6
Continuous
 62
     0
100
AcDbText
 10
177.7566637048594
 20
57.00000000000011
 30
0.0
 40
1.599999964237213
  1
Q.ta:
  7
STYLE1_94
100
AcDbText
1001
TOP
1070
   256
  0
TEXT
  5
951
330
821
100
AcDbEntity
  8
TESTI CARTIGLIO SOTTILE
  6
Continuous
 62
     0
100
AcDbText
 10
140.8581923512756
 20
38.37500000000011
 30
0.0
 40
1.759999990463256
  1
Codice N
  7
STYLE1_97
100
AcDbText
1001
TOP
1070
   256
  0
TEXT
  5
952
330
821
100
AcDbEntity
  8
TESTI CARTIGLIO SOTTILE
  6
Continuous
 62
     0
100
AcDbText
 10
177.7566637048594
 20
64.50000000000011
 30
0.0
 40
1.599999964237213
  1
Scala:
  7
STYLE1_94
100
AcDbText
1001
TOP
1070
   256
  0
TEXT
  5
953
330
821
100
AcDbEntity
  8
TESTI CARTIGLIO SOTTILE
  6
Continuous
 62
     0
100
AcDbText
 10
140.7566637048594
 20
50.00000000000011
 30
0.0
 40
1.599999964237213
  1
Rifer. ordine:
  7
STYLE1_94
100
AcDbText
1001
TOP
1070
   256
  0
TEXT
  5
954
330
821
100
AcDbEntity
  8
TESTI CARTIGLIO SOTTILE
  6
Continuous
 62
     0
100
AcDbText
 10
10.05702163057413
 20
78.70236139299823
 30
0.0
 40
1.599999964237213
  1
Rev.
  7
STYLE1_94
100
AcDbText
1001
TOP
1070
   256
  0
TEXT
  5
955
330
821
100
AcDbEntity
  8
TESTI CARTIGLIO SOTTILE
  6
Continuous
 62
     0
100
AcDbText
 10
140.7566637048594
 20
64.50000000000011
 30
0.0
 40
1.599999964237213
  1
Data:
  7
STYLE1_94
100
AcDbText
1001
TOP
1070
   256
  0
TEXT
  5
956
330
821
100
AcDbEntity
  8
TESTI CARTIGLIO SOTTILE
  6
Continuous
 62
     0
100
AcDbText
 10
140.7566637048594
 20
57.75000000000012
 30
0.0
 40
1.599999964237213
  1
Diseg.:        
  7
STYLE1_94
100
AcDbText
1001
TOP
1070
   256
  0
TEXT
  5
957
330
821
100
AcDbEntity
  8
TESTI CARTIGLIO SOTTILE
  6
Continuous
 62
     0
100
AcDbText
 10
5.75666370485942
 20
43.0
 30
0.0
 40
1.599999964237213
  1
CLIENTE:
  7
STYLE1_94
100
AcDbText
1001
TOP
1070
   256
  0
TEXT
  5
958
330
821
100
AcDbEntity
  8
TESTI CARTIGLIO SOTTILE
  6
Continuous
 62
     0
100
AcDbText
 10
5.75666370485942
 20
63.75
 30
0.0
 40
1.599999964237213
  1
DENOMINAZIONE:
  7
STYLE1_94
100
AcDbText
1001
TOP
1070
   256
  0
TEXT
  5
959
330
821
100
AcDbEntity
  8
TESTI CARTIGLIO SOTTILE
  6
Continuous
 62
     0
100
AcDbText
 10
78.25666370485942
 20
41.25
 30
0.0
 40
1.599999964237213
  1
CC CLIENTE:
  7
STYLE1_94
100
AcDbText
1001
TOP
1070
   256
  0
TEXT
  5
95A
330
821
100
AcDbEntity
  8
TESTI CARTIGLIO SOTTILE
  6
Continuous
 62
     0
100
AcDbText
 10
192.7924043056964
 20
78.70236139299823
 30
0.0
 40
1.599999964237213
  1
Diseg.
  7
STYLE1_94
100
AcDbText
1001
TOP
1070
   256
  0
TEXT
  5
95B
330
821
100
AcDbEntity
  8
TESTI CARTIGLIO SOTTILE
  6
Continuous
 62
     0
100
AcDbText
 10
175.057021630575
 20
78.70236139299823
 30
0.0
 40
1.599999964237213
  1
Data
  7
STYLE1_94
100
AcDbText
1001
TOP
1070
   256
  0
TEXT
  5
95C
330
821
100
AcDbEntity
  8
TESTI CARTIGLIO SOTTILE
  6
Continuous
 62
     0
100
AcDbText
 10
120.7566637048567
 20
72.5
 30
0.0
 40
1.599999964237213
  1
TRATTAMENTI:
  7
STYLE1_94
100
AcDbText
1001
TOP
1070
   256
  0
MTEXT
  5
95D
330
821
100
AcDbEntity
  8
TESTO NORMALE
  6
Continuous
 62
     0
100
AcDbMText
 10
27.41279426852809
 20
22.63189417497554
 30
0.0
 40
3.000000119209289
 41
16.09299116697531
 71
     1
 72
     1
  1
\f@Arial Unicode MS|b0|i0;\H3.0000;Group\f@Arial Unicode MS|b0|i0;\H1.5000; srl
  7
TESTO NORMALE
 73
     1
 44
1.0
1001
TOP
1070
   256
1001
ACAD
1000
MTEXTBEGIN
1070
    73
1070
     1
1070
    44
1040
1.0
1070
    74
1070
     0
1000
MTEXTEND
  0
ATTDEF
  5
95F
102
{ACAD_XDICTIONARY
360
A0E
102
}
330
821
100
AcDbEntity
  8
TESTI CARTIGLIO
  6
Continuous
 62
     0
100
AcDbText
 10
28.74010102232296
 20
63.75423721969127
 30
0.0
 40
2.491525560617446
  1

  7
Stile testo102
 11
28.74010102232296
 21
65.0
 31
0.0
100
AcDbAttributeDefinition
  3
DESCRIZIONE
  2
DESCRIZIONE
 70
     0
 74
     2
1001
TOP
1070
   256
  0
ATTDEF
  5
960
102
{ACAD_XDICTIONARY
360
A11
102
}
330
821
100
AcDbEntity
  8
TESTI CARTIGLIO
  6
Continuous
 62
     0
100
AcDbText
 10
94.81214291417655
 20
41.25423721969127
 30
0.0
 40
2.491525560617446
  1

  7
Stile testo102
 11
94.81214291417655
 21
42.5
 31
0.0
100
AcDbAttributeDefinition
  3
COMMESSA
  2
COMMESSA
 70
     0
 74
     2
1001
TOP
1070
   256
  0
ATTDEF
  5
962
102
{ACAD_XDICTIONARY
360
A14
102
}
330
821
100
AcDbEntity
  8
TESTI CARTIGLIO
  6
Continuous
 62
     0
100
AcDbText
 10
147.7682984236189
 20
57.74999998509895
 30
0.0
 40
2.000000029802322
  1

  7
Stile testo71
 11
147.7682984236189
 21
58.75000000000011
 31
0.0
100
AcDbAttributeDefinition
  3
DISEGNATORE
  2
DISEGNATORE
 70
     0
 74
     2
1001
TOP
1070
   256
  0
ATTDEF
  5
963
102
{ACAD_XDICTIONARY
360
A17
102
}
330
821
100
AcDbEntity
  8
TESTI CARTIGLIO
  6
Continuous
 62
     0
100
AcDbText
 10
28.74010102232296
 20
58.75423721969127
 30
0.0
 40
2.491525560617446
  1

  7
Stile testo102
 11
28.74010102232296
 21
60.0
 31
0.0
100
AcDbAttributeDefinition
  3
DESCRIZIONE2
  2
DESCRIZIONE2
 70
     0
 74
     2
1001
TOP
1070
   256
  0
ATTDEF
  5
964
102
{ACAD_XDICTIONARY
360
A1A
102
}
330
821
100
AcDbEntity
  8
TESTI CARTIGLIO
  6
Continuous
 62
     0
100
AcDbText
 10
28.74010102232296
 20
53.75423721969127
 30
0.0
 40
2.491525560617446
  1

  7
Stile testo102
 11
28.74010102232296
 21
55.0
 31
0.0
100
AcDbAttributeDefinition
  3
DESCRIZIONE3
  2
DESCRIZIONE3
 70
     0
 74
     2
1001
TOP
1070
   256
  0
ATTDEF
  5
966
102
{ACAD_XDICTIONARY
360
A1D
102
}
330
821
100
AcDbEntity
  8
TESTI CARTIGLIO
  6
Continuous
 62
     0
100
AcDbText
 10
147.7682984236189
 20
64.50000002980243
 30
0.0
 40
3.499999940395355
  1

  7
Stile testo75
 11
147.7682984236189
 21
66.25000000000011
 31
0.0
100
AcDbAttributeDefinition
  3
DATA
  2
DATA
 70
     0
 74
     2
1001
TOP
1070
   256
  0
ATTDEF
  5
967
102
{ACAD_XDICTIONARY
360
A20
102
}
330
821
100
AcDbEntity
  8
TESTI CARTIGLIO
  6
Continuous
 62
     0
100
AcDbText
 10
182.9419684877733
 20
64.57065612017112
 30
0.0
 40
3.499999940395355
  1
1:1
  7
Stile testo75
100
AcDbAttributeDefinition
  3
SCALA
  2
SCALA_001
 70
     0
1001
TOP
1070
   256
  0
ATTDEF
  5
968
102
{ACAD_XDICTIONARY
360
A23
102
}
330
821
100
AcDbEntity
  8
TESTI CARTIGLIO
  6
Continuous
 62
     0
100
AcDbText
 10
184.1532157512365
 20
57.00000002980243
 30
0.0
 40
3.499999940395355
  1

  7
Stile testo75
 11
184.1532157512365
 21
58.75000000000011
 31
0.0
100
AcDbAttributeDefinition
  3
QTA
  2
QTA
 70
     0
 74
     2
1001
TOP
1070
   256
  0
ATTDEF
  5
969
102
{ACAD_XDICTIONARY
360
A26
102
}
330
821
100
AcDbEntity
  8
TESTI CARTIGLIO
  6
Continuous
 62
     0
100
AcDbText
 10
156.6477659240454
 20
50.00423721969139
 30
0.0
 40
2.491525560617446
  1

  7
Stile testo102
 11
156.6477659240454
 21
51.25000000000011
 31
0.0
100
AcDbAttributeDefinition
  3
RIF_ORDINE
  2
RIF_ORDINE
 70
     0
 74
     2
1001
TOP
1070
   256
  0
ATTDEF
  5
96B
102
{ACAD_XDICTIONARY
360
A29
102
}
330
821
100
AcDbEntity
  8
TESTI CARTIGLIO
  6
Continuous
 62
     0
100
AcDbText
 10
155.290076571523
 20
38.37500005960476
 30
0.0
 40
4.49999988079071
  1

  7
Stile testo78
 11
155.290076571523
 21
40.62500000000011
 31
0.0
100
AcDbAttributeDefinition
  3
CODICE
  2
CODICE
 70
     0
 74
     2
1001
TOP
1070
   256
  0
ATTDEF
  5
96C
102
{ACAD_XDICTIONARY
360
A2C
102
}
330
821
100
AcDbEntity
  8
TESTI CARTIGLIO
  6
Continuous
 62
     0
100
AcDbText
 10
94.8016206352022
 20
46.25423721969127
 30
0.0
 40
2.491525560617446
  1

  7
Stile testo102
 11
94.8016206352022
 21
47.5
 31
0.0
100
AcDbAttributeDefinition
  3
COD_CLIENTE
  2
COD_CLIENTE
 70
     0
 74
     2
1001
TOP
1070
   256
  0
ATTDEF
  5
96E
102
{ACAD_XDICTIONARY
360
A2F
102
}
330
821
100
AcDbEntity
  8
TESTI CARTIGLIO
  6
Continuous
 62
     0
100
AcDbText
 10
17.76035154006968
 20
43.00423726439476
 30
0.0
 40
3.991525471210479
  1

  7
Stile testo103
 11
17.76035154006968
 21
45.0
 31
0.0
100
AcDbAttributeDefinition
  3
CLIENTE
  2
CLIENTE
 70
     0
 74
     2
1001
TOP
1070
   256
  0
ATTDEF
  5
96F
102
{ACAD_XDICTIONARY
360
A32
102
}
330
821
100
AcDbEntity
  8
TESTI CARTIGLIO
  6
Continuous
 62
     0
100
AcDbText
 10
37.04547401447201
 20
72.50423721969127
 30
0.0
 40
2.491525560617446
  1

  7
Stile testo102
 11
37.04547401447201
 21
73.75
 31
0.0
100
AcDbAttributeDefinition
  3
MATERIALE
  2
MATERIALE
 70
     0
 74
     2
1001
TOP
1070
   256
  0
ATTDEF
  5
970
102
{ACAD_XDICTIONARY
360
A35
102
}
330
821
100
AcDbEntity
  8
TESTI CARTIGLIO
  6
Continuous
 62
     0
100
AcDbText
 10
140.5628059283587
 20
72.50423721969127
 30
0.0
 40
2.491525560617446
  1

  7
Stile testo102
 11
140.5628059283587
 21
73.75
 31
0.0
100
AcDbAttributeDefinition
  3
TRATTAMENTI
  2
TRATTAMENTI
 70
     0
 74
     2
1001
TOP
1070
   256
  0
ATTDEF
  5
971
102
{ACAD_XDICTIONARY
360
A38
102
}
330
821
100
AcDbEntity
  8
TESTI CARTIGLIO
  6
Continuous
 62
     0
100
AcDbText
 10
21.57933346514306
 20
82.54390394715377
 30
0.0
 40
2.491525560617446
  1

  7
Stile testo102
 11
21.57933346514306
 21
83.78966672746249
 31
0.0
100
AcDbAttributeDefinition
  3
MOD_REV
  2
MOD_REV
 70
     0
 74
     2
1001
TOP
1070
   256
  0
ATTDEF
  5
973
102
{ACAD_XDICTIONARY
360
A3B
102
}
330
821
100
AcDbEntity
  8
TESTI CARTIGLIO
  6
Continuous
 62
     0
100
AcDbText
 10
12.35400178234428
 20
82.77164077493692
 30
0.0
 40
2.5
  1

  7
Stile testo68
 72
     1
 11
12.35400178234428
 21
84.02164077493692
 31
0.0
100
AcDbAttributeDefinition
  3
REV
  2
REV
 70
     0
 74
     2
1001
TOP
1070
   256
  0
ATTDEF
  5
974
102
{ACAD_XDICTIONARY
360
A3E
102
}
330
821
100
AcDbEntity
  8
TESTI CARTIGLIO
  6
Continuous
 62
     0
100
AcDbText
 10
177.2480015623884
 20
82.23763961915125
 30
0.0
 40
2.491525560617446
  1

  7
Stile testo102
 72
     1
 11
177.2480015623884
 21
83.48340239945997
 31
0.0
100
AcDbAttributeDefinition
  3
DATA_REV
  2
DATA_REV
 70
     0
 74
     2
1001
TOP
1070
   256
  0
ATTDEF
  5
975
102
{ACAD_XDICTIONARY
360
A41
102
}
330
821
100
AcDbEntity
  8
TESTI CARTIGLIO
  6
Continuous
 62
     0
100
AcDbText
 10
194.9481281634527
 20
82.47054626696442
 30
0.0
 40
2.491525560617446
  1

  7
Stile testo102
 72
     1
 11
194.9481281634527
 21
83.71630904727314
 31
0.0
100
AcDbAttributeDefinition
  3
DISEGN_REV
  2
DISEGN_REV
 70
     0
 74
     2
1001
TOP
1070
   256
  0
ATTDEF
  5
976
102
{ACAD_XDICTIONARY
360
A44
102
}
330
821
100
AcDbEntity
  8
TESTI CARTIGLIO
  6
Continuous
 62
     0
100
AcDbText
 10
205.0375806883759
 20
1.7482730972633
 30
0.0
 40
2.000000029802322
  1
A4
  7
Stile testo71
100
AcDbAttributeDefinition
  3
Dimensioni foglio
  2
Dimensioni_foglio_001
 70
     0
1001
TOP
1070
   256
  0
ENDBLK
  5
823
330
821
100
AcDbEntity
  8
0
 62
     7
100
AcDbBlockEnd
  0
ENDSEC
  0
SECTION
  2
ENTITIES
  0
LINE
  5
98C
330
2
100
AcDbEntity
  8
P-0004
  6
Continuous
 62
     7
100
AcDbLine
 10
103.5009310978442
 20
215.3912960888273
 30
0.0
 11
107.1725904378442
 21
215.3912960888273
 31
0.0
  0
LINE
  5
98E
330
2
100
AcDbEntity
  8
P-0004
  6
Continuous
 62
     7
100
AcDbLine
 10
103.1725904378442
 20
215.1170348688273
 30
0.0
 11
103.5009310978442
 21
215.3912960888273
 31
0.0
  0
LINE
  5
98F
330
2
100
AcDbEntity
  8
P-0004
  6
Continuous
 62
     7
100
AcDbLine
 10
102.8293037478442
 20
215.3912960888273
 30
0.0
 11
103.1725904378442
 21
215.1170348688273
 31
0.0
  0
LINE
  5
990
330
2
100
AcDbEntity
  8
P-0004
  6
Continuous
 62
     7
100
AcDbLine
 10
99.17259043784421
 20
215.3912960888273
 30
0.0
 11
102.8293037478442
 21
215.3912960888273
 31
0.0
  0
LINE
  5
991
330
2
100
AcDbEntity
  8
P-0004
  6
Continuous
 62
     7
100
AcDbLine
 10
107.1725904378442
 20
215.3912960888273
 30
0.0
 11
107.1725904378442
 21
214.3912960888273
 31
0.0
  0
LINE
  5
992
330
2
100
AcDbEntity
  8
P-0004
  6
Continuous
 62
     7
100
AcDbLine
 10
107.1725904378442
 20
214.3912960888273
 30
0.0
 11
111.1725904378442
 21
214.3912960888273
 31
0.0
  0
ARC
  5
993
330
2
100
AcDbEntity
  8
P-0004
  6
Continuous
 62
     7
100
AcDbCircle
 10
111.1725904337931
 20
213.3912960847761
 30
0.0
 40
1.000000004051127
100
AcDbArc
 50
0.0
 51
89.99999976788769
  0
LINE
  5
994
330
2
100
AcDbEntity
  8
P-0004
  6
Continuous
 62
     7
100
AcDbLine
 10
112.1725904378442
 20
213.3912960888273
 30
0.0
 11
112.1725904378442
 21
212.3055096488273
 31
0.0
  0
ARC
  5
995
330
2
100
AcDbEntity
  8
P-0004
  6
Continuous
 62
     7
100
AcDbCircle
 10
111.1725904508538
 20
212.3055096458116
 30
0.0
 40
0.9999999869903996
100
AcDbArc
 50
314.999999595103
 51
0.0
  0
LINE
  5
996
330
2
100
AcDbEntity
  8
P-0004
  6
Continuous
 62
     7
100
AcDbLine
 10
111.8796972178442
 20
211.5984028688273
 30
0.0
 11
108.2583768778442
 21
207.9770825288273
 31
0.0
  0
ARC
  5
997
330
2
100
AcDbEntity
  8
P-0004
  6
Continuous
 62
     7
100
AcDbCircle
 10
106.8441633238755
 20
209.3912960628081
 30
0.0
 40
1.999999973980812
100
AcDbArc
 50
269.999999827216
 51
315.0000004048973
  0
LINE
  5
998
330
2
100
AcDbEntity
  8
P-0004
  6
Continuous
 62
     7
100
AcDbLine
 10
106.8441633178442
 20
207.3912960888273
 30
0.0
 11
99.50101755784423
 21
207.3912960888273
 31
0.0
  0
ARC
  5
999
330
2
100
AcDbEntity
  8
P-0004
  6
Continuous
 62
     7
100
AcDbCircle
 10
99.50101755181293
 20
209.3912960628081
 30
0.0
 40
1.999999973980811
100
AcDbArc
 50
224.9999995951027
 51
270.000000172784
  0
LINE
  5
99A
330
2
100
AcDbEntity
  8
P-0004
  6
Continuous
 62
     7
100
AcDbLine
 10
98.08680399784421
 20
207.9770825288273
 30
0.0
 11
94.46548365784421
 21
211.5984028688273
 31
0.0
  0
ARC
  5
99B
330
2
100
AcDbEntity
  8
P-0004
  6
Continuous
 62
     7
100
AcDbCircle
 10
95.17259042483461
 20
212.3055096458116
 30
0.0
 40
0.9999999869903986
100
AcDbArc
 50
180.0
 51
225.0000004048962
  0
LINE
  5
99C
330
2
100
AcDbEntity
  8
P-0004
  6
Continuous
 62
     7
100
AcDbLine
 10
94.17259043784421
 20
212.3055096488273
 30
0.0
 11
94.17259043784421
 21
213.3912960888273
 31
0.0
  0
ARC
  5
99D
330
2
100
AcDbEntity
  8
P-0004
  6
Continuous
 62
     7
100
AcDbCircle
 10
95.17259044189533
 20
213.3912960847762
 30
0.0
 40
1.000000004051126
100
AcDbArc
 50
90.00000023211329
 51
180.0
  0
LINE
  5
99E
330
2
100
AcDbEntity
  8
P-0004
  6
Continuous
 62
     7
100
AcDbLine
 10
95.1725904378442
 20
214.3912960888273
 30
0.0
 11
99.17259043784421
 21
214.3912960888273
 31
0.0
  0
LINE
  5
99F
330
2
100
AcDbEntity
  8
P-0004
  6
Continuous
 62
     7
100
AcDbLine
 10
99.17259043784421
 20
214.3912960888273
 30
0.0
 11
99.17259043784421
 21
215.3912960888273
 31
0.0
  0
LINE
  5
9A0
330
2
100
AcDbEntity
  8
P-0004
  6
DASHED
 62
     1
 48
7.73694372177124
100
AcDbLine
 10
105.6310904378442
 20
215.3912960888273
 30
0.0
 11
105.6310904378442
 21
207.3912960888273
 31
0.0
  0
LINE
  5
9A1
330
2
100
AcDbEntity
  8
P-0004
  6
DASHED
 62
     1
 48
7.73694372177124
100
AcDbLine
 10
100.7140904378442
 20
215.3912960888273
 30
0.0
 11
100.7140904378442
 21
207.3912960888273
 31
0.0
  0
ARC
  5
9A2
330
2
100
AcDbEntity
  8
P-0004
  6
Continuous
 62
     7
100
AcDbCircle
 10
103.1725904378218
 20
170.441626753554
 30
0.0
 40
2.4585
100
AcDbArc
 50
98.02658561367465
 51
261.9734143863249
  0
ARC
  5
9A4
330
2
100
AcDbEntity
  8
P-0004
  6
Continuous
 62
     7
100
AcDbCircle
 10
103.1725904378218
 20
170.4416267535539
 30
0.0
 40
2.458499999999999
100
AcDbArc
 50
261.9734143863117
 51
269.9999999999867
  0
ARC
  5
9A5
330
2
100
AcDbEntity
  8
P-0004
  6
Continuous
 62
     7
100
AcDbCircle
 10
103.1725904378218
 20
170.4416267535539
 30
0.0
 40
2.458500000000001
100
AcDbArc
 50
270.000000000014
 51
277.6749695454695
  0
ARC
  5
9A6
330
2
100
AcDbEntity
  8
P-0004
  6
Continuous
 62
     7
100
AcDbCircle
 10
103.1725904378218
 20
170.441626753554
 30
0.0
 40
2.458499999999999
100
AcDbArc
 50
277.6749695454551
 51
82.32503045454489
  0
ARC
  5
9A7
330
2
100
AcDbEntity
  8
P-0004
  6
Continuous
 62
     7
100
AcDbCircle
 10
103.1725904378218
 20
170.4416267535539
 30
0.0
 40
2.458500000000001
100
AcDbArc
 50
82.32503045455977
 51
90.00000000001405
  0
ARC
  5
9A8
330
2
100
AcDbEntity
  8
P-0004
  6
Continuous
 62
     7
100
AcDbCircle
 10
103.1725904378218
 20
170.4416267535539
 30
0.0
 40
2.458499999999999
100
AcDbArc
 50
89.99999999998676
 51
98.02658561366147
  0
ARC
  5
9A9
330
2
100
AcDbEntity
  8
P-0004
  6
Continuous
 62
     7
100
AcDbCircle
 10
103.1725904378218
 20
150.441626753554
 30
0.0
 40
2.4585
100
AcDbArc
 50
98.02658561367465
 51
261.9734143863249
  0
ARC
  5
9AA
330
2
100
AcDbEntity
  8
P-0004
  6
Continuous
 62
     7
100
AcDbCircle
 10
103.1725904378218
 20
150.4416267535539
 30
0.0
 40
2.458499999999999
100
AcDbArc
 50
261.9734143863113
 51
269.9999999999864
  0
ARC
  5
9AB
330
2
100
AcDbEntity
  8
P-0004
  6
Continuous
 62
     7
100
AcDbCircle
 10
103.1725904378218
 20
150.4416267535539
 30
0.0
 40
2.458500000000001
100
AcDbArc
 50
270.000000000014
 51
277.6749695454695
  0
ARC
  5
9AC
330
2
100
AcDbEntity
  8
P-0004
  6
Continuous
 62
     7
100
AcDbCircle
 10
103.1725904378218
 20
150.441626753554
 30
0.0
 40
2.458499999999999
100
AcDbArc
 50
277.674969545455
 51
82.32503045454489
  0
ARC
  5
9AD
330
2
100
AcDbEntity
  8
P-0004
  6
Continuous
 62
     7
100
AcDbCircle
 10
103.1725904378218
 20
150.4416267535539
 30
0.0
 40
2.458500000000001
100
AcDbArc
 50
82.32503045455938
 51
90.00000000001405
  0
ARC
  5
9AE
330
2
100
AcDbEntity
  8
P-0004
  6
Continuous
 62
     7
100
AcDbCircle
 10
103.1725904378218
 20
150.4416267535539
 30
0.0
 40
2.458499999999999
100
AcDbArc
 50
89.99999999998633
 51
98.02658561366097
  0
LINE
  5
9AF
330
2
100
AcDbEntity
  8
P-0004
  6
Continuous
 62
     7
100
AcDbLine
 10
103.5009310978218
 20
152.8781026227123
 30
0.0
 11
103.5009310978218
 21
168.0051508843956
 31
0.0
  0
LINE
  5
9B0
330
2
100
AcDbEntity
  8
P-0004
  6
Continuous
 62
     7
100
AcDbLine
 10
103.5009310978218
 20
141.441626753554
 30
0.0
 11
103.5009310978218
 21
148.0051508843957
 31
0.0
  0
LINE
  5
9B1
330
2
100
AcDbEntity
  8
P-0004
  6
Continuous
 62
     7
100
AcDbLine
 10
103.5009310978218
 20
141.441626753554
 30
0.0
 11
107.1725904378218
 21
141.441626753554
 31
0.0
  0
LINE
  5
9B2
330
2
100
AcDbEntity
  8
P-0004
  6
Continuous
 62
     7
100
AcDbLine
 10
107.1725904378218
 20
141.441626753554
 30
0.0
 11
107.1725904378218
 21
179.441626753554
 31
0.0
  0
LINE
  5
9B3
330
2
100
AcDbEntity
  8
P-0004
  6
Continuous
 62
     7
100
AcDbLine
 10
107.1725904378218
 20
179.441626753554
 30
0.0
 11
103.5009310978218
 21
179.441626753554
 31
0.0
  0
LINE
  5
9B4
330
2
100
AcDbEntity
  8
P-0004
  6
Continuous
 62
     7
100
AcDbLine
 10
103.5009310978218
 20
172.8781026227123
 30
0.0
 11
103.5009310978218
 21
179.441626753554
 31
0.0
  0
LINE
  5
9B5
330
2
100
AcDbEntity
  8
P-0004
  6
Continuous
 62
     7
100
AcDbLine
 10
103.1725904378218
 20
141.4416267535539
 30
0.0
 11
103.1725904378218
 21
147.9831267535539
 31
0.0
  0
LINE
  5
9B6
330
2
100
AcDbEntity
  8
P-0004
  6
Continuous
 62
     7
100
AcDbLine
 10
103.1725904378218
 20
141.4416267535539
 30
0.0
 11
103.5009310978218
 21
141.441626753554
 31
0.0
  0
LINE
  5
9B7
330
2
100
AcDbEntity
  8
P-0004
  6
Continuous
 62
     7
100
AcDbLine
 10
103.1725904378218
 20
152.9001267535539
 30
0.0
 11
103.1725904378218
 21
167.9831267535539
 31
0.0
  0
LINE
  5
9B8
330
2
100
AcDbEntity
  8
P-0004
  6
Continuous
 62
     7
100
AcDbLine
 10
102.8293037478218
 20
141.441626753554
 30
0.0
 11
102.8293037478218
 21
148.0072117317328
 31
0.0
  0
LINE
  5
9B9
330
2
100
AcDbEntity
  8
P-0004
  6
Continuous
 62
     7
100
AcDbLine
 10
102.8293037478218
 20
141.441626753554
 30
0.0
 11
103.1725904378218
 21
141.4416267535539
 31
0.0
  0
LINE
  5
9BA
330
2
100
AcDbEntity
  8
P-0004
  6
Continuous
 62
     7
100
AcDbLine
 10
102.8293037478218
 20
152.8760417753752
 30
0.0
 11
102.8293037478218
 21
168.0072117317328
 31
0.0
  0
LINE
  5
9BB
330
2
100
AcDbEntity
  8
P-0004
  6
Continuous
 62
     7
100
AcDbLine
 10
99.17259043782182
 20
179.4416267535537
 30
0.0
 11
95.17259043782182
 21
179.4416267535537
 31
0.0
  0
LINE
  5
9BC
330
2
100
AcDbEntity
  8
P-0004
  6
Continuous
 62
     7
100
AcDbLine
 10
102.8293037478218
 20
179.441626753554
 30
0.0
 11
99.17259043782182
 21
179.441626753554
 31
0.0
  0
LINE
  5
9BD
330
2
100
AcDbEntity
  8
P-0004
  6
Continuous
 62
     7
100
AcDbLine
 10
103.1725904378218
 20
179.4416267535539
 30
0.0
 11
102.8293037478218
 21
179.441626753554
 31
0.0
  0
LINE
  5
9BE
330
2
100
AcDbEntity
  8
P-0004
  6
Continuous
 62
     7
100
AcDbLine
 10
103.5009310978218
 20
179.441626753554
 30
0.0
 11
103.1725904378218
 21
179.4416267535539
 31
0.0
  0
LINE
  5
9BF
330
2
100
AcDbEntity
  8
P-0004
  6
Continuous
 62
     7
100
AcDbLine
 10
111.1725904378218
 20
179.4416267535537
 30
0.0
 11
107.1725904378218
 21
179.4416267535537
 31
0.0
  0
LINE
  5
9C0
330
2
100
AcDbEntity
  8
P-0004
  6
Continuous
 62
     7
100
AcDbLine
 10
111.1725904378218
 20
179.4416267535537
 30
0.0
 11
112.1725904378218
 21
179.4416267535534
 31
0.0
  0
LINE
  5
9C1
330
2
100
AcDbEntity
  8
P-0004
  6
Continuous
 62
     7
100
AcDbLine
 10
94.17259043782182
 20
179.4416267535534
 30
0.0
 11
95.17259043782182
 21
179.4416267535537
 31
0.0
  0
LINE
  5
9C2
330
2
100
AcDbEntity
  8
P-0004
  6
Continuous
 62
     7
100
AcDbLine
 10
102.8293037478218
 20
172.8760417753752
 30
0.0
 11
102.8293037478218
 21
179.441626753554
 31
0.0
  0
LINE
  5
9C3
330
2
100
AcDbEntity
  8
P-0004
  6
Continuous
 62
     7
100
AcDbLine
 10
99.17259043782182
 20
141.441626753554
 30
0.0
 11
99.17259043782182
 21
179.441626753554
 31
0.0
  0
LINE
  5
9C4
330
2
100
AcDbEntity
  8
P-0004
  6
Continuous
 62
     7
100
AcDbLine
 10
99.17259043782182
 20
141.441626753554
 30
0.0
 11
102.8293037478218
 21
141.441626753554
 31
0.0
  0
LINE
  5
9C5
330
2
100
AcDbEntity
  8
P-0004
  6
Continuous
 62
     7
100
AcDbLine
 10
103.1725904378218
 20
172.9001267535539
 30
0.0
 11
103.1725904378218
 21
179.4416267535539
 31
0.0
  0
LINE
  5
9C6
330
2
100
AcDbEntity
  8
P-0004
  6
Continuous
 62
     7
100
AcDbLine
 10
107.1725904378218
 20
141.4416267535537
 30
0.0
 11
111.1725904378218
 21
141.4416267535537
 31
0.0
  0
LINE
  5
9C7
330
2
100
AcDbEntity
  8
P-0004
  6
Continuous
 62
     7
100
AcDbLine
 10
112.1725904378218
 20
141.4416267535534
 30
0.0
 11
111.1725904378218
 21
141.4416267535537
 31
0.0
  0
LINE
  5
9C8
330
2
100
AcDbEntity
  8
P-0004
  6
Continuous
 62
     7
100
AcDbLine
 10
112.1725904378218
 20
141.4416267535534
 30
0.0
 11
112.1725904378218
 21
179.4416267535534
 31
0.0
  0
LINE
  5
9C9
330
2
100
AcDbEntity
  8
P-0004
  6
Continuous
 62
     7
100
AcDbLine
 10
94.17259043782182
 20
141.4416267535534
 30
0.0
 11
94.17259043782182
 21
179.4416267535534
 31
0.0
  0
LINE
  5
9CA
330
2
100
AcDbEntity
  8
P-0004
  6
Continuous
 62
     7
100
AcDbLine
 10
95.17259043782182
 20
141.4416267535537
 30
0.0
 11
94.17259043782182
 21
141.4416267535534
 31
0.0
  0
LINE
  5
9CB
330
2
100
AcDbEntity
  8
P-0004
  6
Continuous
 62
     7
100
AcDbLine
 10
95.17259043782182
 20
141.4416267535537
 30
0.0
 11
99.17259043782182
 21
141.4416267535537
 31
0.0
  0
ENDSEC
  0
SECTION
  2
OBJECTS
  0
DICTIONARY
  5
1A
330
0
100
AcDbDictionary
281
     1
  3
ACAD_COLOR
350
2C5
  3
ACAD_GROUP
350
18
  3
ACAD_LAYOUT
350
45
  3
ACAD_MATERIAL
350
2B0
  3
ACAD_MLEADERSTYLE
350
354
  3
ACAD_MLINESTYLE
350
19
  3
ACAD_PLOTSETTINGS
350
46
  3
ACAD_PLOTSTYLENAME
350
43
  3
ACAD_SCALELIST
350
332
  3
ACAD_TABLESTYLE
350
2C6
  3
ACAD_VISUALSTYLE
350
2B4
  3
ACDB_RECOMPOSE_DATA
350
AEF
  3
AcDbVariableDictionary
350
2AA
  3
DWGPROPS
350
AF0
  3
qs_topprt_diz
350
A94
  3
QSCATDICT
350
A91
  3
QsPallStyleDict
350
A93
  3
TopSpotLight
350
A9A
  0
DICTIONARY
  5
300
330
12
100
AcDbDictionary
280
     1
281
     1
  0
DICTIONARY
  5
758
330
A
100
AcDbDictionary
280
     1
281
     1
  3
ACAD_LAYERSTATES
360
759
  0
DICTIONARY
  5
37B
330
4
100
AcDbDictionary
280
     1
281
     1
  3
ADSK_XREC_LAYER_RECONCILED
360
AA5
  0
DICTIONARY
  5
AA6
330
7A0
100
AcDbDictionary
280
     1
281
     1
  3
ADSK_XREC_LAYER_RECONCILED
360
AA7
  0
DICTIONARY
  5
AA8
330
7A1
100
AcDbDictionary
280
     1
281
     1
  3
ADSK_XREC_LAYER_RECONCILED
360
AA9
  0
DICTIONARY
  5
AAA
330
7A2
100
AcDbDictionary
280
     1
281
     1
  3
ADSK_XREC_LAYER_RECONCILED
360
AAB
  0
DICTIONARY
  5
AAC
330
7A3
100
AcDbDictionary
280
     1
281
     1
  3
ADSK_XREC_LAYER_RECONCILED
360
AAD
  0
DICTIONARY
  5
AAE
330
7A4
100
AcDbDictionary
280
     1
281
     1
  3
ADSK_XREC_LAYER_RECONCILED
360
AAF
  0
DICTIONARY
  5
AB0
330
7A5
100
AcDbDictionary
280
     1
281
     1
  3
ADSK_XREC_LAYER_RECONCILED
360
AB1
  0
DICTIONARY
  5
AB2
330
7A8
100
AcDbDictionary
280
     1
281
     1
  3
ADSK_XREC_LAYER_RECONCILED
360
AB3
  0
DICTIONARY
  5
AB4
330
7AE
100
AcDbDictionary
280
     1
281
     1
  3
ADSK_XREC_LAYER_RECONCILED
360
AB5
  0
DICTIONARY
  5
AB6
330
7B7
100
AcDbDictionary
280
     1
281
     1
  3
ADSK_XREC_LAYER_RECONCILED
360
AB7
  0
DICTIONARY
  5
AB8
330
7B8
100
AcDbDictionary
280
     1
281
     1
  3
ADSK_XREC_LAYER_RECONCILED
360
AB9
  0
DICTIONARY
  5
ABA
330
7B9
100
AcDbDictionary
280
     1
281
     1
  3
ADSK_XREC_LAYER_RECONCILED
360
ABB
  0
DICTIONARY
  5
ABC
330
7BB
100
AcDbDictionary
280
     1
281
     1
  3
ADSK_XREC_LAYER_RECONCILED
360
ABD
  0
DICTIONARY
  5
ABE
330
7BC
100
AcDbDictionary
280
     1
281
     1
  3
ADSK_XREC_LAYER_RECONCILED
360
ABF
  0
DICTIONARY
  5
AC0
330
7BE
100
AcDbDictionary
280
     1
281
     1
  3
ADSK_XREC_LAYER_RECONCILED
360
AC1
  0
DICTIONARY
  5
AC2
330
A96
100
AcDbDictionary
280
     1
281
     1
  3
ADSK_XREC_LAYER_RECONCILED
360
AC3
  0
DICTIONARY
  5
A0E
330
95F
100
AcDbDictionary
280
     1
281
     1
  3
ACAD_MLATT
360
ACA
  3
ACAD_XREC_ROUNDTRIP
360
AC9
  0
DICTIONARY
  5
A11
330
960
100
AcDbDictionary
280
     1
281
     1
  3
ACAD_MLATT
360
ACC
  3
ACAD_XREC_ROUNDTRIP
360
ACB
  0
DICTIONARY
  5
A14
330
962
100
AcDbDictionary
280
     1
281
     1
  3
ACAD_MLATT
360
ACE
  3
ACAD_XREC_ROUNDTRIP
360
ACD
  0
DICTIONARY
  5
A17
330
963
100
AcDbDictionary
280
     1
281
     1
  3
ACAD_MLATT
360
AD0
  3
ACAD_XREC_ROUNDTRIP
360
ACF
  0
DICTIONARY
  5
A1A
330
964
100
AcDbDictionary
280
     1
281
     1
  3
ACAD_MLATT
360
AD2
  3
ACAD_XREC_ROUNDTRIP
360
AD1
  0
DICTIONARY
  5
A1D
330
966
100
AcDbDictionary
280
     1
281
     1
  3
ACAD_MLATT
360
AD4
  3
ACAD_XREC_ROUNDTRIP
360
AD3
  0
DICTIONARY
  5
A20
330
967
100
AcDbDictionary
280
     1
281
     1
  3
ACAD_MLATT
360
AD6
  3
ACAD_XREC_ROUNDTRIP
360
AD5
  0
DICTIONARY
  5
A23
330
968
100
AcDbDictionary
280
     1
281
     1
  3
ACAD_MLATT
360
AD8
  3
ACAD_XREC_ROUNDTRIP
360
AD7
  0
DICTIONARY
  5
A26
330
969
100
AcDbDictionary
280
     1
281
     1
  3
ACAD_MLATT
360
ADA
  3
ACAD_XREC_ROUNDTRIP
360
AD9
  0
DICTIONARY
  5
A29
330
96B
100
AcDbDictionary
280
     1
281
     1
  3
ACAD_MLATT
360
ADC
  3
ACAD_XREC_ROUNDTRIP
360
ADB
  0
DICTIONARY
  5
A2C
330
96C
100
AcDbDictionary
280
     1
281
     1
  3
ACAD_MLATT
360
ADE
  3
ACAD_XREC_ROUNDTRIP
360
ADD
  0
DICTIONARY
  5
A2F
330
96E
100
AcDbDictionary
280
     1
281
     1
  3
ACAD_MLATT
360
AE0
  3
ACAD_XREC_ROUNDTRIP
360
ADF
  0
DICTIONARY
  5
A32
330
96F
100
AcDbDictionary
280
     1
281
     1
  3
ACAD_MLATT
360
AE2
  3
ACAD_XREC_ROUNDTRIP
360
AE1
  0
DICTIONARY
  5
A35
330
970
100
AcDbDictionary
280
     1
281
     1
  3
ACAD_MLATT
360
AE4
  3
ACAD_XREC_ROUNDTRIP
360
AE3
  0
DICTIONARY
  5
A38
330
971
100
AcDbDictionary
280
     1
281
     1
  3
ACAD_MLATT
360
AE6
  3
ACAD_XREC_ROUNDTRIP
360
AE5
  0
DICTIONARY
  5
A3B
330
973
100
AcDbDictionary
280
     1
281
     1
  3
ACAD_MLATT
360
AE8
  3
ACAD_XREC_ROUNDTRIP
360
AE7
  0
DICTIONARY
  5
A3E
330
974
100
AcDbDictionary
280
     1
281
     1
  3
ACAD_MLATT
360
AEA
  3
ACAD_XREC_ROUNDTRIP
360
AE9
  0
DICTIONARY
  5
A41
330
975
100
AcDbDictionary
280
     1
281
     1
  3
ACAD_MLATT
360
AEC
  3
ACAD_XREC_ROUNDTRIP
360
AEB
  0
DICTIONARY
  5
A44
330
976
100
AcDbDictionary
280
     1
281
     1
  3
ACAD_MLATT
360
AEE
  3
ACAD_XREC_ROUNDTRIP
360
AED
  0
DICTIONARY
  5
2C5
102
{ACAD_REACTORS
330
1A
102
}
330
1A
100
AcDbDictionary
281
     1
  0
DICTIONARY
  5
18
102
{ACAD_REACTORS
330
1A
102
}
330
1A
100
AcDbDictionary
281
     1
  0
DICTIONARY
  5
45
102
{ACAD_REACTORS
330
1A
102
}
330
1A
100
AcDbDictionary
281
     1
  3
Layout1
350
48
  3
Model
350
47
  0
DICTIONARY
  5
2B0
102
{ACAD_REACTORS
330
1A
102
}
330
1A
100
AcDbDictionary
281
     1
  3
ByBlock
350
2B2
  3
ByLayer
350
2B1
  3
Global
350
2B3
  0
DICTIONARY
  5
354
102
{ACAD_REACTORS
330
1A
102
}
330
1A
100
AcDbDictionary
281
     1
  3
Standard
350
355
  0
DICTIONARY
  5
19
102
{ACAD_REACTORS
330
1A
102
}
330
1A
100
AcDbDictionary
281
     1
  3
STANDARD
350
1C
  0
DICTIONARY
  5
46
102
{ACAD_REACTORS
330
1A
102
}
330
1A
100
AcDbDictionary
281
     1
  3
HP 5200 A3
350
A9D
  3
HP 5200 A4
350
A9E
  3
Olivetti_200 A3
350
A9F
  3
Olivetti_200 A4
350
AA0
  3
PLOTTER
350
AA1
  0
ACDBDICTIONARYWDFLT
  5
43
102
{ACAD_REACTORS
330
1A
102
}
330
1A
100
AcDbDictionary
281
     1
  3
Normal
350
44
100
AcDbDictionaryWithDefault
340
44
  0
DICTIONARY
  5
332
102
{ACAD_REACTORS
330
1A
102
}
330
1A
100
AcDbDictionary
281
     1
  3
A0
350
333
  3
A1
350
334
  3
A2
350
335
  3
A3
350
336
  3
A4
350
337
  3
A5
350
338
  3
A6
350
339
  3
A7
350
33A
  3
A8
350
33B
  3
A9
350
33C
  3
B0
350
33D
  3
B1
350
33E
  3
B2
350
33F
  3
B3
350
340
  3
B4
350
341
  3
B5
350
342
  3
B6
350
343
  3
B7
350
344
  3
B8
350
345
  3
B9
350
346
  3
C0
350
347
  3
C1
350
348
  3
C2
350
349
  3
C3
350
34A
  3
C4
350
34B
  3
C5
350
34C
  3
C6
350
34D
  3
C7
350
34E
  3
C8
350
34F
  3
C9
350
350
  3
D0
350
351
  3
D1
350
352
  3
D2
350
353
  0
DICTIONARY
  5
2C6
102
{ACAD_REACTORS
330
1A
102
}
330
1A
100
AcDbDictionary
281
     1
  3
QSTABFORI
350
31A
  3
QSTABREGION
350
2CC
  3
Standard
350
2C7
  0
DICTIONARY
  5
2B4
102
{ACAD_REACTORS
330
1A
102
}
330
1A
100
AcDbDictionary
281
     1
  3
2dWireframe
350
2BA
  3
3D Hidden
350
2BC
  3
3dWireframe
350
2BB
  3
Basic
350
2B9
  3
Brighten
350
2C0
  3
ColorChange
350
2C4
  3
Conceptual
350
2BD
  3
Dim
350
2BF
  3
EdgeColorOff
350
6EB
  3
Facepattern
350
2C3
  3
Flat
350
2B5
  3
FlatWithEdges
350
2B6
  3
Gouraud
350
2B7
  3
GouraudWithEdges
350
2B8
  3
Hidden
350
6E3
  3
JitterOff
350
6E9
  3
Linepattern
350
2C2
  3
OverhangOff
350
6EA
  3
Realistic
350
2BE
  3
Shaded
350
6E8
  3
Shaded with edges
350
6E7
  3
Shades of Gray
350
6E4
  3
Sketchy
350
6E5
  3
Thicken
350
2C1
  3
Wireframe
350
6E2
  3
X-Ray
350
6E6
  0
XRECORD
  5
AEF
102
{ACAD_REACTORS
330
1A
102
}
330
1A
100
AcDbXrecord
280
     1
 90
        1
330
2C7
330
2CC
330
31A
330
95F
330
960
330
962
330
963
330
964
330
966
330
967
330
968
330
969
330
96B
330
96C
330
96E
330
96F
330
970
330
971
330
973
330
974
330
975
330
976
  0
DICTIONARY
  5
2AA
102
{ACAD_REACTORS
330
1A
102
}
330
1A
100
AcDbDictionary
281
     1
  3
CANNOSCALE
350
36B
  3
CMLEADERSTYLE
350
369
  3
CTABLESTYLE
350
312
  3
DIMASSOC
350
2AB
  3
DRAWORDERCTL
350
AC4
  3
INDEXCTL
350
314
  3
LAYEREVAL
350
760
  3
LAYERNOTIFY
350
761
  3
LIGHTINGUNITS
350
36C
  3
MSLTSCALE
350
36A
  3
SORTENTS
350
313
  3
XCLIPFRAME
350
AC5
  0
XRECORD
  5
AF0
102
{ACAD_REACTORS
330
1A
102
}
330
1A
100
AcDbXrecord
280
     1
  1
DWGPROPS COOKIE
  2

  3

  4
M.Capuano
  6

  7

  8
mpistoia
  9

300
Responsabile=
301
Società=
302
Categoria=
303
Numero parte=MA1400
304
Descrizione=
305
Progetto=
306
Progettista=
307
Ingegnere=
308
Autorità=
309
Centro gestione costi=
 40
0.3054951736111111
 41
2451886.51184213
 42
2455699.646959641
  1

 90
       40
300
Fornitore=
300
Stato utente=
300
Stato progetto=In corso
300
Verificato da=
300
Progett. approvata da=
300
Prod. approvata da=
300
PESO=0,00
300
RIF_ORDINE=
300
DIM1=
300
SCALA=1:1
300
DESCRIZIONE2=
300
DESCRIZIONE3=
300
POS.=
300
TRATTAMENTI=
300
DISEGN_REV=
300
DIMENSIONI_DIM1-DIM2=
300
DISEGNATORE=
300
SPECIFICHE_TAGLIO=
300
DISEGNO=
300
FILE=
300
NOTE=
300
DATA=
300
DATA_REV=
300
MOD_REV=
300
REV=
300
DIM2=
300
QTA=
300
UM=NR
300
MATERIALE=
300
CODICE=
  0
DICTIONARY
  5
A94
102
{ACAD_REACTORS
330
1A
102
}
330
1A
100
AcDbDictionary
281
     1
  3
UCNT
350
A95
  0
DICTIONARY
  5
A91
102
{ACAD_REACTORS
330
1A
102
}
330
1A
100
AcDbDictionary
281
     1
  3
DEFAULT
350
A92
  0
DICTIONARY
  5
A93
102
{ACAD_REACTORS
330
1A
102
}
330
1A
100
AcDbDictionary
281
     1
  3
DEFAULT
350
A97
  0
DICTIONARY
  5
A9A
102
{ACAD_REACTORS
330
1A
102
}
330
1A
100
AcDbDictionary
281
     1
  3
colors
350
A9B
  0
DICTIONARY
  5
759
102
{ACAD_REACTORS
330
758
102
}
330
758
100
AcDbDictionary
281
     1
  0
XRECORD
  5
AA5
102
{ACAD_REACTORS
330
37B
102
}
330
37B
100
AcDbXrecord
280
     1
290
     1
  0
XRECORD
  5
AA7
102
{ACAD_REACTORS
330
AA6
102
}
330
AA6
100
AcDbXrecord
280
     1
290
     1
  0
XRECORD
  5
AA9
102
{ACAD_REACTORS
330
AA8
102
}
330
AA8
100
AcDbXrecord
280
     1
290
     1
  0
XRECORD
  5
AAB
102
{ACAD_REACTORS
330
AAA
102
}
330
AAA
100
AcDbXrecord
280
     1
290
     1
  0
XRECORD
  5
AAD
102
{ACAD_REACTORS
330
AAC
102
}
330
AAC
100
AcDbXrecord
280
     1
290
     1
  0
XRECORD
  5
AAF
102
{ACAD_REACTORS
330
AAE
102
}
330
AAE
100
AcDbXrecord
280
     1
290
     1
  0
XRECORD
  5
AB1
102
{ACAD_REACTORS
330
AB0
102
}
330
AB0
100
AcDbXrecord
280
     1
290
     1
  0
XRECORD
  5
AB3
102
{ACAD_REACTORS
330
AB2
102
}
330
AB2
100
AcDbXrecord
280
     1
290
     1
  0
XRECORD
  5
AB5
102
{ACAD_REACTORS
330
AB4
102
}
330
AB4
100
AcDbXrecord
280
     1
290
     1
  0
XRECORD
  5
AB7
102
{ACAD_REACTORS
330
AB6
102
}
330
AB6
100
AcDbXrecord
280
     1
290
     1
  0
XRECORD
  5
AB9
102
{ACAD_REACTORS
330
AB8
102
}
330
AB8
100
AcDbXrecord
280
     1
290
     1
  0
XRECORD
  5
ABB
102
{ACAD_REACTORS
330
ABA
102
}
330
ABA
100
AcDbXrecord
280
     1
290
     1
  0
XRECORD
  5
ABD
102
{ACAD_REACTORS
330
ABC
102
}
330
ABC
100
AcDbXrecord
280
     1
290
     1
  0
XRECORD
  5
ABF
102
{ACAD_REACTORS
330
ABE
102
}
330
ABE
100
AcDbXrecord
280
     1
290
     1
  0
XRECORD
  5
AC1
102
{ACAD_REACTORS
330
AC0
102
}
330
AC0
100
AcDbXrecord
280
     1
290
     1
  0
XRECORD
  5
AC3
102
{ACAD_REACTORS
330
AC2
102
}
330
AC2
100
AcDbXrecord
280
     1
290
     1
  0
XRECORD
  5
ACA
102
{ACAD_REACTORS
330
A0E
102
}
330
A0E
100
AcDbXrecord
280
     1
 70
     4
 70
     0
 70
     0
 40
1.0
  2
DESCRIZIONE
  1
Embedded Object
 10
28.74010102232296
 20
65.0
 30
0.0
 40
2.491525560617446
 41
0.0
 46
0.0
 71
     4
 72
     5
  1

  7
Stile testo102
 73
     1
 44
1.0
  0
XRECORD
  5
AC9
102
{ACAD_REACTORS
330
A0E
102
}
330
A0E
100
AcDbXrecord
280
     1
102
ACAD_MATT_HEIGHT
140
2.491525560617446
  0
XRECORD
  5
ACC
102
{ACAD_REACTORS
330
A11
102
}
330
A11
100
AcDbXrecord
280
     1
 70
     4
 70
     0
 70
     0
 40
1.0
  2
COMMESSA
  1
Embedded Object
 10
94.81214291417655
 20
42.5
 30
0.0
 40
2.491525560617446
 41
0.0
 46
0.0
 71
     4
 72
     5
  1

  7
Stile testo102
 73
     1
 44
1.0
  0
XRECORD
  5
ACB
102
{ACAD_REACTORS
330
A11
102
}
330
A11
100
AcDbXrecord
280
     1
102
ACAD_MATT_HEIGHT
140
2.491525560617446
  0
XRECORD
  5
ACE
102
{ACAD_REACTORS
330
A14
102
}
330
A14
100
AcDbXrecord
280
     1
 70
     4
 70
     0
 70
     0
 40
1.0
  2
DISEGNATORE
  1
Embedded Object
 10
147.7682984236189
 20
58.75000000000011
 30
0.0
 40
2.000000029802322
 41
0.0
 46
0.0
 71
     4
 72
     5
  1

  7
Stile testo71
 73
     1
 44
1.0
  0
XRECORD
  5
ACD
102
{ACAD_REACTORS
330
A14
102
}
330
A14
100
AcDbXrecord
280
     1
102
ACAD_MATT_HEIGHT
140
2.000000029802322
  0
XRECORD
  5
AD0
102
{ACAD_REACTORS
330
A17
102
}
330
A17
100
AcDbXrecord
280
     1
 70
     4
 70
     0
 70
     0
 40
1.0
  2
DESCRIZIONE2
  1
Embedded Object
 10
28.74010102232296
 20
60.0
 30
0.0
 40
2.491525560617446
 41
0.0
 46
0.0
 71
     4
 72
     5
  1

  7
Stile testo102
 73
     1
 44
1.0
  0
XRECORD
  5
ACF
102
{ACAD_REACTORS
330
A17
102
}
330
A17
100
AcDbXrecord
280
     1
102
ACAD_MATT_HEIGHT
140
2.491525560617446
  0
XRECORD
  5
AD2
102
{ACAD_REACTORS
330
A1A
102
}
330
A1A
100
AcDbXrecord
280
     1
 70
     4
 70
     0
 70
     0
 40
1.0
  2
DESCRIZIONE3
  1
Embedded Object
 10
28.74010102232296
 20
55.0
 30
0.0
 40
2.491525560617446
 41
0.0
 46
0.0
 71
     4
 72
     5
  1

  7
Stile testo102
 73
     1
 44
1.0
  0
XRECORD
  5
AD1
102
{ACAD_REACTORS
330
A1A
102
}
330
A1A
100
AcDbXrecord
280
     1
102
ACAD_MATT_HEIGHT
140
2.491525560617446
  0
XRECORD
  5
AD4
102
{ACAD_REACTORS
330
A1D
102
}
330
A1D
100
AcDbXrecord
280
     1
 70
     4
 70
     0
 70
     0
 40
1.0
  2
DATA
  1
Embedded Object
 10
147.7682984236189
 20
66.25000000000011
 30
0.0
 40
3.499999940395355
 41
0.0
 46
0.0
 71
     4
 72
     5
  1

  7
Stile testo75
 73
     1
 44
1.0
  0
XRECORD
  5
AD3
102
{ACAD_REACTORS
330
A1D
102
}
330
A1D
100
AcDbXrecord
280
     1
102
ACAD_MATT_HEIGHT
140
3.499999940395355
  0
XRECORD
  5
AD6
102
{ACAD_REACTORS
330
A20
102
}
330
A20
100
AcDbXrecord
280
     1
 70
     4
 70
     0
 70
     0
 40
1.0
  2
SCALA
  1
Embedded Object
 10
183.5475921256211
 20
66.28532804482768
 30
0.0
 40
3.499999940395355
 41
0.0
 46
0.0
 71
     4
 72
     5
  1
1:1
  7
Stile testo75
 73
     1
 44
1.0
  0
XRECORD
  5
AD5
102
{ACAD_REACTORS
330
A20
102
}
330
A20
100
AcDbXrecord
280
     1
102
ACAD_MATT_HEIGHT
140
3.499999940395355
  0
XRECORD
  5
AD8
102
{ACAD_REACTORS
330
A23
102
}
330
A23
100
AcDbXrecord
280
     1
 70
     4
 70
     0
 70
     0
 40
1.0
  2
QTA
  1
Embedded Object
 10
184.1532157512365
 20
58.75000000000011
 30
0.0
 40
3.499999940395355
 41
0.0
 46
0.0
 71
     4
 72
     5
  1

  7
Stile testo75
 73
     1
 44
1.0
  0
XRECORD
  5
AD7
102
{ACAD_REACTORS
330
A23
102
}
330
A23
100
AcDbXrecord
280
     1
102
ACAD_MATT_HEIGHT
140
3.499999940395355
  0
XRECORD
  5
ADA
102
{ACAD_REACTORS
330
A26
102
}
330
A26
100
AcDbXrecord
280
     1
 70
     4
 70
     0
 70
     0
 40
1.0
  2
RIF_ORDINE
  1
Embedded Object
 10
156.6477659240454
 20
51.25000000000011
 30
0.0
 40
2.491525560617446
 41
0.0
 46
0.0
 71
     4
 72
     5
  1

  7
Stile testo102
 73
     1
 44
1.0
  0
XRECORD
  5
AD9
102
{ACAD_REACTORS
330
A26
102
}
330
A26
100
AcDbXrecord
280
     1
102
ACAD_MATT_HEIGHT
140
2.491525560617446
  0
XRECORD
  5
ADC
102
{ACAD_REACTORS
330
A29
102
}
330
A29
100
AcDbXrecord
280
     1
 70
     4
 70
     0
 70
     0
 40
1.0
  2
CODICE
  1
Embedded Object
 10
155.290076571523
 20
40.62500000000011
 30
0.0
 40
4.49999988079071
 41
0.0
 46
0.0
 71
     4
 72
     5
  1

  7
Stile testo78
 73
     1
 44
1.0
  0
XRECORD
  5
ADB
102
{ACAD_REACTORS
330
A29
102
}
330
A29
100
AcDbXrecord
280
     1
102
ACAD_MATT_HEIGHT
140
4.49999988079071
  0
XRECORD
  5
ADE
102
{ACAD_REACTORS
330
A2C
102
}
330
A2C
100
AcDbXrecord
280
     1
 70
     4
 70
     0
 70
     0
 40
1.0
  2
COD_CLIENTE
  1
Embedded Object
 10
94.8016206352022
 20
47.5
 30
0.0
 40
2.491525560617446
 41
0.0
 46
0.0
 71
     4
 72
     5
  1

  7
Stile testo102
 73
     1
 44
1.0
  0
XRECORD
  5
ADD
102
{ACAD_REACTORS
330
A2C
102
}
330
A2C
100
AcDbXrecord
280
     1
102
ACAD_MATT_HEIGHT
140
2.491525560617446
  0
XRECORD
  5
AE0
102
{ACAD_REACTORS
330
A2F
102
}
330
A2F
100
AcDbXrecord
280
     1
 70
     4
 70
     0
 70
     0
 40
1.0
  2
CLIENTE
  1
Embedded Object
 10
17.76035154006968
 20
45.0
 30
0.0
 40
3.991525471210479
 41
0.0
 46
0.0
 71
     4
 72
     5
  1

  7
Stile testo103
 73
     1
 44
1.0
  0
XRECORD
  5
ADF
102
{ACAD_REACTORS
330
A2F
102
}
330
A2F
100
AcDbXrecord
280
     1
102
ACAD_MATT_HEIGHT
140
3.991525471210479
  0
XRECORD
  5
AE2
102
{ACAD_REACTORS
330
A32
102
}
330
A32
100
AcDbXrecord
280
     1
 70
     4
 70
     0
 70
     0
 40
1.0
  2
MATERIALE
  1
Embedded Object
 10
37.04547401447201
 20
73.75
 30
0.0
 40
2.491525560617446
 41
0.0
 46
0.0
 71
     4
 72
     5
  1

  7
Stile testo102
 73
     1
 44
1.0
  0
XRECORD
  5
AE1
102
{ACAD_REACTORS
330
A32
102
}
330
A32
100
AcDbXrecord
280
     1
102
ACAD_MATT_HEIGHT
140
2.491525560617446
  0
XRECORD
  5
AE4
102
{ACAD_REACTORS
330
A35
102
}
330
A35
100
AcDbXrecord
280
     1
 70
     4
 70
     0
 70
     0
 40
1.0
  2
TRATTAMENTI
  1
Embedded Object
 10
140.5628059283587
 20
73.75
 30
0.0
 40
2.491525560617446
 41
0.0
 46
0.0
 71
     4
 72
     5
  1

  7
Stile testo102
 73
     1
 44
1.0
  0
XRECORD
  5
AE3
102
{ACAD_REACTORS
330
A35
102
}
330
A35
100
AcDbXrecord
280
     1
102
ACAD_MATT_HEIGHT
140
2.491525560617446
  0
XRECORD
  5
AE6
102
{ACAD_REACTORS
330
A38
102
}
330
A38
100
AcDbXrecord
280
     1
 70
     4
 70
     0
 70
     0
 40
1.0
  2
MOD_REV
  1
Embedded Object
 10
21.57933346514306
 20
83.78966672746249
 30
0.0
 40
2.491525560617446
 41
0.0
 46
0.0
 71
     4
 72
     5
  1

  7
Stile testo102
 73
     1
 44
1.0
  0
XRECORD
  5
AE5
102
{ACAD_REACTORS
330
A38
102
}
330
A38
100
AcDbXrecord
280
     1
102
ACAD_MATT_HEIGHT
140
2.491525560617446
  0
XRECORD
  5
AE8
102
{ACAD_REACTORS
330
A3B
102
}
330
A3B
100
AcDbXrecord
280
     1
 70
     4
 70
     0
 70
     0
 40
1.0
  2
REV
  1
Embedded Object
 10
12.35400178234428
 20
84.02164077493692
 30
0.0
 40
2.5
 41
12.26933361020275
 46
0.0
 71
     5
 72
     5
  1

  7
Stile testo68
 73
     1
 44
1.0
  0
XRECORD
  5
AE7
102
{ACAD_REACTORS
330
A3B
102
}
330
A3B
100
AcDbXrecord
280
     1
102
ACAD_MATT_HEIGHT
140
2.5
  0
XRECORD
  5
AEA
102
{ACAD_REACTORS
330
A3E
102
}
330
A3E
100
AcDbXrecord
280
     1
 70
     4
 70
     0
 70
     0
 40
1.0
  2
DATA_REV
  1
Embedded Object
 10
177.2480015623884
 20
83.48340239945997
 30
0.0
 40
2.491525560617446
 41
0.0
 46
0.0
 71
     5
 72
     5
  1

  7
Stile testo102
 73
     1
 44
1.0
  0
XRECORD
  5
AE9
102
{ACAD_REACTORS
330
A3E
102
}
330
A3E
100
AcDbXrecord
280
     1
102
ACAD_MATT_HEIGHT
140
2.491525560617446
  0
XRECORD
  5
AEC
102
{ACAD_REACTORS
330
A41
102
}
330
A41
100
AcDbXrecord
280
     1
 70
     4
 70
     0
 70
     0
 40
1.0
  2
DISEGN_REV
  1
Embedded Object
 10
194.9481281634527
 20
83.71630904727314
 30
0.0
 40
2.491525560617446
 41
0.0
 46
0.0
 71
     5
 72
     5
  1

  7
Stile testo102
 73
     1
 44
1.0
  0
XRECORD
  5
AEB
102
{ACAD_REACTORS
330
A41
102
}
330
A41
100
AcDbXrecord
280
     1
102
ACAD_MATT_HEIGHT
140
2.491525560617446
  0
XRECORD
  5
AEE
102
{ACAD_REACTORS
330
A44
102
}
330
A44
100
AcDbXrecord
280
     1
 70
     4
 70
     0
 70
     0
 40
1.0
  2
Dimensioni_foglio
  1
Embedded Object
 10
206.8025410607465
 20
2.748273112164461
 30
0.0
 40
2.000000029802322
 41
0.0
 46
0.0
 71
     5
 72
     5
  1
A4
  7
Stile testo71
 73
     1
 44
1.0
  0
XRECORD
  5
AED
102
{ACAD_REACTORS
330
A44
102
}
330
A44
100
AcDbXrecord
280
     1
102
ACAD_MATT_HEIGHT
140
2.000000029802322
  0
LAYOUT
  5
48
102
{ACAD_XDICTIONARY
360
AF2
102
}
102
{ACAD_REACTORS
330
45
102
}
330
45
100
AcDbPlotSettings
  1

  2
RICOH Aficio 270 PCL 6 A4
  4

  6

 40
0.0
 41
0.0
 42
0.0
 43
0.0
 44
0.0
 45
0.0
 46
0.0
 47
0.0
 48
0.0
 49
0.0
140
0.0
141
0.0
142
1.0
143
1.0
 70
   688
 72
     0
 73
     0
 74
     5
  7
DIERRE BN.ctb
 75
    16
147
1.0
148
0.0
149
0.0
100
AcDbLayout
  1
Layout1
 70
     1
 71
     1
 10
0.0
 20
0.0
 11
210.0
 21
297.0
 12
0.0
 22
0.0
 32
0.0
 14
0.0
 24
0.0
 34
0.0
 15
210.0
 25
297.0
 35
0.0
146
0.0
 13
0.0
 23
0.0
 33
0.0
 16
1.0
 26
0.0
 36
0.0
 17
0.0
 27
1.0
 37
0.0
 76
     0
330
7
  0
LAYOUT
  5
47
102
{ACAD_XDICTIONARY
360
75E
102
}
102
{ACAD_REACTORS
330
45
102
}
330
45
100
AcDbPlotSettings
  1
Olivetti_200 A4
  2
Olivetti_200.pc3
  4
A4
  6

 40
4.984749794006347
 41
5.154074668884277
 42
5.111740112304687
 43
4.9847412109375
 44
210.0156707763672
 45
297.0106506347656
 46
51.67548120477697
 47
0.0
 48
0.0
 49
0.0
140
0.0
141
0.0
142
1.0
143
0.4718508448115938
 70
 11956
 72
     1
 73
     0
 74
     1
  7
DIERRE BN.ctb
 75
     0
147
2.119313785268927
148
-222.4649060220283
149
-239.0808115236937
100
AcDbLayout
  1
Model
 70
     1
 71
     0
 10
0.0
 20
0.0
 11
12.0
 21
9.0
 12
0.0
 22
0.0
 32
0.0
 14
0.0
 24
0.0
 34
0.0
 15
0.0
 25
0.0
 35
0.0
146
0.0
 13
0.0
 23
0.0
 33
0.0
 16
1.0
 26
0.0
 36
0.0
 17
0.0
 27
1.0
 37
0.0
 76
     0
330
2
331
2AE
1001
ACAD_PSEXT
1000
Olivetti_200.pc3
1000
Olivetti d-Copia 200MF KX
1000
IP_192.168.1.151
1000

1070
     0
  0
MATERIAL
  5
2B2
102
{ACAD_XDICTIONARY
360
AF6
102
}
102
{ACAD_REACTORS
330
2B0
102
}
330
2B0
100
AcDbMaterial
  1
ByBlock
 73
     1
 78
     1
172
     1
176
     1
270
     1
274
     1
  0
MATERIAL
  5
2B1
102
{ACAD_XDICTIONARY
360
AF4
102
}
102
{ACAD_REACTORS
330
2B0
102
}
330
2B0
100
AcDbMaterial
  1
ByLayer
 73
     1
 78
     1
172
     1
176
     1
270
     1
274
     1
  0
MATERIAL
  5
2B3
102
{ACAD_XDICTIONARY
360
AF8
102
}
102
{ACAD_REACTORS
330
2B0
102
}
330
2B0
100
AcDbMaterial
  1
Global
 73
     1
 78
     1
172
     1
176
     1
270
     1
274
     1
  0
MLEADERSTYLE
  5
355
102
{ACAD_REACTORS
330
354
102
}
330
354
100
AcDbMLeaderStyle
170
     2
171
     1
172
     0
 90
        2
 40
0.0
 41
0.0
173
     1
 91
-1056964608
340
E
 92
       -2
290
     1
 42
2.0
291
     1
 43
0.36
  3
Standard
 44
4.0
300

342
C
174
     1
178
     6
175
     1
176
     0
 93
-1056964608
 45
4.0
292
     0
297
     0
 46
4.0
 94
-1056964608
 47
1.0
 49
1.0
140
1.0
293
     1
141
0.0
294
     1
177
     0
142
1.0
295
     0
296
     0
143
0.125
1001
ACAD_MLEADERVER
1070
     2
  0
MLINESTYLE
  5
1C
102
{ACAD_REACTORS
330
19
102
}
330
19
100
AcDbMlineStyle
  2
STANDARD
 70
     0
  3

 62
     0
 51
90.0
 52
90.0
 71
     2
 49
0.5
 62
   256
  6
BYLAYER
 49
-0.5
 62
   256
  6
BYLAYER
  0
PLOTSETTINGS
  5
A9D
102
{ACAD_XDICTIONARY
360
B31
102
}
102
{ACAD_REACTORS
330
46
102
}
330
46
100
AcDbPlotSettings
  1
HP 5200 A3
  2
HP LaserJet 5200 PCL 6.pc3
  4
A3
  6

 40
6.011333465576171
 41
4.233311176300048
 42
6.0113525390625
 43
4.23333740234375
 44
296.9683227539062
 45
419.9889831542968
 46
0.8490915718880103
 47
0.0
 48
0.0
 49
0.0
140
0.0
141
0.0
142
1.0
143
0.5049198555318521
 70
 11956
 72
     1
 73
     1
 74
     1
  7
DIERRE BN.ctb
 75
     0
147
1.980512330905784
148
-26.56781961135493
149
-854.2304114103949
1001
ACAD_PSEXT
1000
HP LaserJet 5200 PCL 6.pc3
1000
HP LaserJet 5200 PCL 6
1000
USB001
1000

1070
     0
  0
PLOTSETTINGS
  5
A9E
102
{ACAD_XDICTIONARY
360
B33
102
}
102
{ACAD_REACTORS
330
46
102
}
330
46
100
AcDbPlotSettings
  1
HP 5200 A4
  2
HP LaserJet 5200 PCL 6.pc3
  4
A4
  6

 40
4.233333110809326
 41
5.757328510284423
 42
4.233322143554687
 43
4.23333740234375
 44
209.9733276367187
 45
296.9683227539062
 46
0.0
 47
74.14113202443619
 48
0.0
 49
0.0
140
0.0
141
0.0
142
1.0
143
1.031160880508214
 70
 11956
 72
     1
 73
     0
 74
     1
  7
DIERRE BN.ctb
 75
     0
147
0.9697807770860579
148
-26.56781961135493
149
-854.2304114103949
1001
ACAD_PSEXT
1000
HP LaserJet 5200 PCL 6.pc3
1000
HP LaserJet 5200 PCL 6
1000
USB001
1000

1070
     0
  0
PLOTSETTINGS
  5
A9F
102
{ACAD_XDICTIONARY
360
B35
102
}
102
{ACAD_REACTORS
330
46
102
}
330
46
100
AcDbPlotSettings
  1
Olivetti_200 A3
  2
Olivetti_200.pc3
  4
A3
  6

 40
4.984749794006347
 41
5.111746788024902
 42
5.154083251953125
 43
4.9847412109375
 44
297.0106506347656
 45
419.9889831542968
 46
0.0
 47
156.6621412366913
 48
0.0
 49
0.0
140
0.0
141
0.0
142
1.0
143
0.4718508730467012
 70
 11956
 72
     1
 73
     1
 74
     1
  7
DIERRE BN.ctb
 75
     0
147
2.119313658451206
148
-222.4649060220283
149
-239.0808115236937
1001
ACAD_PSEXT
1000
Olivetti_200.pc3
1000
Olivetti d-Copia 200MF KX
1000
IP_192.168.1.151
1000

1070
     0
  0
PLOTSETTINGS
  5
AA0
102
{ACAD_XDICTIONARY
360
B37
102
}
102
{ACAD_REACTORS
330
46
102
}
330
46
100
AcDbPlotSettings
  1
Olivetti_200 A4
  2
Olivetti_200.pc3
  4
A4
  6

 40
4.984749794006347
 41
5.154074668884277
 42
5.111740112304687
 43
4.9847412109375
 44
210.0156707763672
 45
297.0106506347656
 46
51.67548120477697
 47
0.0
 48
0.0
 49
0.0
140
0.0
141
0.0
142
1.0
143
0.4718508448115938
 70
 11956
 72
     1
 73
     0
 74
     1
  7
DIERRE BN.ctb
 75
     0
147
2.119313785268927
148
-222.4649060220283
149
-239.0808115236937
1001
ACAD_PSEXT
1000
Olivetti_200.pc3
1000
Olivetti d-Copia 200MF KX
1000
IP_192.168.1.151
1000

1070
     0
  0
PLOTSETTINGS
  5
AA1
102
{ACAD_XDICTIONARY
360
B39
102
}
102
{ACAD_REACTORS
330
46
102
}
330
46
100
AcDbPlotSettings
  1
PLOTTER
  2
PLOTTER.pc3
  4
User622
  6

 40
0.0
 41
0.0
 42
0.0
 43
0.0
 44
841.0
 45
1189.0
 46
0.0
 47
0.0
 48
0.0
 49
0.0
140
0.0
141
0.0
142
1.0
143
1.0
 70
 11936
 72
     1
 73
     0
 74
     1
  7
DIERRE BN.ctb
 75
     0
147
2.194137304425714
148
-222.4649060220283
149
-239.0808115236937
1001
ACAD_PSEXT
1000
PLOTTER.pc3
1000
HP DesignJet 430 (E/A0) by HP
1000
\\SERVER2003
1000

1070
     0
  0
ACDBPLACEHOLDER
  5
44
102
{ACAD_REACTORS
330
43
102
}
330
43
  0
SCALE
  5
333
102
{ACAD_REACTORS
330
332
102
}
330
332
100
AcDbScale
 70
     0
300
1:1
140
1.0
141
1.0
290
     1
  0
SCALE
  5
334
102
{ACAD_REACTORS
330
332
102
}
330
332
100
AcDbScale
 70
     0
300
1:2
140
1.0
141
2.0
290
     0
  0
SCALE
  5
335
102
{ACAD_REACTORS
330
332
102
}
330
332
100
AcDbScale
 70
     0
300
1:4
140
1.0
141
4.0
290
     0
  0
SCALE
  5
336
102
{ACAD_REACTORS
330
332
102
}
330
332
100
AcDbScale
 70
     0
300
1:5
140
1.0
141
5.0
290
     0
  0
SCALE
  5
337
102
{ACAD_REACTORS
330
332
102
}
330
332
100
AcDbScale
 70
     0
300
1:8
140
1.0
141
8.0
290
     0
  0
SCALE
  5
338
102
{ACAD_REACTORS
330
332
102
}
330
332
100
AcDbScale
 70
     0
300
1:10
140
1.0
141
10.0
290
     0
  0
SCALE
  5
339
102
{ACAD_REACTORS
330
332
102
}
330
332
100
AcDbScale
 70
     0
300
1:16
140
1.0
141
16.0
290
     0
  0
SCALE
  5
33A
102
{ACAD_REACTORS
330
332
102
}
330
332
100
AcDbScale
 70
     0
300
1:20
140
1.0
141
20.0
290
     0
  0
SCALE
  5
33B
102
{ACAD_REACTORS
330
332
102
}
330
332
100
AcDbScale
 70
     0
300
1:30
140
1.0
141
30.0
290
     0
  0
SCALE
  5
33C
102
{ACAD_REACTORS
330
332
102
}
330
332
100
AcDbScale
 70
     0
300
1:40
140
1.0
141
40.0
290
     0
  0
SCALE
  5
33D
102
{ACAD_REACTORS
330
332
102
}
330
332
100
AcDbScale
 70
     0
300
1:50
140
1.0
141
50.0
290
     0
  0
SCALE
  5
33E
102
{ACAD_REACTORS
330
332
102
}
330
332
100
AcDbScale
 70
     0
300
1:100
140
1.0
141
100.0
290
     0
  0
SCALE
  5
33F
102
{ACAD_REACTORS
330
332
102
}
330
332
100
AcDbScale
 70
     0
300
2:1
140
2.0
141
1.0
290
     0
  0
SCALE
  5
340
102
{ACAD_REACTORS
330
332
102
}
330
332
100
AcDbScale
 70
     0
300
4:1
140
4.0
141
1.0
290
     0
  0
SCALE
  5
341
102
{ACAD_REACTORS
330
332
102
}
330
332
100
AcDbScale
 70
     0
300
8:1
140
8.0
141
1.0
290
     0
  0
SCALE
  5
342
102
{ACAD_REACTORS
330
332
102
}
330
332
100
AcDbScale
 70
     0
300
10:1
140
10.0
141
1.0
290
     0
  0
SCALE
  5
343
102
{ACAD_REACTORS
330
332
102
}
330
332
100
AcDbScale
 70
     0
300
100:1
140
100.0
141
1.0
290
     0
  0
SCALE
  5
344
102
{ACAD_REACTORS
330
332
102
}
330
332
100
AcDbScale
 70
     0
300
1/128" = 1'-0"
140
0.0078125
141
12.0
290
     0
  0
SCALE
  5
345
102
{ACAD_REACTORS
330
332
102
}
330
332
100
AcDbScale
 70
     0
300
1/64" = 1'-0"
140
0.015625
141
12.0
290
     0
  0
SCALE
  5
346
102
{ACAD_REACTORS
330
332
102
}
330
332
100
AcDbScale
 70
     0
300
1/32" = 1'-0"
140
0.03125
141
12.0
290
     0
  0
SCALE
  5
347
102
{ACAD_REACTORS
330
332
102
}
330
332
100
AcDbScale
 70
     0
300
1/16" = 1'-0"
140
0.0625
141
12.0
290
     0
  0
SCALE
  5
348
102
{ACAD_REACTORS
330
332
102
}
330
332
100
AcDbScale
 70
     0
300
3/32" = 1'-0"
140
0.09375
141
12.0
290
     0
  0
SCALE
  5
349
102
{ACAD_REACTORS
330
332
102
}
330
332
100
AcDbScale
 70
     0
300
1/8" = 1'-0"
140
0.125
141
12.0
290
     0
  0
SCALE
  5
34A
102
{ACAD_REACTORS
330
332
102
}
330
332
100
AcDbScale
 70
     0
300
3/16" = 1'-0"
140
0.1875
141
12.0
290
     0
  0
SCALE
  5
34B
102
{ACAD_REACTORS
330
332
102
}
330
332
100
AcDbScale
 70
     0
300
1/4" = 1'-0"
140
0.25
141
12.0
290
     0
  0
SCALE
  5
34C
102
{ACAD_REACTORS
330
332
102
}
330
332
100
AcDbScale
 70
     0
300
3/8" = 1'-0"
140
0.375
141
12.0
290
     0
  0
SCALE
  5
34D
102
{ACAD_REACTORS
330
332
102
}
330
332
100
AcDbScale
 70
     0
300
1/2" = 1'-0"
140
0.5
141
12.0
290
     0
  0
SCALE
  5
34E
102
{ACAD_REACTORS
330
332
102
}
330
332
100
AcDbScale
 70
     0
300
3/4" = 1'-0"
140
0.75
141
12.0
290
     0
  0
SCALE
  5
34F
102
{ACAD_REACTORS
330
332
102
}
330
332
100
AcDbScale
 70
     0
300
1" = 1'-0"
140
1.0
141
12.0
290
     0
  0
SCALE
  5
350
102
{ACAD_REACTORS
330
332
102
}
330
332
100
AcDbScale
 70
     0
300
1-1/2" = 1'-0"
140
1.5
141
12.0
290
     0
  0
SCALE
  5
351
102
{ACAD_REACTORS
330
332
102
}
330
332
100
AcDbScale
 70
     0
300
3" = 1'-0"
140
3.0
141
12.0
290
     0
  0
SCALE
  5
352
102
{ACAD_REACTORS
330
332
102
}
330
332
100
AcDbScale
 70
     0
300
6" = 1'-0"
140
6.0
141
12.0
290
     0
  0
SCALE
  5
353
102
{ACAD_REACTORS
330
332
102
}
330
332
100
AcDbScale
 70
     0
300
1'-0" = 1'-0"
140
12.0
141
12.0
290
     0
  0
TABLESTYLE
  5
31A
102
{ACAD_XDICTIONARY
360
366
102
}
102
{ACAD_REACTORS
330
2C6
102
}
330
2C6
100
AcDbTableStyle
  3
Standard
 70
     1
 71
     0
 40
1.5
 41
1.5
280
     0
281
     0
  7
ROMANS
140
3.0
170
     5
 62
     7
 63
     7
283
     0
274
    -2
284
     1
 64
     0
275
    -2
285
     1
 65
     0
276
    -2
286
     1
 66
     0
277
    -2
287
     1
 67
     0
278
    -2
288
     1
 68
     0
279
    -2
289
     1
 69
     0
  7
ROMANS
140
6.0
170
     5
 62
     1
 63
     7
283
     0
274
    -2
284
     1
 64
     0
275
    -2
285
     1
 65
     0
276
    -2
286
     1
 66
     0
277
    -2
287
     1
 67
     0
278
    -2
288
     1
 68
     0
279
    -2
289
     1
 69
     0
  7
ROMANS
140
3.5
170
     5
 62
     3
 63
     7
283
     0
274
    -2
284
     1
 64
     0
275
    -2
285
     1
 65
     0
276
    -2
286
     1
 66
     0
277
    -2
287
     1
 67
     0
278
    -2
288
     1
 68
     0
279
    -2
289
     1
 69
     0
  0
TABLESTYLE
  5
2CC
102
{ACAD_XDICTIONARY
360
364
102
}
102
{ACAD_REACTORS
330
2C6
102
}
330
2C6
100
AcDbTableStyle
  3
Standard
 70
     0
 71
     0
 40
1.5
 41
1.5
280
     0
281
     0
  7
ROMANS
140
4.5
170
     5
 62
     7
 63
     7
283
     0
274
    -2
284
     1
 64
     0
275
    -2
285
     1
 65
     0
276
    -2
286
     1
 66
     0
277
    -2
287
     1
 67
     0
278
    -2
288
     1
 68
     0
279
    -2
289
     1
 69
     0
  7
ROMANS
140
6.0
170
     5
 62
     1
 63
     7
283
     0
274
    -2
284
     1
 64
     0
275
    -2
285
     1
 65
     0
276
    -2
286
     1
 66
     0
277
    -2
287
     1
 67
     0
278
    -2
288
     1
 68
     0
279
    -2
289
     1
 69
     0
  7
ROMANS
140
5.0
170
     5
 62
     3
 63
     7
283
     0
274
    -2
284
     1
 64
     0
275
    -2
285
     1
 65
     0
276
    -2
286
     1
 66
     0
277
    -2
287
     1
 67
     0
278
    -2
288
     1
 68
     0
279
    -2
289
     1
 69
     0
  0
TABLESTYLE
  5
2C7
102
{ACAD_XDICTIONARY
360
362
102
}
102
{ACAD_REACTORS
330
2C6
102
}
330
2C6
100
AcDbTableStyle
  3
Standard
 70
     0
 71
     0
 40
1.5
 41
1.5
280
     0
281
     0
  7
STANDARD
140
4.5
170
     2
 62
     0
 63
     7
283
     0
274
    -2
284
     1
 64
     0
275
    -2
285
     1
 65
     0
276
    -2
286
     1
 66
     0
277
    -2
287
     1
 67
     0
278
    -2
288
     1
 68
     0
279
    -2
289
     1
 69
     0
  7
STANDARD
140
6.0
170
     5
 62
     0
 63
     7
283
     0
274
    -2
284
     1
 64
     0
275
    -2
285
     1
 65
     0
276
    -2
286
     1
 66
     0
277
    -2
287
     1
 67
     0
278
    -2
288
     1
 68
     0
279
    -2
289
     1
 69
     0
  7
STANDARD
140
4.5
170
     5
 62
     0
 63
     7
283
     0
274
    -2
284
     1
 64
     0
275
    -2
285
     1
 65
     0
276
    -2
286
     1
 66
     0
277
    -2
287
     1
 67
     0
278
    -2
288
     1
 68
     0
279
    -2
289
     1
 69
     0
  0
VISUALSTYLE
  5
2BA
102
{ACAD_XDICTIONARY
360
B04
102
}
102
{ACAD_REACTORS
330
2B4
102
}
330
2B4
100
AcDbVisualStyle
  2
2dWireframe
 70
     4
 71
     0
 72
     2
 73
     0
 90
        0
 40
-0.6
 41
-30.0
 62
     5
 63
     7
 74
     1
 91
        4
 64
     7
 65
   257
 75
     1
175
     1
 42
1.0
 92
        0
 66
   257
 43
1.0
 76
     1
 77
     6
 78
     2
 67
     7
 79
     5
170
     0
171
     0
290
     0
174
     0
 93
        1
 44
0.0
173
     0
291
     0
 45
0.0
1001
ACAD
1000
AcDbSavedByObjectVersion
1070
     0
  0
VISUALSTYLE
  5
2BC
102
{ACAD_XDICTIONARY
360
B08
102
}
102
{ACAD_REACTORS
330
2B4
102
}
330
2B4
100
AcDbVisualStyle
  2
3D Hidden
 70
     6
 71
     1
 72
     2
 73
     2
 90
        0
 40
-0.6
 41
-30.0
 62
     5
 63
     7
 74
     2
 91
        2
 64
     7
 65
   257
 75
     2
175
     1
 42
40.0
 92
        0
 66
   257
 43
1.0
 76
     1
 77
     6
 78
     2
 67
     7
 79
     3
170
     0
171
     0
290
     0
174
     0
 93
        1
 44
0.0
173
     0
291
     0
 45
0.0
1001
ACAD
1000
AcDbSavedByObjectVersion
1070
     0
  0
VISUALSTYLE
  5
2BB
102
{ACAD_XDICTIONARY
360
B06
102
}
102
{ACAD_REACTORS
330
2B4
102
}
330
2B4
100
AcDbVisualStyle
  2
3dWireframe
 70
     5
 71
     0
 72
     2
 73
     0
 90
        0
 40
-0.6
 41
-30.0
 62
     5
 63
     7
 74
     1
 91
        4
 64
     7
 65
   257
 75
     1
175
     1
 42
1.0
 92
        0
 66
   257
 43
1.0
 76
     1
 77
     6
 78
     2
 67
     7
 79
     5
170
     0
171
     0
290
     0
174
     0
 93
        1
 44
0.0
173
     0
291
     0
 45
0.0
1001
ACAD
1000
AcDbSavedByObjectVersion
1070
     0
  0
VISUALSTYLE
  5
2B9
102
{ACAD_XDICTIONARY
360
B02
102
}
102
{ACAD_REACTORS
330
2B4
102
}
330
2B4
100
AcDbVisualStyle
  2
Basic
 70
     7
 71
     1
 72
     0
 73
     1
 90
        0
 40
-0.6
 41
-30.0
 62
     5
 63
     7
 74
     0
 91
        4
 64
     7
 65
   257
 75
     1
175
     1
 42
1.0
 92
        8
 66
     7
 43
1.0
 76
     1
 77
     6
 78
     2
 67
     7
 79
     5
170
     0
171
     0
290
     0
174
     0
 93
        1
 44
0.0
173
     0
291
     1
 45
0.0
1001
ACAD
1000
AcDbSavedByObjectVersion
1070
     0
  0
VISUALSTYLE
  5
2C0
102
{ACAD_XDICTIONARY
360
B10
102
}
102
{ACAD_REACTORS
330
2B4
102
}
330
2B4
100
AcDbVisualStyle
  2
Brighten
 70
    12
 71
     2
 72
     2
 73
     0
 90
        0
 40
-0.6
 41
-30.0
 62
     5
 63
     7
 74
     1
 91
        4
 64
     7
 65
   257
 75
     1
175
     1
 42
1.0
 92
        8
 66
     7
 43
1.0
 76
     1
 77
     6
 78
     2
 67
     7
 79
     5
170
     0
171
     0
290
     0
174
     0
 93
        1
 44
50.0
173
     0
291
     1
 45
0.0
1001
ACAD
1000
AcDbSavedByObjectVersion
1070
     0
  0
VISUALSTYLE
  5
2C4
102
{ACAD_XDICTIONARY
360
B18
102
}
102
{ACAD_REACTORS
330
2B4
102
}
330
2B4
100
AcDbVisualStyle
  2
ColorChange
 70
    16
 71
     2
 72
     2
 73
     3
 90
        0
 40
-0.6
 41
-30.0
 62
     5
 63
     8
 74
     1
 91
        4
 64
     7
 65
   257
 75
     1
175
     1
 42
1.0
 92
        8
 66
     8
 43
1.0
 76
     1
 77
     6
 78
     2
 67
     7
 79
     5
170
     0
171
     0
290
     0
174
     0
 93
        1
 44
0.0
173
     0
291
     1
 45
0.0
1001
ACAD
1000
AcDbSavedByObjectVersion
1070
     0
  0
VISUALSTYLE
  5
2BD
102
{ACAD_XDICTIONARY
360
B0A
102
}
102
{ACAD_REACTORS
330
2B4
102
}
330
2B4
100
AcDbVisualStyle
  2
Conceptual
 70
     9
 71
     3
 72
     2
 73
     0
 90
        0
 40
-0.6
 41
-30.0
 62
     5
 63
     7
 74
     2
 91
        2
 64
     7
 65
   257
 75
     1
175
     1
 42
40.0
 92
        8
 66
     7
 43
1.0
 76
     1
 77
     6
 78
     2
 67
     7
 79
     3
170
     0
171
     0
290
     0
174
     0
 93
        1
 44
0.0
173
     0
291
     0
 45
0.0
1001
ACAD
1000
AcDbSavedByObjectVersion
1070
     0
  0
VISUALSTYLE
  5
2BF
102
{ACAD_XDICTIONARY
360
B0E
102
}
102
{ACAD_REACTORS
330
2B4
102
}
330
2B4
100
AcDbVisualStyle
  2
Dim
 70
    11
 71
     2
 72
     2
 73
     0
 90
        0
 40
-0.6
 41
-30.0
 62
     5
 63
     7
 74
     1
 91
        4
 64
     7
 65
   257
 75
     1
175
     1
 42
1.0
 92
        8
 66
     7
 43
1.0
 76
     1
 77
     6
 78
     2
 67
     7
 79
     5
170
     0
171
     0
290
     0
174
     0
 93
        1
 44
-50.0
173
     0
291
     1
 45
0.0
1001
ACAD
1000
AcDbSavedByObjectVersion
1070
     0
  0
VISUALSTYLE
  5
6EB
102
{ACAD_XDICTIONARY
360
B2F
102
}
102
{ACAD_REACTORS
330
2B4
102
}
330
2B4
100
AcDbVisualStyle
  2
EdgeColorOff
 70
    22
 71
     2
 72
     2
 73
     0
 90
        0
 40
-0.6
 41
-30.0
 62
     5
 63
     7
 74
     1
 91
        4
 64
     7
 65
   257
 75
     1
175
     1
 42
1.0
 92
        8
 66
     7
 43
1.0
 76
     1
 77
     6
 78
     2
 67
     7
 79
     5
170
     0
171
     0
290
     0
174
     0
 93
        1
 44
0.0
173
     0
291
     1
 45
0.0
1001
ACAD
1000
AcDbSavedByObjectVersion
1070
     0
  0
VISUALSTYLE
  5
2C3
102
{ACAD_XDICTIONARY
360
B16
102
}
102
{ACAD_REACTORS
330
2B4
102
}
330
2B4
100
AcDbVisualStyle
  2
Facepattern
 70
    15
 71
     2
 72
     2
 73
     0
 90
        0
 40
-0.6
 41
-30.0
 62
     5
 63
     7
 74
     1
 91
        4
 64
     7
 65
   257
 75
     1
175
     1
 42
1.0
 92
        8
 66
     7
 43
1.0
 76
     1
 77
     6
 78
     2
 67
     7
 79
     5
170
     0
171
     0
290
     0
174
     0
 93
        1
 44
0.0
173
     0
291
     1
 45
0.0
1001
ACAD
1000
AcDbSavedByObjectVersion
1070
     0
  0
VISUALSTYLE
  5
2B5
102
{ACAD_XDICTIONARY
360
AFA
102
}
102
{ACAD_REACTORS
330
2B4
102
}
330
2B4
100
AcDbVisualStyle
  2
Flat
 70
     0
 71
     2
 72
     1
 73
     1
 90
        2
 40
-0.6
 41
30.0
 62
     5
 63
     7
 74
     0
 91
        4
 64
     7
 65
   257
 75
     1
175
     1
 42
1.0
 92
        8
 66
     7
 43
1.0
 76
     1
 77
     6
 78
     2
 67
     7
 79
     5
170
     0
171
     0
290
     0
174
     0
 93
       13
 44
0.0
173
     0
291
     1
 45
0.0
1001
ACAD
1000
AcDbSavedByObjectVersion
1070
     0
  0
VISUALSTYLE
  5
2B6
102
{ACAD_XDICTIONARY
360
AFC
102
}
102
{ACAD_REACTORS
330
2B4
102
}
330
2B4
100
AcDbVisualStyle
  2
FlatWithEdges
 70
     1
 71
     2
 72
     1
 73
     1
 90
        2
 40
-0.6
 41
30.0
 62
     5
 63
     7
 74
     1
 91
        4
 64
     7
 65
   257
 75
     1
175
     1
 42
1.0
 92
        0
 66
   257
 43
1.0
 76
     1
 77
     6
 78
     2
 67
     7
 79
     5
170
     0
171
     0
290
     0
174
     0
 93
       13
 44
0.0
173
     0
291
     1
 45
0.0
1001
ACAD
1000
AcDbSavedByObjectVersion
1070
     0
  0
VISUALSTYLE
  5
2B7
102
{ACAD_XDICTIONARY
360
AFE
102
}
102
{ACAD_REACTORS
330
2B4
102
}
330
2B4
100
AcDbVisualStyle
  2
Gouraud
 70
     2
 71
     2
 72
     2
 73
     1
 90
        2
 40
-0.6
 41
30.0
 62
     5
 63
     7
 74
     0
 91
        4
 64
     7
 65
   257
 75
     1
175
     1
 42
1.0
 92
        0
 66
     7
 43
1.0
 76
     1
 77
     6
 78
     2
 67
     7
 79
     5
170
     0
171
     0
290
     0
174
     0
 93
       13
 44
0.0
173
     0
291
     1
 45
0.0
1001
ACAD
1000
AcDbSavedByObjectVersion
1070
     0
  0
VISUALSTYLE
  5
2B8
102
{ACAD_XDICTIONARY
360
B00
102
}
102
{ACAD_REACTORS
330
2B4
102
}
330
2B4
100
AcDbVisualStyle
  2
GouraudWithEdges
 70
     3
 71
     2
 72
     2
 73
     1
 90
        2
 40
-0.6
 41
30.0
 62
     5
 63
     7
 74
     1
 91
        4
 64
     7
 65
   257
 75
     1
175
     1
 42
1.0
 92
        0
 66
   257
 43
1.0
 76
     1
 77
     6
 78
     2
 67
     7
 79
     5
170
     0
171
     0
290
     0
174
     0
 93
       13
 44
0.0
173
     0
291
     1
 45
0.0
1001
ACAD
1000
AcDbSavedByObjectVersion
1070
     0
  0
VISUALSTYLE
  5
6E3
102
{ACAD_XDICTIONARY
360
B1F
102
}
102
{ACAD_REACTORS
330
2B4
102
}
330
2B4
100
AcDbVisualStyle
  2
Hidden
 70
     6
 71
     1
 72
     2
 73
     2
 90
        0
 40
-0.6
 41
-30.0
 62
     5
 63
     7
 74
     2
 91
        2
 64
     7
 65
   257
 75
     2
175
     1
 42
40.0
 92
        0
 66
   257
 43
1.0
 76
     1
 77
     6
 78
     2
 67
     7
 79
     3
170
     0
171
     0
290
     0
174
     0
 93
        1
 44
0.0
173
     0
291
     0
 45
0.0
1001
ACAD
1000
AcDbSavedByObjectVersion
1070
     0
  0
VISUALSTYLE
  5
6E9
102
{ACAD_XDICTIONARY
360
B2B
102
}
102
{ACAD_REACTORS
330
2B4
102
}
330
2B4
100
AcDbVisualStyle
  2
JitterOff
 70
    20
 71
     2
 72
     2
 73
     0
 90
        0
 40
-0.6
 41
-30.0
 62
     5
 63
     7
 74
     1
 91
        4
 64
     7
 65
   257
 75
     1
175
     1
 42
1.0
 92
       10
 66
     7
 43
1.0
 76
     1
 77
     6
 78
     2
 67
     7
 79
     5
170
     0
171
     0
290
     0
174
     0
 93
        1
 44
0.0
173
     0
291
     1
 45
0.0
1001
ACAD
1000
AcDbSavedByObjectVersion
1070
     0
  0
VISUALSTYLE
  5
2C2
102
{ACAD_XDICTIONARY
360
B14
102
}
102
{ACAD_REACTORS
330
2B4
102
}
330
2B4
100
AcDbVisualStyle
  2
Linepattern
 70
    14
 71
     2
 72
     2
 73
     0
 90
        0
 40
-0.6
 41
-30.0
 62
     5
 63
     7
 74
     1
 91
        4
 64
     7
 65
   257
 75
     7
175
     7
 42
1.0
 92
        8
 66
     7
 43
1.0
 76
     1
 77
     6
 78
     2
 67
     7
 79
     5
170
     0
171
     0
290
     0
174
     0
 93
        1
 44
0.0
173
     0
291
     1
 45
0.0
1001
ACAD
1000
AcDbSavedByObjectVersion
1070
     0
  0
VISUALSTYLE
  5
6EA
102
{ACAD_XDICTIONARY
360
B2D
102
}
102
{ACAD_REACTORS
330
2B4
102
}
330
2B4
100
AcDbVisualStyle
  2
OverhangOff
 70
    21
 71
     2
 72
     2
 73
     0
 90
        0
 40
-0.6
 41
-30.0
 62
     5
 63
     7
 74
     1
 91
        4
 64
     7
 65
   257
 75
     1
175
     1
 42
1.0
 92
        9
 66
     7
 43
1.0
 76
     1
 77
     6
 78
     2
 67
     7
 79
     5
170
     0
171
     0
290
     0
174
     0
 93
        1
 44
0.0
173
     0
291
     1
 45
0.0
1001
ACAD
1000
AcDbSavedByObjectVersion
1070
     0
  0
VISUALSTYLE
  5
2BE
102
{ACAD_XDICTIONARY
360
B0C
102
}
102
{ACAD_REACTORS
330
2B4
102
}
330
2B4
100
AcDbVisualStyle
  2
Realistic
 70
     8
 71
     2
 72
     2
 73
     0
 90
        0
 40
-0.6
 41
-30.0
 62
     5
 63
     7
 74
     1
 91
        0
 64
     7
 65
   257
 75
     1
175
     1
 42
1.0
 92
        8
 66
     8
 43
1.0
 76
     1
 77
     6
 78
     2
 67
     7
 79
     5
170
     0
171
     0
290
     0
174
     0
 93
       13
 44
0.0
173
     0
291
     0
 45
0.0
1001
ACAD
1000
AcDbSavedByObjectVersion
1070
     0
  0
VISUALSTYLE
  5
6E8
102
{ACAD_XDICTIONARY
360
B29
102
}
102
{ACAD_REACTORS
330
2B4
102
}
330
2B4
100
AcDbVisualStyle
  2
Shaded
 70
    27
 71
     2
 72
     2
 73
     1
 90
        2
 40
-0.6
 41
30.0
 62
     5
 63
     7
 74
     0
 91
        4
 64
     7
 65
   257
 75
     1
175
     1
 42
1.0
 92
        8
 66
   257
 43
1.0
 76
     1
 77
     6
 78
     2
 67
     8
 79
     3
170
     0
171
     0
290
     0
174
     0
 93
        5
 44
0.0
173
     0
291
     0
 45
0.0
1001
ACAD
1000
AcDbSavedByObjectVersion
1070
     0
  0
VISUALSTYLE
  5
6E7
102
{ACAD_XDICTIONARY
360
B27
102
}
102
{ACAD_REACTORS
330
2B4
102
}
330
2B4
100
AcDbVisualStyle
  2
Shaded with edges
 70
    26
 71
     2
 72
     2
 73
     1
 90
        2
 40
-0.6
 41
30.0
 62
     5
 63
     7
 74
     1
 91
       10
 64
     7
 65
   257
 75
     2
175
     1
 42
1.0
 92
        8
 66
   257
 43
1.0
 76
     1
 77
     6
 78
     2
 67
     7
 79
     3
170
     0
171
     0
290
     0
174
     0
 93
        5
 44
0.0
173
     0
291
     0
 45
0.0
1001
ACAD
1000
AcDbSavedByObjectVersion
1070
     0
  0
VISUALSTYLE
  5
6E4
102
{ACAD_XDICTIONARY
360
B21
102
}
102
{ACAD_REACTORS
330
2B4
102
}
330
2B4
100
AcDbVisualStyle
  2
Shades of Gray
 70
    23
 71
     2
 72
     2
 73
     3
 90
        0
 40
-0.6
 41
-30.0
 62
     5
 63
     7
 74
     2
 91
        2
 64
     7
 65
     7
 75
     1
175
     1
 42
40.0
 92
        8
 66
     7
 43
1.0
 76
     1
 77
     6
 78
     2
 67
     7
 79
     3
170
     0
171
     0
290
     0
174
     0
 93
        1
 44
0.0
173
     0
291
     0
 45
0.0
1001
ACAD
1000
AcDbSavedByObjectVersion
1070
     0
  0
VISUALSTYLE
  5
6E5
102
{ACAD_XDICTIONARY
360
B23
102
}
102
{ACAD_REACTORS
330
2B4
102
}
330
2B4
100
AcDbVisualStyle
  2
Sketchy
 70
    24
 71
     1
 72
     2
 73
     2
 90
        0
 40
-0.6
 41
-30.0
 62
     5
 63
     7
 74
     2
 91
        2
 64
     7
 65
     7
 75
     1
175
     1
 42
40.0
 92
       11
 66
     7
 43
1.0
 76
     1
 77
     6
 78
     2
 67
     7
 79
     6
170
     0
171
     0
290
     0
174
     0
 93
        1
 44
0.0
173
     0
291
     0
 45
0.0
1001
ACAD
1000
AcDbSavedByObjectVersion
1070
     0
  0
VISUALSTYLE
  5
2C1
102
{ACAD_XDICTIONARY
360
B12
102
}
102
{ACAD_REACTORS
330
2B4
102
}
330
2B4
100
AcDbVisualStyle
  2
Thicken
 70
    13
 71
     2
 72
     2
 73
     0
 90
        0
 40
-0.6
 41
-30.0
 62
     5
 63
     7
 74
     1
 91
        4
 64
     7
 65
   257
 75
     1
175
     1
 42
1.0
 92
       12
 66
     7
 43
1.0
 76
     1
 77
     6
 78
     2
 67
     7
 79
     5
170
     0
171
     0
290
     0
174
     0
 93
        1
 44
0.0
173
     0
291
     1
 45
0.0
1001
ACAD
1000
AcDbSavedByObjectVersion
1070
     0
  0
VISUALSTYLE
  5
6E2
102
{ACAD_XDICTIONARY
360
B1D
102
}
102
{ACAD_REACTORS
330
2B4
102
}
330
2B4
100
AcDbVisualStyle
  2
Wireframe
 70
     5
 71
     0
 72
     2
 73
     0
 90
        0
 40
-0.6
 41
-30.0
 62
     5
 63
     7
 74
     1
 91
        4
 64
     7
 65
   257
 75
     1
175
     1
 42
1.0
 92
        0
 66
   257
 43
1.0
 76
     1
 77
     6
 78
     2
 67
     7
 79
     3
170
     0
171
     0
290
     0
174
     0
 93
        1
 44
0.0
173
     0
291
     0
 45
0.0
1001
ACAD
1000
AcDbSavedByObjectVersion
1070
     0
  0
VISUALSTYLE
  5
6E6
102
{ACAD_XDICTIONARY
360
B25
102
}
102
{ACAD_REACTORS
330
2B4
102
}
330
2B4
100
AcDbVisualStyle
  2
X-Ray
 70
    25
 71
     2
 72
     2
 73
     1
 90
        1
 40
0.5
 41
-30.0
 62
     5
 63
     7
 74
     1
 91
        0
 64
     7
 65
   257
 75
     1
175
     1
 42
1.0
 92
        8
 66
     7
 43
1.0
 76
     1
 77
     6
 78
     2
 67
     7
 79
     3
170
     0
171
     0
290
     0
174
     0
 93
       13
 44
0.0
173
     0
291
     0
 45
0.0
1001
ACAD
1000
AcDbSavedByObjectVersion
1070
     0
  0
DICTIONARYVAR
  5
36B
102
{ACAD_REACTORS
330
2AA
102
}
330
2AA
100
DictionaryVariables
280
     0
  1
1:1
  0
DICTIONARYVAR
  5
369
102
{ACAD_REACTORS
330
2AA
102
}
330
2AA
100
DictionaryVariables
280
     0
  1
STANDARD
  0
DICTIONARYVAR
  5
312
102
{ACAD_REACTORS
330
2AA
102
}
330
2AA
100
DictionaryVariables
280
     0
  1
STANDARD
  0
DICTIONARYVAR
  5
2AB
102
{ACAD_REACTORS
330
2AA
102
}
330
2AA
100
DictionaryVariables
280
     0
  1
1
  0
DICTIONARYVAR
  5
AC4
102
{ACAD_REACTORS
330
2AA
102
}
330
2AA
100
DictionaryVariables
280
     0
  1
0
  0
DICTIONARYVAR
  5
314
102
{ACAD_REACTORS
330
2AA
102
}
330
2AA
100
DictionaryVariables
280
     0
  1
0
  0
DICTIONARYVAR
  5
760
102
{ACAD_REACTORS
330
2AA
102
}
330
2AA
100
DictionaryVariables
280
     0
  1
1
  0
DICTIONARYVAR
  5
761
102
{ACAD_REACTORS
330
2AA
102
}
330
2AA
100
DictionaryVariables
280
     0
  1
15
  0
DICTIONARYVAR
  5
36C
102
{ACAD_REACTORS
330
2AA
102
}
330
2AA
100
DictionaryVariables
280
     0
  1
0
  0
DICTIONARYVAR
  5
36A
102
{ACAD_REACTORS
330
2AA
102
}
330
2AA
100
DictionaryVariables
280
     0
  1
0
  0
DICTIONARYVAR
  5
313
102
{ACAD_REACTORS
330
2AA
102
}
330
2AA
100
DictionaryVariables
280
     0
  1
127
  0
DICTIONARYVAR
  5
AC5
102
{ACAD_REACTORS
330
2AA
102
}
330
2AA
100
DictionaryVariables
280
     0
  1
0
  0
XRECORD
  5
A95
102
{ACAD_REACTORS
330
A94
102
}
330
A94
100
AcDbXrecord
280
     1
 91
        2
  0
ACDBQSCATEGORY
  5
A92
102
{ACAD_REACTORS
330
A91
102
}
330
A91
100
AcQsCategory
 70
     1
300
DEFAULT
290
     1
291
     1
 90
        0
  0
ACDBQSPALLSTYLE
  5
A97
102
{ACAD_XDICTIONARY
360
A98
102
}
102
{ACAD_REACTORS
330
A93
102
}
330
A93
  0
XRECORD
  5
A9B
102
{ACAD_REACTORS
330
A9A
102
}
330
A9A
100
AcDbXrecord
280
     1
 90
      202
 91
      144
  0
DICTIONARY
  5
AF2
330
48
100
AcDbDictionary
280
     1
281
     1
  3
ACAD_XREC_ROUNDTRIP
360
AF3
  0
DICTIONARY
  5
75E
330
47
100
AcDbDictionary
280
     1
281
     1
  3
ACAD_XREC_ROUNDTRIP
360
AF1
  3
ADSK_XREC_LAYOUTTHUMBNAIL
360
75F
  0
DICTIONARY
  5
AF6
330
2B2
100
AcDbDictionary
280
     1
281
     1
  3
ACAD_XREC_ROUNDTRIP
360
AF7
  0
DICTIONARY
  5
AF4
330
2B1
100
AcDbDictionary
280
     1
281
     1
  3
ACAD_XREC_ROUNDTRIP
360
AF5
  0
DICTIONARY
  5
AF8
330
2B3
100
AcDbDictionary
280
     1
281
     1
  3
ACAD_XREC_ROUNDTRIP
360
AF9
  0
DICTIONARY
  5
B31
330
A9D
100
AcDbDictionary
280
     1
281
     1
  3
ACAD_XREC_ROUNDTRIP
360
B32
  0
DICTIONARY
  5
B33
330
A9E
100
AcDbDictionary
280
     1
281
     1
  3
ACAD_XREC_ROUNDTRIP
360
B34
  0
DICTIONARY
  5
B35
330
A9F
100
AcDbDictionary
280
     1
281
     1
  3
ACAD_XREC_ROUNDTRIP
360
B36
  0
DICTIONARY
  5
B37
330
AA0
100
AcDbDictionary
280
     1
281
     1
  3
ACAD_XREC_ROUNDTRIP
360
B38
  0
DICTIONARY
  5
B39
330
AA1
100
AcDbDictionary
280
     1
281
     1
  3
ACAD_XREC_ROUNDTRIP
360
B3A
  0
DICTIONARY
  5
366
330
31A
100
AcDbDictionary
280
     1
281
     1
  3
ACAD_ROUNDTRIP_2008_TABLESTYLE_CELLSTYLEMAP
360
AC8
  3
ACAD_XREC_ROUNDTRIP
360
B1C
  0
DICTIONARY
  5
364
330
2CC
100
AcDbDictionary
280
     1
281
     1
  3
ACAD_ROUNDTRIP_2008_TABLESTYLE_CELLSTYLEMAP
360
AC7
  3
ACAD_XREC_ROUNDTRIP
360
B1B
  0
DICTIONARY
  5
362
330
2C7
100
AcDbDictionary
280
     1
281
     1
  3
ACAD_ROUNDTRIP_2008_TABLESTYLE_CELLSTYLEMAP
360
AC6
  3
ACAD_XREC_ROUNDTRIP
360
B1A
  0
DICTIONARY
  5
B04
330
2BA
100
AcDbDictionary
280
     1
281
     1
  3
ACAD_XREC_ROUNDTRIP
360
B05
  0
DICTIONARY
  5
B08
330
2BC
100
AcDbDictionary
280
     1
281
     1
  3
ACAD_XREC_ROUNDTRIP
360
B09
  0
DICTIONARY
  5
B06
330
2BB
100
AcDbDictionary
280
     1
281
     1
  3
ACAD_XREC_ROUNDTRIP
360
B07
  0
DICTIONARY
  5
B02
330
2B9
100
AcDbDictionary
280
     1
281
     1
  3
ACAD_XREC_ROUNDTRIP
360
B03
  0
DICTIONARY
  5
B10
330
2C0
100
AcDbDictionary
280
     1
281
     1
  3
ACAD_XREC_ROUNDTRIP
360
B11
  0
DICTIONARY
  5
B18
330
2C4
100
AcDbDictionary
280
     1
281
     1
  3
ACAD_XREC_ROUNDTRIP
360
B19
  0
DICTIONARY
  5
B0A
330
2BD
100
AcDbDictionary
280
     1
281
     1
  3
ACAD_XREC_ROUNDTRIP
360
B0B
  0
DICTIONARY
  5
B0E
330
2BF
100
AcDbDictionary
280
     1
281
     1
  3
ACAD_XREC_ROUNDTRIP
360
B0F
  0
DICTIONARY
  5
B2F
330
6EB
100
AcDbDictionary
280
     1
281
     1
  3
ACAD_XREC_ROUNDTRIP
360
B30
  0
DICTIONARY
  5
B16
330
2C3
100
AcDbDictionary
280
     1
281
     1
  3
ACAD_XREC_ROUNDTRIP
360
B17
  0
DICTIONARY
  5
AFA
330
2B5
100
AcDbDictionary
280
     1
281
     1
  3
ACAD_XREC_ROUNDTRIP
360
AFB
  0
DICTIONARY
  5
AFC
330
2B6
100
AcDbDictionary
280
     1
281
     1
  3
ACAD_XREC_ROUNDTRIP
360
AFD
  0
DICTIONARY
  5
AFE
330
2B7
100
AcDbDictionary
280
     1
281
     1
  3
ACAD_XREC_ROUNDTRIP
360
AFF
  0
DICTIONARY
  5
B00
330
2B8
100
AcDbDictionary
280
     1
281
     1
  3
ACAD_XREC_ROUNDTRIP
360
B01
  0
DICTIONARY
  5
B1F
330
6E3
100
AcDbDictionary
280
     1
281
     1
  3
ACAD_XREC_ROUNDTRIP
360
B20
  0
DICTIONARY
  5
B2B
330
6E9
100
AcDbDictionary
280
     1
281
     1
  3
ACAD_XREC_ROUNDTRIP
360
B2C
  0
DICTIONARY
  5
B14
330
2C2
100
AcDbDictionary
280
     1
281
     1
  3
ACAD_XREC_ROUNDTRIP
360
B15
  0
DICTIONARY
  5
B2D
330
6EA
100
AcDbDictionary
280
     1
281
     1
  3
ACAD_XREC_ROUNDTRIP
360
B2E
  0
DICTIONARY
  5
B0C
330
2BE
100
AcDbDictionary
280
     1
281
     1
  3
ACAD_XREC_ROUNDTRIP
360
B0D
  0
DICTIONARY
  5
B29
330
6E8
100
AcDbDictionary
280
     1
281
     1
  3
ACAD_XREC_ROUNDTRIP
360
B2A
  0
DICTIONARY
  5
B27
330
6E7
100
AcDbDictionary
280
     1
281
     1
  3
ACAD_XREC_ROUNDTRIP
360
B28
  0
DICTIONARY
  5
B21
330
6E4
100
AcDbDictionary
280
     1
281
     1
  3
ACAD_XREC_ROUNDTRIP
360
B22
  0
DICTIONARY
  5
B23
330
6E5
100
AcDbDictionary
280
     1
281
     1
  3
ACAD_XREC_ROUNDTRIP
360
B24
  0
DICTIONARY
  5
B12
330
2C1
100
AcDbDictionary
280
     1
281
     1
  3
ACAD_XREC_ROUNDTRIP
360
B13
  0
DICTIONARY
  5
B1D
330
6E2
100
AcDbDictionary
280
     1
281
     1
  3
ACAD_XREC_ROUNDTRIP
360
B1E
  0
DICTIONARY
  5
B25
330
6E6
100
AcDbDictionary
280
     1
281
     1
  3
ACAD_XREC_ROUNDTRIP
360
B26
  0
DICTIONARY
  5
A98
330
A97
100
AcDbDictionary
280
     1
281
     1
  3
XTRA_PROP
360
A99
  0
XRECORD
  5
AF3
102
{ACAD_REACTORS
330
AF2
102
}
330
AF2
100
AcDbXrecord
280
     1
102
SHADEPLOT
 70
     0
102
SHADEPLOTRESLEVEL
 70
     2
102
SHADEPLOTCUSTOMDPI
 70
   300
  0
XRECORD
  5
AF1
102
{ACAD_REACTORS
330
75E
102
}
330
75E
100
AcDbXrecord
280
     1
102
SHADEPLOT
 70
     0
102
SHADEPLOTRESLEVEL
 70
     2
102
SHADEPLOTCUSTOMDPI
 70
   300
  0
XRECORD
  5
75F
102
{ACAD_REACTORS
330
75E
102
}
330
75E
100
AcDbXrecord
280
     1
310
280000000001000076000000010008000000000000760000000000000000000000010000000000000000000000000000FFFFFF000000000000000000000000000000000000000000000000000000000000000000330000006600000099000000CC000000FF00000000330000333300006633000099330000CC330000FF3300
310
0000660000336600006666000099660000CC660000FF66000000990000339900006699000099990000CC990000FF99000000CC000033CC000066CC000099CC0000CCCC0000FFCC000000FF000033FF000066FF000099FF0000CCFF0000FFFF000000003300330033006600330099003300CC003300FF003300003333003333
310
33006633330099333300CC333300FF33330000663300336633006666330099663300CC663300FF66330000993300339933006699330099993300CC993300FF99330000CC330033CC330066CC330099CC3300CCCC3300FFCC330000FF330033FF330066FF330099FF3300CCFF3300FFFF330000006600330066006600660099
310
006600CC006600FF00660000336600333366006633660099336600CC336600FF33660000666600336666006666660099666600CC666600FF66660000996600339966006699660099996600CC996600FF99660000CC660033CC660066CC660099CC6600CCCC6600FFCC660000FF660033FF660066FF660099FF6600CCFF6600
310
FFFF660000009900330099006600990099009900CC009900FF00990000339900333399006633990099339900CC339900FF33990000669900336699006666990099669900CC669900FF66990000999900339999006699990099999900CC999900FF99990000CC990033CC990066CC990099CC9900CCCC9900FFCC990000FF99
310
0033FF990066FF990099FF9900CCFF9900FFFF99000000CC003300CC006600CC009900CC00CC00CC00FF00CC000033CC003333CC006633CC009933CC00CC33CC00FF33CC000066CC003366CC006666CC009966CC00CC66CC00FF66CC000099CC003399CC006699CC009999CC00CC99CC00FF99CC0000CCCC0033CCCC0066CC
310
CC0099CCCC00CCCCCC00FFCCCC0000FFCC0033FFCC0066FFCC0099FFCC00CCFFCC00FFFFCC000000FF003300FF006600FF009900FF00CC00FF00FF00FF000033FF003333FF006633FF009933FF00CC33FF00FF33FF000066FF003366FF006666FF009966FF00CC66FF00FF66FF000099FF003399FF006699FF009999FF00CC
310
99FF00FF99FF0000CCFF0033CCFF0066CCFF0099CCFF00CCCCFF00FFCCFF0000FFFF0033FFFF0066FFFF0099FFFF00CCFFFF00FFFFFF00000000000D0D0D001A1A1A00282828003535350043434300505050005D5D5D006B6B6B00787878008686860093939300A1A1A100AEAEAE00BBBBBB00C9C9C900D6D6D600E4E4E400
310
F1F1F100FFFFFF000000000000000000000000000000000000000000000000000000000000000000000000000000000000000000000000000000000000000000000000000000000000000000000000000000000000000000000000000000000000000000000000000000000000000000000000000000000000000000000000
310
00000000000000000000000000000000000000000000000000000000000000000000000000000000000000000000000000000000000000000000000000000000000000000000000000000000000000000000000000000000000000000000000000000000000000000000000000000000000000000000000000000000000000
310
00000000000000000000000000000000000000000000000000000000000000000000000000000000000000000000000000000000000000000000000000000000000000000000000000000000000000000000000000000000000000000000000000000000000000000000000000000000000000000000000000000000000000
310
00000000000000000000000000000000000000000000000000000000000000000000000000000000000000000000000000000000000000000000000000000000000000000000000000000000000000000000000000000000000000000000000000000000000000000000000000000000000000000000000000000000000000
310
00000000000000000000000000000000000000000000000000000000000000000000000000000000000000000000000000000000000000000000000000000000000000000000000000000000000000000000000000000000000000000000000000000000000000000000000000000000000000000000000000000000000000
310
00000000000000000000000000000000000000000000000000000000000000000000000000000000000000000000000000000000000000000000000000000000000000000000000000000000000000000000000000000000000000000000000000000000000000000000000000000000000000000000000000000000000000
310
00000000000000000000000000000000000000000000000000000000000000000000000000000000000000000000000000000000000000000000000000000000000000000000000000000000000000000000000000000000000000000000000000000000000000000000000000000000000000000000000000000000000000
310
00000000000000000000000000000000000000000000000000000000000000000000000000000000000000000000000000000000000000000000000000000000000000000000000000000000000000000000000000000000000000000000000000000000000000000000000000000000000000000000000000000000000000
310
00000000000000000000000000000000000000000000000000000000000000000000000000000000000000000000000000000000000000000000000000000000000000000000000000000000000000000000000000000000000000000000000000000000000000000000000000000000000000000000000000000000000000
310
00000000000000000000000000000000000000000000000000000000000000000000000000000000000000000000000000000000000000000000000000000000000000000000000000000000000000000000000000000000000000000000000000000000000000000000000000000000000000000000000000000000000000
310
00000000000000000000000000000000000000000000000000000000000000000000000000000000000000000000000000000000000000000000000000000000000000000000000000000000000000000000000000000000000000000000000000000000000000000000000000000000000000000000000000000000000000
310
00000000000000000000000000000000000000000000000000000000000000000000000000000000000000000000000000000000000000000000000000000000000000000000000000000000000000000000000000000000000000000000000000000000000000000000000000000000000000000000000000000000000000
310
00000000000000000000000000000000000000000000000000000000000000000000000000000000000000000000000000000000000000000000000000000000000000000000000000000000000000000000000000000000000000000000000000000000000000000000000000000000000000000000000000000000000000
310
00000000000000000000000000000000000000000000000000000000000000000000000000000000000000000000000000000000000000000000000000000000000000000000000000000000000000000000000000000000000000000000000000000000000000000000000000000000000000000000000000000000000000
310
00000000000000000000000000000000000000000000000000000000000000000000000000000000000000000000000000000000000000000000000000000000000000000000000000000000000000000000000000000000000000000000000000000000000000000000000000000000000000000000000000000000000000
310
00000000000000000000000000000000000000000000000000000000000000000000000000000000000000000000000000000000000000000000000000000000000000000000000000000000000000000000000000000000000000000000000000000000000000000000000000000000000000000000000000000000000000
310
00000000000000000000000000000000000000000000000000000000000000000000000000000000000000000000000000000000000000000000000000000000000000000000000000000000000000000000000000000000000000000000000000000000000000000000000000000000000000000000000000000000000000
310
00000000000000000000000000000000000000000000000000000000000000000000000000000000000000000000000000000000000000000000000000000000000000000000000000000000000000000000000000000000000000000000000000000000000000000000000000000000000000000000000000000000000000
310
00000000000000000000000000000000000000000000000000000000000000000000000000000000000000000000000000000000000000000000000000000000000000000000000000000000000000000000000000000000000000000000000000000000000000000000000000000000000000000000000000000000000000
310
00000000000000000000000000000000000000000000000000000000000000000000000000000000000000000000000000000000000000000000000000000000000000000000000000000000000000000000000000000000000000000000000000000000000000000000000000000000000000000000000000000000000000
310
00000000000000000000000000000000000000000000000000000000000000000000000000000000000000000000000000000000000000000000000000000000000000000000000000000000000000000000000000000000000000000000000000000000000000000000000000000000000000000000000000000000000000
310
00000000000000000000000000000000000000000000000000000000000000000000000000000000000000000000000000000000000000000000000000000000000000000000000000000000000000000000000000000000000000000000000000000000000000000000000000000000000000000000000000000000000000
310
00000000000000000000000000000000000000000000000000000000000000000000000000000000000000000000000000000000000000000000000000000000000000000000000000000000000000000000000000000000000000000000000000000000000000000000000000000000000000000000000000000000000000
310
00000000000000000000000000000000000000000000000000000000000000000000000000000000000000000000000000000000000000000000000000000000000000000000000000000000000000000000000000000000000000000000000000000000000000000000000000000000000000000000000000000000000000
310
00000000000000000000000000000000000000000000000000000000000000000000000000000000000000000000000000000000000000000000000000000000000000000000000000000000000000000000000000000000000000000000000000000000000000000000000000000000000000000000000000000000000000
310
00000000000000000000000000000000000000000000000000000000000000000000000000000000000000000000000000000000000000000000000000000000000000000000000000000000000000000000000000000000000000000000000000000000000000000000000000000000000000000000000000000000000000
310
00000000000000000000000000000000000000000000000000000000000000000000000000000000000000000000000000000000000000000000000000000000000000000000000000000000000000000000000000000000000000000000000000000000000000000000000000000000000000000000000000000000000000
310
00000000000000000000000000000000000000000000000000000000000000000000000000000000000000000000000000000000000000000000000000000000000000000000000000000000000000000000000000000000000000000000000000000000000000000000000000000000000000000000000000000000000000
310
00000000000000000000000000000000000000000000000000000000000000000000000000000000000000000000000000000000000000000000000000000000000000000000000000000000000000000000000000000000000000000000000000000000000000000000000000000000000000000000000000000000000000
310
00000000000000000000000000000000000000000000000000000000000000000000000000000000000000000000000000000000000000000000000000000000000000000000000000000000000000000000000000000000000000000000000000000000000000000000000000000000000000000000000000000000000000
310
00000000000000000000000000000000000000000000000000000000000000000000000000000000000000000000000000000000000000000000000000000000000000000000000000000000000000000000000000000000000000000000000000000000000000000000000000000000000000000000000000000000000000
310
00000000000000000000000000000000000000000000000000000000000000000000000000000000000000000000000000000000000000000000000000000000000000000000000000000000000000000000000000000000000000000000000000000000000000000000000000000000000000000000000000000000000000
310
00000000000000000000000000000000000000000000000000000000000000000000000000000000000000000000000000000000000000000000000000000000000000000000000000000000000000000000000000000000000000000000000000000000000000000000000000000000000000000000000000000000000000
310
00000000000000000000000000000000000000000000000000000000000000000000000000000000000000000000000000000000000000000000000000000000000000000000000000000000000000000000000000000000000000000000000000000000000000000000000000000000000000000000000000000000000000
310
00000000000000000000000000000000000000000000000000000000000000000000000000000000000000000000000000000000000000000000000000000000000000000000000000000000000000000000000000000000000000000000000000000000000000000000000000000000000000000000000000000000000000
310
00000000000000000000000000000000000000000000000000000000000000000000000000000000000000000000000000000000000000000000000000000000000000000000000000000000000000000000000000000000000000000000000000000000000000000000000000000000000000000000000000000000000000
310
00000000000000000000000000000000000000000000000000000000000000000000000000000000000000000000000000000000000000000000000000000000000000000000000000000000000000000000000000000000000000000000000000000000000000000000000000000000000000000000000000000000000000
310
00000000000000000000000000000000000000000000000000000000000000000000000000000000000000000000000000000000000000000000000000000000000000000000000000000000000000000000000000000000000000000000000000000000000000000000000000000000000000000000000000000000000000
310
00000000000000000000000000000000000000000000000000000000000000000000000000000000000000000000000000000000000000000000000000000000000000000000000000000000000000000000000000000000000000000000000000000000000000000000000000000000000000000000000000000000000000
310
00000000000000000000000000000000000000000000000000000000000000000000000000000000000000000000000000000000000000000000000000000000000000000000000000000000000000000000000000000000000000000000000000000000000000000000000000000000000000000000000000000000000000
310
00000000000000000000000000000000000000000000000000000000000000000000000000000000000000000000000000000000000000000000000000000000000000000000000000000000000000000000000000000000000000000000000000000000000000000000000000000000000000000000000000000000000000
310
00000000000000000000000000000000000000000000000000000000000000000000000000000000000000000000000000000000000000000000000000000000000000000000000000000000000000000000000000000000000000000000000000000000000000000000000000000000000000000000000000000000000000
310
00000000000000000000000000000000000000000000000000000000000000000000000000000000000000000000000000000000000000000000000000000000000000000000000000000000000000000000000000000000000000000000000000000000000000000000000000000000000000000000000000000000000000
310
00000000000000000000000000000000000000000000000000000000000000000000000000000000000000000000000000000000000000000000000000000000000000000000000000000000000000000000000000000000000000000000000000000000000000000000000000000000000000000000000000000000000000
310
00000000000000000000000000000000000000000000000000000000000000000000000000000000000000000000000000000000000000000000000000000000000000000000000000000000000000000000000000000000000000000000000000000000000000000000000000000000000000000000000000000000000000
310
00000000000000000000000000000000000000000000000000000000000000000000000000000000000000000000000000000000000000000000000000000000000000000000000000000000000000000000000000000000000000000000000000000000000000000000000000000000000000000000000000000000000000
310
00000000000000000000000000000000000000000000000000000000000000000000000000000000000000000000000000000000000000000000000000000000000000000000000000000000000000000000000000000000000000000000000000000000000000000000000000000000000000000000000000000000000000
310
00000000000000000000000000000000000000000000000000000000000000000000000000000000000000000000000000000000000000000000000000000000000000000000000000000000000000000000000000000000000000000000000000000000000000000000000000000000000000000000000000000000000000
310
00000000000000000000000000000000000000000000000000000000000000000000000000000000000000000000000000000000000000000000000000000000000000000000000000000000000000000000000000000000000000000000000000000000000000000000000000000000000000000000000000000000000000
310
00000000000000000000000000000000000000000000000000000000000000000000000000000000000000000000000000000000000000000000000000000000000000000000000000000000000000000000000000000000000000000000000000000000000000000000000000000000000000000000000000000000000000
310
00000000000000000000000000000000000000000000000000000000000000000000000000000000000000000000000000000000000000000000000000000000000000000000000000000000000000000000000000000000000000000000000000000000000000000000000000000000000000000000000000000000000000
310
00000000000000000000000000000000000000000000000000000000000000000000000000000000000000000000000000000000000000000000000000000000000000000000000000000000000000000000000000000000000000000000000000000000000000000000000000000000000000000000000000000000000000
310
00000000000000000000000000000000000000000000000000000000000000000000000000000000000000000000000000000000000000000000000000000000000000000000000000000000000000000000000000000000000000000000000000000000000000000000000000000000000000000000000000000000000000
310
00000000000000000000000000000000000000000000000000000000000000000000000000000000000000000000000000000000000000000000000000000000000000000000000000000000000000000000000000000000000000000000000000000000000000000000000000000000000000000000000000000000000000
310
00000000000000000000000000000000000000000000000000000000000000000000000000000000000000000000000000000000000000000000000000000000000000000000000000000000000000000000000000000000000000000000000000000000000000000000000000000000000000000000000000000000000000
310
00000000000000000000000000000000000000000000000000000000000000000000000000000000000000000000000000000000000000000000000000000000000000000000000000000000000000000000000000000000000000000000000000000000000000000000000000000000000000000000000000000000000000
310
00000000000000000000000000000000000000000000000000000000000000000000000000000000000000000000000000000000000000000000000000000000000000000000000000000000000000000000000000000000000000000000000000000000000000000000000000000000000000000000000000000000000000
310
00000000000000000000000000000000000000000000000000000000000000000000000000000000000000000000000000000000000000000000000000000000000000000000000000000000000000000000000000000000000000000000000000000000000000000000000000000000000000000000000000000000000000
310
00000000000000000000000000000000000000000000000000000000000000000000000000000000000000000000000000000000000000000000000000000000000000000000000000000000000000000000000000000000000000000000000000000000000000000000000000000000000000000000000000000000000000
310
00000000000000000000000000000000000000000000000000000000000000000000000000000000000000000000000000000000000000000000000000000000000000000000000000000000000000000000000000000000000000000000000000000000000000000000000000000000000000000000000000000000000000
310
00000000000000000000000000000000000000000000000000000000000000000000000000000000000000000000000000000000000000000000000000000000000000000000000000000000000000000000000000000000000000000000000000000000000000000000000000000000000000000000000000000000000000
310
00000000000000000000000000000000000000000000000000000000000000000000000000000000000000000000000000000000000000000000000000000000000000000000000000000000000000000000000000000000000000000000000000000000000000000000000000000000000000000000000000000000000000
310
00000000000000000000000000000000000000000000000000000000000000000000000000000000000000000000000000000000000000000000000000000000000000000000000000000000000000000000000000000000000000000000000000000000000000000000000000000000000000000000000000000000000000
310
00000000000000000000000000000000000000000000000000000000000000000000000000000000000000000000000000000000000000000000000000000000000000000000000000000000000000000000000000000000000000000000000000000000000000000000000000000000000000000000000000000000000000
310
00000000000000000000000000000000000000000000000000000000000000000000000000000000000000000000000000000000000000000000000000000000000000000000000000000000000000000000000000000000000000000000000000000000000000000000000000000000000000000000000000000000000000
310
00000000000000000000000000000000000000000000000000000000000000000000000000000000000000000000000000000000000000000000000000000000000000000000000000000000000000000000000000000000000000000000000000000000000000000000000000000000000000000000000000000000000000
310
00000000000000000000000000000000000000000000000000000000000000000000000000000000000000000000000000000000000000000000000000000000000000000000000000000000000000000000000000000000000000000000000000000000000000000000000000000000000000000000000000000000000000
310
00000000000000000000000000000000000000000000000000000000000000000000000000000000000000000000000000000000000000000000000000000000000000000000000000000000000000000000000000000000000000000000000000000000000000000000000000000000000000000000000000000000000000
310
00000000000000000000000000000000000000000000000000000000000000000000000000000000000000000000000000000000000000000000000000000000000000000000000000000000000000000000000000000000000000000000000000000000000000000000000000000000000000000000000000000000000000
310
00000000000000000000000000000000000000000000000000000000000000000000000000000000000000000000000000000000000000000000000000000000000000000000000000000000000000000000000000000000000000000000000000000000000000000000000000000000000000000000000000000000000000
310
00000000000000000000000000000000000000000000000000000000000000000000000000000000000000000000000000000000000000000000000000000000000000000000000000000000000000000000000000000000000000000000000000000000000000000000000000000000000000000000000000000000000000
310
00000000000000000000000000000000000000000000000000000000000000000000000000000000000000000000000000000000000000000000000000000000000000000000000000000000000000000000000000000000000000000000000000000000000000000000000000000000000000000000000000000000000000
310
00000000000000000000000000000000000000000000000000000000000000000000000000000000000000000000000000000000000000000000000000000000000000000000000000000000000000000000000000000000000000000000000000000000000000000000000000000000000000000000000000000000000000
310
00000000000000000000000000000000000000000000000000000000000000000000000000000000000000000000000000000000000000000000000000000000000000000000000000000000000000000000000000000000000000000000000000000000000000000000000000000000000000000000000000000000000000
310
00000000000000000000000000000000000000000000000000000000000000000000000000000000000000000000000000000000000000000000000000000000000000000000000000000000000000000000000000000000000000000000000000000000000000000000000000000000000000000000000000000000000000
310
00000000000000000000000000000000000000000000000000000000000000000000000000000000000000000000000000000000000000000000000000000000000000000000000000000000000000000000000000000000000000000000000000000000000000000000000000000000000000000000000000000000000000
310
00000000000000000000000000000000000000000000000000000000000000000000000000000000000000000000000000000000000000000000000000000000000000000000000000000000000000000000000000000000000000000000000000000000000000000000000000000000000000000000000000000000000000
310
00000000000000000000000000000000000000000000000000000000000000000000000000000000000000000000000000000000000000000000000000000000000000000000000000000000000000000000000000000000000000000000000000000000000000000000000000000000000000000000000000000000000000
310
00000000000000000000000000000000000000000000000000000000000000000000000000000000000000000000000000000000000000000000000000000000000000000000000000000000000000000000000000000000000000000000000000000000000000000000000000000000000000000000000000000000000000
310
00000000000000000000000000000000000000000000000000000000000000000000000000000000000000000000000000000000000000000000000000000000000000000000000000000000000000000000000000000000000000000000000000000000000000000000000000000000000000000000000000000000000000
310
00000000000000000000000000000000000000000000000000000000000000000000000000000000000000000000000000000000000000000000000000000000000000000000000000000000000000000000000000000000000000000000000000000000000000000000000000000000000000000000000000000000000000
310
00000000000000000000000000000000000000000000000000000000000000000000000000000000000000000000000000000000000000000000000000000000000000000000000000000000000000000000000000000000000000000000000000000000000000000000000000000000000000000000000000000000000000
310
00000000000000000000000000000000000000000000000000000000000000000000000000000000000000000000000000000000000000000000000000000000000000000000000000000000000000000000000000000000000000000000000000000000000000000000000000000000000000000000000000000000000000
310
00000000000000000000000000000000000000000000000000000000000000000000000000000000000000000000000000000000000000000000000000000000000000000000000000000000000000000000000000000000000000000000000000000000000000000000000000000000000000000000000000000000000000
310
00000000000000000000000000000000000000000000000000000000000000000000000000000000000000000000000000000000000000000000000000000000000000000000000000000000000000000000000000000000000000000000000000000000000000000000000000000000000000000000000000000000000000
310
00000000000000000000000000000000000000000000000000000000000000000000000000000000000000000000000000000000000000000000000000000000000000000000000000000000000000000000000000000000000000000000000000000000000000000000000000000000000000000000000000000000000000
310
00000000000000000000000000000000000000000000000000000000000000000000000000000000000000000000000000000000000000000000000000000000000000000000000000000000000000000000000000000000000000000000000000000000000000000000000000000000000000000000000000000000000000
310
00000000000000000000000000000000000000000000000000000000000000000000000000000000000000000000000000000000000000000000000000000000000000000000000000000000000000000000000000000000000000000000000000000000000000000000000000000000000000000000000000000000000000
310
00000000000000000000000000000000000000000000000000000000000000000000000000000000000000000000000000000000000000000000000000000000000000000000000000000000000000000000000000000000000000000000000000000000000000000000000000000000000000000000000000000000000000
310
00000000000000000000000000000000000000000000000000000000000000000000000000000000000000000000000000000000000000000000000000000000000000000000000000000000000000000000000000000000000000000000000000000000000000000000000000000000000000000000000000000000000000
310
00000000000000000000000000000000000000000000000000000000000000000000000000000000000000000000000000000000000000000000000000000000000000000000000000000000000000000000000000000000000000000000000000000000000000000000000000000000000000000000000000000000000000
310
00000000000000000000000000000000000000000000000000000000000000000000000000000000000000000000000000000000000000000000000000000000000000000000000000000000000000000000000000000000000000000000000000000000000000000000000000000000000000000000000000000000000000
310
00000000000000000000000000000000000000000000000000000000000000000000000000000000000000000000000000000000000000000000000000000000000000000000000000000000000000000000000000000000000000000000000000000000000000000000000000000000000000000000000000000000000000
310
00000000000000000000000000000000000000000000000000000000000000000000000000000000000000000000000000000000000000000000000000000000000000000000000000000000000000000000000000000000000000000000000000000000000000000000000000000000000000000000000000000000000000
310
00000000000000000000000000000000000000000000000000000000000000000000000000000000000000000000000000000000000000000000000000000000000000000000000000000000000000000000000000000000000000000000000000000000000000000000000000000000000000000000000000000000000000
310
00000000000000000000000000000000000000000000000000000000000000000000000000000000000000000000000000000000000000000000000000000000000000000000000000000000000000000000000000000000000000000000000000000000000000000000000000000000000000000000000000000000000000
310
00000000000000000000000000000000000000000000000000000000000000000000000000000000000000000000000000000000000000000000000000000000000000000000000000000000000000000000000000000000000000000000000000000000000000000000000000000000000000000000000000000000000000
310
00000000000000000000000000000000000000000000000000000000000000000000000000000000000000000000000000000000000000000000000000000000000000000000000000000000000000000000000000000000000000000000000000000000000000000000000000000000000000000000000000000000000000
310
00000000000000000000000000000000000000000000000000000000000000000000000000000000000000000000000000000000000000000000000000000000000000000000000000000000000000000000000000000000000000000000000000000000000000000000000000000000000000000000000000000000000000
310
00000000000000000000000000000000000000000000000000000000000000000000000000000000000000000000000000000000000000000000000000000000000000000000000000000000000000000000000000000000000000000000000000000000000000000000000000000000000000000000000000000000000000
310
00000000000000000000000000000000000000000000000000000000000000000000000000000000000000000000000000000000000000000000000000000000000000000000000000000000000000000000000000000000000000000000000000000000000000000000000000000000000000000000000000000000000000
310
00000000000000000000000000000000000000000000000000000000000000000000000000000000000000000000000000000000000000000000000000000000000000000000000000000000000000000000000000000000000000000000000000000000000000000000000000000000000000000000000000000000000000
310
00000000000000000000000000000000000000000000000000000000000000000000000000000000000000000000000000000000000000000000000000000000000000000000000000000000000000000000000000000000000000000000000000000000000000000000000000000000000000000000000000000000000000
310
00000000000000000000000000000000000000000000000000000000000000000000000000000000000000000000000000000000000000000000000000000000000000000000000000000000000000000000000000000000000000000000000000000000000000000000000000000000000000000000000000000000000000
310
00000000000000000000000000000000000000000000000000000000000000000000000000000000000000000000000000000000000000000000000000000000000000000000000000000000000000000000000000000000000000000000000000000000000000000000000000000000000000000000000000000000000000
310
00000000000000000000000000000000000000000000000000000000000000000000000000000000000000000000000000000000000000000000000000000000000000000000000000000000000000000000000000000000000000000000000000000000000000000000000000000000000000000000000000000000000000
310
00000000000000000000000000000000000000000000000000000000000000000000000000000000000000000000000000000000000000000000000000000000000000000000000000000000000000000000000000000000000000000000000000000000000000000000000000000000000000000000000000000000000000
310
00000000000000000000000000000000000000000000000000000000000000000000000000000000000000000000000000000000000000000000000000000000000000000000000000000000000000000000000000000000000000000000000000000000000000000000000000000000000000000000000000000000000000
310
00000000000000000000000000000000000000000000000000000000000000000000000000000000000000000000000000000000000000000000000000000000000000000000000000000000000000000000000000000000000000000000000000000000000000000000000000000000000000000000000000000000000000
310
00000000000000000000000000000000000000000000000000000000000000000000000000000000000000000000000000000000000000000000000000000000000000000000000000000000000000000000000000000000000000000000000000000000000000000000000000000000000000000000000000000000000000
310
00000000000000000000000000000000000000000000000000000000000000000000000000000000000000000000000000000000000000000000000000000000000000000000000000000000000000000000000000000000000000000000000000000000000000000000000000000000000000000000000000000000000000
310
00000000000000000000000000000000000000000000000000000000000000000000000000000000000000000000000000000000000000000000000000000000000000000000000000000000000000000000000000000000000000000000000000000000000000000000000000000000000000000000000000000000000000
310
00000000000000000000000000000000000000000000000000000000000000000000000000000000000000000000000000000000000000000000000000000000000000000000000000000000000000000000000000000000000000000000000000000000000000000000000000000000000000000000000000000000000000
310
00000000000000000000000000000000000000000000000000000000000000000000000000000000000000000000000000000000000000000000000000000000000000000000000000000000000000000000000000000000000000000000000000000000000000000000000000000000000000000000000000000000000000
310
00000000000000000000000000000000000000000000000000000000000000000000000000000000000000000000000000000000000000000000000000000000000000000000000000000000000000000000000000000000000000000000000000000000000000000000000000000000000000000000000000000000000000
310
00000000000000000000000000000000000000000000000000000000000000000000000000000000000000000000000000000000000000000000000000000000000000000000000000000000000000000000000000000000000000000000000000000000000000000000000000000000000000000000000000000000000000
310
00000000000000000000000000000000000000000000000000000000000000000000000000000000000000000000000000000000000000000000000000000000000000000000000000000000000000000000000000000000000000000000000000000000000000000000000000000000000000000000000000000000000000
310
00000000000000000000000000000000000000000000000000000000000000000000000000000000000000000000000000000000000000000000000000000000000000000000000000000000000000000000000000000000000000000000000000000000000000000000000000000000000000000000000000000000000000
310
00000000000000000000000000000000000000000000000000000000000000000000000000000000000000000000000000000000000000000000000000000000000000000000000000000000000000000000000000000000000000000000000000000000000000000000000000000000000000000000000000000000000000
310
00000000000000000000000000000000000000000000000000000000000000000000000000000000000000000000000000000000000000000000000000000000000000000000000000000000000000000000000000000000000000000000000000000000000000000000000000000000000000000000000000000000000000
310
00000000000000000000000000000000000000000000000000000000000000000000000000000000000000000000000000000000000000000000000000000000000000000000000000000000000000000000000000000000000000000000000000000000000000000000000000000000000000000000000000000000000000
310
00000000000000000000000000000000000000000000000000000000000000000000000000000000000000000000000000000000000000000000000000000000000000000000000000000000000000000000000000000000000000000000000000000000000000000000000000000000000000000000000000000000000000
310
00000000000000000000000000000000000000000000000000000000000000000000000000000000000000000000000000000000000000000000000000000000000000000000000000000000000000000000000000000000000000000000000000000000000000000000000000000000000000000000000000000000000000
310
00000000000000000000000000000000000000000000000000000000000000000000000000000000000000000000000000000000000000000000000000000000000000000000000000000000000000000000000000000000000000000000000000000000000000000000000000000000000000000000000000000000000000
310
00000000000000000000000000000000000000000000000000000000000000000000000000000000000000000000000000000000000000000000000000000000000000000000000000000000000000000000000000000000000000000000000000000000000000000000000000000000000000000000000000000000000000
310
00000000000000000000000000000000000000000000000000000000000000000000000000000000000000000000000000000000000000000000000000000000000000000000000000000000000000000000000000000000000000000000000000000000000000000000000000000000000000000000000000000000000000
310
00000000000000000000000000000000000000000000000000000000000000000000000000000000000000000000000000000000000000000000000000000000000000000000000000000000000000000000000000000000000000000000000000000000000000000000000000000000000000000000000000000000000000
310
00000000000000000000000000000000000000000000000000000000000000000000000000000000000000000000000000000000000000000000000000000000000000000000000000000000000000000000000000000000000000000000000000000000000000000000000000000000000000000000000000000000000000
310
00000000000000000000000000000000000000000000000000000000000000000000000000000000000000000000000000000000000000000000000000000000000000000000000000000000000000000000000000000000000000000000000000000000000000000000000000000000000000000000000000000000000000
310
00000000000000000000000000000000000000000000000000000000000000000000000000000000000000000000000000000000000000000000000000000000000000000000000000000000000000000000000000000000000000000000000000000000000000000000000000000000000000000000000000000000000000
310
00000000000000000000000000000000000000000000000000000000000000000000000000000000000000000000000000000000000000000000000000000000000000000000000000000000000000000000000000000000000000000000000000000000000000000000000000000000000000000000000000000000000000
310
00000000000000000000000000000000000000000000000000000000000000000000000000000000000000000000000000000000000000000000000000000000000000000000000000000000000000000000000000000000000000000000000000000000000000000000000000000000000000000000000000000000000000
310
00000000000000000000000000000000000000000000000000000000000000000000000000000000000000000000000000000000000000000000000000000000000000000000000000000000000000000000000000000000000000000000000000000000000000000000000000000000000000000000000000000000000000
310
00000000000000000000000000000000000000000000000000000000000000000000000000000000000000000000000000000000000000000000000000000000000000000000000000000000000000000000000000000000000000000000000000000000000000000000000000000000000000000000000000000000000000
310
00000000000000000000000000000000000000000000000000000000000000000000000000000000000000000000000000000000000000000000000000000000000000000000000000000000000000000000000000000000000000000000000000000000000000000000000000000000000000000000000000000000000000
310
00000000000000000000000000000000000000000000000000000000000000000000000000000000000000000000000000000000000000000000000000000000000000000000000000000000000000000000000000000000000000000000000000000000000000000000000000000000000000000000000000000000000000
310
00000000000000000000000000000000000000000000000000000000000000000000000000000000000000000000000000000000000000000000000000000000000000000000000000000000000000000000000000000000000000000000000000000000000000000000000000000000000000000000000000000000000000
310
00000000000000000000000000000000000000000000000000000000000000000000000000000000000000000000000000000000000000000000000000000000000000000000000000000000000000000000000000000000000000000000000000000000000000000000000000000000000000000000000000000000000000
310
00000000000000000000000000000000000000000000000000000000000000000000000000000000000000000000000000000000000000000000000000000000000000000000000000000000000000000000000000000000000000000000000000000000000000000000000000000000000000000000000000000000000000
310
00000000000000000000000000000000000000000000000000000000000000000000000000000000000000000000000000000000000000000000000000000000000000000000000000000000000000000000000000000000000000000000000000000000000000000000000000000000000000000000000000000000000000
310
00000000000000000000000000000000000000000000000000000000000000000000000000000000000000000000000000000000000000000000000000000000000000000000000000000000000000000000000000000000000000000000000000000000000000000000000000000000000000000000000000000000000000
310
00000000000000000000000000000000000000000000000000000000000000000000000000000000000000000000000000000000000000000000000000000000000000000000000000000000000000000000000000000000000000000000000000000000000000000000000000000000000000000000000000000000000000
310
00000000000000000000000000000000000000000000000000000000000000000000000000000000000000000000000000000000000000000000000000000000000000000000000000000000000000000000000000000000000000000000000000000000000000000000000000000000000000000000000000000000000000
310
00000000000000000000000000000000000000000000000000000000000000000000000000000000000000000000000000000000000000000000000000000000000000000000000000000000000000000000000000000000000000000000000000000000000000000000000000000000000000000000000000000000000000
310
00000000000000000000000000000000000000000000000000000000000000000000000000000000000000000000000000000000000000000000000000000000000000000000000000000000000000000000000000000000000000000000000000000000000000000000000000000000000000000000000000000000000000
310
00000000000000000000000000000000000000000000000000000000000000000000000000000000000000000000000000000000000000000000000000000000000000000000000000000000000000000000000000000000000000000000000000000000000000000000000000000000000000000000000000000000000000
310
00000000000000000000000000000000000000000000000000000000000000000000000000000000000000000000000000000000000000000000000000000000000000000000000000000000000000000000000000000000000000000000000000000000000000000000000000000000000000000000000000000000000000
310
00000000000000000000000000000000000000000000000000000000000000000000000000000000000000000000000000000000000000000000000000000000000000000000000000000000000000000000000000000000000000000000000000000000000000000000000000000000000000000000000000000000000000
310
00000000000000000000000000000000000000000000000000000000000000000000000000000000000000000000000000000000000000000000000000000000000000000000000000000000000000000000000000000000000000000000000000000000000000000000000000000000000000000000000000000000000000
310
00000000000000000000000000000000000000000000000000000000000000000000000000000000000000000000000000000000000000000000000000000000000000000000000000000000000000000000000000000000000000000000000000000000000000000000000000000000000000000000000000000000000000
310
00000000000000000000000000000000000000000000000000000000000000000000000000000000000000000000000000000000000000000000000000000000000000000000000000000000000000000000000000000000000000000000000000000000000000000000000000000000000000000000000000000000000000
310
00000000000000000000000000000000000000000000000000000000000000000000000000000000000000000000000000000000000000000000000000000000000000000000000000000000000000000000000000000000000000000000000000000000000000000000000000000000000000000000000000000000000000
310
00000000000000000000000000000000000000000000000000000000000000000000000000000000000000000000000000000000000000000000000000000000000000000000000000000000000000000000000000000000000000000000000000000000000000000000000000000000000000000000000000000000000000
310
00000000000000000000000000000000000000000000000000000000000000000000000000000000000000000000000000000000000000000000000000000000000000000000000000000000000000000000000000000000000000000000000000000000000000000000000000000000000000000000000000000000000000
310
00000000000000000000000000000000000000000000000000000000000000000000000000000000000000000000000000000000000000000000000000000000000000000000000000000000000000000000000000000000000000000000000000000000000000000000000000000000000000000000000000000000000000
310
00000000000000000000000000000000000000000000000000000000000000000000000000000000000000000000000000000000000000000000000000000000000000000000000000000000000000000000000000000000000000000000000000000000000000000000000000000000000000000000000000000000000000
310
00000000000000000000000000000000000000000000000000000000000000000000000000000000000000000000000000000000000000000000000000000000000000000000000000000000000000000000000000000000000000000000000000000000000000000000000000000000000000000000000000000000000000
310
00000000000000000000000000000000000000000000000000000000000000000000000000000000000000000000000000000000000000000000000000000000000000000000000000000000000000000000000000000000000000000000000000000000000000000000000000000000000000000000000000000000000000
310
00000000000000000000000000000000000000000000000000000000000000000000000000000000000000000000000000000000000000000000000000000000000000000000000000000000000000000000000000000000000000000000000000000000000000000000000000000000000000000000000000000000000000
310
00000000000000000000000000000000000000000000000000000000000000000000000000000000000000000000000000000000000000000000000000000000000000000000000000000000000000000000000000000000000000000000000000000000000000000000000000000000000000000000000000000000000000
310
00000000000000000000000000000000000000000000000000000000000000000000000000000000000000000000000000000000000000000000000000000000000000000000000000000000000000000000000000000000000000000000000000000000000000000000000000000000000000000000000000000000000000
310
00000000000000000000000000000000000000000000000000000000000000000000000000000000000000000000000000000000000000000000000000000000000000000000000000000000000000000000000000000000000000000000000000000000000000000000000000000000000000000000000000000000000000
310
00000000000000000000000000000000000000000000000000000000000000000000000000000000000000000000000000000000000000000000000000000000000000000000000000000000000000000000000000000000000000000000000000000000000000000000000000000000000000000000000000000000000000
310
00000000000000000000000000000000000000000000000000000000000000000000000000000000000000000000000000000000000000000000000000000000000000000000000000000000000000000000000000000000000000000000000000000000000000000000000000000000000000000000000000000000000000
310
00000000000000000000000000000000000000000000000000000000000000000000000000000000000000000000000000000000000000000000000000000000000000000000000000000000000000000000000000000000000000000000000000000000000000000000000000000000000000000000000000000000000000
310
00000000000000000000000000000000000000000000000000000000000000000000000000000000000000000000000000000000000000000000000000000000000000000000000000000000000000000000000000000000000000000000000000000000000000000000000000000000000000000000000000000000000000
310
00000000000000000000000000000000000000000000000000000000000000000000000000000000000000000000000000000000000000000000000000000000000000000000000000000000000000000000000000000000000000000000000000000000000000000000000000000000000000000000000000000000000000
310
00000000000000000000000000000000000000000000000000000000000000000000000000000000000000000000000000000000000000000000000000000000000000000000000000000000000000000000000000000000000000000000000000000000000000000000000000000000000000000000000000000000000000
310
00000000000000000000000000000000000000000000000000000000000000000000000000000000000000000000000000000000000000000000000000000000000000000000000000000000000000000000000000000000000000000000000000000000000000000000000000000000000000000000000000000000000000
310
00000000000000000000000000000000000000000000000000000000000000000000000000000000000000000000000000000000000000000000000000000000000000000000000000000000000000000000000000000000000000000000000000000000000000000000000000000000000000000000000000000000000000
310
00000000000000000000000000000000000000000000000000000000000000000000000000000000000000000000000000000000000000000000000000000000000000000000000000000000000000000000000000000000000000000000000000000000000000000000000000000000000000000000000000000000000000
310
00000000000000000000000000000000000000000000000000000000000000000000000000000000000000000000000000000000000000000000000000000000000000000000000000000000000000000000000000000000000000000000000000000000000000000000000000000000000000000000000000000000000000
310
00000000000000000000000000000000000000000000000000000000000000000000000000000000000000000000000000000000000000000000000000000000000000000000000000000000000000000000000000000000000000000000000000000000000000000000000000000000000000000000000000000000000000
310
00000000000000000000000000000000000000000000000000000000000000000000000000000000000000000000000000000000000000000000000000000000000000000000000000000000000000000000000000000000000000000000000000000000000000000000000000000000000000000000000000000000000000
310
00000000000000000000000000000000000000000000000000000000000000000000000000000000000000000000000000000000000000000000000000000000000000000000000000000000000000000000000000000000000000000000000000000000000000000000000000000000000000000000000000000000000000
310
00000000000000000000000000000000000000000000000000000000000000000000000000000000000000000000000000000000000000000000000000000000000000000000000000000000000000000000000000000000000000000000000000000000000000000000000000000000000000000000000000000000000000
310
00000000000000000000000000000000000000000000000000000000000000000000000000000000000000000000000000000000000000000000000000000000000000000000000000000000000000000000000000000000000000000000000000000000000000000000000000000000000000000000000000000000000000
310
00000000000000000000000000000000000000000000000000000000000000000000000000000000000000000000000000000000000000000000000000000000000000000000000000000000000000000000000000000000000000000000000000000000000000000000000000000000000000000000000000000000000000
310
00000000000000000000000000000000000000000000000000000000000000000000000000000000000000000000000000000000000000000000000000000000000000000000000000000000000000000000000000000000000000000000000000000000000000000000000000000000000000000000000000000000000000
310
00000000000000000000000000000000000000000000000000000000000000000000000000000000000000000000000000000000000000000000000000000000000000000000000000000000000000000000000000000000000000000000000000000000000000000000000000000000000000000000000000000000000000
310
00000000000000000000000000000000000000000000000000000000000000000000000000000000000000000000000000000000000000000000000000000000000000000000000000000000000000000000000000000000000000000000000000000000000000000000000000000000000000000000000000000000000000
310
00000000000000000000000000000000000000000000000000000000000000000000000000000000000000000000000000000000000000000000000000000000000000000000000000000000000000000000000000000000000000000000000000000000000000000000000000000000000000000000000000000000000000
310
00000000000000000000000000000000000000000000000000000000000000000000000000000000000000000000000000000000000000000000000000000000000000000000000000000000000000000000000000000000000000000000000000000000000000000000000000000000000000000000000000000000000000
310
00000000000000000000000000000000000000000000000000000000000000000000000000000000000000000000000000000000000000000000000000000000000000000000000000000000000000000000000000000000000000000000000000000000000000000000000000000000000000000000000000000000000000
310
00000000000000000000000000000000000000000000000000000000000000000000000000000000000000000000000000000000000000000000000000000000000000000000000000000000000000000000000000000000000000000000000000000000000000000000000000000000000000000000000000000000000000
310
00000000000000000000000000000000000000000000000000000000000000000000000000000000000000000000000000000000000000000000000000000000000000000000000000000000000000000000000000000000000000000000000000000000000000000000000000000000000000000000000000000000000000
310
00000000000000000000000000000000000000000000000000000000000000000000000000000000000000000000000000000000000000000000000000000000000000000000000000000000000000000000000000000000000000000000000000000000000000000000000000000000000000000000000000000000000000
310
00000000000000000000000000000000000000000000000000000000000000000000000000000000000000000000000000000000000000000000000000000000000000000000000000000000000000000000000000000000000000000000000000000000000000000000000000000000000000000000000000000000000000
310
00000000000000000000000000000000000000000000000000000000000000000000000000000000000000000000000000000000000000000000000000000000000000000000000000000000000000000000000000000000000000000000000000000000000000000000000000000000000000000000000000000000000000
310
00000000000000000000000000000000000000000000000000000000000000000000000000000000000000000000000000000000000000000000000000000000000000000000000000000000000000000000000000000000000000000000000000000000000000000000000000000000000000000000000000000000000000
310
00000000000000000000000000000000000000000000000000000000000000000000000000000000000000000000000000000000000000000000000000000000000000000000000000000000000000000000000000000000000000000000000000000000000000000000000000000000000000000000000000000000000000
310
00000000000000000000000000000000000000000000000000000000000000000000000000000000000000000000000000000000000000000000000000000000000000000000000000000000000000000000000000000000000000000000000000000000000000000000000000000000000000000000000000000000000000
310
00000000000000000000000000000000000000000000000000000000000000000000000000000000000000000000000000000000000000000000000000000000000000000000000000000000000000000000000000000000000000000000000000000000000000000000000000000000000000000000000000000000000000
310
00000000000000000000000000000000000000000000000000000000000000000000000000000000000000000000000000000000000000000000000000000000000000000000000000000000000000000000000000000000000000000000000000000000000000000000000000000000000000000000000000000000000000
310
00000000000000000000000000000000000000000000000000000000000000000000000000000000000000000000000000000000000000000000000000000000000000000000000000000000000000000000000000000000000000000000000000000000000000000000000000000000000000000000000000000000000000
310
00000000000000000000000000000000000000000000000000000000000000000000000000000000000000000000000000000000000000000000000000000000000000000000000000000000000000000000000000000000000000000000000000000000000000000000000000000000000000000000000000000000000000
310
00000000000000000000000000000000000000000000000000000000000000000000000000000000000000000000000000000000000000000000000000000000000000000000000000000000000000000000000000000000000000000000000000000000000000000000000000000000000000000000000000000000000000
310
00000000000000000000000000000000000000000000000000000000000000000000000000000000000000000000000000000000000000000000000000000000000000000000000000000000000000000000000000000000000000000000000000000000000000000000000000000000000000000000000000000000000000
310
00000000000000000000000000000000000000000000000000000000000000000000000000000000000000000000000000000000000000000000000000000000000000000000000000000000000000000000000000000000000000000000000000000000000000000000000000000000000000000000000000000000000000
310
00000000000000000000000000000000000000000000000000000000000000000000000000000000000000000000000000000000000000000000000000000000000000000000000000000000000000000000000000000000000000000000000000000000000000000000000000000000000000000000000000000000000000
310
00000000000000000000000000000000000000000000000000000000000000000000000000000000000000000000000000000000000000000000000000000000000000000000000000000000000000000000000000000000000000000000000000000000000000000000000000000000000000000000000000000000000000
310
00000000000000000000000000000000000000000000000000000000000000000000000000000000000000000000000000000000000000000000000000000000000000000000000000000000000000000000000000000000000000000000000000000000000000000000000000000000000000000000000000000000000000
310
00000000000000000000000000000000000000000000000000000000000000000000000000000000000000000000000000000000000000000000000000000000000000000000000000000000000000000000000000000000000000000000000000000000000000000000000000000000000000000000000000000000000000
310
00000000000000000000000000000000000000000000000000000000000000000000000000000000000000000000000000000000000000000000000000000000000000000000000000000000000000000000000000000000000000000000000000000000000000000000000000000000000000000000000000000000000000
310
00000000000000000000000000000000000000000000000000000000000000000000000000000000000000000000000000000000000000000000000000000000000000000000000000000000000000000000000000000000000000000000000000000000000000000000000000000000000000000000000000000000000000
310
00000000000000000000000000000000000000000000000000000000000000000000000000000000000000000000000000000000000000000000000000000000000000000000000000000000000000000000000000000000000000000000000000000000000000000000000000000000000000000000000000000000000000
310
00000000000000000000000000000000000000000000000000000000000000000000000000000000000000000000000000000000000000000000000000000000000000000000000000000000000000000000000000000000000000000000000000000000000000000000000000000000000000000000000000000000000000
310
00000000000000000000000000000000000000000000000000000000000000000000000000000000000000000000000000000000000000000000000000000000000000000000000000000000000000000000000000000000000000000000000000000000000000000000000000000000000000000000000000000000000000
310
00000000000000000000000000000000000000000000000000000000000000000000000000000000000000000000000000000000000000000000000000000000000000000000000000000000000000000000000000000000000000000000000000000000000000000000000000000000000000000000000000000000000000
310
00000000000000000000000000000000000000000000000000000000000000000000000000000000000000000000000000000000000000000000000000000000000000000000000000000000000000000000000000000000000000000000000000000000000000000000000000000000000000000000000000000000000000
310
00000000000000000000000000000000000000000000000000000000000000000000000000000000000000000000000000000000000000000000000000000000000000000000000000000000000000000000000000000000000000000000000000000000000000000000000000000000000000000000000000000000000000
310
00000000000000000000000000000000000000000000000000000000000000000000000000000000000000000000000000000000000000000000000000000000000000000000000000000000000000000000000000000000000000000000000000000000000000000000000000000000000000000000000000000000000000
310
00000000000000000000000000000000000000000000000000000000000000000000000000000000000000000000000000000000000000000000000000000000000000000000000000000000000000000000000000000000000000000000000000000000000000000000000000000000000000000000000000000000000000
310
00000000000000000000000000000000000000000000000000000000000000000000000000000000000000000000000000000000000000000000000000000000000000000000000000000000000000000000000000000000000000000000000000000000000000000000000000000000000000000000000000000000000000
310
00000000000000000000000000000000000000000000000000000000000000000000000000000000000000000000000000000000000000000000000000000000000000000000000000000000000000000000000000000000000000000000000000000000000000000000000000000000000000000000000000000000000000
310
00000000000000000000000000000000000000000000000000000000000000000000000000000000000000000000000000000000000000000000000000000000000000000000000000000000000000000000000000000000000000000000000000000000000000000000000000000000000000000000000000000000000000
310
00000000000000000000000000000000000000000000000000000000000000000000000000000000000000000000000000000000000000000000000000000000000000000000000000000000000000000000000000000000000000000000000000000000000000000000000000000000000000000000000000000000000000
310
00000000000000000000000000000000000000000000000000000000000000000000000000000000000000000000000000000000000000000000000000000000000000000000000000000000000000000000000000000000000000000000000000000000000000000000000000000000000000000000000000000000000000
310
00000000000000000000000000000000000000000000000000000000000000000000000000000000000000000000000000000000000000000000000000000000000000000000000000000000000000000000000000000000000000000000000000000000000000000000000000000000000000000000000000000000000000
310
00000000000000000000000000000000000000000000000000000000000000000000000000000000000000000000000000000000000000000000000000000000000000000000000000000000000000000000000000000000000000000000000000000000000000000000000000000000000000000000000000000000000000
310
00000000000000000000000000000000000000000000000000000000000000000000000000000000000000000000000000000000000000000000000000000000000000000000000000000000000000000000000000000000000000000000000000000000000000000000000000000000000000000000000000000000000000
310
00000000000000000000000000000000000000000000000000000000000000000000000000000000000000000000000000000000000000000000000000000000000000000000000000000000000000000000000000000000000000000000000000000000000000000000000000000000000000000000000000000000000000
310
00000000000000000000000000000000000000000000000000000000000000000000000000000000000000000000000000000000000000000000000000000000000000000000000000000000000000000000000000000000000000000000000000000000000000000000000000000000000000000000000000000000000000
310
00000000000000000000000000000000000000000000000000000000000000000000000000000000000000000000000000000000000000000000000000000000000000000000000000000000000000000000000000000000000000000000000000000000000000000000000000000000000000000000000000000000000000
310
00000000000000000000000000000000000000000000000000000000000000000000000000000000000000000000000000000000000000000000000000000000000000000000000000000000000000000000000000000000000000000000000000000000000000000000000000000000000000000000000000000000000000
310
00000000000000000000000000000000000000000000000000000000000000000000000000000000000000000000000000000000000000000000000000000000000000000000000000000000000000000000000000000000000000000000000000000000000000000000000000000000000000000000000000000000000000
310
00000000000000000000000000000000000000000000000000000000000000000000000000000000000000000000000000000000000000000000000000000000000000000000000000000000000000000000000000000000000000000000000000000000000000000000000000000000000000000000000000000000000000
310
00000000000000000000000000000000000000000000000000000000000000000000000000000000000000000000000000000000000000000000000000000000000000000000000000000000000000000000000000000000000000000000000000000000000000000000000000000000000000000000000000000000000000
310
00000000000000000000000000000000000000000000000000000000000000000000000000000000000000000000000000000000000000000000000000000000000000000000000000000000000000000000000000000000000000000000000000000000000000000000000000000000000000000000000000000000000000
310
00000000000000000000000000000000000000000000000000000000000000000000000000000000000000000000000000000000000000000000000000000000000000000000000000000000000000000000000000000000000000000000000000000000000000000000000000000000000000000000000000000000000000
310
00000000000000000000000000000000000000000000000000000000000000000000000000000000000000000000000000000000000000000000000000000000000000000000000000000000000000000000000000000000000000000000000000000000000000000000000000000000000000000000000000000000000000
310
00000000000000000000000000000000000000000000000000000000000000000000000000000000000000000000000000000000000000000000000000000000000000000000000000000000000000000000000000000000000000000000000000000000000000000000000000000000000000000000000000000000000000
310
00000000000000000000000000000000000000000000000000000000000000000000000000000000000000000000000000000000000000000000000000000000000000000000000000000000000000000000000000000000000000000000000000000000000000000000000000000000000000000000000000000000000000
310
00000000000000000000000000000000000000000000000000000000000000000000000000000000000000000000000000000000000000000000000000000000000000000000000000000000000000000000000000000000000000000000000000000000000000000000000000000000000000000000000000000000000000
310
00000000000000000000000000000000000000000000000000000000000000000000000000000000000000000000000000000000000000000000000000000000000000000000000000000000000000000000000000000000000000000000000000000000000000000000000000000000000000000000000000000000000000
310
00000000000000000000000000000000000000000000000000000000000000000000000000000000000000000000000000000000000000000000000000000000000000000000000000000000000000000000000000000000000000000000000000000000000000000000000000000000000000000000000000000000000000
310
00000000000000000000000000000000000000000000000000000000000000000000000000000000000000000000000000000000000000000000000000000000000000000000000000000000000000000000000000000000000000000000000000000000000000000000000000000000000000000000000000000000000000
310
00000000000000000000000000000000000000000000000000000000000000000000000000000000000000000000000000000000000000000000000000000000000000000000000000000000000000000000000000000000000000000000000000000000000000000000000000000000000000000000000000000000000000
310
000000000000000000000000000000000000000000000000000000000000
  0
XRECORD
  5
AF7
102
{ACAD_REACTORS
330
AF6
102
}
330
AF6
100
AcDbXrecord
280
     1
102
MATERIAL
148
0.0
149
0.0
149
0.0
 93
        0
 94
       63
282
     0
 72
     1
 77
     1
171
     1
175
     1
179
     1
273
     0
  0
XRECORD
  5
AF5
102
{ACAD_REACTORS
330
AF4
102
}
330
AF4
100
AcDbXrecord
280
     1
102
MATERIAL
148
0.0
149
0.0
149
0.0
 93
        0
 94
       63
282
     0
 72
     1
 77
     1
171
     1
175
     1
179
     1
273
     0
  0
XRECORD
  5
AF9
102
{ACAD_REACTORS
330
AF8
102
}
330
AF8
100
AcDbXrecord
280
     1
102
MATERIAL
148
0.0
149
0.0
149
0.0
 93
        0
 94
       63
282
     0
 72
     1
 77
     1
171
     1
175
     1
179
     1
273
     0
  0
XRECORD
  5
B32
102
{ACAD_REACTORS
330
B31
102
}
330
B31
100
AcDbXrecord
280
     1
102
SHADEPLOT
 70
     0
102
SHADEPLOTRESLEVEL
 70
     2
102
SHADEPLOTCUSTOMDPI
 70
   300
  0
XRECORD
  5
B34
102
{ACAD_REACTORS
330
B33
102
}
330
B33
100
AcDbXrecord
280
     1
102
SHADEPLOT
 70
     0
102
SHADEPLOTRESLEVEL
 70
     2
102
SHADEPLOTCUSTOMDPI
 70
   300
  0
XRECORD
  5
B36
102
{ACAD_REACTORS
330
B35
102
}
330
B35
100
AcDbXrecord
280
     1
102
SHADEPLOT
 70
     0
102
SHADEPLOTRESLEVEL
 70
     2
102
SHADEPLOTCUSTOMDPI
 70
   300
  0
XRECORD
  5
B38
102
{ACAD_REACTORS
330
B37
102
}
330
B37
100
AcDbXrecord
280
     1
102
SHADEPLOT
 70
     0
102
SHADEPLOTRESLEVEL
 70
     2
102
SHADEPLOTCUSTOMDPI
 70
   300
  0
XRECORD
  5
B3A
102
{ACAD_REACTORS
330
B39
102
}
330
B39
100
AcDbXrecord
280
     1
102
SHADEPLOT
 70
     0
102
SHADEPLOTRESLEVEL
 70
     2
102
SHADEPLOTCUSTOMDPI
 70
   300
  0
CELLSTYLEMAP
  5
AC8
102
{ACAD_REACTORS
330
366
102
}
330
366
100
AcDbCellStyleMap
 90
        3
300
CELLSTYLE
  1
TABLEFORMAT_BEGIN
 90
        5
170
     1
 91
        0
 92
    32768
 62
   257
 93
        1
300
CONTENTFORMAT
  1
CONTENTFORMAT_BEGIN
 90
        0
 91
        0
 92
      512
 93
        0
300

 40
0.0
140
1.0
 94
        5
 62
     1
340
1B
144
6.0
309
CONTENTFORMAT_END
171
     1
301
MARGIN
  1
CELLMARGIN_BEGIN
 40
1.5
 40
1.5
 40
1.5
 40
1.5
 40
0.18
 40
0.18
309
CELLMARGIN_END
 94
        6
 95
        1
302
GRIDFORMAT
  1
GRIDFORMAT_BEGIN
 90
        0
 91
        1
 62
     0
 92
       -2
340
0
 93
        0
 40
0.045
309
GRIDFORMAT_END
 95
        2
302
GRIDFORMAT
  1
GRIDFORMAT_BEGIN
 90
        0
 91
        1
 62
     0
 92
       -2
340
0
 93
        0
 40
0.045
309
GRIDFORMAT_END
 95
        4
302
GRIDFORMAT
  1
GRIDFORMAT_BEGIN
 90
        0
 91
        1
 62
     0
 92
       -2
340
0
 93
        0
 40
0.045
309
GRIDFORMAT_END
 95
        8
302
GRIDFORMAT
  1
GRIDFORMAT_BEGIN
 90
        0
 91
        1
 62
     0
 92
       -2
340
0
 93
        0
 40
0.045
309
GRIDFORMAT_END
 95
       16
302
GRIDFORMAT
  1
GRIDFORMAT_BEGIN
 90
        0
 91
        1
 62
     0
 92
       -2
340
0
 93
        0
 40
0.045
309
GRIDFORMAT_END
 95
       32
302
GRIDFORMAT
  1
GRIDFORMAT_BEGIN
 90
        0
 91
        1
 62
     0
 92
       -2
340
0
 93
        0
 40
0.045
309
GRIDFORMAT_END
309
TABLEFORMAT_END
  1
CELLSTYLE_BEGIN
 90
        1
 91
        1
300
_TITLE
309
CELLSTYLE_END
300
CELLSTYLE
  1
TABLEFORMAT_BEGIN
 90
        5
170
     1
 91
        0
 92
        0
 62
   257
 93
        1
300
CONTENTFORMAT
  1
CONTENTFORMAT_BEGIN
 90
        0
 91
        0
 92
      512
 93
        0
300

 40
0.0
140
1.0
 94
        5
 62
     3
340
1B
144
3.5
309
CONTENTFORMAT_END
171
     1
301
MARGIN
  1
CELLMARGIN_BEGIN
 40
1.5
 40
1.5
 40
1.5
 40
1.5
 40
0.18
 40
0.18
309
CELLMARGIN_END
 94
        6
 95
        1
302
GRIDFORMAT
  1
GRIDFORMAT_BEGIN
 90
        0
 91
        1
 62
     0
 92
       -2
340
0
 93
        0
 40
0.045
309
GRIDFORMAT_END
 95
        2
302
GRIDFORMAT
  1
GRIDFORMAT_BEGIN
 90
        0
 91
        1
 62
     0
 92
       -2
340
0
 93
        0
 40
0.045
309
GRIDFORMAT_END
 95
        4
302
GRIDFORMAT
  1
GRIDFORMAT_BEGIN
 90
        0
 91
        1
 62
     0
 92
       -2
340
0
 93
        0
 40
0.045
309
GRIDFORMAT_END
 95
        8
302
GRIDFORMAT
  1
GRIDFORMAT_BEGIN
 90
        0
 91
        1
 62
     0
 92
       -2
340
0
 93
        0
 40
0.045
309
GRIDFORMAT_END
 95
       16
302
GRIDFORMAT
  1
GRIDFORMAT_BEGIN
 90
        0
 91
        1
 62
     0
 92
       -2
340
0
 93
        0
 40
0.045
309
GRIDFORMAT_END
 95
       32
302
GRIDFORMAT
  1
GRIDFORMAT_BEGIN
 90
        0
 91
        1
 62
     0
 92
       -2
340
0
 93
        0
 40
0.045
309
GRIDFORMAT_END
309
TABLEFORMAT_END
  1
CELLSTYLE_BEGIN
 90
        2
 91
        1
300
_HEADER
309
CELLSTYLE_END
300
CELLSTYLE
  1
TABLEFORMAT_BEGIN
 90
        5
170
     1
 91
        0
 92
        0
 62
   257
 93
        1
300
CONTENTFORMAT
  1
CONTENTFORMAT_BEGIN
 90
        0
 91
        0
 92
      512
 93
        0
300

 40
0.0
140
1.0
 94
        5
 62
     7
340
1B
144
3.0
309
CONTENTFORMAT_END
171
     1
301
MARGIN
  1
CELLMARGIN_BEGIN
 40
1.5
 40
1.5
 40
1.5
 40
1.5
 40
0.18
 40
0.18
309
CELLMARGIN_END
 94
        6
 95
        1
302
GRIDFORMAT
  1
GRIDFORMAT_BEGIN
 90
        0
 91
        1
 62
     0
 92
       -2
340
0
 93
        0
 40
0.045
309
GRIDFORMAT_END
 95
        2
302
GRIDFORMAT
  1
GRIDFORMAT_BEGIN
 90
        0
 91
        1
 62
     0
 92
       -2
340
0
 93
        0
 40
0.045
309
GRIDFORMAT_END
 95
        4
302
GRIDFORMAT
  1
GRIDFORMAT_BEGIN
 90
        0
 91
        1
 62
     0
 92
       -2
340
0
 93
        0
 40
0.045
309
GRIDFORMAT_END
 95
        8
302
GRIDFORMAT
  1
GRIDFORMAT_BEGIN
 90
        0
 91
        1
 62
     0
 92
       -2
340
0
 93
        0
 40
0.045
309
GRIDFORMAT_END
 95
       16
302
GRIDFORMAT
  1
GRIDFORMAT_BEGIN
 90
        0
 91
        1
 62
     0
 92
       -2
340
0
 93
        0
 40
0.045
309
GRIDFORMAT_END
 95
       32
302
GRIDFORMAT
  1
GRIDFORMAT_BEGIN
 90
        0
 91
        1
 62
     0
 92
       -2
340
0
 93
        0
 40
0.045
309
GRIDFORMAT_END
309
TABLEFORMAT_END
  1
CELLSTYLE_BEGIN
 90
        3
 91
        2
300
_DATA
309
CELLSTYLE_END
  0
XRECORD
  5
B1C
102
{ACAD_REACTORS
330
366
102
}
330
366
100
AcDbXrecord
280
     1
102
ACAD_ROUNDTRIP_PRE2007_TABLESTYLE
 90
      512
 91
        0
  1

 92
      512
 93
        0
  2

 94
      512
 95
        0
  3

  0
CELLSTYLEMAP
  5
AC7
102
{ACAD_REACTORS
330
364
102
}
330
364
100
AcDbCellStyleMap
 90
        3
300
CELLSTYLE
  1
TABLEFORMAT_BEGIN
 90
        5
170
     1
 91
        0
 92
    32768
 62
   257
 93
        1
300
CONTENTFORMAT
  1
CONTENTFORMAT_BEGIN
 90
        0
 91
        0
 92
      512
 93
        0
300

 40
0.0
140
1.0
 94
        5
 62
     1
340
1B
144
6.0
309
CONTENTFORMAT_END
171
     1
301
MARGIN
  1
CELLMARGIN_BEGIN
 40
1.5
 40
1.5
 40
1.5
 40
1.5
 40
0.18
 40
0.18
309
CELLMARGIN_END
 94
        6
 95
        1
302
GRIDFORMAT
  1
GRIDFORMAT_BEGIN
 90
        0
 91
        1
 62
     0
 92
       -2
340
0
 93
        0
 40
0.045
309
GRIDFORMAT_END
 95
        2
302
GRIDFORMAT
  1
GRIDFORMAT_BEGIN
 90
        0
 91
        1
 62
     0
 92
       -2
340
0
 93
        0
 40
0.045
309
GRIDFORMAT_END
 95
        4
302
GRIDFORMAT
  1
GRIDFORMAT_BEGIN
 90
        0
 91
        1
 62
     0
 92
       -2
340
0
 93
        0
 40
0.045
309
GRIDFORMAT_END
 95
        8
302
GRIDFORMAT
  1
GRIDFORMAT_BEGIN
 90
        0
 91
        1
 62
     0
 92
       -2
340
0
 93
        0
 40
0.045
309
GRIDFORMAT_END
 95
       16
302
GRIDFORMAT
  1
GRIDFORMAT_BEGIN
 90
        0
 91
        1
 62
     0
 92
       -2
340
0
 93
        0
 40
0.045
309
GRIDFORMAT_END
 95
       32
302
GRIDFORMAT
  1
GRIDFORMAT_BEGIN
 90
        0
 91
        1
 62
     0
 92
       -2
340
0
 93
        0
 40
0.045
309
GRIDFORMAT_END
309
TABLEFORMAT_END
  1
CELLSTYLE_BEGIN
 90
        1
 91
        1
300
_TITLE
309
CELLSTYLE_END
300
CELLSTYLE
  1
TABLEFORMAT_BEGIN
 90
        5
170
     1
 91
        0
 92
        0
 62
   257
 93
        1
300
CONTENTFORMAT
  1
CONTENTFORMAT_BEGIN
 90
        0
 91
        0
 92
      512
 93
        0
300

 40
0.0
140
1.0
 94
        5
 62
     3
340
1B
144
5.0
309
CONTENTFORMAT_END
171
     1
301
MARGIN
  1
CELLMARGIN_BEGIN
 40
1.5
 40
1.5
 40
1.5
 40
1.5
 40
0.18
 40
0.18
309
CELLMARGIN_END
 94
        6
 95
        1
302
GRIDFORMAT
  1
GRIDFORMAT_BEGIN
 90
        0
 91
        1
 62
     0
 92
       -2
340
0
 93
        0
 40
0.045
309
GRIDFORMAT_END
 95
        2
302
GRIDFORMAT
  1
GRIDFORMAT_BEGIN
 90
        0
 91
        1
 62
     0
 92
       -2
340
0
 93
        0
 40
0.045
309
GRIDFORMAT_END
 95
        4
302
GRIDFORMAT
  1
GRIDFORMAT_BEGIN
 90
        0
 91
        1
 62
     0
 92
       -2
340
0
 93
        0
 40
0.045
309
GRIDFORMAT_END
 95
        8
302
GRIDFORMAT
  1
GRIDFORMAT_BEGIN
 90
        0
 91
        1
 62
     0
 92
       -2
340
0
 93
        0
 40
0.045
309
GRIDFORMAT_END
 95
       16
302
GRIDFORMAT
  1
GRIDFORMAT_BEGIN
 90
        0
 91
        1
 62
     0
 92
       -2
340
0
 93
        0
 40
0.045
309
GRIDFORMAT_END
 95
       32
302
GRIDFORMAT
  1
GRIDFORMAT_BEGIN
 90
        0
 91
        1
 62
     0
 92
       -2
340
0
 93
        0
 40
0.045
309
GRIDFORMAT_END
309
TABLEFORMAT_END
  1
CELLSTYLE_BEGIN
 90
        2
 91
        1
300
_HEADER
309
CELLSTYLE_END
300
CELLSTYLE
  1
TABLEFORMAT_BEGIN
 90
        5
170
     1
 91
        0
 92
        0
 62
   257
 93
        1
300
CONTENTFORMAT
  1
CONTENTFORMAT_BEGIN
 90
        0
 91
        0
 92
      512
 93
        0
300

 40
0.0
140
1.0
 94
        5
 62
     7
340
1B
144
4.5
309
CONTENTFORMAT_END
171
     1
301
MARGIN
  1
CELLMARGIN_BEGIN
 40
1.5
 40
1.5
 40
1.5
 40
1.5
 40
0.18
 40
0.18
309
CELLMARGIN_END
 94
        6
 95
        1
302
GRIDFORMAT
  1
GRIDFORMAT_BEGIN
 90
        0
 91
        1
 62
     0
 92
       -2
340
0
 93
        0
 40
0.045
309
GRIDFORMAT_END
 95
        2
302
GRIDFORMAT
  1
GRIDFORMAT_BEGIN
 90
        0
 91
        1
 62
     0
 92
       -2
340
0
 93
        0
 40
0.045
309
GRIDFORMAT_END
 95
        4
302
GRIDFORMAT
  1
GRIDFORMAT_BEGIN
 90
        0
 91
        1
 62
     0
 92
       -2
340
0
 93
        0
 40
0.045
309
GRIDFORMAT_END
 95
        8
302
GRIDFORMAT
  1
GRIDFORMAT_BEGIN
 90
        0
 91
        1
 62
     0
 92
       -2
340
0
 93
        0
 40
0.045
309
GRIDFORMAT_END
 95
       16
302
GRIDFORMAT
  1
GRIDFORMAT_BEGIN
 90
        0
 91
        1
 62
     0
 92
       -2
340
0
 93
        0
 40
0.045
309
GRIDFORMAT_END
 95
       32
302
GRIDFORMAT
  1
GRIDFORMAT_BEGIN
 90
        0
 91
        1
 62
     0
 92
       -2
340
0
 93
        0
 40
0.045
309
GRIDFORMAT_END
309
TABLEFORMAT_END
  1
CELLSTYLE_BEGIN
 90
        3
 91
        2
300
_DATA
309
CELLSTYLE_END
  0
XRECORD
  5
B1B
102
{ACAD_REACTORS
330
364
102
}
330
364
100
AcDbXrecord
280
     1
102
ACAD_ROUNDTRIP_PRE2007_TABLESTYLE
 90
      512
 91
        0
  1

 92
      512
 93
        0
  2

 94
      512
 95
        0
  3

  0
CELLSTYLEMAP
  5
AC6
102
{ACAD_REACTORS
330
362
102
}
330
362
100
AcDbCellStyleMap
 90
        3
300
CELLSTYLE
  1
TABLEFORMAT_BEGIN
 90
        5
170
     1
 91
        0
 92
    32768
 62
   257
 93
        1
300
CONTENTFORMAT
  1
CONTENTFORMAT_BEGIN
 90
        0
 91
        0
 92
      512
 93
        0
300

 40
0.0
140
1.0
 94
        5
 62
     0
340
C
144
6.0
309
CONTENTFORMAT_END
171
     1
301
MARGIN
  1
CELLMARGIN_BEGIN
 40
1.5
 40
1.5
 40
1.5
 40
1.5
 40
0.18
 40
0.18
309
CELLMARGIN_END
 94
        6
 95
        1
302
GRIDFORMAT
  1
GRIDFORMAT_BEGIN
 90
        0
 91
        1
 62
     0
 92
       -2
340
0
 93
        0
 40
0.045
309
GRIDFORMAT_END
 95
        2
302
GRIDFORMAT
  1
GRIDFORMAT_BEGIN
 90
        0
 91
        1
 62
     0
 92
       -2
340
0
 93
        0
 40
0.045
309
GRIDFORMAT_END
 95
        4
302
GRIDFORMAT
  1
GRIDFORMAT_BEGIN
 90
        0
 91
        1
 62
     0
 92
       -2
340
0
 93
        0
 40
0.045
309
GRIDFORMAT_END
 95
        8
302
GRIDFORMAT
  1
GRIDFORMAT_BEGIN
 90
        0
 91
        1
 62
     0
 92
       -2
340
0
 93
        0
 40
0.045
309
GRIDFORMAT_END
 95
       16
302
GRIDFORMAT
  1
GRIDFORMAT_BEGIN
 90
        0
 91
        1
 62
     0
 92
       -2
340
0
 93
        0
 40
0.045
309
GRIDFORMAT_END
 95
       32
302
GRIDFORMAT
  1
GRIDFORMAT_BEGIN
 90
        0
 91
        1
 62
     0
 92
       -2
340
0
 93
        0
 40
0.045
309
GRIDFORMAT_END
309
TABLEFORMAT_END
  1
CELLSTYLE_BEGIN
 90
        1
 91
        1
300
_TITLE
309
CELLSTYLE_END
300
CELLSTYLE
  1
TABLEFORMAT_BEGIN
 90
        5
170
     1
 91
        0
 92
        0
 62
   257
 93
        1
300
CONTENTFORMAT
  1
CONTENTFORMAT_BEGIN
 90
        0
 91
        0
 92
      512
 93
        0
300

 40
0.0
140
1.0
 94
        5
 62
     0
340
C
144
4.5
309
CONTENTFORMAT_END
171
     1
301
MARGIN
  1
CELLMARGIN_BEGIN
 40
1.5
 40
1.5
 40
1.5
 40
1.5
 40
0.18
 40
0.18
309
CELLMARGIN_END
 94
        6
 95
        1
302
GRIDFORMAT
  1
GRIDFORMAT_BEGIN
 90
        0
 91
        1
 62
     0
 92
       -2
340
0
 93
        0
 40
0.045
309
GRIDFORMAT_END
 95
        2
302
GRIDFORMAT
  1
GRIDFORMAT_BEGIN
 90
        0
 91
        1
 62
     0
 92
       -2
340
0
 93
        0
 40
0.045
309
GRIDFORMAT_END
 95
        4
302
GRIDFORMAT
  1
GRIDFORMAT_BEGIN
 90
        0
 91
        1
 62
     0
 92
       -2
340
0
 93
        0
 40
0.045
309
GRIDFORMAT_END
 95
        8
302
GRIDFORMAT
  1
GRIDFORMAT_BEGIN
 90
        0
 91
        1
 62
     0
 92
       -2
340
0
 93
        0
 40
0.045
309
GRIDFORMAT_END
 95
       16
302
GRIDFORMAT
  1
GRIDFORMAT_BEGIN
 90
        0
 91
        1
 62
     0
 92
       -2
340
0
 93
        0
 40
0.045
309
GRIDFORMAT_END
 95
       32
302
GRIDFORMAT
  1
GRIDFORMAT_BEGIN
 90
        0
 91
        1
 62
     0
 92
       -2
340
0
 93
        0
 40
0.045
309
GRIDFORMAT_END
309
TABLEFORMAT_END
  1
CELLSTYLE_BEGIN
 90
        2
 91
        1
300
_HEADER
309
CELLSTYLE_END
300
CELLSTYLE
  1
TABLEFORMAT_BEGIN
 90
        5
170
     1
 91
        0
 92
        0
 62
   257
 93
        1
300
CONTENTFORMAT
  1
CONTENTFORMAT_BEGIN
 90
        0
 91
        0
 92
      512
 93
        0
300

 40
0.0
140
1.0
 94
        2
 62
     0
340
C
144
4.5
309
CONTENTFORMAT_END
171
     1
301
MARGIN
  1
CELLMARGIN_BEGIN
 40
1.5
 40
1.5
 40
1.5
 40
1.5
 40
0.18
 40
0.18
309
CELLMARGIN_END
 94
        6
 95
        1
302
GRIDFORMAT
  1
GRIDFORMAT_BEGIN
 90
        0
 91
        1
 62
     0
 92
       -2
340
0
 93
        0
 40
0.045
309
GRIDFORMAT_END
 95
        2
302
GRIDFORMAT
  1
GRIDFORMAT_BEGIN
 90
        0
 91
        1
 62
     0
 92
       -2
340
0
 93
        0
 40
0.045
309
GRIDFORMAT_END
 95
        4
302
GRIDFORMAT
  1
GRIDFORMAT_BEGIN
 90
        0
 91
        1
 62
     0
 92
       -2
340
0
 93
        0
 40
0.045
309
GRIDFORMAT_END
 95
        8
302
GRIDFORMAT
  1
GRIDFORMAT_BEGIN
 90
        0
 91
        1
 62
     0
 92
       -2
340
0
 93
        0
 40
0.045
309
GRIDFORMAT_END
 95
       16
302
GRIDFORMAT
  1
GRIDFORMAT_BEGIN
 90
        0
 91
        1
 62
     0
 92
       -2
340
0
 93
        0
 40
0.045
309
GRIDFORMAT_END
 95
       32
302
GRIDFORMAT
  1
GRIDFORMAT_BEGIN
 90
        0
 91
        1
 62
     0
 92
       -2
340
0
 93
        0
 40
0.045
309
GRIDFORMAT_END
309
TABLEFORMAT_END
  1
CELLSTYLE_BEGIN
 90
        3
 91
        2
300
_DATA
309
CELLSTYLE_END
  0
XRECORD
  5
B1A
102
{ACAD_REACTORS
330
362
102
}
330
362
100
AcDbXrecord
280
     1
102
ACAD_ROUNDTRIP_PRE2007_TABLESTYLE
 90
      512
 91
        0
  1

 92
      512
 93
        0
  2

 94
      512
 95
        0
  3

  0
XRECORD
  5
B05
102
{ACAD_REACTORS
330
B04
102
}
330
B04
100
AcDbXrecord
280
     1
102
RTVSPropertyOp0
 70
     1
102
RTVSPropertyOp1
 70
     1
102
RTVSPropertyOp2
 70
     1
102
RTVSPropertyOp3
 70
     1
102
RTVSPropertyOp4
 70
     1
102
RTVSPropertyOp5
 70
     1
102
RTVSPropertyOp6
 70
     1
102
RTVSPropertyOp7
 70
     1
102
RTVSPropertyOp8
 70
     1
102
RTVSPropertyOp9
 70
     1
102
RTVSPropertyOp10
 70
     1
102
RTVSPropertyOp11
 70
     1
102
RTVSPropertyOp12
 70
     1
102
RTVSPropertyOp13
 70
     1
102
RTVSPropertyOp14
 70
     1
102
RTVSPropertyOp15
 70
     1
102
RTVSPropertyOp16
 70
     1
102
RTVSPropertyOp17
 70
     1
102
RTVSPropertyOp18
 70
     1
102
RTVSPropertyOp19
 70
     1
102
RTVSPropertyOp20
 70
     1
102
RTVSPropertyOp21
 70
     1
102
RTVSPropertyOp22
 70
     1
102
RTVSPropertyOp23
 70
     1
102
RTVSPropertyOp24
 70
     1
102
RTVSPropertyOp25
 70
     1
102
RTVSPropertyOp26
 70
     1
102
RTVSPropertyOp27
 70
     1
102
RTVSPropertyOp28
 70
     1
102
RTVSPropertyOp29
 70
     1
102
RTVSPropertyOp30
 70
     1
102
RTVSPropertyOp31
 70
     1
102
RTVSPropertyOp32
 70
     1
  0
XRECORD
  5
B09
102
{ACAD_REACTORS
330
B08
102
}
330
B08
100
AcDbXrecord
280
     1
102
RTVSPropertyOp0
 70
     1
102
RTVSPropertyOp1
 70
     1
102
RTVSPropertyOp2
 70
     1
102
RTVSPropertyOp3
 70
     1
102
RTVSPropertyOp4
 70
     1
102
RTVSPropertyOp5
 70
     1
102
RTVSPropertyOp6
 70
     1
102
RTVSPropertyOp7
 70
     1
102
RTVSPropertyOp8
 70
     1
102
RTVSPropertyOp9
 70
     1
102
RTVSPropertyOp10
 70
     1
102
RTVSPropertyOp11
 70
     1
102
RTVSPropertyOp12
 70
     1
102
RTVSPropertyOp13
 70
     1
102
RTVSPropertyOp14
 70
     1
102
RTVSPropertyOp15
 70
     1
102
RTVSPropertyOp16
 70
     1
102
RTVSPropertyOp17
 70
     1
102
RTVSPropertyOp18
 70
     1
102
RTVSPropertyOp19
 70
     1
102
RTVSPropertyOp20
 70
     1
102
RTVSPropertyOp21
 70
     1
102
RTVSPropertyOp22
 70
     1
102
RTVSPropertyOp23
 70
     1
102
RTVSPropertyOp24
 70
     1
102
RTVSPropertyOp25
 70
     1
102
RTVSPropertyOp26
 70
     1
102
RTVSPropertyOp27
 70
     1
102
RTVSPropertyOp28
 70
     1
102
RTVSPropertyOp29
 70
     1
102
RTVSPropertyOp30
 70
     1
102
RTVSPropertyOp31
 70
     1
102
RTVSPropertyOp32
 70
     1
  0
XRECORD
  5
B07
102
{ACAD_REACTORS
330
B06
102
}
330
B06
100
AcDbXrecord
280
     1
102
RTVSPropertyOp0
 70
     1
102
RTVSPropertyOp1
 70
     1
102
RTVSPropertyOp2
 70
     1
102
RTVSPropertyOp3
 70
     1
102
RTVSPropertyOp4
 70
     1
102
RTVSPropertyOp5
 70
     1
102
RTVSPropertyOp6
 70
     1
102
RTVSPropertyOp7
 70
     1
102
RTVSPropertyOp8
 70
     1
102
RTVSPropertyOp9
 70
     1
102
RTVSPropertyOp10
 70
     1
102
RTVSPropertyOp11
 70
     1
102
RTVSPropertyOp12
 70
     1
102
RTVSPropertyOp13
 70
     1
102
RTVSPropertyOp14
 70
     1
102
RTVSPropertyOp15
 70
     1
102
RTVSPropertyOp16
 70
     1
102
RTVSPropertyOp17
 70
     1
102
RTVSPropertyOp18
 70
     1
102
RTVSPropertyOp19
 70
     1
102
RTVSPropertyOp20
 70
     1
102
RTVSPropertyOp21
 70
     1
102
RTVSPropertyOp22
 70
     1
102
RTVSPropertyOp23
 70
     1
102
RTVSPropertyOp24
 70
     1
102
RTVSPropertyOp25
 70
     1
102
RTVSPropertyOp26
 70
     1
102
RTVSPropertyOp27
 70
     1
102
RTVSPropertyOp28
 70
     1
102
RTVSPropertyOp29
 70
     1
102
RTVSPropertyOp30
 70
     1
102
RTVSPropertyOp31
 70
     1
102
RTVSPropertyOp32
 70
     1
  0
XRECORD
  5
B03
102
{ACAD_REACTORS
330
B02
102
}
330
B02
100
AcDbXrecord
280
     1
102
RTVSPropertyOp0
 70
     1
102
RTVSPropertyOp1
 70
     1
102
RTVSPropertyOp2
 70
     1
102
RTVSPropertyOp3
 70
     1
102
RTVSPropertyOp4
 70
     1
102
RTVSPropertyOp5
 70
     1
102
RTVSPropertyOp6
 70
     1
102
RTVSPropertyOp7
 70
     1
102
RTVSPropertyOp8
 70
     1
102
RTVSPropertyOp9
 70
     1
102
RTVSPropertyOp10
 70
     1
102
RTVSPropertyOp11
 70
     1
102
RTVSPropertyOp12
 70
     1
102
RTVSPropertyOp13
 70
     1
102
RTVSPropertyOp14
 70
     1
102
RTVSPropertyOp15
 70
     1
102
RTVSPropertyOp16
 70
     1
102
RTVSPropertyOp17
 70
     1
102
RTVSPropertyOp18
 70
     1
102
RTVSPropertyOp19
 70
     1
102
RTVSPropertyOp20
 70
     1
102
RTVSPropertyOp21
 70
     1
102
RTVSPropertyOp22
 70
     1
102
RTVSPropertyOp23
 70
     1
102
RTVSPropertyOp24
 70
     1
102
RTVSPropertyOp25
 70
     1
102
RTVSPropertyOp26
 70
     1
102
RTVSPropertyOp27
 70
     1
102
RTVSPropertyOp28
 70
     1
102
RTVSPropertyOp29
 70
     1
102
RTVSPropertyOp30
 70
     1
102
RTVSPropertyOp31
 70
     1
102
RTVSPropertyOp32
 70
     1
  0
XRECORD
  5
B11
102
{ACAD_REACTORS
330
B10
102
}
330
B10
100
AcDbXrecord
280
     1
102
RTVSPropertyOp0
 70
     1
102
RTVSPropertyOp1
 70
     1
102
RTVSPropertyOp2
 70
     1
102
RTVSPropertyOp3
 70
     1
102
RTVSPropertyOp4
 70
     1
102
RTVSPropertyOp5
 70
     1
102
RTVSPropertyOp6
 70
     1
102
RTVSPropertyOp7
 70
     1
102
RTVSPropertyOp8
 70
     1
102
RTVSPropertyOp9
 70
     1
102
RTVSPropertyOp10
 70
     1
102
RTVSPropertyOp11
 70
     1
102
RTVSPropertyOp12
 70
     1
102
RTVSPropertyOp13
 70
     1
102
RTVSPropertyOp14
 70
     1
102
RTVSPropertyOp15
 70
     1
102
RTVSPropertyOp16
 70
     1
102
RTVSPropertyOp17
 70
     1
102
RTVSPropertyOp18
 70
     1
102
RTVSPropertyOp19
 70
     1
102
RTVSPropertyOp20
 70
     1
102
RTVSPropertyOp21
 70
     1
102
RTVSPropertyOp22
 70
     1
102
RTVSPropertyOp23
 70
     1
102
RTVSPropertyOp24
 70
     1
102
RTVSPropertyOp25
 70
     1
102
RTVSPropertyOp26
 70
     1
102
RTVSPropertyOp27
 70
     1
102
RTVSPropertyOp28
 70
     1
102
RTVSPropertyOp29
 70
     1
102
RTVSPropertyOp30
 70
     1
102
RTVSPropertyOp31
 70
     1
102
RTVSPropertyOp32
 70
     1
  0
XRECORD
  5
B19
102
{ACAD_REACTORS
330
B18
102
}
330
B18
100
AcDbXrecord
280
     1
102
RTVSPropertyOp0
 70
     1
102
RTVSPropertyOp1
 70
     1
102
RTVSPropertyOp2
 70
     1
102
RTVSPropertyOp3
 70
     1
102
RTVSPropertyOp4
 70
     1
102
RTVSPropertyOp5
 70
     1
102
RTVSPropertyOp6
 70
     1
102
RTVSPropertyOp7
 70
     1
102
RTVSPropertyOp8
 70
     1
102
RTVSPropertyOp9
 70
     1
102
RTVSPropertyOp10
 70
     1
102
RTVSPropertyOp11
 70
     1
102
RTVSPropertyOp12
 70
     1
102
RTVSPropertyOp13
 70
     1
102
RTVSPropertyOp14
 70
     1
102
RTVSPropertyOp15
 70
     1
102
RTVSPropertyOp16
 70
     1
102
RTVSPropertyOp17
 70
     1
102
RTVSPropertyOp18
 70
     1
102
RTVSPropertyOp19
 70
     1
102
RTVSPropertyOp20
 70
     1
102
RTVSPropertyOp21
 70
     1
102
RTVSPropertyOp22
 70
     1
102
RTVSPropertyOp23
 70
     1
102
RTVSPropertyOp24
 70
     1
102
RTVSPropertyOp25
 70
     1
102
RTVSPropertyOp26
 70
     1
102
RTVSPropertyOp27
 70
     1
102
RTVSPropertyOp28
 70
     1
102
RTVSPropertyOp29
 70
     1
102
RTVSPropertyOp30
 70
     1
102
RTVSPropertyOp31
 70
     1
102
RTVSPropertyOp32
 70
     1
  0
XRECORD
  5
B0B
102
{ACAD_REACTORS
330
B0A
102
}
330
B0A
100
AcDbXrecord
280
     1
102
RTVSPropertyOp0
 70
     1
102
RTVSPropertyOp1
 70
     1
102
RTVSPropertyOp2
 70
     1
102
RTVSPropertyOp3
 70
     1
102
RTVSPropertyOp4
 70
     1
102
RTVSPropertyOp5
 70
     1
102
RTVSPropertyOp6
 70
     1
102
RTVSPropertyOp7
 70
     1
102
RTVSPropertyOp8
 70
     1
102
RTVSPropertyOp9
 70
     1
102
RTVSPropertyOp10
 70
     1
102
RTVSPropertyOp11
 70
     1
102
RTVSPropertyOp12
 70
     1
102
RTVSPropertyOp13
 70
     1
102
RTVSPropertyOp14
 70
     1
102
RTVSPropertyOp15
 70
     1
102
RTVSPropertyOp16
 70
     1
102
RTVSPropertyOp17
 70
     1
102
RTVSPropertyOp18
 70
     1
102
RTVSPropertyOp19
 70
     1
102
RTVSPropertyOp20
 70
     1
102
RTVSPropertyOp21
 70
     1
102
RTVSPropertyOp22
 70
     1
102
RTVSPropertyOp23
 70
     1
102
RTVSPropertyOp24
 70
     1
102
RTVSPropertyOp25
 70
     1
102
RTVSPropertyOp26
 70
     1
102
RTVSPropertyOp27
 70
     1
102
RTVSPropertyOp28
 70
     1
102
RTVSPropertyOp29
 70
     1
102
RTVSPropertyOp30
 70
     1
102
RTVSPropertyOp31
 70
     1
102
RTVSPropertyOp32
 70
     1
  0
XRECORD
  5
B0F
102
{ACAD_REACTORS
330
B0E
102
}
330
B0E
100
AcDbXrecord
280
     1
102
RTVSPropertyOp0
 70
     1
102
RTVSPropertyOp1
 70
     1
102
RTVSPropertyOp2
 70
     1
102
RTVSPropertyOp3
 70
     1
102
RTVSPropertyOp4
 70
     1
102
RTVSPropertyOp5
 70
     1
102
RTVSPropertyOp6
 70
     1
102
RTVSPropertyOp7
 70
     1
102
RTVSPropertyOp8
 70
     1
102
RTVSPropertyOp9
 70
     1
102
RTVSPropertyOp10
 70
     1
102
RTVSPropertyOp11
 70
     1
102
RTVSPropertyOp12
 70
     1
102
RTVSPropertyOp13
 70
     1
102
RTVSPropertyOp14
 70
     1
102
RTVSPropertyOp15
 70
     1
102
RTVSPropertyOp16
 70
     1
102
RTVSPropertyOp17
 70
     1
102
RTVSPropertyOp18
 70
     1
102
RTVSPropertyOp19
 70
     1
102
RTVSPropertyOp20
 70
     1
102
RTVSPropertyOp21
 70
     1
102
RTVSPropertyOp22
 70
     1
102
RTVSPropertyOp23
 70
     1
102
RTVSPropertyOp24
 70
     1
102
RTVSPropertyOp25
 70
     1
102
RTVSPropertyOp26
 70
     1
102
RTVSPropertyOp27
 70
     1
102
RTVSPropertyOp28
 70
     1
102
RTVSPropertyOp29
 70
     1
102
RTVSPropertyOp30
 70
     1
102
RTVSPropertyOp31
 70
     1
102
RTVSPropertyOp32
 70
     1
  0
XRECORD
  5
B30
102
{ACAD_REACTORS
330
B2F
102
}
330
B2F
100
AcDbXrecord
280
     1
102
RTVSPropertyOp0
 70
     0
102
RTVSPropertyOp1
 70
     0
102
RTVSPropertyOp2
 70
     0
102
RTVSPropertyOp3
 70
     0
102
RTVSPropertyOp4
 70
     0
102
RTVSPropertyOp5
 70
     0
102
RTVSPropertyOp6
 70
     0
102
RTVSPropertyOp7
 70
     0
102
RTVSPropertyOp8
 70
     0
102
RTVSPropertyOp9
 70
     0
102
RTVSPropertyOp10
 70
     0
102
RTVSPropertyOp11
 70
     0
102
RTVSPropertyOp12
 70
     0
102
RTVSPropertyOp13
 70
     0
102
RTVSPropertyOp14
 70
     2
102
RTVSPropertyOp15
 70
     0
102
RTVSPropertyOp16
 70
     0
102
RTVSPropertyOp17
 70
     0
102
RTVSPropertyOp18
 70
     0
102
RTVSPropertyOp19
 70
     0
102
RTVSPropertyOp20
 70
     0
102
RTVSPropertyOp21
 70
     0
102
RTVSPropertyOp22
 70
     0
102
RTVSPropertyOp23
 70
     0
102
RTVSPropertyOp24
 70
     0
102
RTVSPropertyOp25
 70
     0
102
RTVSPropertyOp26
 70
     0
102
RTVSPropertyOp27
 70
     0
102
RTVSPropertyOp28
 70
     1
102
RTVSPropertyOp29
 70
     1
102
RTVSPropertyOp30
 70
     1
102
RTVSPropertyOp31
 70
     1
102
RTVSPropertyOp32
 70
     1
  0
XRECORD
  5
B17
102
{ACAD_REACTORS
330
B16
102
}
330
B16
100
AcDbXrecord
280
     1
102
RTVSPropertyOp0
 70
     1
102
RTVSPropertyOp1
 70
     1
102
RTVSPropertyOp2
 70
     1
102
RTVSPropertyOp3
 70
     1
102
RTVSPropertyOp4
 70
     1
102
RTVSPropertyOp5
 70
     1
102
RTVSPropertyOp6
 70
     1
102
RTVSPropertyOp7
 70
     1
102
RTVSPropertyOp8
 70
     1
102
RTVSPropertyOp9
 70
     1
102
RTVSPropertyOp10
 70
     1
102
RTVSPropertyOp11
 70
     1
102
RTVSPropertyOp12
 70
     1
102
RTVSPropertyOp13
 70
     1
102
RTVSPropertyOp14
 70
     1
102
RTVSPropertyOp15
 70
     1
102
RTVSPropertyOp16
 70
     1
102
RTVSPropertyOp17
 70
     1
102
RTVSPropertyOp18
 70
     1
102
RTVSPropertyOp19
 70
     1
102
RTVSPropertyOp20
 70
     1
102
RTVSPropertyOp21
 70
     1
102
RTVSPropertyOp22
 70
     1
102
RTVSPropertyOp23
 70
     1
102
RTVSPropertyOp24
 70
     1
102
RTVSPropertyOp25
 70
     1
102
RTVSPropertyOp26
 70
     1
102
RTVSPropertyOp27
 70
     1
102
RTVSPropertyOp28
 70
     1
102
RTVSPropertyOp29
 70
     1
102
RTVSPropertyOp30
 70
     1
102
RTVSPropertyOp31
 70
     1
102
RTVSPropertyOp32
 70
     1
  0
XRECORD
  5
AFB
102
{ACAD_REACTORS
330
AFA
102
}
330
AFA
100
AcDbXrecord
280
     1
102
RTVSPropertyOp0
 70
     1
102
RTVSPropertyOp1
 70
     1
102
RTVSPropertyOp2
 70
     1
102
RTVSPropertyOp3
 70
     1
102
RTVSPropertyOp4
 70
     1
102
RTVSPropertyOp5
 70
     1
102
RTVSPropertyOp6
 70
     1
102
RTVSPropertyOp7
 70
     1
102
RTVSPropertyOp8
 70
     1
102
RTVSPropertyOp9
 70
     1
102
RTVSPropertyOp10
 70
     1
102
RTVSPropertyOp11
 70
     1
102
RTVSPropertyOp12
 70
     1
102
RTVSPropertyOp13
 70
     1
102
RTVSPropertyOp14
 70
     1
102
RTVSPropertyOp15
 70
     1
102
RTVSPropertyOp16
 70
     1
102
RTVSPropertyOp17
 70
     1
102
RTVSPropertyOp18
 70
     1
102
RTVSPropertyOp19
 70
     1
102
RTVSPropertyOp20
 70
     1
102
RTVSPropertyOp21
 70
     1
102
RTVSPropertyOp22
 70
     1
102
RTVSPropertyOp23
 70
     1
102
RTVSPropertyOp24
 70
     1
102
RTVSPropertyOp25
 70
     1
102
RTVSPropertyOp26
 70
     1
102
RTVSPropertyOp27
 70
     1
102
RTVSPropertyOp28
 70
     1
102
RTVSPropertyOp29
 70
     1
102
RTVSPropertyOp30
 70
     1
102
RTVSPropertyOp31
 70
     1
102
RTVSPropertyOp32
 70
     1
  0
XRECORD
  5
AFD
102
{ACAD_REACTORS
330
AFC
102
}
330
AFC
100
AcDbXrecord
280
     1
102
RTVSPropertyOp0
 70
     1
102
RTVSPropertyOp1
 70
     1
102
RTVSPropertyOp2
 70
     1
102
RTVSPropertyOp3
 70
     1
102
RTVSPropertyOp4
 70
     1
102
RTVSPropertyOp5
 70
     1
102
RTVSPropertyOp6
 70
     1
102
RTVSPropertyOp7
 70
     1
102
RTVSPropertyOp8
 70
     1
102
RTVSPropertyOp9
 70
     1
102
RTVSPropertyOp10
 70
     1
102
RTVSPropertyOp11
 70
     1
102
RTVSPropertyOp12
 70
     1
102
RTVSPropertyOp13
 70
     1
102
RTVSPropertyOp14
 70
     1
102
RTVSPropertyOp15
 70
     1
102
RTVSPropertyOp16
 70
     1
102
RTVSPropertyOp17
 70
     1
102
RTVSPropertyOp18
 70
     1
102
RTVSPropertyOp19
 70
     1
102
RTVSPropertyOp20
 70
     1
102
RTVSPropertyOp21
 70
     1
102
RTVSPropertyOp22
 70
     1
102
RTVSPropertyOp23
 70
     1
102
RTVSPropertyOp24
 70
     1
102
RTVSPropertyOp25
 70
     1
102
RTVSPropertyOp26
 70
     1
102
RTVSPropertyOp27
 70
     1
102
RTVSPropertyOp28
 70
     1
102
RTVSPropertyOp29
 70
     1
102
RTVSPropertyOp30
 70
     1
102
RTVSPropertyOp31
 70
     1
102
RTVSPropertyOp32
 70
     1
  0
XRECORD
  5
AFF
102
{ACAD_REACTORS
330
AFE
102
}
330
AFE
100
AcDbXrecord
280
     1
102
RTVSPropertyOp0
 70
     1
102
RTVSPropertyOp1
 70
     1
102
RTVSPropertyOp2
 70
     1
102
RTVSPropertyOp3
 70
     1
102
RTVSPropertyOp4
 70
     1
102
RTVSPropertyOp5
 70
     1
102
RTVSPropertyOp6
 70
     1
102
RTVSPropertyOp7
 70
     1
102
RTVSPropertyOp8
 70
     1
102
RTVSPropertyOp9
 70
     1
102
RTVSPropertyOp10
 70
     1
102
RTVSPropertyOp11
 70
     1
102
RTVSPropertyOp12
 70
     1
102
RTVSPropertyOp13
 70
     1
102
RTVSPropertyOp14
 70
     1
102
RTVSPropertyOp15
 70
     1
102
RTVSPropertyOp16
 70
     1
102
RTVSPropertyOp17
 70
     1
102
RTVSPropertyOp18
 70
     1
102
RTVSPropertyOp19
 70
     1
102
RTVSPropertyOp20
 70
     1
102
RTVSPropertyOp21
 70
     1
102
RTVSPropertyOp22
 70
     1
102
RTVSPropertyOp23
 70
     1
102
RTVSPropertyOp24
 70
     1
102
RTVSPropertyOp25
 70
     1
102
RTVSPropertyOp26
 70
     1
102
RTVSPropertyOp27
 70
     1
102
RTVSPropertyOp28
 70
     1
102
RTVSPropertyOp29
 70
     1
102
RTVSPropertyOp30
 70
     1
102
RTVSPropertyOp31
 70
     1
102
RTVSPropertyOp32
 70
     1
  0
XRECORD
  5
B01
102
{ACAD_REACTORS
330
B00
102
}
330
B00
100
AcDbXrecord
280
     1
102
RTVSPropertyOp0
 70
     1
102
RTVSPropertyOp1
 70
     1
102
RTVSPropertyOp2
 70
     1
102
RTVSPropertyOp3
 70
     1
102
RTVSPropertyOp4
 70
     1
102
RTVSPropertyOp5
 70
     1
102
RTVSPropertyOp6
 70
     1
102
RTVSPropertyOp7
 70
     1
102
RTVSPropertyOp8
 70
     1
102
RTVSPropertyOp9
 70
     1
102
RTVSPropertyOp10
 70
     1
102
RTVSPropertyOp11
 70
     1
102
RTVSPropertyOp12
 70
     1
102
RTVSPropertyOp13
 70
     1
102
RTVSPropertyOp14
 70
     1
102
RTVSPropertyOp15
 70
     1
102
RTVSPropertyOp16
 70
     1
102
RTVSPropertyOp17
 70
     1
102
RTVSPropertyOp18
 70
     1
102
RTVSPropertyOp19
 70
     1
102
RTVSPropertyOp20
 70
     1
102
RTVSPropertyOp21
 70
     1
102
RTVSPropertyOp22
 70
     1
102
RTVSPropertyOp23
 70
     1
102
RTVSPropertyOp24
 70
     1
102
RTVSPropertyOp25
 70
     1
102
RTVSPropertyOp26
 70
     1
102
RTVSPropertyOp27
 70
     1
102
RTVSPropertyOp28
 70
     1
102
RTVSPropertyOp29
 70
     1
102
RTVSPropertyOp30
 70
     1
102
RTVSPropertyOp31
 70
     1
102
RTVSPropertyOp32
 70
     1
  0
XRECORD
  5
B20
102
{ACAD_REACTORS
330
B1F
102
}
330
B1F
100
AcDbXrecord
280
     1
102
RTVSPropertyOp0
 70
     1
102
RTVSPropertyOp1
 70
     1
102
RTVSPropertyOp2
 70
     1
102
RTVSPropertyOp3
 70
     1
102
RTVSPropertyOp4
 70
     1
102
RTVSPropertyOp5
 70
     1
102
RTVSPropertyOp6
 70
     1
102
RTVSPropertyOp7
 70
     1
102
RTVSPropertyOp8
 70
     1
102
RTVSPropertyOp9
 70
     1
102
RTVSPropertyOp10
 70
     1
102
RTVSPropertyOp11
 70
     1
102
RTVSPropertyOp12
 70
     1
102
RTVSPropertyOp13
 70
     1
102
RTVSPropertyOp14
 70
     1
102
RTVSPropertyOp15
 70
     1
102
RTVSPropertyOp16
 70
     1
102
RTVSPropertyOp17
 70
     1
102
RTVSPropertyOp18
 70
     1
102
RTVSPropertyOp19
 70
     1
102
RTVSPropertyOp20
 70
     1
102
RTVSPropertyOp21
 70
     1
102
RTVSPropertyOp22
 70
     1
102
RTVSPropertyOp23
 70
     1
102
RTVSPropertyOp24
 70
     1
102
RTVSPropertyOp25
 70
     1
102
RTVSPropertyOp26
 70
     1
102
RTVSPropertyOp27
 70
     1
102
RTVSPropertyOp28
 70
     1
102
RTVSPropertyOp29
 70
     1
102
RTVSPropertyOp30
 70
     1
102
RTVSPropertyOp31
 70
     1
102
RTVSPropertyOp32
 70
     1
  0
XRECORD
  5
B2C
102
{ACAD_REACTORS
330
B2B
102
}
330
B2B
100
AcDbXrecord
280
     1
102
RTVSPropertyOp0
 70
     0
102
RTVSPropertyOp1
 70
     0
102
RTVSPropertyOp2
 70
     0
102
RTVSPropertyOp3
 70
     0
102
RTVSPropertyOp4
 70
     0
102
RTVSPropertyOp5
 70
     0
102
RTVSPropertyOp6
 70
     0
102
RTVSPropertyOp7
 70
     0
102
RTVSPropertyOp8
 70
     0
102
RTVSPropertyOp9
 70
     0
102
RTVSPropertyOp10
 70
     0
102
RTVSPropertyOp11
 70
     0
102
RTVSPropertyOp12
 70
     0
102
RTVSPropertyOp13
 70
     0
102
RTVSPropertyOp14
 70
     2
102
RTVSPropertyOp15
 70
     0
102
RTVSPropertyOp16
 70
     0
102
RTVSPropertyOp17
 70
     0
102
RTVSPropertyOp18
 70
     0
102
RTVSPropertyOp19
 70
     0
102
RTVSPropertyOp20
 70
     0
102
RTVSPropertyOp21
 70
     0
102
RTVSPropertyOp22
 70
     0
102
RTVSPropertyOp23
 70
     0
102
RTVSPropertyOp24
 70
     0
102
RTVSPropertyOp25
 70
     0
102
RTVSPropertyOp26
 70
     0
102
RTVSPropertyOp27
 70
     0
102
RTVSPropertyOp28
 70
     1
102
RTVSPropertyOp29
 70
     1
102
RTVSPropertyOp30
 70
     1
102
RTVSPropertyOp31
 70
     1
102
RTVSPropertyOp32
 70
     1
  0
XRECORD
  5
B15
102
{ACAD_REACTORS
330
B14
102
}
330
B14
100
AcDbXrecord
280
     1
102
RTVSPropertyOp0
 70
     1
102
RTVSPropertyOp1
 70
     1
102
RTVSPropertyOp2
 70
     1
102
RTVSPropertyOp3
 70
     1
102
RTVSPropertyOp4
 70
     1
102
RTVSPropertyOp5
 70
     1
102
RTVSPropertyOp6
 70
     1
102
RTVSPropertyOp7
 70
     1
102
RTVSPropertyOp8
 70
     1
102
RTVSPropertyOp9
 70
     1
102
RTVSPropertyOp10
 70
     1
102
RTVSPropertyOp11
 70
     1
102
RTVSPropertyOp12
 70
     1
102
RTVSPropertyOp13
 70
     1
102
RTVSPropertyOp14
 70
     1
102
RTVSPropertyOp15
 70
     1
102
RTVSPropertyOp16
 70
     1
102
RTVSPropertyOp17
 70
     1
102
RTVSPropertyOp18
 70
     1
102
RTVSPropertyOp19
 70
     1
102
RTVSPropertyOp20
 70
     1
102
RTVSPropertyOp21
 70
     1
102
RTVSPropertyOp22
 70
     1
102
RTVSPropertyOp23
 70
     1
102
RTVSPropertyOp24
 70
     1
102
RTVSPropertyOp25
 70
     1
102
RTVSPropertyOp26
 70
     1
102
RTVSPropertyOp27
 70
     1
102
RTVSPropertyOp28
 70
     1
102
RTVSPropertyOp29
 70
     1
102
RTVSPropertyOp30
 70
     1
102
RTVSPropertyOp31
 70
     1
102
RTVSPropertyOp32
 70
     1
  0
XRECORD
  5
B2E
102
{ACAD_REACTORS
330
B2D
102
}
330
B2D
100
AcDbXrecord
280
     1
102
RTVSPropertyOp0
 70
     0
102
RTVSPropertyOp1
 70
     0
102
RTVSPropertyOp2
 70
     0
102
RTVSPropertyOp3
 70
     0
102
RTVSPropertyOp4
 70
     0
102
RTVSPropertyOp5
 70
     0
102
RTVSPropertyOp6
 70
     0
102
RTVSPropertyOp7
 70
     0
102
RTVSPropertyOp8
 70
     0
102
RTVSPropertyOp9
 70
     0
102
RTVSPropertyOp10
 70
     0
102
RTVSPropertyOp11
 70
     0
102
RTVSPropertyOp12
 70
     0
102
RTVSPropertyOp13
 70
     0
102
RTVSPropertyOp14
 70
     2
102
RTVSPropertyOp15
 70
     0
102
RTVSPropertyOp16
 70
     0
102
RTVSPropertyOp17
 70
     0
102
RTVSPropertyOp18
 70
     0
102
RTVSPropertyOp19
 70
     0
102
RTVSPropertyOp20
 70
     0
102
RTVSPropertyOp21
 70
     0
102
RTVSPropertyOp22
 70
     0
102
RTVSPropertyOp23
 70
     0
102
RTVSPropertyOp24
 70
     0
102
RTVSPropertyOp25
 70
     0
102
RTVSPropertyOp26
 70
     0
102
RTVSPropertyOp27
 70
     0
102
RTVSPropertyOp28
 70
     1
102
RTVSPropertyOp29
 70
     1
102
RTVSPropertyOp30
 70
     1
102
RTVSPropertyOp31
 70
     1
102
RTVSPropertyOp32
 70
     1
  0
XRECORD
  5
B0D
102
{ACAD_REACTORS
330
B0C
102
}
330
B0C
100
AcDbXrecord
280
     1
102
RTVSPropertyOp0
 70
     1
102
RTVSPropertyOp1
 70
     1
102
RTVSPropertyOp2
 70
     1
102
RTVSPropertyOp3
 70
     1
102
RTVSPropertyOp4
 70
     1
102
RTVSPropertyOp5
 70
     1
102
RTVSPropertyOp6
 70
     1
102
RTVSPropertyOp7
 70
     1
102
RTVSPropertyOp8
 70
     1
102
RTVSPropertyOp9
 70
     1
102
RTVSPropertyOp10
 70
     1
102
RTVSPropertyOp11
 70
     1
102
RTVSPropertyOp12
 70
     1
102
RTVSPropertyOp13
 70
     1
102
RTVSPropertyOp14
 70
     1
102
RTVSPropertyOp15
 70
     1
102
RTVSPropertyOp16
 70
     1
102
RTVSPropertyOp17
 70
     1
102
RTVSPropertyOp18
 70
     1
102
RTVSPropertyOp19
 70
     1
102
RTVSPropertyOp20
 70
     1
102
RTVSPropertyOp21
 70
     1
102
RTVSPropertyOp22
 70
     1
102
RTVSPropertyOp23
 70
     1
102
RTVSPropertyOp24
 70
     1
102
RTVSPropertyOp25
 70
     1
102
RTVSPropertyOp26
 70
     1
102
RTVSPropertyOp27
 70
     1
102
RTVSPropertyOp28
 70
     1
102
RTVSPropertyOp29
 70
     1
102
RTVSPropertyOp30
 70
     1
102
RTVSPropertyOp31
 70
     1
102
RTVSPropertyOp32
 70
     1
  0
XRECORD
  5
B2A
102
{ACAD_REACTORS
330
B29
102
}
330
B29
100
AcDbXrecord
280
     1
102
RTVSPropertyOp0
 70
     1
102
RTVSPropertyOp1
 70
     1
102
RTVSPropertyOp2
 70
     1
102
RTVSPropertyOp3
 70
     1
102
RTVSPropertyOp4
 70
     1
102
RTVSPropertyOp5
 70
     1
102
RTVSPropertyOp6
 70
     1
102
RTVSPropertyOp7
 70
     1
102
RTVSPropertyOp8
 70
     1
102
RTVSPropertyOp9
 70
     1
102
RTVSPropertyOp10
 70
     1
102
RTVSPropertyOp11
 70
     1
102
RTVSPropertyOp12
 70
     1
102
RTVSPropertyOp13
 70
     1
102
RTVSPropertyOp14
 70
     1
102
RTVSPropertyOp15
 70
     1
102
RTVSPropertyOp16
 70
     1
102
RTVSPropertyOp17
 70
     1
102
RTVSPropertyOp18
 70
     1
102
RTVSPropertyOp19
 70
     1
102
RTVSPropertyOp20
 70
     1
102
RTVSPropertyOp21
 70
     1
102
RTVSPropertyOp22
 70
     1
102
RTVSPropertyOp23
 70
     1
102
RTVSPropertyOp24
 70
     1
102
RTVSPropertyOp25
 70
     1
102
RTVSPropertyOp26
 70
     1
102
RTVSPropertyOp27
 70
     1
102
RTVSPropertyOp28
 70
     1
102
RTVSPropertyOp29
 70
     1
102
RTVSPropertyOp30
 70
     1
102
RTVSPropertyOp31
 70
     1
102
RTVSPropertyOp32
 70
     1
  0
XRECORD
  5
B28
102
{ACAD_REACTORS
330
B27
102
}
330
B27
100
AcDbXrecord
280
     1
102
RTVSPropertyOp0
 70
     1
102
RTVSPropertyOp1
 70
     1
102
RTVSPropertyOp2
 70
     1
102
RTVSPropertyOp3
 70
     1
102
RTVSPropertyOp4
 70
     1
102
RTVSPropertyOp5
 70
     1
102
RTVSPropertyOp6
 70
     1
102
RTVSPropertyOp7
 70
     1
102
RTVSPropertyOp8
 70
     1
102
RTVSPropertyOp9
 70
     1
102
RTVSPropertyOp10
 70
     1
102
RTVSPropertyOp11
 70
     1
102
RTVSPropertyOp12
 70
     1
102
RTVSPropertyOp13
 70
     1
102
RTVSPropertyOp14
 70
     1
102
RTVSPropertyOp15
 70
     1
102
RTVSPropertyOp16
 70
     1
102
RTVSPropertyOp17
 70
     1
102
RTVSPropertyOp18
 70
     1
102
RTVSPropertyOp19
 70
     1
102
RTVSPropertyOp20
 70
     1
102
RTVSPropertyOp21
 70
     1
102
RTVSPropertyOp22
 70
     1
102
RTVSPropertyOp23
 70
     1
102
RTVSPropertyOp24
 70
     1
102
RTVSPropertyOp25
 70
     1
102
RTVSPropertyOp26
 70
     1
102
RTVSPropertyOp27
 70
     1
102
RTVSPropertyOp28
 70
     1
102
RTVSPropertyOp29
 70
     1
102
RTVSPropertyOp30
 70
     1
102
RTVSPropertyOp31
 70
     1
102
RTVSPropertyOp32
 70
     1
  0
XRECORD
  5
B22
102
{ACAD_REACTORS
330
B21
102
}
330
B21
100
AcDbXrecord
280
     1
102
RTVSPropertyOp0
 70
     1
102
RTVSPropertyOp1
 70
     1
102
RTVSPropertyOp2
 70
     1
102
RTVSPropertyOp3
 70
     1
102
RTVSPropertyOp4
 70
     1
102
RTVSPropertyOp5
 70
     1
102
RTVSPropertyOp6
 70
     1
102
RTVSPropertyOp7
 70
     1
102
RTVSPropertyOp8
 70
     1
102
RTVSPropertyOp9
 70
     1
102
RTVSPropertyOp10
 70
     1
102
RTVSPropertyOp11
 70
     1
102
RTVSPropertyOp12
 70
     1
102
RTVSPropertyOp13
 70
     1
102
RTVSPropertyOp14
 70
     1
102
RTVSPropertyOp15
 70
     1
102
RTVSPropertyOp16
 70
     1
102
RTVSPropertyOp17
 70
     1
102
RTVSPropertyOp18
 70
     1
102
RTVSPropertyOp19
 70
     1
102
RTVSPropertyOp20
 70
     1
102
RTVSPropertyOp21
 70
     1
102
RTVSPropertyOp22
 70
     1
102
RTVSPropertyOp23
 70
     1
102
RTVSPropertyOp24
 70
     1
102
RTVSPropertyOp25
 70
     1
102
RTVSPropertyOp26
 70
     1
102
RTVSPropertyOp27
 70
     1
102
RTVSPropertyOp28
 70
     1
102
RTVSPropertyOp29
 70
     1
102
RTVSPropertyOp30
 70
     1
102
RTVSPropertyOp31
 70
     1
102
RTVSPropertyOp32
 70
     1
  0
XRECORD
  5
B24
102
{ACAD_REACTORS
330
B23
102
}
330
B23
100
AcDbXrecord
280
     1
102
RTVSPropertyOp0
 70
     1
102
RTVSPropertyOp1
 70
     1
102
RTVSPropertyOp2
 70
     1
102
RTVSPropertyOp3
 70
     1
102
RTVSPropertyOp4
 70
     1
102
RTVSPropertyOp5
 70
     1
102
RTVSPropertyOp6
 70
     1
102
RTVSPropertyOp7
 70
     1
102
RTVSPropertyOp8
 70
     1
102
RTVSPropertyOp9
 70
     1
102
RTVSPropertyOp10
 70
     1
102
RTVSPropertyOp11
 70
     1
102
RTVSPropertyOp12
 70
     1
102
RTVSPropertyOp13
 70
     1
102
RTVSPropertyOp14
 70
     1
102
RTVSPropertyOp15
 70
     1
102
RTVSPropertyOp16
 70
     1
102
RTVSPropertyOp17
 70
     1
102
RTVSPropertyOp18
 70
     1
102
RTVSPropertyOp19
 70
     1
102
RTVSPropertyOp20
 70
     1
102
RTVSPropertyOp21
 70
     1
102
RTVSPropertyOp22
 70
     1
102
RTVSPropertyOp23
 70
     1
102
RTVSPropertyOp24
 70
     1
102
RTVSPropertyOp25
 70
     1
102
RTVSPropertyOp26
 70
     1
102
RTVSPropertyOp27
 70
     1
102
RTVSPropertyOp28
 70
     1
102
RTVSPropertyOp29
 70
     1
102
RTVSPropertyOp30
 70
     1
102
RTVSPropertyOp31
 70
     1
102
RTVSPropertyOp32
 70
     1
  0
XRECORD
  5
B13
102
{ACAD_REACTORS
330
B12
102
}
330
B12
100
AcDbXrecord
280
     1
102
RTVSPropertyOp0
 70
     1
102
RTVSPropertyOp1
 70
     1
102
RTVSPropertyOp2
 70
     1
102
RTVSPropertyOp3
 70
     1
102
RTVSPropertyOp4
 70
     1
102
RTVSPropertyOp5
 70
     1
102
RTVSPropertyOp6
 70
     1
102
RTVSPropertyOp7
 70
     1
102
RTVSPropertyOp8
 70
     1
102
RTVSPropertyOp9
 70
     1
102
RTVSPropertyOp10
 70
     1
102
RTVSPropertyOp11
 70
     1
102
RTVSPropertyOp12
 70
     1
102
RTVSPropertyOp13
 70
     1
102
RTVSPropertyOp14
 70
     1
102
RTVSPropertyOp15
 70
     1
102
RTVSPropertyOp16
 70
     1
102
RTVSPropertyOp17
 70
     1
102
RTVSPropertyOp18
 70
     1
102
RTVSPropertyOp19
 70
     1
102
RTVSPropertyOp20
 70
     1
102
RTVSPropertyOp21
 70
     1
102
RTVSPropertyOp22
 70
     1
102
RTVSPropertyOp23
 70
     1
102
RTVSPropertyOp24
 70
     1
102
RTVSPropertyOp25
 70
     1
102
RTVSPropertyOp26
 70
     1
102
RTVSPropertyOp27
 70
     1
102
RTVSPropertyOp28
 70
     1
102
RTVSPropertyOp29
 70
     1
102
RTVSPropertyOp30
 70
     1
102
RTVSPropertyOp31
 70
     1
102
RTVSPropertyOp32
 70
     1
  0
XRECORD
  5
B1E
102
{ACAD_REACTORS
330
B1D
102
}
330
B1D
100
AcDbXrecord
280
     1
102
RTVSPropertyOp0
 70
     1
102
RTVSPropertyOp1
 70
     1
102
RTVSPropertyOp2
 70
     1
102
RTVSPropertyOp3
 70
     1
102
RTVSPropertyOp4
 70
     1
102
RTVSPropertyOp5
 70
     1
102
RTVSPropertyOp6
 70
     1
102
RTVSPropertyOp7
 70
     1
102
RTVSPropertyOp8
 70
     1
102
RTVSPropertyOp9
 70
     1
102
RTVSPropertyOp10
 70
     1
102
RTVSPropertyOp11
 70
     1
102
RTVSPropertyOp12
 70
     1
102
RTVSPropertyOp13
 70
     1
102
RTVSPropertyOp14
 70
     1
102
RTVSPropertyOp15
 70
     1
102
RTVSPropertyOp16
 70
     1
102
RTVSPropertyOp17
 70
     1
102
RTVSPropertyOp18
 70
     1
102
RTVSPropertyOp19
 70
     1
102
RTVSPropertyOp20
 70
     1
102
RTVSPropertyOp21
 70
     1
102
RTVSPropertyOp22
 70
     1
102
RTVSPropertyOp23
 70
     1
102
RTVSPropertyOp24
 70
     1
102
RTVSPropertyOp25
 70
     1
102
RTVSPropertyOp26
 70
     1
102
RTVSPropertyOp27
 70
     1
102
RTVSPropertyOp28
 70
     1
102
RTVSPropertyOp29
 70
     1
102
RTVSPropertyOp30
 70
     1
102
RTVSPropertyOp31
 70
     1
102
RTVSPropertyOp32
 70
     1
  0
XRECORD
  5
B26
102
{ACAD_REACTORS
330
B25
102
}
330
B25
100
AcDbXrecord
280
     1
102
RTVSPropertyOp0
 70
     1
102
RTVSPropertyOp1
 70
     1
102
RTVSPropertyOp2
 70
     1
102
RTVSPropertyOp3
 70
     1
102
RTVSPropertyOp4
 70
     1
102
RTVSPropertyOp5
 70
     1
102
RTVSPropertyOp6
 70
     1
102
RTVSPropertyOp7
 70
     1
102
RTVSPropertyOp8
 70
     1
102
RTVSPropertyOp9
 70
     1
102
RTVSPropertyOp10
 70
     1
102
RTVSPropertyOp11
 70
     1
102
RTVSPropertyOp12
 70
     1
102
RTVSPropertyOp13
 70
     1
102
RTVSPropertyOp14
 70
     1
102
RTVSPropertyOp15
 70
     1
102
RTVSPropertyOp16
 70
     1
102
RTVSPropertyOp17
 70
     1
102
RTVSPropertyOp18
 70
     1
102
RTVSPropertyOp19
 70
     1
102
RTVSPropertyOp20
 70
     1
102
RTVSPropertyOp21
 70
     1
102
RTVSPropertyOp22
 70
     1
102
RTVSPropertyOp23
 70
     1
102
RTVSPropertyOp24
 70
     1
102
RTVSPropertyOp25
 70
     1
102
RTVSPropertyOp26
 70
     1
102
RTVSPropertyOp27
 70
     1
102
RTVSPropertyOp28
 70
     1
102
RTVSPropertyOp29
 70
     1
102
RTVSPropertyOp30
 70
     1
102
RTVSPropertyOp31
 70
     1
102
RTVSPropertyOp32
 70
     1
  0
XRECORD
  5
A99
102
{ACAD_REACTORS
330
A98
102
}
330
A98
100
AcDbXrecord
280
     1
102
qsTableStyle
  1
QS
102
usesAcadTableStyle
 90
        0
102
sommaQtaSoloPrtConStessoPos
 90
        0
102
ricalcolaPosAttrDaAttrRaggruppamento
 90
        0
102
azionePallinaParte
 90
        1
102
posMask
  1
{POS.}
102
tableFitCellText
 90
        1
  0
ENDSEC
  0
EOF
