  0
SECTION
  2
HEADER
  9
$ACADVER
  1
AC1015
  9
$ACADMAINTVER
 70
    20
  9
$DWGCODEPAGE
  3
ANSI_1252
  9
$INSBASE
 10
0.0
 20
0.0
 30
0.0
  9
$EXTMIN
 10
-172.0171642682908
 20
-25.83087295828409
 30
-0.000000000000013
  9
$EXTMAX
 10
671.3061113531693
 20
530.345684221752
 30
0.0000000000000023
  9
$LIMMIN
 10
0.0
 20
0.0
  9
$LIMMAX
 10
420.0
 20
300.0
  9
$ORTHOMODE
 70
     0
  9
$REGENMODE
 70
     1
  9
$FILLMODE
 70
     1
  9
$QTEXTMODE
 70
     0
  9
$MIRRTEXT
 70
     0
  9
$LTSCALE
 40
10.0
  9
$ATTMODE
 70
     1
  9
$TEXTSIZE
 40
3.0
  9
$TRACEWID
 40
0.05
  9
$TEXTSTYLE
  7
ROMANS
  9
$CLAYER
  8
P-0000
  9
$CELTYPE
  6
TRATTEGGIO
  9
$CECOLOR
 62
     3
  9
$CELTSCALE
 40
1.0
  9
$DISPSILH
 70
     0
  9
$DIMSCALE
 40
10.0
  9
$DIMASZ
 40
2.0
  9
$DIMEXO
 40
1.0
  9
$DIMDLI
 40
10.0
  9
$DIMRND
 40
0.0
  9
$DIMDLE
 40
0.0
  9
$DIMEXE
 40
1.5
  9
$DIMTP
 40
0.0
  9
$DIMTM
 40
0.0
  9
$DIMTXT
 40
2.0
  9
$DIMCEN
 40
2.0
  9
$DIMTSZ
 40
0.0
  9
$DIMTOL
 70
     0
  9
$DIMLIM
 70
     0
  9
$DIMTIH
 70
     0
  9
$DIMTOH
 70
     0
  9
$DIMSE1
 70
     0
  9
$DIMSE2
 70
     0
  9
$DIMTAD
 70
     1
  9
$DIMZIN
 70
     8
  9
$DIMBLK
  1

  9
$DIMASO
 70
     1
  9
$DIMSHO
 70
     1
  9
$DIMPOST
  1

  9
$DIMAPOST
  1

  9
$DIMALT
 70
     0
  9
$DIMALTD
 70
     2
  9
$DIMALTF
 40
25.4
  9
$DIMLFAC
 40
1.0
  9
$DIMTOFL
 70
     1
  9
$DIMTVP
 40
0.0
  9
$DIMTIX
 70
     0
  9
$DIMSOXD
 70
     0
  9
$DIMSAH
 70
     0
  9
$DIMBLK1
  1

  9
$DIMBLK2
  1

  9
$DIMSTYLE
  2
ACADTOP
  9
$DIMCLRD
 70
     2
  9
$DIMCLRE
 70
     2
  9
$DIMCLRT
 70
     1
  9
$DIMTFAC
 40
0.6
  9
$DIMGAP
 40
1.0
  9
$DIMJUST
 70
     0
  9
$DIMSD1
 70
     0
  9
$DIMSD2
 70
     0
  9
$DIMTOLJ
 70
     1
  9
$DIMTZIN
 70
     8
  9
$DIMALTZ
 70
     0
  9
$DIMALTTZ
 70
     0
  9
$DIMUPT
 70
     0
  9
$DIMDEC
 70
     2
  9
$DIMTDEC
 70
     2
  9
$DIMALTU
 70
     2
  9
$DIMALTTD
 70
     2
  9
$DIMTXSTY
  7
Stile_Quota
  9
$DIMAUNIT
 70
     0
  9
$DIMADEC
 70
     1
  9
$DIMALTRND
 40
0.0
  9
$DIMAZIN
 70
     2
  9
$DIMDSEP
 70
    46
  9
$DIMATFIT
 70
     0
  9
$DIMFRAC
 70
     0
  9
$DIMLDRBLK
  1

  9
$DIMLUNIT
 70
     2
  9
$DIMLWD
 70
    -2
  9
$DIMLWE
 70
    -2
  9
$DIMTMOVE
 70
     0
  9
$LUNITS
 70
     2
  9
$LUPREC
 70
     3
  9
$SKETCHINC
 40
0.1
  9
$FILLETRAD
 40
0.0
  9
$AUNITS
 70
     0
  9
$AUPREC
 70
     3
  9
$MENU
  1
.
  9
$ELEVATION
 40
0.0
  9
$PELEVATION
 40
0.0
  9
$THICKNESS
 40
0.0
  9
$LIMCHECK
 70
     0
  9
$CHAMFERA
 40
0.5
  9
$CHAMFERB
 40
0.5
  9
$CHAMFERC
 40
1.0
  9
$CHAMFERD
 40
0.0
  9
$SKPOLY
 70
     1
  9
$TDCREATE
 40
2455124.338326817
  9
$TDUCREATE
 40
2455124.254993484
  9
$TDUPDATE
 40
2455665.626569699
  9
$TDUUPDATE
 40
2455665.543236365
  9
$TDINDWG
 40
0.3323895255
  9
$TDUSRTIMER
 40
0.3323895255
  9
$USRTIMER
 70
     1
  9
$ANGBASE
 50
0.0
  9
$ANGDIR
 70
     0
  9
$PDMODE
 70
     0
  9
$PDSIZE
 40
0.0
  9
$PLINEWID
 40
0.0
  9
$SPLFRAME
 70
     0
  9
$SPLINETYPE
 70
     6
  9
$SPLINESEGS
 70
     8
  9
$HANDSEED
  5
3604
  9
$SURFTAB1
 70
     6
  9
$SURFTAB2
 70
     6
  9
$SURFTYPE
 70
     6
  9
$SURFU
 70
     6
  9
$SURFV
 70
     6
  9
$UCSBASE
  2

  9
$UCSNAME
  2

  9
$UCSORG
 10
0.0
 20
0.0
 30
0.0
  9
$UCSXDIR
 10
1.0
 20
0.0
 30
0.0
  9
$UCSYDIR
 10
0.0
 20
1.0
 30
0.0
  9
$UCSORTHOREF
  2

  9
$UCSORTHOVIEW
 70
     0
  9
$UCSORGTOP
 10
0.0
 20
0.0
 30
0.0
  9
$UCSORGBOTTOM
 10
0.0
 20
0.0
 30
0.0
  9
$UCSORGLEFT
 10
0.0
 20
0.0
 30
0.0
  9
$UCSORGRIGHT
 10
0.0
 20
0.0
 30
0.0
  9
$UCSORGFRONT
 10
0.0
 20
0.0
 30
0.0
  9
$UCSORGBACK
 10
0.0
 20
0.0
 30
0.0
  9
$PUCSBASE
  2

  9
$PUCSNAME
  2

  9
$PUCSORG
 10
0.0
 20
0.0
 30
0.0
  9
$PUCSXDIR
 10
1.0
 20
0.0
 30
0.0
  9
$PUCSYDIR
 10
0.0
 20
1.0
 30
0.0
  9
$PUCSORTHOREF
  2

  9
$PUCSORTHOVIEW
 70
     0
  9
$PUCSORGTOP
 10
0.0
 20
0.0
 30
0.0
  9
$PUCSORGBOTTOM
 10
0.0
 20
0.0
 30
0.0
  9
$PUCSORGLEFT
 10
0.0
 20
0.0
 30
0.0
  9
$PUCSORGRIGHT
 10
0.0
 20
0.0
 30
0.0
  9
$PUCSORGFRONT
 10
0.0
 20
0.0
 30
0.0
  9
$PUCSORGBACK
 10
0.0
 20
0.0
 30
0.0
  9
$USERI1
 70
     0
  9
$USERI2
 70
     0
  9
$USERI3
 70
     0
  9
$USERI4
 70
     0
  9
$USERI5
 70
     0
  9
$USERR1
 40
0.0
  9
$USERR2
 40
0.0
  9
$USERR3
 40
0.0
  9
$USERR4
 40
0.0
  9
$USERR5
 40
0.0
  9
$WORLDVIEW
 70
     1
  9
$SHADEDGE
 70
     3
  9
$SHADEDIF
 70
    70
  9
$TILEMODE
 70
     1
  9
$MAXACTVP
 70
    48
  9
$PINSBASE
 10
0.0
 20
0.0
 30
0.0
  9
$PLIMCHECK
 70
     0
  9
$PEXTMIN
 10
1.000000000000000E+20
 20
1.000000000000000E+20
 30
1.000000000000000E+20
  9
$PEXTMAX
 10
-1.000000000000000E+20
 20
-1.000000000000000E+20
 30
-1.000000000000000E+20
  9
$PLIMMIN
 10
0.0
 20
0.0
  9
$PLIMMAX
 10
12.0
 20
9.0
  9
$UNITMODE
 70
     0
  9
$VISRETAIN
 70
     1
  9
$PLINEGEN
 70
     0
  9
$PSLTSCALE
 70
     0
  9
$TREEDEPTH
 70
  3020
  9
$CMLSTYLE
  2
STANDARD
  9
$CMLJUST
 70
     0
  9
$CMLSCALE
 40
1.0
  9
$PROXYGRAPHICS
 70
     1
  9
$MEASUREMENT
 70
     1
  9
$CELWEIGHT
370
    -1
  9
$ENDCAPS
280
     0
  9
$JOINSTYLE
280
     0
  9
$LWDISPLAY
290
     0
  9
$INSUNITS
 70
     0
  9
$HYPERLINKBASE
  1

  9
$STYLESHEET
  1
DIERRE BN.ctb
  9
$XEDIT
290
     1
  9
$CEPSNTYPE
380
     0
  9
$PSTYLEMODE
290
     1
  9
$FINGERPRINTGUID
  2
{93294FFF-1859-4CDB-92E7-C00669F6B89F}
  9
$VERSIONGUID
  2
{A35B71DC-B558-4ADD-9B8D-B50852BB32CA}
  9
$EXTNAMES
290
     1
  9
$PSVPSCALE
 40
0.0
  9
$OLESTARTUP
290
     0
  0
ENDSEC
  0
SECTION
  2
CLASSES
  0
CLASS
  1
DICTIONARYVAR
  2
AcDbDictionaryVar
  3
ObjectDBX Classes
 90
        0
280
     0
281
     0
  0
CLASS
  1
ACDBDICTIONARYWDFLT
  2
AcDbDictionaryWithDefault
  3
ObjectDBX Classes
 90
        0
280
     0
281
     0
  0
CLASS
  1
ACDBPLACEHOLDER
  2
AcDbPlaceHolder
  3
ObjectDBX Classes
 90
        0
280
     0
281
     0
  0
CLASS
  1
LAYOUT
  2
AcDbLayout
  3
ObjectDBX Classes
 90
        0
280
     0
281
     0
  0
CLASS
  1
PLOTSETTINGS
  2
AcDbPlotSettings
  3
ObjectDBX Classes
 90
        0
280
     0
281
     0
  0
CLASS
  1
MATERIAL
  2
AcDbMaterial
  3
ObjectDBX Classes
 90
     1153
280
     0
281
     0
  0
CLASS
  1
VISUALSTYLE
  2
AcDbVisualStyle
  3
ObjectDBX Classes
 90
     4095
280
     0
281
     0
  0
CLASS
  1
TABLESTYLE
  2
AcDbTableStyle
  3
ObjectDBX Classes
 90
     4095
280
     0
281
     0
  0
CLASS
  1
SCALE
  2
AcDbScale
  3
ObjectDBX Classes
 90
     1153
280
     0
281
     0
  0
CLASS
  1
MLEADERSTYLE
  2
AcDbMLeaderStyle
  3
ACDB_MLEADERSTYLE_CLASS
 90
     4095
280
     0
281
     0
  0
CLASS
  1
CELLSTYLEMAP
  2
AcDbCellStyleMap
  3
ObjectDBX Classes
 90
     1152
280
     0
281
     0
  0
CLASS
  1
DIMASSOC
  2
AcDbDimAssoc
  3
"AcDbDimAssoc|Product Desc:     AcDim ARX App For Dimension|Company:          Autodesk, Inc.|WEB Address:      www.autodesk.com"
 90
        0
280
     0
281
     0
  0
CLASS
  1
ACDBQSCATEGORY
  2
AcQsCategory
  3
categories
 90
     1024
280
     0
281
     0
  0
CLASS
  1
ACDBQSPALLSTYLE
  2
AcQsPallStyle
  3
pallcart
 90
     1024
280
     0
281
     0
  0
CLASS
  1
SORTENTSTABLE
  2
AcDbSortentsTable
  3
ObjectDBX Classes
 90
        0
280
     0
281
     0
  0
CLASS
  1
AEC_REFEDIT_STATUS_TRACKER
  2
AecDbRefEditStatusTracker
  3
AecArchBase60|Product Desc: Autodesk Architectural Desktop 2007 |Company: Autodesk,Inc. |WEB Address: www.autodesk.com
 90
    32897
280
     0
281
     0
  0
CLASS
  1
NPOCOLLECTION
  2
AcDbImpNonPersistentObjectsCollection
  3
ObjectDBX Classes
 90
    33921
280
     0
281
     0
  0
ENDSEC
  0
SECTION
  2
TABLES
  0
TABLE
  2
VPORT
  5
12
102
{ACAD_XDICTIONARY
360
300
102
}
330
0
100
AcDbSymbolTable
 70
     1
  0
VPORT
  5
2AE
330
12
100
AcDbSymbolTableRecord
100
AcDbViewportTableRecord
  2
*Active
 70
     0
 10
0.0
 20
0.0
 11
1.0
 21
1.0
 12
808.2281851783655
 22
538.3683492923462
 13
0.0
 23
0.0
 14
1.0
 24
1.0
 15
1.0
 25
1.0
 16
0.0
 26
0.0
 36
1.0
 17
0.0
 27
0.0
 37
0.0
 40
712.802050255042
 41
2.256756756756756
 42
50.0
 43
0.0
 44
0.0
 50
0.0
 51
0.0
 71
     0
 72
   100
 73
     1
 74
     0
 75
     0
 76
     0
 77
     0
 78
     0
281
     0
 65
     1
110
0.0
120
0.0
130
0.0
111
1.0
121
0.0
131
0.0
112
0.0
122
1.0
132
0.0
 79
     0
146
0.0
  0
ENDTAB
  0
TABLE
  2
LTYPE
  5
D
330
0
100
AcDbSymbolTable
 70
     4
  0
LTYPE
  5
E
330
D
100
AcDbSymbolTableRecord
100
AcDbLinetypeTableRecord
  2
BYBLOCK
 70
     0
  3

 72
    65
 73
     0
 40
0.0
  0
LTYPE
  5
F
330
D
100
AcDbSymbolTableRecord
100
AcDbLinetypeTableRecord
  2
BYLAYER
 70
     0
  3

 72
    65
 73
     0
 40
0.0
  0
LTYPE
  5
5
330
D
100
AcDbSymbolTableRecord
100
AcDbLinetypeTableRecord
  2
CONTINUOUS
 70
     0
  3
Solid line
 72
    65
 73
     0
 40
0.0
  0
LTYPE
  5
3E
330
D
100
AcDbSymbolTableRecord
100
AcDbLinetypeTableRecord
  2
ASSI
 70
     0
  3
-.-.-.-.-.-.-.-.-.-.-.-.-.-.-.-.-.-.-.-.-.-.-.-
 72
    65
 73
     4
 40
16.0
 49
10.0
 74
     0
 49
-2.0
 74
     0
 49
2.0
 74
     0
 49
-2.0
 74
     0
  0
LTYPE
  5
40
330
D
100
AcDbSymbolTableRecord
100
AcDbLinetypeTableRecord
  2
TRATTEGGIO
 70
     0
  3
- - - - - - - - - - - - - - - - - - - - - -
 72
    65
 73
     2
 40
5.5
 49
4.0
 74
     0
 49
-1.5
 74
     0
  0
LTYPE
  5
703
330
D
100
AcDbSymbolTableRecord
100
AcDbLinetypeTableRecord
  2
DASHDOT2
 70
     0
  3
_._._._._._._._._._._._._._._._._._._._._._._._
 72
    65
 73
     4
 40
0.5
 49
0.25
 74
     0
 49
-0.125
 74
     0
 49
0.0
 74
     0
 49
-0.125
 74
     0
  0
ENDTAB
  0
TABLE
  2
LAYER
  5
A
102
{ACAD_XDICTIONARY
360
70A
102
}
330
0
100
AcDbSymbolTable
 70
    11
  0
LAYER
  5
4
102
{ACAD_XDICTIONARY
360
37B
102
}
330
A
100
AcDbSymbolTableRecord
100
AcDbLayerTableRecord
  2
0
 70
     0
 62
     7
  6
CONTINUOUS
370
    -3
390
44
  0
LAYER
  5
118
330
A
100
AcDbSymbolTableRecord
100
AcDbLayerTableRecord
  2
Defpoints
 70
     0
 62
     7
  6
CONTINUOUS
290
     0
370
    -3
390
44
  0
LAYER
  5
6DB
102
{ACAD_XDICTIONARY
360
6F6
102
}
330
A
100
AcDbSymbolTableRecord
100
AcDbLayerTableRecord
  2
P-0000
 70
     0
 62
     7
  6
CONTINUOUS
370
    -3
390
44
1001
AcAecLayerStandard
1000

1000
XK-CERN.INF.PLAST.TENUTA/ARG.(COMMERCIALE)
  0
LAYER
  5
701
330
A
100
AcDbSymbolTableRecord
100
AcDbLayerTableRecord
  2
P-5E0F
 70
     0
 62
     7
  6
CONTINUOUS
370
    -3
390
44
1001
AcAecLayerStandard
1000

1000
.cart
  0
LAYER
  5
846
330
A
100
AcDbSymbolTableRecord
100
AcDbLayerTableRecord
  2
P-376E
 70
     0
 62
     7
  6
CONTINUOUS
370
    -3
390
44
1001
AcAecLayerStandard
1000

1000
.1
  0
LAYER
  5
1D11
330
A
100
AcDbSymbolTableRecord
100
AcDbLayerTableRecord
  2
P-2B67
 70
     0
 62
     7
  6
CONTINUOUS
370
    -3
390
44
1001
AcAecLayerStandard
1000

1000
.SEMICERNIERA FISSA C.2108 ALL.ANOD.ARG.
  0
LAYER
  5
1DD5
330
A
100
AcDbSymbolTableRecord
100
AcDbLayerTableRecord
  2
P-6B8B
 70
     0
 62
     7
  6
CONTINUOUS
370
    -3
390
44
1001
AcAecLayerStandard
1000

1000
.BOCC.CERNIER.DI8/DE10/COLL.# 1.5
  0
LAYER
  5
1E23
330
A
100
AcDbSymbolTableRecord
100
AcDbLayerTableRecord
  2
P-09EB
 70
     0
 62
     7
  6
CONTINUOUS
370
    -3
390
44
1001
AcAecLayerStandard
1000

1000
.BOCC.CERNIER.DI8/DE10/COLL.# 1.5
  0
LAYER
  5
1E71
102
{ACAD_XDICTIONARY
360
1E72
102
}
330
A
100
AcDbSymbolTableRecord
100
AcDbLayerTableRecord
  2
P-13E7
 70
     0
 62
     7
  6
CONTINUOUS
370
    -3
390
44
1001
AcAecLayerStandard
1000

1000
.PERNO D8 X 55 /CERN.INF.(C.2109) INOX
  0
LAYER
  5
286B
102
{ACAD_XDICTIONARY
360
286C
102
}
330
A
100
AcDbSymbolTableRecord
100
AcDbLayerTableRecord
  2
P-538C
 70
     0
 62
     7
  6
CONTINUOUS
370
    -3
390
44
1001
AcAecLayerStandard
1000

1000
.SEMICERNIERA MOBILE C.2348 ALL.ANOD.ARG.
  0
LAYER
  5
28BA
330
A
100
AcDbSymbolTableRecord
100
AcDbLayerTableRecord
  2
P-5AEF
 70
     0
 62
     7
  6
CONTINUOUS
370
    -3
390
44
1001
AcAecLayerStandard
1000

1000
.ROND.RAGG.(XVTC CR.) M6 /R.7039
  0
ENDTAB
  0
TABLE
  2
STYLE
  5
B
330
0
100
AcDbSymbolTable
 70
     6
  0
STYLE
  5
C
330
B
100
AcDbSymbolTableRecord
100
AcDbTextStyleTableRecord
  2
STANDARD
 70
     0
 40
0.0
 41
0.8
 50
0.0
 71
     0
 42
0.2
  3
romans.shx
  4

  0
STYLE
  5
1B
330
B
100
AcDbSymbolTableRecord
100
AcDbTextStyleTableRecord
  2
ROMANS
 70
     0
 40
0.0
 41
0.8
 50
0.0
 71
     0
 42
3.0
  3
ROMANS.shx
  4

  0
STYLE
  5
35C
330
B
100
AcDbSymbolTableRecord
100
AcDbTextStyleTableRecord
  2
Stile_Quota
 70
     0
 40
0.0
 41
1.0
 50
0.0
 71
     0
 42
3.0
  3
BOD_I.TTF
  4

1001
ACAD
1000
Bodoni MT
1071
 16777234
  0
STYLE
  5
704
330
B
100
AcDbSymbolTableRecord
100
AcDbTextStyleTableRecord
  2
STYLE1
 70
     0
 40
0.0
 41
1.0
 50
0.0
 71
     0
 42
3.0
  3
eurr____.ttf
  4

1001
ACAD
1000
EuroRoman
1071
      514
  0
STYLE
  5
706
330
B
100
AcDbSymbolTableRecord
100
AcDbTextStyleTableRecord
  2
seansi_ttf
 70
     0
 40
0.0
 41
1.0
 50
0.0
 71
     0
 42
0.2
  3
seansi.ttf
  4

  0
STYLE
  5
707
330
B
100
AcDbSymbolTableRecord
100
AcDbTextStyleTableRecord
  2
Stile_Cart
 70
     0
 40
0.0
 41
1.0
 50
0.0
 71
     0
 42
1.5
  3
TIMES.TTF
  4

1001
ACAD
1000
Times New Roman
1071
       18
  0
ENDTAB
  0
TABLE
  2
VIEW
  5
10
330
0
100
AcDbSymbolTable
 70
     0
  0
ENDTAB
  0
TABLE
  2
UCS
  5
11
330
0
100
AcDbSymbolTable
 70
     0
  0
ENDTAB
  0
TABLE
  2
APPID
  5
14
330
0
100
AcDbSymbolTable
 70
    11
  0
APPID
  5
15
330
14
100
AcDbSymbolTableRecord
100
AcDbRegAppTableRecord
  2
ACAD
 70
     0
  0
APPID
  5
53
330
14
100
AcDbSymbolTableRecord
100
AcDbRegAppTableRecord
  2
TOP
 70
     0
  0
APPID
  5
356
330
14
100
AcDbSymbolTableRecord
100
AcDbRegAppTableRecord
  2
ACAD_MLEADERVER
 70
     0
  0
APPID
  5
35A
330
14
100
AcDbSymbolTableRecord
100
AcDbRegAppTableRecord
  2
ACAD_DSTYLE_DIMJAG
 70
     0
  0
APPID
  5
35B
330
14
100
AcDbSymbolTableRecord
100
AcDbRegAppTableRecord
  2
ACAD_DSTYLE_DIMTALN
 70
     0
  0
APPID
  5
35D
330
14
100
AcDbSymbolTableRecord
100
AcDbRegAppTableRecord
  2
AcadAnnoPO
 70
     0
  0
APPID
  5
374
330
14
100
AcDbSymbolTableRecord
100
AcDbRegAppTableRecord
  2
ACAD_EXEMPT_FROM_CAD_STANDARDS
 70
     0
  0
APPID
  5
38F
330
14
100
AcDbSymbolTableRecord
100
AcDbRegAppTableRecord
  2
ACAD_PSEXT
 70
     0
  0
APPID
  5
3BC
330
14
100
AcDbSymbolTableRecord
100
AcDbRegAppTableRecord
  2
ACAD_DSTYLE_DIMBREAK
 70
     0
  0
APPID
  5
6DC
330
14
100
AcDbSymbolTableRecord
100
AcDbRegAppTableRecord
  2
AcAecLayerStandard
 70
     0
  0
APPID
  5
2856
330
14
100
AcDbSymbolTableRecord
100
AcDbRegAppTableRecord
  2
ACAD_DSTYLE_DIMRADIAL_EXTENSION
 70
     0
  0
ENDTAB
  0
TABLE
  2
DIMSTYLE
  5
16
330
0
100
AcDbSymbolTable
 70
     2
100
AcDbDimStyleTable
 71
     1
340
1D
  0
DIMSTYLE
105
1D
330
16
100
AcDbSymbolTableRecord
100
AcDbDimStyleTableRecord
  2
ACADTOP
 70
     0
 40
10.0
 41
2.0
 42
1.0
 43
10.0
 44
1.5
 73
     0
 74
     0
 77
     1
 78
     8
 79
     2
140
2.0
141
2.0
146
0.6
147
1.0
172
     1
176
     2
177
     2
178
     1
179
     1
271
     2
272
     2
284
     8
289
     0
340
35C
1001
ACAD_DSTYLE_DIMJAG
1070
   388
1040
1.5
1001
ACAD_DSTYLE_DIMTALN
1070
   392
1070
     0
  0
DIMSTYLE
105
708
330
16
100
AcDbSymbolTableRecord
100
AcDbDimStyleTableRecord
  2
STANDARD
 70
     0
340
C
  0
ENDTAB
  0
TABLE
  2
BLOCK_RECORD
  5
1
330
0
100
AcDbSymbolTable
 70
    16
  0
BLOCK_RECORD
  5
2
330
1
100
AcDbSymbolTableRecord
100
AcDbBlockTableRecord
  2
*MODEL_SPACE
340
47
  0
BLOCK_RECORD
  5
7
330
1
100
AcDbSymbolTableRecord
100
AcDbBlockTableRecord
  2
*PAPER_SPACE
340
48
  0
BLOCK_RECORD
  5
70C
102
{ACAD_XDICTIONARY
360
825
102
}
330
1
100
AcDbSymbolTableRecord
100
AcDbBlockTableRecord
  2
TAB-A4
340
0
  0
BLOCK_RECORD
  5
2C2F
330
1
100
AcDbSymbolTableRecord
100
AcDbBlockTableRecord
  2
*D1
340
0
  0
BLOCK_RECORD
  5
2C3C
330
1
100
AcDbSymbolTableRecord
100
AcDbBlockTableRecord
  2
*D2
340
0
  0
BLOCK_RECORD
  5
2C49
330
1
100
AcDbSymbolTableRecord
100
AcDbBlockTableRecord
  2
*D3
340
0
  0
BLOCK_RECORD
  5
2C56
330
1
100
AcDbSymbolTableRecord
100
AcDbBlockTableRecord
  2
*D4
340
0
  0
BLOCK_RECORD
  5
2C63
330
1
100
AcDbSymbolTableRecord
100
AcDbBlockTableRecord
  2
*D5
340
0
  0
BLOCK_RECORD
  5
2CCB
330
1
100
AcDbSymbolTableRecord
100
AcDbBlockTableRecord
  2
*D6
340
0
  0
BLOCK_RECORD
  5
2CD8
330
1
100
AcDbSymbolTableRecord
100
AcDbBlockTableRecord
  2
*D7
340
0
  0
BLOCK_RECORD
  5
2CE4
330
1
100
AcDbSymbolTableRecord
100
AcDbBlockTableRecord
  2
*D8
340
0
  0
BLOCK_RECORD
  5
2CF1
330
1
100
AcDbSymbolTableRecord
100
AcDbBlockTableRecord
  2
*D9
340
0
  0
BLOCK_RECORD
  5
2CFE
330
1
100
AcDbSymbolTableRecord
100
AcDbBlockTableRecord
  2
*D10
340
0
  0
BLOCK_RECORD
  5
2D0B
330
1
100
AcDbSymbolTableRecord
100
AcDbBlockTableRecord
  2
*D11
340
0
  0
BLOCK_RECORD
  5
2D18
330
1
100
AcDbSymbolTableRecord
100
AcDbBlockTableRecord
  2
*D12
340
0
  0
BLOCK_RECORD
  5
2D25
330
1
100
AcDbSymbolTableRecord
100
AcDbBlockTableRecord
  2
*D13
340
0
  0
BLOCK_RECORD
  5
2D32
330
1
100
AcDbSymbolTableRecord
100
AcDbBlockTableRecord
  2
*D14
340
0
  0
BLOCK_RECORD
  5
2E5F
330
1
100
AcDbSymbolTableRecord
100
AcDbBlockTableRecord
  2
*D15
340
0
  0
ENDTAB
  0
ENDSEC
  0
SECTION
  2
BLOCKS
  0
BLOCK
  5
3
330
2
100
AcDbEntity
  8
0
100
AcDbBlockBegin
  2
*MODEL_SPACE
 70
     0
 10
0.0
 20
0.0
 30
0.0
  3
*MODEL_SPACE
  1

  0
ENDBLK
  5
6
330
2
100
AcDbEntity
  8
0
100
AcDbBlockEnd
  0
BLOCK
  5
8
330
7
100
AcDbEntity
 67
     1
  8
0
100
AcDbBlockBegin
  2
*PAPER_SPACE
 70
     0
 10
0.0
 20
0.0
 30
0.0
  3
*PAPER_SPACE
  1

  0
ENDBLK
  5
9
330
7
100
AcDbEntity
 67
     1
  8
0
100
AcDbBlockEnd
  0
BLOCK
  5
827
330
70C
100
AcDbEntity
  8
0
 62
     7
100
AcDbBlockBegin
  2
TAB-A4
 70
     2
 10
0.0
 20
0.0
 30
0.0
  3
TAB-A4
  1

  0
LINE
  5
70D
330
70C
100
AcDbEntity
  8
0
  6
Continuous
 62
     0
100
AcDbLine
 10
100.0
 20
143.5
 30
0.0
 11
-100.0
 21
143.5
 31
0.0
1001
TOP
1070
     7
  0
LINE
  5
70E
330
70C
100
AcDbEntity
  8
0
  6
Continuous
 62
     0
100
AcDbLine
 10
-100.0
 20
143.5
 30
0.0
 11
-100.0
 21
-143.5
 31
0.0
1001
TOP
1070
     7
  0
LINE
  5
70F
330
70C
100
AcDbEntity
  8
0
  6
Continuous
 62
     0
100
AcDbLine
 10
-100.0
 20
-143.5
 30
0.0
 11
100.0
 21
-143.5
 31
0.0
1001
TOP
1070
     7
  0
LINE
  5
710
330
70C
100
AcDbEntity
  8
0
  6
Continuous
 62
     0
100
AcDbLine
 10
100.0
 20
-143.5
 30
0.0
 11
100.0
 21
143.5
 31
0.0
1001
TOP
1070
     7
  0
LINE
  5
711
330
70C
100
AcDbEntity
  8
0
  6
Continuous
 62
     0
100
AcDbLine
 10
105.0
 20
148.5
 30
0.0
 11
-105.0
 21
148.5
 31
0.0
1001
TOP
1070
     3
  0
LINE
  5
712
330
70C
100
AcDbEntity
  8
0
  6
Continuous
 62
     0
100
AcDbLine
 10
-105.0
 20
148.5
 30
0.0
 11
-105.0
 21
-148.5
 31
0.0
1001
TOP
1070
     3
  0
LINE
  5
713
330
70C
100
AcDbEntity
  8
0
  6
Continuous
 62
     0
100
AcDbLine
 10
-105.0
 20
-148.5
 30
0.0
 11
105.0
 21
-148.5
 31
0.0
1001
TOP
1070
     3
  0
LINE
  5
714
330
70C
100
AcDbEntity
  8
0
  6
Continuous
 62
     0
100
AcDbLine
 10
105.0
 20
-148.5
 30
0.0
 11
105.0
 21
148.5
 31
0.0
1001
TOP
1070
     3
  0
ATTDEF
  5
715
330
70C
100
AcDbEntity
  8
0
 62
     0
 48
35.0
100
AcDbText
 10
-76.25989897767704
 20
-84.74999999999999
 30
0.0
 40
2.5
  1

  7
Stile_Cart
 11
-76.25989897767704
 21
-83.49999999999999
 31
0.0
100
AcDbAttributeDefinition
  3

  2
DESCRIZIONE
 70
     4
 74
     2
1001
TOP
1070
     7
  0
LINE
  5
716
330
70C
100
AcDbEntity
  8
0
 62
     0
 48
35.0
100
AcDbLine
 10
100.0
 20
-138.5
 30
0.0
 11
-100.0
 21
-138.5
 31
0.0
1001
TOP
1070
     3
  0
MTEXT
  5
717
330
70C
100
AcDbEntity
  8
0
 62
     0
 48
35.0
100
AcDbMText
 10
0.0
 20
-141.0
 30
0.0
 40
1.499624999999999
 41
190.3973187722231
 71
     5
 72
     1
  1
{\C256;SI VIETA L'USO E LA RIPRODUZIONE O LA VISIONE A TERZI DEL PRESENTE DISEGNO SENZA ESPLICITA AUTORIZZAZIONE, \H1.333x;Dierre \H0.75x;TUTELERA' I PROPRI DIRITTI A NORMA DI LEGGE}
  7
Stile_Cart
 73
     1
 44
1.0
1001
TOP
1070
     3
1001
ACAD
1000
MTEXTBEGIN
1070
    73
1070
     1
1070
    44
1040
1.0
1070
    74
1070
     0
1000
MTEXTEND
  0
LINE
  5
718
330
70C
100
AcDbEntity
  8
0
 62
     0
 48
35.0
100
AcDbLine
 10
-100.0
 20
-78.5
 30
0.0
 11
100.0
 21
-78.49999999999988
 31
0.0
1001
TOP
1070
     3
  0
LINE
  5
719
330
70C
100
AcDbEntity
  8
0
 62
     0
 48
35.0
100
AcDbLine
 10
35.0
 20
-78.5
 30
0.0
 11
35.0
 21
-138.5
 31
0.0
1001
TOP
1070
     3
  0
LINE
  5
71A
330
70C
100
AcDbEntity
  8
0
 62
     0
 48
35.0
100
AcDbLine
 10
-100.0
 20
-130.5
 30
0.0
 11
35.0
 21
-130.5
 31
0.0
1001
TOP
1070
     1
  0
LINE
  5
71B
330
70C
100
AcDbEntity
  8
0
 62
     0
 48
35.0
100
AcDbLine
 10
-100.0
 20
-108.5
 30
0.0
 11
35.0
 21
-108.5
 31
0.0
1001
TOP
1070
     1
  0
LINE
  5
71C
330
70C
100
AcDbEntity
  8
0
 62
     0
 48
35.0
100
AcDbLine
 10
-66.25
 20
-130.5
 30
0.0
 11
-66.25
 21
-138.5
 31
0.0
1001
TOP
1070
     7
  0
LINE
  5
71D
330
70C
100
AcDbEntity
  8
0
 62
     0
 48
35.0
100
AcDbLine
 10
-100.0
 20
-98.50000000000001
 30
0.0
 11
35.0
 21
-98.50000000000001
 31
0.0
1001
TOP
1070
     1
  0
LINE
  5
71E
330
70C
100
AcDbEntity
  8
0
 62
     0
 48
35.0
100
AcDbLine
 10
-27.5
 20
-98.50000000000001
 30
0.0
 11
-27.5
 21
-108.5
 31
0.0
1001
TOP
1070
     1
  0
TEXT
  5
71F
330
70C
100
AcDbEntity
  8
0
 62
     0
 48
35.0
100
AcDbText
 10
-99.24333629514059
 20
-84.74999999999999
 30
0.0
 40
1.6
  1
DENOMINAZIONE:
  7
STYLE1
100
AcDbText
1001
TOP
1070
     1
  0
TEXT
  5
720
330
70C
100
AcDbEntity
  8
0
 62
     0
 48
35.0
100
AcDbText
 10
-99.24333629514059
 20
-105.5
 30
0.0
 40
1.6
  1
CLIENTE:
  7
STYLE1
100
AcDbText
1001
TOP
1070
     1
  0
LINE
  5
721
330
70C
100
AcDbEntity
  8
0
 62
     0
 48
35.0
100
AcDbLine
 10
-27.5
 20
-103.5
 30
0.0
 11
35.00000000000091
 21
-103.5
 31
0.0
1001
TOP
1070
     1
  0
TEXT
  5
722
330
70C
100
AcDbEntity
  8
0
 62
     0
 48
35.0
100
AcDbText
 10
-26.74333629514058
 20
-102.25
 30
0.0
 40
1.6
  1
COD. CLIENTE:
  7
STYLE1
100
AcDbText
1001
TOP
1070
     1
  0
TEXT
  5
723
330
70C
100
AcDbEntity
  8
0
 62
     0
 48
35.0
100
AcDbText
 10
-26.74333629514058
 20
-107.25
 30
0.0
 40
1.6
  1
CC CLIENTE:
  7
STYLE1
100
AcDbText
1001
TOP
1070
     1
  0
LINE
  5
724
330
70C
100
AcDbEntity
  8
0
 62
     0
 48
35.0
100
AcDbLine
 10
35.0
 20
-85.99999999999988
 30
0.0
 11
100.0
 21
-85.99999999999988
 31
0.0
1001
TOP
1070
     7
  0
LINE
  5
725
330
70C
100
AcDbEntity
  8
0
 62
     0
 48
35.0
100
AcDbLine
 10
35.0
 20
-93.49999999999988
 30
0.0
 11
100.0
 21
-93.49999999999988
 31
0.0
1001
TOP
1070
     7
  0
LINE
  5
726
330
70C
100
AcDbEntity
  8
0
 62
     0
 48
35.0
100
AcDbLine
 10
35.0
 20
-100.9999999999999
 30
0.0
 11
100.0
 21
-100.9999999999999
 31
0.0
1001
TOP
1070
     7
  0
TEXT
  5
727
330
70C
100
AcDbEntity
  8
0
 62
     0
 48
35.0
100
AcDbText
 10
35.75666370485942
 20
-83.99999999999989
 30
0.0
 40
1.6
  1
Data:
  7
STYLE1
100
AcDbText
1001
TOP
1070
     1
  0
TEXT
  5
728
330
70C
100
AcDbEntity
  8
0
 62
     0
 48
35.0
100
AcDbText
 10
35.75666370485942
 20
-90.74999999999988
 30
0.0
 40
1.6
  1
Diseg.:        
  7
STYLE1
100
AcDbText
1001
TOP
1070
     1
  0
TEXT
  5
729
330
70C
100
AcDbEntity
  8
0
 62
     0
 48
35.0
100
AcDbText
 10
35.75666370485942
 20
-98.49999999999988
 30
0.0
 40
1.6
  1
Rifer. ordine:
  7
STYLE1
100
AcDbText
1001
TOP
1070
     1
  0
LINE
  5
72A
330
70C
100
AcDbEntity
  8
0
 62
     0
 48
35.0
100
AcDbLine
 10
72.0
 20
-78.49999999999988
 30
0.0
 11
72.0
 21
-93.49999999999999
 31
0.0
  0
TEXT
  5
72B
330
70C
100
AcDbEntity
  8
0
 62
     0
 48
35.0
100
AcDbText
 10
72.75666370485942
 20
-83.99999999999989
 30
0.0
 40
1.6
  1
Scala:
  7
STYLE1
100
AcDbText
1001
TOP
1070
     1
  0
TEXT
  5
72C
330
70C
100
AcDbEntity
  8
0
 62
     0
 48
35.0
100
AcDbText
 10
72.75666370485942
 20
-91.49999999999989
 30
0.0
 40
1.6
  1
Q.ta:
  7
STYLE1
100
AcDbText
1001
TOP
1070
     1
  0
TEXT
  5
72D
330
70C
100
AcDbEntity
  8
0
 62
     0
 48
35.0
100
AcDbText
 10
35.85819235127565
 20
-110.1249999999999
 30
0.0
 40
1.76
  1
Codice N
  7
STYLE1
100
AcDbText
1001
TOP
1070
     1
  0
LINE
  5
72E
330
70C
100
AcDbEntity
  8
0
 62
     0
 48
35.0
100
AcDbLine
 10
35.0
 20
-114.7499999999999
 30
0.0
 11
100.0
 21
-114.7499999999999
 31
0.0
1001
TOP
1070
     7
  0
LINE
  5
72F
330
70C
100
AcDbEntity
  8
0
 62
     0
 48
35.0
100
AcDbLine
 10
35.0
 20
-124.7499999999999
 30
0.0
 11
100.0
 21
-124.7499999999999
 31
0.0
1001
TOP
1070
     7
  0
LINE
  5
730
330
70C
100
AcDbEntity
  8
0
 62
     0
 48
35.0
100
AcDbLine
 10
35.0
 20
-130.5
 30
0.0
 11
100.0
 21
-130.5
 31
0.0
1001
TOP
1070
     7
  0
CIRCLE
  5
731
330
70C
100
AcDbEntity
  8
0
  6
Continuous
 62
     0
100
AcDbCircle
 10
94.1449550471707
 20
-134.5409172698267
 30
0.0
 40
3.0
1001
TOP
1070
     2
  0
LINE
  5
732
330
70C
100
AcDbEntity
  8
0
  6
DASHDOT2
 62
     0
100
AcDbLine
 10
94.1449550471707
 20
-131.5409172698267
 30
0.0
 11
94.1449550471707
 21
-137.5409172698267
 31
0.0
1001
TOP
1070
     2
  0
CIRCLE
  5
733
330
70C
100
AcDbEntity
  8
0
  6
Continuous
 62
     0
100
AcDbCircle
 10
94.1449550471707
 20
-134.5409172698267
 30
0.0
 40
1.5
1001
TOP
1070
     2
  0
LINE
  5
734
330
70C
100
AcDbEntity
  8
0
  6
DASHDOT2
 62
     0
100
AcDbLine
 10
81.35716881113784
 20
-134.5409172698267
 30
0.0
 11
97.14495504717071
 21
-134.5409172698267
 31
0.0
1001
TOP
1070
     2
  0
LINE
  5
735
330
70C
100
AcDbEntity
  8
0
  6
Continuous
 62
     0
100
AcDbLine
 10
88.51173788868619
 20
-131.5409172698267
 30
0.0
 11
88.51173788868619
 21
-137.8298833532369
 31
0.0
1001
TOP
1070
     2
  0
LINE
  5
736
330
70C
100
AcDbEntity
  8
0
  6
Continuous
 62
     0
100
AcDbLine
 10
81.35716881113784
 20
-133.0409172698267
 30
0.0
 11
81.35716881113784
 21
-136.0409172698267
 31
0.0
1001
TOP
1070
     2
  0
LINE
  5
737
330
70C
100
AcDbEntity
  8
0
  6
Continuous
 62
     0
100
AcDbLine
 10
81.35716881113784
 20
-136.0409172698267
 30
0.0
 11
88.51173788868619
 21
-137.8298833532369
 31
0.0
1001
TOP
1070
     2
  0
LINE
  5
738
330
70C
100
AcDbEntity
  8
0
  6
Continuous
 62
     0
100
AcDbLine
 10
88.51173788868619
 20
-131.5409172698267
 30
0.0
 11
81.35716881113784
 21
-133.0409172698267
 31
0.0
1001
TOP
1070
     2
  0
LINE
  5
739
330
70C
100
AcDbEntity
  8
0
 62
     0
 48
35.0
100
AcDbLine
 10
78.5
 20
-138.5
 30
0.0
 11
78.5
 21
-130.5
 31
0.0
  0
MTEXT
  5
73A
330
70C
100
AcDbEntity
  8
0
 62
     0
 48
35.0
100
AcDbMText
 10
36.70159610234714
 20
-116.147829675845
 30
0.0
 40
2.0
 41
187.0802
 71
     1
 72
     5
  1
{\C256;LE TOLLERANZE SI INTENDONO SU PEZZO\PFINITO COMPLETO DI ZINCATURA}
  7
Stile_Cart
 73
     1
 44
1.0
1001
TOP
1070
     3
1001
ACAD
1000
MTEXTBEGIN
1070
    73
1070
     1
1070
    44
1040
1.0
1070
    74
1070
     0
1000
MTEXTEND
  0
LINE
  5
73B
330
70C
100
AcDbEntity
  8
0
 62
     0
100
AcDbLine
 10
-100.0
 20
-71.0
 30
0.0
 11
99.99999999999909
 21
-71.00000000000012
 31
0.0
1001
TOP
1070
     3
  0
LINE
  5
73C
330
70C
100
AcDbEntity
  8
0
 62
     0
100
AcDbLine
 10
-100.0
 20
-67.0
 30
0.0
 11
99.99999999999909
 21
-67.0
 31
0.0
1001
TOP
1070
     3
  0
LINE
  5
73D
330
70C
100
AcDbEntity
  8
0
 62
     0
100
AcDbLine
 10
-100.0
 20
-62.0
 30
0.0
 11
99.99999999999909
 21
-61.99999999999988
 31
0.0
1001
TOP
1070
     3
  0
LINE
  5
73E
330
70C
100
AcDbEntity
  8
0
 62
     0
 48
35.0
100
AcDbLine
 10
-85.0
 20
-61.99999999999999
 30
0.0
 11
-85.0
 21
-78.5
 31
0.0
1001
TOP
1070
     1
  0
TEXT
  5
73F
330
70C
100
AcDbEntity
  8
0
 62
     0
 48
35.0
100
AcDbText
 10
-99.24333629514149
 20
-76.0
 30
0.0
 40
1.6
  1
POS.
  7
STYLE1
100
AcDbText
1001
TOP
1070
     1
  0
TEXT
  5
740
330
70C
100
AcDbEntity
  8
0
 62
     0
 48
35.0
100
AcDbText
 10
-84.2433362951424
 20
-76.0
 30
0.0
 40
1.6
  1
MATERIALE:
  7
STYLE1
100
AcDbText
1001
TOP
1070
     1
  0
LINE
  5
741
330
70C
100
AcDbEntity
  8
0
 62
     0
 48
35.0
100
AcDbLine
 10
14.99999999999909
 20
-71.00000000000022
 30
0.0
 11
15.0
 21
-78.5
 31
0.0
1001
TOP
1070
     1
  0
TEXT
  5
742
330
70C
100
AcDbEntity
  8
0
 62
     0
 48
35.0
100
AcDbText
 10
15.75666370485669
 20
-76.0
 30
0.0
 40
1.6
  1
TRATTAMENTI:
  7
STYLE1
100
AcDbText
1001
TOP
1070
     1
  0
TEXT
  5
743
330
70C
100
AcDbEntity
  8
0
 62
     0
 48
35.0
100
AcDbText
 10
-94.94297836942587
 20
-69.79763860700177
 30
0.0
 40
1.6
  1
Rev.
  7
STYLE1
100
AcDbText
1001
TOP
1070
     1
  0
LINE
  5
744
330
70C
100
AcDbEntity
  8
0
 62
     0
 48
35.0
100
AcDbLine
 10
80.0
 20
-61.9999999999999
 30
0.0
 11
80.0000000000009
 21
-71.00000000000012
 31
0.0
1001
TOP
1070
     1
  0
LINE
  5
745
330
70C
100
AcDbEntity
  8
0
 62
     0
 48
35.0
100
AcDbLine
 10
65.00000000000032
 20
-61.99999999999991
 30
0.0
 11
65.00000000000091
 21
-71.00000000000114
 31
0.0
1001
TOP
1070
     1
  0
TEXT
  5
746
330
70C
100
AcDbEntity
  8
0
 62
     0
 48
35.0
100
AcDbText
 10
70.05702163057503
 20
-69.79763860700177
 30
0.0
 40
1.6
  1
Data
  7
STYLE1
100
AcDbText
1001
TOP
1070
     1
  0
TEXT
  5
747
330
70C
100
AcDbEntity
  8
0
 62
     0
 48
35.0
100
AcDbText
 10
87.79240430569643
 20
-69.79763860700177
 30
0.0
 40
1.6
  1
Diseg.
  7
STYLE1
100
AcDbText
1001
TOP
1070
     1
  0
LINE
  5
748
330
70C
100
AcDbEntity
  8
0
 62
     0
 48
35.0
100
AcDbLine
 10
-32.5
 20
-130.5
 30
0.0
 11
-32.5
 21
-138.5
 31
0.0
1001
TOP
1070
     7
  0
LINE
  5
749
330
70C
100
AcDbEntity
  8
0
 62
     0
 48
35.0
100
AcDbLine
 10
1.25
 20
-130.5
 30
0.0
 11
1.25
 21
-138.5
 31
0.0
1001
TOP
1070
     7
  0
LINE
  5
74A
330
70C
100
AcDbEntity
  8
0
  6
Continuous
 62
     0
100
AcDbLine
 10
-84.625
 20
-135.2853677388285
 30
0.0
 11
-83.125
 21
-138.2853677388285
 31
0.0
1001
TOP
1070
     2
  0
LINE
  5
74B
330
70C
100
AcDbEntity
  8
0
  6
Continuous
 62
     0
100
AcDbLine
 10
-83.125
 20
-138.2853677388285
 30
0.0
 11
-80.12500000000001
 21
-132.2853677388285
 31
0.0
1001
TOP
1070
     2
  0
CIRCLE
  5
74C
330
70C
100
AcDbEntity
  8
0
  6
Continuous
 62
     0
100
AcDbCircle
 10
-83.125
 20
-136.1513931426129
 30
0.0
 40
0.8660254037843873
1001
TOP
1070
     2
  0
TEXT
  5
74D
330
70C
100
AcDbEntity
  8
0
  6
Continuous
 62
     0
100
AcDbText
 10
36.65725579953532
 20
-127.6856811538551
 30
0.0
 40
1.5
  1
Le QUOTE senza tolleranze si intendono h 11 / H 11
  7
Stile_Cart
100
AcDbText
1001
TOP
1070
     7
  0
TEXT
  5
74E
330
70C
100
AcDbEntity
  8
0
  6
Continuous
 62
     0
100
AcDbText
 10
36.56316783991022
 20
-136.7809056532263
 30
0.0
 40
1.5
  1
Smussi e raggi non quotati = 1 mm
  7
Stile_Cart
100
AcDbText
1001
TOP
1070
     7
  0
TEXT
  5
74F
330
70C
100
AcDbEntity
  8
0
  6
Continuous
 62
     0
100
AcDbText
 10
36.70159610234714
 20
-133.4356811538553
 30
0.0
 40
1.5
  1
Negli spigoli non quotati smussi 0,5 x 45°
  7
Stile_Cart
100
AcDbText
1001
TOP
1070
     7
  0
LINE
  5
750
330
70C
100
AcDbEntity
  8
0
  6
Continuous
 62
     0
100
AcDbLine
 10
22.04910490551336
 20
-135.2267571184318
 30
0.0
 11
23.54910490551336
 21
-138.2267571184318
 31
0.0
1001
TOP
1070
     2
  0
LINE
  5
751
330
70C
100
AcDbEntity
  8
0
  6
Continuous
 62
     0
100
AcDbLine
 10
23.54910490551336
 20
-138.2267571184318
 30
0.0
 11
26.54910490551336
 21
-132.2267571184318
 31
0.0
1001
TOP
1070
     2
  0
TEXT
  5
752
330
70C
100
AcDbEntity
  8
0
  6
Continuous
 62
     0
100
AcDbText
 10
21.21024234627165
 20
-134.7267571184318
 30
0.0
 40
2.0
  1
0,8
  7
seansi_ttf
 11
21.21024234627165
 21
-132.7267571184318
 31
0.0
100
AcDbText
 73
     3
1001
TOP
1070
     2
  0
LINE
  5
753
330
70C
100
AcDbEntity
  8
0
  6
Continuous
 62
     0
100
AcDbLine
 10
14.18630267108197
 20
-135.2559419652411
 30
0.0
 11
15.68630267108197
 21
-138.2559419652411
 31
0.0
1001
TOP
1070
     2
  0
LINE
  5
754
330
70C
100
AcDbEntity
  8
0
  6
Continuous
 62
     0
100
AcDbLine
 10
15.68630267108197
 20
-138.2559419652411
 30
0.0
 11
17.18630267108197
 21
-135.2559419652411
 31
0.0
1001
TOP
1070
     2
  0
LINE
  5
755
330
70C
100
AcDbEntity
  8
0
  6
Continuous
 62
     0
100
AcDbLine
 10
17.18630267108197
 20
-135.2559419652411
 30
0.0
 11
14.18630267108197
 21
-135.2559419652411
 31
0.0
1001
TOP
1070
     2
  0
LINE
  5
756
330
70C
100
AcDbEntity
  8
0
  6
Continuous
 62
     0
100
AcDbLine
 10
14.18630267108197
 20
-135.2559419652411
 30
0.0
 11
12.68630267108197
 21
-138.2559419652411
 31
0.0
1001
TOP
1070
     2
  0
LINE
  5
757
330
70C
100
AcDbEntity
  8
0
  6
Continuous
 62
     0
100
AcDbLine
 10
12.68630267108197
 20
-138.2559419652411
 30
0.0
 11
11.18630267108197
 21
-135.2559419652411
 31
0.0
1001
TOP
1070
     2
  0
LINE
  5
758
330
70C
100
AcDbEntity
  8
0
  6
Continuous
 62
     0
100
AcDbLine
 10
11.18630267108197
 20
-135.2559419652411
 30
0.0
 11
14.18630267108197
 21
-135.2559419652411
 31
0.0
1001
TOP
1070
     2
  0
LINE
  5
759
330
70C
100
AcDbEntity
  8
0
  6
Continuous
 62
     0
100
AcDbLine
 10
11.18630267108197
 20
-135.2559419652411
 30
0.0
 11
9.686302671081968
 21
-138.2559419652411
 31
0.0
1001
TOP
1070
     2
  0
LINE
  5
75A
330
70C
100
AcDbEntity
  8
0
  6
Continuous
 62
     0
100
AcDbLine
 10
9.686302671081968
 20
-138.2559419652411
 30
0.0
 11
8.186302671081968
 21
-135.2559419652411
 31
0.0
1001
TOP
1070
     2
  0
LINE
  5
75B
330
70C
100
AcDbEntity
  8
0
  6
Continuous
 62
     0
100
AcDbLine
 10
8.186302671081968
 20
-135.2559419652411
 30
0.0
 11
11.18630267108197
 21
-135.2559419652411
 31
0.0
1001
TOP
1070
     2
  0
LINE
  5
75C
330
70C
100
AcDbEntity
  8
0
  6
Continuous
 62
     0
100
AcDbLine
 10
-11.09407416882067
 20
-135.2999430320282
 30
0.0
 11
-9.594074168820668
 21
-138.2999430320282
 31
0.0
1001
TOP
1070
     2
  0
LINE
  5
75D
330
70C
100
AcDbEntity
  8
0
  6
Continuous
 62
     0
100
AcDbLine
 10
-9.594074168820668
 20
-138.2999430320282
 30
0.0
 11
-6.594074168820668
 21
-132.2999430320282
 31
0.0
1001
TOP
1070
     2
  0
TEXT
  5
75E
330
70C
100
AcDbEntity
  8
0
  6
Continuous
 62
     0
100
AcDbText
 10
-11.93293672806237
 20
-134.7999430320282
 30
0.0
 40
2.0
  1
1,6
  7
seansi_ttf
 11
-11.93293672806237
 21
-132.7999430320282
 31
0.0
100
AcDbText
 73
     3
1001
TOP
1070
     2
  0
LINE
  5
75F
330
70C
100
AcDbEntity
  8
0
  6
Continuous
 62
     0
100
AcDbLine
 10
-21.65592583117933
 20
-135.2999430320282
 30
0.0
 11
-20.15592583117933
 21
-138.2999430320282
 31
0.0
1001
TOP
1070
     2
  0
LINE
  5
760
330
70C
100
AcDbEntity
  8
0
  6
Continuous
 62
     0
100
AcDbLine
 10
-20.15592583117933
 20
-138.2999430320282
 30
0.0
 11
-18.65592583117933
 21
-135.2999430320282
 31
0.0
1001
TOP
1070
     2
  0
LINE
  5
761
330
70C
100
AcDbEntity
  8
0
  6
Continuous
 62
     0
100
AcDbLine
 10
-18.65592583117933
 20
-135.2999430320282
 30
0.0
 11
-21.65592583117933
 21
-135.2999430320282
 31
0.0
1001
TOP
1070
     2
  0
LINE
  5
762
330
70C
100
AcDbEntity
  8
0
  6
Continuous
 62
     0
100
AcDbLine
 10
-21.65592583117933
 20
-135.2999430320282
 30
0.0
 11
-23.15592583117933
 21
-138.2999430320282
 31
0.0
1001
TOP
1070
     2
  0
LINE
  5
763
330
70C
100
AcDbEntity
  8
0
  6
Continuous
 62
     0
100
AcDbLine
 10
-23.15592583117933
 20
-138.2999430320282
 30
0.0
 11
-24.65592583117933
 21
-135.2999430320282
 31
0.0
1001
TOP
1070
     2
  0
LINE
  5
764
330
70C
100
AcDbEntity
  8
0
  6
Continuous
 62
     0
100
AcDbLine
 10
-24.65592583117933
 20
-135.2999430320282
 30
0.0
 11
-21.65592583117933
 21
-135.2999430320282
 31
0.0
1001
TOP
1070
     2
  0
LINE
  5
765
330
70C
100
AcDbEntity
  8
0
  6
Continuous
 62
     0
100
AcDbLine
 10
-58.06883755106941
 20
-135.3397943988076
 30
0.0
 11
-56.56883755106941
 21
-138.3397943988076
 31
0.0
1001
TOP
1070
     2
  0
LINE
  5
766
330
70C
100
AcDbEntity
  8
0
  6
Continuous
 62
     0
100
AcDbLine
 10
-56.56883755106941
 20
-138.3397943988076
 30
0.0
 11
-55.0688375510694
 21
-135.3397943988076
 31
0.0
1001
TOP
1070
     2
  0
LINE
  5
767
330
70C
100
AcDbEntity
  8
0
  6
Continuous
 62
     0
100
AcDbLine
 10
-55.0688375510694
 20
-135.3397943988076
 30
0.0
 11
-58.06883755106941
 21
-135.3397943988076
 31
0.0
1001
TOP
1070
     2
  0
LINE
  5
768
330
70C
100
AcDbEntity
  8
0
  6
Continuous
 62
     0
100
AcDbLine
 10
-43.68116244893059
 20
-135.3397943988076
 30
0.0
 11
-42.18116244893059
 21
-138.3397943988076
 31
0.0
1001
TOP
1070
     2
  0
LINE
  5
769
330
70C
100
AcDbEntity
  8
0
  6
Continuous
 62
     0
100
AcDbLine
 10
-42.18116244893059
 20
-138.3397943988076
 30
0.0
 11
-39.18116244893059
 21
-132.3397943988076
 31
0.0
1001
TOP
1070
     2
  0
TEXT
  5
76A
330
70C
100
AcDbEntity
  8
0
  6
Continuous
 62
     0
100
AcDbText
 10
-44.52002500817229
 20
-134.8397943988076
 30
0.0
 40
2.0
  1
6,3
  7
seansi_ttf
 11
-44.52002500817229
 21
-132.8397943988076
 31
0.0
100
AcDbText
 73
     3
1001
TOP
1070
     2
  0
ATTDEF
  5
76B
330
70C
100
AcDbEntity
  8
0
 62
     0
 48
35.0
100
AcDbText
 10
-76.25989897767704
 20
-89.74999999999999
 30
0.0
 40
2.5
  1

  7
Stile_Cart
 11
-76.25989897767704
 21
-88.49999999999999
 31
0.0
100
AcDbAttributeDefinition
  3

  2
DESCRIZIONE2
 70
     4
 74
     2
1001
TOP
1070
     7
  0
ATTDEF
  5
76C
330
70C
100
AcDbEntity
  8
0
 62
     0
 48
35.0
100
AcDbText
 10
-76.25989897767704
 20
-94.74999999999999
 30
0.0
 40
2.5
  1

  7
Stile_Cart
 11
-76.25989897767704
 21
-93.49999999999999
 31
0.0
100
AcDbAttributeDefinition
  3

  2
DESCRIZIONE3
 70
     4
 74
     2
1001
TOP
1070
     7
  0
ATTDEF
  5
76D
330
70C
100
AcDbEntity
  8
0
 62
     0
 48
35.0
100
AcDbText
 10
42.76829842361894
 20
-83.99999999999989
 30
0.0
 40
3.5
  1

  7
Stile_Cart
 11
42.76829842361894
 21
-82.2499999999999
 31
0.0
100
AcDbAttributeDefinition
  3

  2
DATA
 70
     4
 74
     2
1001
TOP
1070
     7
  0
ATTDEF
  5
76E
330
70C
100
AcDbEntity
  8
0
 62
     0
 48
35.0
100
AcDbText
 10
79.15321575123653
 20
-83.99999999999989
 30
0.0
 40
3.5
  1

  7
Stile_Cart
 11
79.15321575123653
 21
-82.24999999999988
 31
0.0
100
AcDbAttributeDefinition
  3

  2
SCALA
 70
     4
 74
     2
1001
TOP
1070
     7
  0
ATTDEF
  5
76F
330
70C
100
AcDbEntity
  8
0
 62
     0
 48
35.0
100
AcDbText
 10
79.15321575123653
 20
-91.49999999999989
 30
0.0
 40
3.5
  1

  7
Stile_Cart
 11
79.15321575123653
 21
-89.74999999999988
 31
0.0
100
AcDbAttributeDefinition
  3

  2
QTA
 70
     4
 74
     2
1001
TOP
1070
     7
  0
ATTDEF
  5
770
330
70C
100
AcDbEntity
  8
0
 62
     0
 48
35.0
100
AcDbText
 10
42.76829842361894
 20
-90.74999999999988
 30
0.0
 40
2.0
  1

  7
Stile_Cart
 11
42.76829842361894
 21
-89.74999999999988
 31
0.0
100
AcDbAttributeDefinition
  3

  2
DISEGNATORE
 70
     4
 74
     2
1001
TOP
1070
     7
  0
ATTDEF
  5
771
330
70C
100
AcDbEntity
  8
0
 62
     0
 48
35.0
100
AcDbText
 10
51.64776592404542
 20
-98.49999999999988
 30
0.0
 40
2.5
  1

  7
Stile_Cart
 11
51.64776592404542
 21
-97.24999999999988
 31
0.0
100
AcDbAttributeDefinition
  3

  2
RIF_ORDINE
 70
     4
 74
     2
1001
TOP
1070
     7
  0
ATTDEF
  5
772
330
70C
100
AcDbEntity
  8
0
 62
     0
 48
35.0
100
AcDbText
 10
50.29007657152305
 20
-110.1249999999999
 30
0.0
 40
4.5
  1

  7
Stile_Cart
 11
50.29007657152305
 21
-107.8749999999999
 31
0.0
100
AcDbAttributeDefinition
  3

  2
CODICE
 70
     4
 74
     2
1001
TOP
1070
     7
  0
ATTDEF
  5
773
330
70C
100
AcDbEntity
  8
0
 62
     0
 48
35.0
100
AcDbText
 10
-10.1983793647978
 20
-102.25
 30
0.0
 40
2.5
  1

  7
Stile_Cart
 11
-10.1983793647978
 21
-101.0
 31
0.0
100
AcDbAttributeDefinition
  3

  2
COD_CLIENTE
 70
     4
 74
     2
1001
TOP
1070
     7
  0
ATTDEF
  5
774
330
70C
100
AcDbEntity
  8
0
 62
     0
 48
35.0
100
AcDbText
 10
-10.18785708582345
 20
-107.25
 30
0.0
 40
2.5
  1

  7
Stile_Cart
 11
-10.18785708582345
 21
-106.0
 31
0.0
100
AcDbAttributeDefinition
  3

  2
COMMESSA
 70
     4
 74
     2
1001
TOP
1070
     7
  0
ATTDEF
  5
775
330
70C
100
AcDbEntity
  8
0
 62
     0
 48
35.0
100
AcDbText
 10
-87.23964845993032
 20
-105.5
 30
0.0
 40
4.0
  1

  7
Stile_Cart
 11
-87.23964845993032
 21
-103.5
 31
0.0
100
AcDbAttributeDefinition
  3

  2
CLIENTE
 70
     4
 74
     2
1001
TOP
1070
     7
  0
ATTDEF
  5
776
330
70C
100
AcDbEntity
  8
0
 62
     0
 48
35.0
100
AcDbText
 10
-67.95452598552799
 20
-76.0
 30
0.0
 40
2.5
  1

  7
Stile_Cart
 11
-67.95452598552799
 21
-74.75
 31
0.0
100
AcDbAttributeDefinition
  3

  2
MATERIALE
 70
     4
 74
     2
1001
TOP
1070
     7
  0
ATTDEF
  5
777
330
70C
100
AcDbEntity
  8
0
 62
     0
 48
35.0
100
AcDbText
 10
35.56280592835867
 20
-76.0
 30
0.0
 40
2.5
  1

  7
Stile_Cart
 11
35.56280592835867
 21
-74.75
 31
0.0
100
AcDbAttributeDefinition
  3

  2
TRATTAMENTI
 70
     4
 74
     2
1001
TOP
1070
     7
  0
ATTDEF
  5
778
330
70C
100
AcDbEntity
  8
0
 62
     0
 48
35.0
100
AcDbText
 10
-89.96922082042067
 20
-76.0
 30
0.0
 40
2.5
  1

  7
Stile_Cart
 72
     1
 11
-89.96922082042067
 21
-74.75
 31
0.0
100
AcDbAttributeDefinition
  3

  2
POS.
 70
     4
 74
     2
1001
TOP
1070
     7
  0
ATTDEF
  5
779
330
70C
100
AcDbEntity
  8
0
 62
     0
 48
35.0
100
AcDbText
 10
-92.5
 20
-65.75
 30
0.0
 40
2.5
  1

  7
Stile_Cart
 72
     1
 11
-92.5
 21
-64.5
 31
0.0
100
AcDbAttributeDefinition
  3

  2
REV
 70
     4
 74
     2
1001
TOP
1070
     7
  0
ATTDEF
  5
77A
330
70C
100
AcDbEntity
  8
0
 62
     0
 48
35.0
100
AcDbText
 10
-83.0
 20
-65.75
 30
0.0
 40
2.5
  1

  7
Stile_Cart
 11
-83.0
 21
-64.5
 31
0.0
100
AcDbAttributeDefinition
  3

  2
MOD_REV
 70
     4
 74
     2
1001
TOP
1070
     7
  0
ATTDEF
  5
77B
330
70C
100
AcDbEntity
  8
0
 62
     0
 48
35.0
100
AcDbText
 10
72.50000000000032
 20
-65.74999999999994
 30
0.0
 40
2.5
  1

  7
Stile_Cart
 72
     1
 11
72.50000000000032
 21
-64.49999999999994
 31
0.0
100
AcDbAttributeDefinition
  3

  2
DATA_REV
 70
     4
 74
     2
1001
TOP
1070
     7
  0
ATTDEF
  5
77C
330
70C
100
AcDbEntity
  8
0
 62
     0
 48
35.0
100
AcDbText
 10
89.96023144605638
 20
-65.49999999999994
 30
0.0
 40
2.0
  1

 41
0.8
  7
Stile_Cart
 72
     1
 11
89.96023144605638
 21
-64.49999999999994
 31
0.0
100
AcDbAttributeDefinition
  3

  2
DISEGN_REV
 70
     4
 74
     2
1001
TOP
1070
     7
  0
TEXT
  5
77D
330
70C
100
AcDbEntity
  8
P-0000
  6
Continuous
 62
     0
 48
35.0
100
AcDbText
 10
-46.28135167661025
 20
-113.3527525052883
 30
0.0
 40
1.846799999999999
  1
Sedi operative: Fiorano Circ.le S. Giovanni Ev.,23   41042 Spezzano (MO)
  7
STYLE1
100
AcDbText
1001
TOP
1070
     7
  0
TEXT
  5
77E
330
70C
100
AcDbEntity
  8
P-0000
  6
Continuous
 62
     0
 48
35.0
100
AcDbText
 10
-6.340918626483258
 20
-117.0692022869476
 30
0.0
 40
1.846799999999999
  1
Tel. 0536 921322  Fax 0536 921218
  7
STYLE1
100
AcDbText
1001
TOP
1070
     7
  0
TEXT
  5
77F
330
70C
100
AcDbEntity
  8
P-0000
  6
Continuous
 62
     0
 48
35.0
100
AcDbText
 10
-29.75490795040492
 20
-120.7856520686069
 30
0.0
 40
1.846799999999999
  1
Bologna Via Del Selciatore, 12   40127 (BO) 
  7
STYLE1
100
AcDbText
1001
TOP
1070
     7
  0
TEXT
  5
780
330
70C
100
AcDbEntity
  8
P-0000
  6
Continuous
 62
     0
 48
35.0
100
AcDbText
 10
-3.770224758554846
 20
-124.5021018502664
 30
0.0
 40
1.846799999999999
  1
Tel. 051 535318  Fax 051 531297
  7
STYLE1
100
AcDbText
1001
TOP
1070
     7
  0
TEXT
  5
781
330
70C
100
AcDbEntity
  8
P-0000
  6
Continuous
 62
     0
 48
35.0
100
AcDbText
 10
-29.75453034516
 20
-128.1147363829751
 30
0.0
 40
1.5
  1
www.dierremacap.com . tecnico@dierreprotezioni.com  
  7
STYLE1
100
AcDbText
1001
TOP
1070
     7
  0
ARC
  5
782
330
70C
100
AcDbEntity
  8
P-0000
  6
Continuous
 62
     0
370
     0
100
AcDbCircle
 10
-87.55587540093328
 20
-119.8343908033039
 30
0.0
 40
7.264056604142308
100
AcDbArc
 50
54.62314853322836
 51
125.3768514667716
1001
TOP
1070
    85
  0
ARC
  5
783
330
70C
100
AcDbEntity
  8
P-0000
  6
Continuous
 62
     0
370
     0
100
AcDbCircle
 10
-88.37772146816295
 20
-119.8661633216503
 30
0.0
 40
7.793069759999999
100
AcDbArc
 50
49.82610094250764
 51
223.428751725223
1001
TOP
1070
    85
  0
ARC
  5
784
330
70C
100
AcDbEntity
  8
P-0000
  6
Continuous
 62
     0
370
     0
100
AcDbCircle
 10
-87.77383862674813
 20
-119.1102130429075
 30
0.0
 40
4.056769053873
100
AcDbArc
 50
51.09712919102834
 51
223.6094645412326
1001
TOP
1070
    85
  0
ARC
  5
785
330
70C
100
AcDbEntity
  8
P-0000
  6
Continuous
 62
     0
370
     0
100
AcDbCircle
 10
-88.42266163376624
 20
-119.4851385567151
 30
0.0
 40
4.763630338834137
100
AcDbArc
 50
47.85430720588668
 51
226.8522865263435
1001
TOP
1070
    85
  0
ARC
  5
786
330
70C
100
AcDbEntity
  8
P-0000
  6
Continuous
 62
     0
370
     0
100
AcDbCircle
 10
-88.82997178899747
 20
-120.0817487520743
 30
0.0
 40
4.056769053873
100
AcDbArc
 50
231.0971291910283
 51
43.60946454123257
1001
TOP
1070
    85
  0
ARC
  5
787
330
70C
100
AcDbEntity
  8
P-0000
  6
Continuous
 62
     0
370
     0
100
AcDbCircle
 10
-88.18114878197755
 20
-119.7068232382669
 30
0.0
 40
4.763630338834137
100
AcDbArc
 50
227.8543072058867
 51
46.85228652634355
1001
TOP
1070
    85
  0
ARC
  5
788
330
70C
100
AcDbEntity
  8
P-0000
  6
Continuous
 62
     0
370
     0
100
AcDbCircle
 10
-88.37772146816295
 20
-119.8661633216503
 30
0.0
 40
7.793069759999999
100
AcDbArc
 50
230.1466606584018
 51
45.36258570986113
1001
TOP
1070
    85
  0
ARC
  5
789
330
70C
100
AcDbEntity
  8
P-0000
  6
Continuous
 62
     0
370
     0
100
AcDbCircle
 10
-89.52593793590565
 20
-119.7374591014475
 30
0.0
 40
7.220700683144739
100
AcDbArc
 50
237.8184274609863
 51
321.1976420062348
1001
TOP
1070
    85
  0
ARC
  5
78A
330
70C
100
AcDbEntity
  8
P-0000
  6
Continuous
 62
     0
370
     0
100
AcDbCircle
 10
-88.50216480330599
 20
-119.1656258049447
 30
0.0
 40
5.663278842528495
100
AcDbArc
 50
171.3036725542784
 51
228.0269063594487
1001
TOP
1070
    85
  0
LINE
  5
78B
330
70C
100
AcDbEntity
  8
P-0000
  6
Continuous
 62
     0
370
     0
100
AcDbLine
 10
-92.28966119657778
 20
-123.3760412617837
 30
0.0
 11
-94.03728088778988
 21
-125.2235249353502
 31
0.0
1001
TOP
1070
    85
  0
LINE
  5
78C
330
70C
100
AcDbEntity
  8
P-0000
  6
Continuous
 62
     0
370
     0
100
AcDbLine
 10
-90.71117445104736
 20
-121.9083255159412
 30
0.0
 11
-91.68042069830406
 21
-122.9606500129607
 31
0.0
1001
TOP
1070
    85
  0
ARC
  5
78D
330
70C
100
AcDbEntity
  8
P-0000
  6
Continuous
 62
     0
370
     0
100
AcDbCircle
 10
-88.54309328048001
 20
-118.4440510223681
 30
0.0
 40
5.558875133404746
100
AcDbArc
 50
125.3768514667716
 51
178.611514748478
1001
TOP
1070
    85
  0
LINE
  5
78E
330
70C
100
AcDbEntity
  8
P-0000
  6
Continuous
 62
     0
370
     0
100
AcDbLine
 10
-53.65438013237113
 20
-115.6426918998433
 30
0.0
 11
-52.51302380375555
 21
-115.6426918998433
 31
0.0
1001
TOP
1070
     7
  0
ARC
  5
78F
330
70C
100
AcDbEntity
  8
P-0000
  6
Continuous
 62
     0
370
     0
100
AcDbCircle
 10
-54.83784997234598
 20
-114.9033114623533
 30
0.0
 40
2.439569664000001
100
AcDbArc
 50
354.0835439993975
 51
342.3574175336751
1001
TOP
1070
     7
  0
LINE
  5
790
330
70C
100
AcDbEntity
  8
P-0000
  6
Continuous
 62
     0
370
     0
100
AcDbLine
 10
-56.253151669302
 20
-115.1547779670433
 30
0.0
 11
-52.39829186638807
 21
-115.1547779670433
 31
0.0
1001
TOP
1070
     7
  0
ARC
  5
791
330
70C
100
AcDbEntity
  8
P-0000
  6
Continuous
 62
     0
370
     0
100
AcDbCircle
 10
-67.13328107890589
 20
-114.9033114623533
 30
0.0
 40
2.439569664000001
100
AcDbArc
 50
354.0835439993975
 51
342.3574175336751
1001
TOP
1070
     7
  0
LINE
  5
792
330
70C
100
AcDbEntity
  8
P-0000
  6
Continuous
 62
     0
370
     0
100
AcDbLine
 10
-77.50234959180421
 20
-117.3428811263534
 30
0.0
 11
-74.57486599500507
 21
-117.3428811263534
 31
0.0
1001
TOP
1070
     7
  0
LINE
  5
793
330
70C
100
AcDbEntity
  8
P-0000
  6
Continuous
 62
     0
370
     0
100
AcDbLine
 10
-74.57486599500507
 20
-110.9999999999532
 30
0.0
 11
-77.50234959180421
 21
-110.9999999999532
 31
0.0
1001
TOP
1070
     7
  0
LINE
  5
794
330
70C
100
AcDbEntity
  8
P-0000
  6
Continuous
 62
     0
370
     0
100
AcDbLine
 10
-82.90217148550416
 20
-114.320869039862
 30
0.0
 11
-84.48030571869711
 21
-115.9543842828061
 31
0.0
1001
TOP
1070
    85
  0
ARC
  5
795
330
70C
100
AcDbEntity
  8
P-0000
  6
Continuous
 62
     0
370
     0
100
AcDbCircle
 10
-89.02722975211579
 20
-120.4469356245718
 30
0.0
 40
6.391989965892938
100
AcDbArc
 50
323.352977406186
 51
44.65536847523573
1001
TOP
1070
    85
  0
LINE
  5
796
330
70C
100
AcDbEntity
  8
P-0000
  6
Continuous
 62
     0
370
     0
100
AcDbLine
 10
-85.89263596469553
 20
-117.283636279041
 30
0.0
 11
-84.92338971744155
 21
-116.2313117820216
 31
0.0
1001
TOP
1070
    85
  0
LINE
  5
797
330
70C
100
AcDbEntity
  8
P-0000
  6
Continuous
 62
     0
370
     0
100
AcDbLine
 10
-77.50234959180421
 20
-110.9999999999532
 30
0.0
 11
-77.50234959180421
 21
-117.3428811263534
 31
0.0
1001
TOP
1070
     7
  0
ARC
  5
798
330
70C
100
AcDbEntity
  8
P-0000
  6
Continuous
 62
     0
370
     0
100
AcDbCircle
 10
-74.81882296140435
 20
-113.6835266303536
 30
0.0
 40
1.5857202816
100
AcDbArc
 50
0.0
 51
90.0
1001
TOP
1070
     7
  0
ARC
  5
799
330
70C
100
AcDbEntity
  8
P-0000
  6
Continuous
 62
     0
370
     0
100
AcDbCircle
 10
-74.81882296140435
 20
-114.6593544959532
 30
0.0
 40
1.5857202816
100
AcDbArc
 50
270.0
 51
0.0
1001
TOP
1070
     7
  0
ARC
  5
79A
330
70C
100
AcDbEntity
  8
P-0000
  6
Continuous
 62
     0
370
     0
100
AcDbCircle
 10
-74.57486599500507
 20
-114.9033114623533
 30
0.0
 40
2.439569663999999
100
AcDbArc
 50
270.0
 51
0.0
1001
TOP
1070
     7
  0
ARC
  5
79B
330
70C
100
AcDbEntity
  8
P-0000
  6
Continuous
 62
     0
370
     0
100
AcDbCircle
 10
-74.57486599500507
 20
-113.4395696639535
 30
0.0
 40
2.439569663999999
100
AcDbArc
 50
0.0
 51
90.0
1001
TOP
1070
     7
  0
LINE
  5
79C
330
70C
100
AcDbEntity
  8
P-0000
  6
Continuous
 62
     0
370
     0
100
AcDbLine
 10
-76.40454324300486
 20
-112.0978063487534
 30
0.0
 11
-76.40454324300486
 21
-116.2450747775533
 31
0.0
1001
TOP
1070
     7
  0
LINE
  5
79D
330
70C
100
AcDbEntity
  8
P-0000
  6
Continuous
 62
     0
370
     0
100
AcDbLine
 10
-76.40454324300486
 20
-116.2450747775533
 30
0.0
 11
-74.81882296140435
 21
-116.2450747775533
 31
0.0
1001
TOP
1070
     7
  0
LINE
  5
79E
330
70C
100
AcDbEntity
  8
P-0000
  6
Continuous
 62
     0
370
     0
100
AcDbLine
 10
-74.81882296140435
 20
-112.0978063487534
 30
0.0
 11
-76.40454324300486
 21
-112.0978063487534
 31
0.0
1001
TOP
1070
     7
  0
LINE
  5
79F
330
70C
100
AcDbEntity
  8
P-0000
  6
Continuous
 62
     0
370
     0
100
AcDbLine
 10
-70.30472164210562
 20
-117.3428811263534
 30
0.0
 11
-70.30472164210562
 21
-112.4637417983535
 31
0.0
1001
TOP
1070
     7
  0
LINE
  5
7A0
330
70C
100
AcDbEntity
  8
P-0000
  6
Continuous
 62
     0
370
     0
100
AcDbLine
 10
-71.4025279909076
 20
-112.4637417983535
 30
0.0
 11
-71.4025279909076
 21
-117.3428811263534
 31
0.0
1001
TOP
1070
     7
  0
LINE
  5
7A1
330
70C
100
AcDbEntity
  8
P-0000
  6
Continuous
 62
     0
370
     0
100
AcDbLine
 10
-71.4025279909076
 20
-117.3428811263534
 30
0.0
 11
-70.30472164210562
 21
-117.3428811263534
 31
0.0
1001
TOP
1070
     7
  0
LINE
  5
7A2
330
70C
100
AcDbEntity
  8
P-0000
  6
Continuous
 62
     0
370
     0
100
AcDbLine
 10
-71.4025279909076
 20
-111.9758278655534
 30
0.0
 11
-70.30472164210562
 21
-111.9758278655534
 31
0.0
1001
TOP
1070
     7
  0
LINE
  5
7A3
330
70C
100
AcDbEntity
  8
P-0000
  6
Continuous
 62
     0
370
     0
100
AcDbLine
 10
-70.30472164210562
 20
-110.9999999999532
 30
0.0
 11
-71.4025279909076
 21
-110.9999999999532
 31
0.0
1001
TOP
1070
     7
  0
HATCH
  5
7A4
330
70C
100
AcDbEntity
  8
P-0000
  6
Continuous
 62
     0
100
AcDbHatch
 10
0.0
 20
0.0
 30
0.0
210
0.0
220
0.0
230
1.0
  2
SOLID
 70
     1
 71
     0
 91
        1
 92
        1
 93
        4
 72
     1
 10
-70.30472164210627
 20
-110.9999999999534
 11
-71.40252799090693
 21
-110.9999999999534
 72
     1
 10
-71.40252799090564
 20
-110.9999999999534
 11
-71.40252799090564
 21
-111.9758278655534
 72
     1
 10
-71.40252799090564
 20
-111.9758278655535
 11
-70.30472164210498
 21
-111.9758278655535
 72
     1
 10
-70.30472164210627
 20
-111.9758278655535
 11
-70.30472164210627
 21
-110.9999999999535
 97
        0
 75
     0
 76
     1
 98
        1
 10
-136.4839087803873
 20
-204.8924935638848
1001
TOP
1070
     3
  0
LINE
  5
7A5
330
70C
100
AcDbEntity
  8
P-0000
  6
Continuous
 62
     0
370
     0
100
AcDbLine
 10
-70.30472164210562
 20
-112.4637417983535
 30
0.0
 11
-71.4025279909076
 21
-112.4637417983535
 31
0.0
1001
TOP
1070
     7
  0
LINE
  5
7A6
330
70C
100
AcDbEntity
  8
P-0000
  6
Continuous
 62
     0
370
     0
100
AcDbLine
 10
-73.23310267980318
 20
-114.6593544959532
 30
0.0
 11
-73.23310267980318
 21
-113.6835266303536
 31
0.0
1001
TOP
1070
     7
  0
LINE
  5
7A7
330
70C
100
AcDbEntity
  8
P-0000
  6
Continuous
 62
     0
370
     0
100
AcDbLine
 10
-72.13529633100447
 20
-114.9033114623533
 30
0.0
 11
-72.13529633100447
 21
-113.4395696639535
 31
0.0
1001
TOP
1070
     7
  0
LINE
  5
7A8
330
70C
100
AcDbEntity
  8
P-0000
  6
Continuous
 62
     0
370
     0
100
AcDbLine
 10
-71.4025279909076
 20
-110.9999999999532
 30
0.0
 11
-71.4025279909076
 21
-111.9758278655534
 31
0.0
1001
TOP
1070
     7
  0
LINE
  5
7A9
330
70C
100
AcDbEntity
  8
P-0000
  6
Continuous
 62
     0
370
     0
100
AcDbLine
 10
-70.30472164210562
 20
-111.9758278655534
 30
0.0
 11
-70.30472164210562
 21
-110.9999999999532
 31
0.0
1001
TOP
1070
     7
  0
LINE
  5
7AA
330
70C
100
AcDbEntity
  8
P-0000
  6
Continuous
 62
     0
370
     0
100
AcDbLine
 10
-61.67972155649409
 20
-112.4637417983535
 30
0.0
 11
-61.22362894667041
 21
-112.4637417983535
 31
0.0
1001
TOP
1070
     7
  0
ARC
  5
7AB
330
70C
100
AcDbEntity
  8
P-0000
  6
Continuous
 62
     0
370
     0
100
AcDbCircle
 10
-61.22455238416592
 20
-115.7450893416161
 30
0.0
 40
2.30551986259622
100
AcDbArc
 50
89.97705113130741
 51
144.7782320142388
1001
TOP
1070
     7
  0
LINE
  5
7AC
330
70C
100
AcDbEntity
  8
P-0000
  6
Continuous
 62
     0
370
     0
100
AcDbLine
 10
-65.94981123893105
 20
-115.6426918998433
 30
0.0
 11
-64.80845491031482
 21
-115.6426918998433
 31
0.0
1001
TOP
1070
     7
  0
LINE
  5
7AD
330
70C
100
AcDbEntity
  8
P-0000
  6
Continuous
 62
     0
370
     0
100
AcDbLine
 10
-68.54858277585996
 20
-115.1547779670433
 30
0.0
 11
-64.69372297294865
 21
-115.1547779670433
 31
0.0
1001
TOP
1070
     7
  0
ARC
  5
7AE
330
70C
100
AcDbEntity
  8
P-0000
  6
Continuous
 62
     0
370
     0
100
AcDbCircle
 10
-67.13328107890589
 20
-114.7813329791535
 30
0.0
 40
1.463741798400002
100
AcDbArc
 50
194.7813103722914
 51
323.9519363800095
1001
TOP
1070
     7
  0
ARC
  5
7AF
330
70C
100
AcDbEntity
  8
P-0000
  6
Continuous
 62
     0
370
     0
100
AcDbCircle
 10
-67.13315394981435
 20
-114.7246775057507
 30
0.0
 40
1.309503544180366
100
AcDbArc
 50
23.46032899247153
 51
156.5396710075285
1001
TOP
1070
     7
  0
LINE
  5
7B0
330
70C
100
AcDbEntity
  8
P-0000
  6
Continuous
 62
     0
370
     0
100
AcDbLine
 10
-68.33440862006644
 20
-114.2033457980831
 30
0.0
 11
-65.93189927956226
 21
-114.2033457980831
 31
0.0
1001
TOP
1070
     7
  0
LINE
  5
7B1
330
70C
100
AcDbEntity
  8
P-0000
  6
Continuous
 62
     0
370
     0
100
AcDbLine
 10
-63.1079911333061
 20
-117.3428811263534
 30
0.0
 11
-63.1079911333061
 21
-114.4153975295534
 31
0.0
1001
TOP
1070
     7
  0
LINE
  5
7B2
330
70C
100
AcDbEntity
  8
P-0000
  6
Continuous
 62
     0
370
     0
100
AcDbLine
 10
-64.2057974821061
 20
-112.4637417983535
 30
0.0
 11
-64.2057974821061
 21
-117.3428811263534
 31
0.0
1001
TOP
1070
     7
  0
LINE
  5
7B3
330
70C
100
AcDbEntity
  8
P-0000
  6
Continuous
 62
     0
370
     0
100
AcDbLine
 10
-64.2057974821061
 20
-117.3428811263534
 30
0.0
 11
-63.1079911333061
 21
-117.3428811263534
 31
0.0
1001
TOP
1070
     7
  0
LINE
  5
7B4
330
70C
100
AcDbEntity
  8
P-0000
  6
Continuous
 62
     0
370
     0
100
AcDbLine
 10
-63.1079911333061
 20
-112.4637417983535
 30
0.0
 11
-64.2057974821061
 21
-112.4637417983535
 31
0.0
1001
TOP
1070
     7
  0
ARC
  5
7B5
330
70C
100
AcDbEntity
  8
P-0000
  6
Continuous
 62
     0
370
     0
100
AcDbCircle
 10
-61.5678898700862
 20
-114.1605808182826
 30
0.0
 40
1.700520210299701
100
AcDbArc
 50
93.77067625261986
 51
154.9129671807329
1001
TOP
1070
     7
  0
LINE
  5
7B6
330
70C
100
AcDbEntity
  8
P-0000
  6
Continuous
 62
     0
370
     0
100
AcDbLine
 10
-63.1079911333061
 20
-113.4395696639535
 30
0.0
 11
-63.1079911333061
 21
-112.4637417983535
 31
0.0
1001
TOP
1070
     7
  0
LINE
  5
7B7
330
70C
100
AcDbEntity
  8
P-0000
  6
Continuous
 62
     0
370
     0
100
AcDbLine
 10
-63.1079911333061
 20
-112.4637417983535
 30
0.0
 11
-63.1079911333061
 21
-113.4395696639535
 31
0.0
1001
TOP
1070
     7
  0
LINE
  5
7B8
330
70C
100
AcDbEntity
  8
P-0000
  6
Continuous
 62
     0
370
     0
100
AcDbLine
 10
-59.39496610469735
 20
-117.3428811263534
 30
0.0
 11
-59.39496610469735
 21
-114.4153975295534
 31
0.0
1001
TOP
1070
     7
  0
LINE
  5
7B9
330
70C
100
AcDbEntity
  8
P-0000
  6
Continuous
 62
     0
370
     0
100
AcDbLine
 10
-60.49277245349801
 20
-112.4637417983535
 30
0.0
 11
-60.49277245349801
 21
-117.3428811263534
 31
0.0
1001
TOP
1070
     7
  0
LINE
  5
7BA
330
70C
100
AcDbEntity
  8
P-0000
  6
Continuous
 62
     0
370
     0
100
AcDbLine
 10
-60.49277245349801
 20
-117.3428811263534
 30
0.0
 11
-59.39496610469735
 21
-117.3428811263534
 31
0.0
1001
TOP
1070
     7
  0
ARC
  5
7BB
330
70C
100
AcDbEntity
  8
P-0000
  6
Continuous
 62
     0
370
     0
100
AcDbCircle
 10
-57.8548648414781
 20
-114.1605808182826
 30
0.0
 40
1.700520210299701
100
AcDbArc
 50
93.77067625261986
 51
154.9129671807329
1001
TOP
1070
     7
  0
ARC
  5
7BC
330
70C
100
AcDbEntity
  8
P-0000
  6
Continuous
 62
     0
370
     0
100
AcDbCircle
 10
-57.51152735555913
 20
-115.7450893416161
 30
0.0
 40
2.30551986259622
100
AcDbArc
 50
89.97705113130741
 51
144.7782320142388
1001
TOP
1070
     7
  0
LINE
  5
7BD
330
70C
100
AcDbEntity
  8
P-0000
  6
Continuous
 62
     0
370
     0
100
AcDbLine
 10
-59.39496610469735
 20
-113.4395696639535
 30
0.0
 11
-59.39496610469735
 21
-112.4637417983535
 31
0.0
1001
TOP
1070
     7
  0
LINE
  5
7BE
330
70C
100
AcDbEntity
  8
P-0000
  6
Continuous
 62
     0
370
     0
100
AcDbLine
 10
-61.22362894667041
 20
-113.4395696639535
 30
0.0
 11
-61.22362894667041
 21
-112.4637417983535
 31
0.0
1001
TOP
1070
     7
  0
LINE
  5
7BF
330
70C
100
AcDbEntity
  8
P-0000
  6
Continuous
 62
     0
370
     0
100
AcDbLine
 10
-59.39496610469735
 20
-112.4637417983535
 30
0.0
 11
-59.39496610469735
 21
-113.4395696639535
 31
0.0
1001
TOP
1070
     7
  0
LINE
  5
7C0
330
70C
100
AcDbEntity
  8
P-0000
  6
Continuous
 62
     0
370
     0
100
AcDbLine
 10
-59.39496610469735
 20
-112.4637417983535
 30
0.0
 11
-60.49277245349801
 21
-112.4637417983535
 31
0.0
1001
TOP
1070
     7
  0
LINE
  5
7C1
330
70C
100
AcDbEntity
  8
P-0000
  6
Continuous
 62
     0
370
     0
100
AcDbLine
 10
-57.5106039180623
 20
-113.4395696639535
 30
0.0
 11
-57.5106039180623
 21
-112.4637417983535
 31
0.0
1001
TOP
1070
     7
  0
LINE
  5
7C2
330
70C
100
AcDbEntity
  8
P-0000
  6
Continuous
 62
     0
370
     0
100
AcDbLine
 10
-57.96669652788599
 20
-112.4637417983535
 30
0.0
 11
-57.5106039180623
 21
-112.4637417983535
 31
0.0
1001
TOP
1070
     7
  0
ARC
  5
7C3
330
70C
100
AcDbEntity
  8
P-0000
  6
Continuous
 62
     0
370
     0
100
AcDbCircle
 10
-54.83784997234598
 20
-114.7813329791535
 30
0.0
 40
1.463741798400002
100
AcDbArc
 50
194.7813103722914
 51
323.9519363800095
1001
TOP
1070
     7
  0
ARC
  5
7C4
330
70C
100
AcDbEntity
  8
P-0000
  6
Continuous
 62
     0
370
     0
100
AcDbCircle
 10
-54.83772284325443
 20
-114.7246775057507
 30
0.0
 40
1.309503544180366
100
AcDbArc
 50
23.46032899247153
 51
156.5396710075285
1001
TOP
1070
     7
  0
LINE
  5
7C5
330
70C
100
AcDbEntity
  8
P-0000
  6
Continuous
 62
     0
370
     0
100
AcDbLine
 10
-56.03897751350586
 20
-114.2033457980831
 30
0.0
 11
-53.63646817300168
 21
-114.2033457980831
 31
0.0
1001
TOP
1070
     7
  0
HATCH
  5
7C6
330
70C
100
AcDbEntity
  8
P-0000
  6
Continuous
 62
     0
 48
35.0
100
AcDbHatch
 10
0.0
 20
0.0
 30
0.0
210
0.0
220
0.0
230
1.0
  2
SOLID
 70
     1
 71
     0
 91
        4
 92
        7
 72
     1
 73
     1
 93
        5
 10
-94.03728088778988
 20
-125.2235249353502
 42
0.0
 10
-92.28966119657778
 20
-123.3760412617837
 42
-0.2526825286644691
 10
-94.10033621549056
 20
-118.3093524326913
 42
-0.2365496875282557
 10
-91.7614140375581
 20
-113.911556758355
 42
-0.3189181398811662
 10
-83.35033676430748
 20
-113.9115567583528
 42
0.9456749006874259
 97
        0
 92
       23
 72
     1
 73
     1
 93
        3
 10
-91.68042069830406
 20
-122.9606500129607
 42
0.0
 10
-90.71117445104736
 20
-121.9083255159412
 42
-0.9367032511192487
 10
-85.2261793413445
 20
-115.9531879682591
 42
0.991293729556146
 97
        0
 92
       23
 72
     1
 73
     1
 93
        3
 10
-91.37763107440111
 20
-123.2387738267226
 42
0.9912937295513184
 10
-84.92338971744155
 20
-116.2313117820216
 42
0.0
 10
-85.89263596469553
 20
-117.283636279041
 42
-0.9367032511219315
 97
        0
 92
        7
 72
     1
 73
     1
 93
        4
 10
-83.89875797035076
 20
-124.2622092592821
 42
-0.3807594385329842
 10
-93.37171269560638
 20
-125.8488038677993
 42
0.9590989174885454
 10
-82.90217148550416
 20
-114.320869039862
 42
0.0
 10
-84.48030571869711
 20
-115.9543842828061
 42
-0.3704192144445529
 97
        0
 75
     0
 76
     1
 47
0.0537802133905057
 98
        4
 10
-95.28899908413293
 20
-117.9121948253558
 10
-92.51811574438377
 20
-119.1148667670212
 10
-84.53359595731015
 20
-120.3175387086872
 10
-82.20022029262763
 20
-118.4953086011877
1001
TOP
1070
     3
  0
HATCH
  5
7C7
330
70C
100
AcDbEntity
  8
P-0000
  6
Continuous
 62
     0
 48
35.0
100
AcDbHatch
 10
0.0
 20
0.0
 30
0.0
210
0.0
220
0.0
230
1.0
  2
SOLID
 70
     1
 71
     0
 91
        9
 92
        7
 72
     1
 73
     1
 93
        6
 10
-74.57486599500573
 20
-110.9999999999531
 42
0.0
 10
-77.50234959180421
 20
-110.9999999999531
 42
0.0
 10
-77.50234959180485
 20
-117.3428811263533
 42
0.0
 10
-74.57486599500573
 20
-117.3428811263533
 42
0.4142135623732426
 10
-72.13529633100447
 20
-114.9033114623533
 42
0.0
 10
-72.13529633100447
 20
-113.4395696639534
 42
0.4142135623732917
 97
        0
 92
       22
 72
     1
 73
     1
 93
        6
 10
-76.40454324300486
 20
-112.0978063487534
 42
0.0
 10
-74.81882296140435
 20
-112.0978063487534
 42
-0.4142135623733217
 10
-73.23310267980318
 20
-113.6835266303533
 42
0.0
 10
-73.23310267980318
 20
-114.6593544959533
 42
-0.4142135623732008
 10
-74.81882296140369
 20
-116.2450747775532
 42
0.0
 10
-76.40454324300486
 20
-116.2450747775532
 42
0.0
 97
        0
 92
        7
 72
     0
 73
     1
 93
        4
 10
-71.40252799090825
 20
-117.3428811263533
 10
-70.30472164210562
 20
-117.3428811263534
 10
-70.30472164210562
 20
-112.4637417983535
 10
-71.4025279909076
 20
-112.4637417983534
 97
        0
 92
        7
 72
     1
 73
     1
 93
        4
 10
-68.5485827758606
 20
-115.1547779670432
 42
0.0
 10
-64.70670638553077
 20
-115.1547779670432
 42
19.52759892169242
 10
-64.80845491031548
 20
-115.6426918998433
 42
0.0
 10
-65.94981123892972
 20
-115.6426918998433
 42
-0.6319943824460191
 97
        0
 92
       22
 72
     1
 73
     1
 93
        2
 10
-68.33440862006513
 20
-114.2033457980811
 42
-0.6561238478654379
 10
-65.93189927956356
 20
-114.2033457980831
 42
0.0
 97
        0
 92
        7
 72
     1
 73
     1
 93
        9
 10
-63.1079911333061
 20
-114.4153975295551
 42
-0.2437791817823871
 10
-61.22362894667041
 20
-113.4395696639536
 42
0.0
 10
-61.22362894667041
 20
-112.4637417983535
 42
0.0
 10
-61.6797215564895
 20
-112.4637417983534
 42
0.2732984134248683
 10
-63.1079911333061
 20
-113.4395696639525
 42
0.0
 10
-63.1079911333061
 20
-112.4637417983534
 42
0.0
 10
-64.20579748210546
 20
-112.4637417983534
 42
0.0
 10
-64.2057974821061
 20
-117.3428811263532
 42
0.0
 10
-63.10799113330676
 20
-117.3428811263532
 42
0.0
 97
        0
 92
        7
 72
     1
 73
     1
 93
        9
 10
-60.49277245349736
 20
-117.3428811263533
 42
0.0
 10
-59.3949661046967
 20
-117.3428811263534
 42
0.0
 10
-59.39496610469735
 20
-114.4153975295523
 42
-0.2437791817821463
 10
-57.5106039180623
 20
-113.4395696639536
 42
0.0
 10
-57.5106039180623
 20
-112.4637417983535
 42
0.0
 10
-57.9666965278814
 20
-112.4637417983534
 42
0.2732984134246251
 10
-59.39496610469735
 20
-113.4395696639511
 42
0.0
 10
-59.39496610469735
 20
-112.4637417983534
 42
0.0
 10
-60.49277245349801
 20
-112.4637417983535
 42
0.0
 97
        0
 92
        7
 72
     1
 73
     1
 93
        4
 10
-52.41127527897084
 20
-115.1547779670432
 42
19.52759892169242
 10
-52.51302380375555
 20
-115.6426918998433
 42
0.0
 10
-53.65438013237048
 20
-115.6426918998433
 42
-0.631994382445661
 10
-56.25315166930069
 20
-115.1547779670432
 42
0.0
 97
        0
 92
       22
 72
     1
 73
     1
 93
        2
 10
-56.03897751350586
 20
-114.2033457980832
 42
-0.6561238478663365
 10
-53.63646817300299
 20
-114.2033457980831
 42
0.0
 97
        0
 75
     0
 76
     1
 47
0.1054092179442032
 98
        9
 10
-77.30509361450609
 20
-111.652214293695
 10
-77.30509361450609
 20
-111.652214293695
 10
-70.92517770860029
 20
-114.0180230722183
 10
-68.97004263540313
 20
-114.9952049659171
 10
-68.97004263540313
 20
-114.9952049659171
 10
-63.41334181494616
 20
-115.2523580455926
 10
-60.12048197631124
 20
-115.1494968773671
 10
-55.90150541812637
 20
-114.429468063343
 10
-55.90150541812637
 20
-114.429468063343
1001
TOP
1070
     5
  0
MTEXT
  5
7C8
330
70C
100
AcDbEntity
  8
P-0000
  6
Continuous
 62
     0
100
AcDbMText
 10
-77.50752909622914
 20
-125.390962447158
 30
0.0
 40
1.5
 41
15.89275572328779
 71
     1
 72
     5
  1
{\f@Arial Unicode MS|b0|i0|c0|p34;\H2x;Group\H0.5x; srl}
  7
ROMANS
 73
     1
 44
1.0
1001
TOP
1070
     7
1001
ACAD
1000
MTEXTBEGIN
1070
    73
1070
     1
1070
    44
1040
1.0
1070
    74
1070
     0
1000
MTEXTEND
  0
LINE
  5
7C9
330
70C
100
AcDbEntity
  8
P-0000
  6
Continuous
 62
     0
100
AcDbLine
 10
-60.31400746853627
 20
-118.6190131723036
 30
0.0
 11
-65.10163245619105
 21
-118.6190131723036
 31
0.0
1001
TOP
1070
     7
  0
LINE
  5
7CA
330
70C
100
AcDbEntity
  8
P-0000
  6
Continuous
 62
     0
100
AcDbLine
 10
-65.10163245619105
 20
-118.6190131723036
 30
0.0
 11
-60.31400746853627
 21
-118.6190131723036
 31
0.0
1001
TOP
1070
     7
  0
LINE
  5
7CB
330
70C
100
AcDbEntity
  8
P-0000
  6
Continuous
 62
     0
100
AcDbLine
 10
-60.60899754084211
 20
-122.4817401737899
 30
0.0
 11
-59.78513540320495
 21
-121.2719230596353
 31
0.0
1001
TOP
1070
     7
  0
LINE
  5
7CC
330
70C
100
AcDbEntity
  8
P-0000
  6
Continuous
 62
     0
100
AcDbLine
 10
-60.60899754084211
 20
-122.4817401737899
 30
0.0
 11
-59.78513540320495
 21
-121.2719230596353
 31
0.0
1001
TOP
1070
     7
  0
LINE
  5
7CD
330
70C
100
AcDbEntity
  8
P-0000
  6
Continuous
 62
     0
100
AcDbLine
 10
-60.60899754084211
 20
-122.4817401737899
 30
0.0
 11
-58.9612732655678
 21
-122.4817401737899
 31
0.0
1001
TOP
1070
     7
  0
LINE
  5
7CE
330
70C
100
AcDbEntity
  8
P-0000
  6
Continuous
 62
     0
100
AcDbLine
 10
-58.9612732655678
 20
-122.4817401737899
 30
0.0
 11
-60.60899754084211
 21
-122.4817401737899
 31
0.0
1001
TOP
1070
     7
  0
LINE
  5
7CF
330
70C
100
AcDbEntity
  8
P-0000
  6
Continuous
 62
     0
100
AcDbLine
 10
-63.4872398605242
 20
-124.055443766988
 30
0.0
 11
-56.08303094588571
 21
-124.055443766988
 31
0.0
1001
TOP
1070
     7
  0
LINE
  5
7D0
330
70C
100
AcDbEntity
  8
P-0000
  6
Continuous
 62
     0
100
AcDbLine
 10
-63.4872398605242
 20
-124.055443766988
 30
0.0
 11
-56.08303094588571
 21
-124.055443766988
 31
0.0
1001
TOP
1070
     7
  0
LINE
  5
7D1
330
70C
100
AcDbEntity
  8
P-0000
  6
Continuous
 62
     0
100
AcDbLine
 10
-61.88263947056615
 20
-120.9225027431548
 30
0.0
 11
-60.31400746853627
 21
-118.6190131723036
 31
0.0
1001
TOP
1070
     7
  0
LINE
  5
7D2
330
70C
100
AcDbEntity
  8
P-0000
  6
Continuous
 62
     0
100
AcDbLine
 10
-61.88263947056615
 20
-120.9225027431548
 30
0.0
 11
-60.31400746853627
 21
-118.6190131723036
 31
0.0
1001
TOP
1070
     7
  0
LINE
  5
7D3
330
70C
100
AcDbEntity
  8
P-0000
  6
Continuous
 62
     0
100
AcDbLine
 10
-63.4872398605242
 20
-124.055443766988
 30
0.0
 11
-59.78513540320495
 21
-118.6190131723036
 31
0.0
1001
TOP
1070
     7
  0
LINE
  5
7D4
330
70C
100
AcDbEntity
  8
P-0000
  6
Continuous
 62
     0
100
AcDbLine
 10
-59.78513540320495
 20
-118.6190131723036
 30
0.0
 11
-63.4872398605242
 21
-124.055443766988
 31
0.0
1001
TOP
1070
     7
  0
LINE
  5
7D5
330
70C
100
AcDbEntity
  8
P-0000
  6
Continuous
 62
     0
100
AcDbLine
 10
-72.47806497115667
 20
-118.6190131723036
 30
0.0
 11
-68.77596051383742
 21
-118.6190131723036
 31
0.0
1001
TOP
1070
     7
  0
LINE
  5
7D6
330
70C
100
AcDbEntity
  8
P-0000
  6
Continuous
 62
     0
100
AcDbLine
 10
-72.47806497115667
 20
-118.6190131723036
 30
0.0
 11
-68.77596051383742
 21
-118.6190131723036
 31
0.0
1001
TOP
1070
     7
  0
LINE
  5
7D7
330
70C
100
AcDbEntity
  8
P-0000
  6
Continuous
 62
     0
100
AcDbLine
 10
-71.94919290582532
 20
-124.055443766988
 30
0.0
 11
-68.24708844850608
 21
-118.6190131723036
 31
0.0
1001
TOP
1070
     7
  0
LINE
  5
7D8
330
70C
100
AcDbEntity
  8
P-0000
  6
Continuous
 62
     0
100
AcDbLine
 10
-72.47806497115667
 20
-124.055443766988
 30
0.0
 11
-68.77596051383742
 21
-118.6190131723036
 31
0.0
1001
TOP
1070
     7
  0
LINE
  5
7D9
330
70C
100
AcDbEntity
  8
P-0000
  6
Continuous
 62
     0
100
AcDbLine
 10
-71.94919290582532
 20
-124.055443766988
 30
0.0
 11
-68.24708844850608
 21
-118.6190131723036
 31
0.0
1001
TOP
1070
     7
  0
LINE
  5
7DA
330
70C
100
AcDbEntity
  8
P-0000
  6
Continuous
 62
     0
100
AcDbLine
 10
-68.77596051383742
 20
-118.6190131723036
 30
0.0
 11
-72.47806497115667
 21
-124.055443766988
 31
0.0
1001
TOP
1070
     7
  0
LINE
  5
7DB
330
70C
100
AcDbEntity
  8
P-0000
  6
Continuous
 62
     0
100
AcDbLine
 10
-71.94919290582532
 20
-124.055443766988
 30
0.0
 11
-64.54498399118683
 21
-124.055443766988
 31
0.0
1001
TOP
1070
     7
  0
LINE
  5
7DC
330
70C
100
AcDbEntity
  8
P-0000
  6
Continuous
 62
     0
100
AcDbLine
 10
-64.54498399118683
 20
-124.055443766988
 30
0.0
 11
-71.94919290582532
 21
-124.055443766988
 31
0.0
1001
TOP
1070
     7
  0
LINE
  5
7DD
330
70C
100
AcDbEntity
  8
P-0000
  6
Continuous
 62
     0
100
AcDbLine
 10
-77.50234959180421
 20
-118.6190131723036
 30
0.0
 11
-75.2546433141461
 21
-118.6190131723036
 31
0.0
1001
TOP
1070
     7
  0
LINE
  5
7DE
330
70C
100
AcDbEntity
  8
P-0000
  6
Continuous
 62
     0
100
AcDbLine
 10
-77.50234959180421
 20
-124.055443766988
 30
0.0
 11
-75.2546433141461
 21
-124.055443766988
 31
0.0
1001
TOP
1070
     7
  0
LINE
  5
7DF
330
70C
100
AcDbEntity
  8
P-0000
  6
Continuous
 62
     0
100
AcDbLine
 10
-75.2546433141461
 20
-124.055443766988
 30
0.0
 11
-77.50234959180421
 21
-124.055443766988
 31
0.0
1001
TOP
1070
     7
  0
LINE
  5
7E0
330
70C
100
AcDbEntity
  8
P-0000
  6
Continuous
 62
     0
100
AcDbLine
 10
-77.50234959180421
 20
-118.6190131723036
 30
0.0
 11
-75.2546433141461
 21
-118.6190131723036
 31
0.0
1001
TOP
1070
     7
  0
LINE
  5
7E1
330
70C
100
AcDbEntity
  8
P-0000
  6
Continuous
 62
     0
100
AcDbLine
 10
-77.50234959180421
 20
-124.055443766988
 30
0.0
 11
-77.50234959180421
 21
-118.6190131723036
 31
0.0
1001
TOP
1070
     7
  0
LINE
  5
7E2
330
70C
100
AcDbEntity
  8
P-0000
  6
Continuous
 62
     0
100
AcDbLine
 10
-77.50234959180421
 20
-124.055443766988
 30
0.0
 11
-77.50234959180421
 21
-118.6190131723036
 31
0.0
1001
TOP
1070
     7
  0
LINE
  5
7E3
330
70C
100
AcDbEntity
  8
P-0000
  6
Continuous
 62
     0
100
AcDbLine
 10
-72.47806497115667
 20
-121.7664203586998
 30
0.0
 11
-73.8663541426514
 21
-124.055443766988
 31
0.0
1001
TOP
1070
     7
  0
LINE
  5
7E4
330
70C
100
AcDbEntity
  8
P-0000
  6
Continuous
 62
     0
100
AcDbLine
 10
-72.47806497115667
 20
-121.7664203586998
 30
0.0
 11
-72.47806497115667
 21
-124.055443766988
 31
0.0
1001
TOP
1070
     7
  0
LINE
  5
7E5
330
70C
100
AcDbEntity
  8
P-0000
  6
Continuous
 62
     0
100
AcDbLine
 10
-72.47806497115667
 20
-121.7664203586998
 30
0.0
 11
-73.8663541426514
 21
-124.055443766988
 31
0.0
1001
TOP
1070
     7
  0
LINE
  5
7E6
330
70C
100
AcDbEntity
  8
P-0000
  6
Continuous
 62
     0
100
AcDbLine
 10
-72.47806497115667
 20
-124.055443766988
 30
0.0
 11
-72.47806497115667
 21
-121.7664203586998
 31
0.0
1001
TOP
1070
     7
  0
LINE
  5
7E7
330
70C
100
AcDbEntity
  8
P-0000
  6
Continuous
 62
     0
100
AcDbLine
 10
-75.2546433141461
 20
-124.055443766988
 30
0.0
 11
-75.2546433141461
 21
-121.7664203586998
 31
0.0
1001
TOP
1070
     7
  0
LINE
  5
7E8
330
70C
100
AcDbEntity
  8
P-0000
  6
Continuous
 62
     0
100
AcDbLine
 10
-75.2546433141461
 20
-121.7664203586998
 30
0.0
 11
-75.2546433141461
 21
-124.055443766988
 31
0.0
1001
TOP
1070
     7
  0
LINE
  5
7E9
330
70C
100
AcDbEntity
  8
P-0000
  6
Continuous
 62
     0
100
AcDbLine
 10
-75.2546433141461
 20
-121.7664203586998
 30
0.0
 11
-73.8663541426514
 21
-124.055443766988
 31
0.0
1001
TOP
1070
     7
  0
LINE
  5
7EA
330
70C
100
AcDbEntity
  8
P-0000
  6
Continuous
 62
     0
100
AcDbLine
 10
-73.8663541426514
 20
-124.055443766988
 30
0.0
 11
-75.2546433141461
 21
-121.7664203586998
 31
0.0
1001
TOP
1070
     7
  0
LINE
  5
7EB
330
70C
100
AcDbEntity
  8
P-0000
  6
Continuous
 62
     0
100
AcDbLine
 10
-72.47806497115667
 20
-118.6190131723036
 30
0.0
 11
-73.8663541426514
 21
-120.9080365805917
 31
0.0
1001
TOP
1070
     7
  0
LINE
  5
7EC
330
70C
100
AcDbEntity
  8
P-0000
  6
Continuous
 62
     0
100
AcDbLine
 10
-73.8663541426514
 20
-120.9080365805917
 30
0.0
 11
-72.47806497115667
 21
-118.6190131723036
 31
0.0
1001
TOP
1070
     7
  0
LINE
  5
7ED
330
70C
100
AcDbEntity
  8
P-0000
  6
Continuous
 62
     0
100
AcDbLine
 10
-75.2546433141461
 20
-118.6190131723036
 30
0.0
 11
-73.8663541426514
 21
-120.9080365805917
 31
0.0
1001
TOP
1070
     7
  0
LINE
  5
7EE
330
70C
100
AcDbEntity
  8
P-0000
  6
Continuous
 62
     0
100
AcDbLine
 10
-75.2546433141461
 20
-118.6190131723036
 30
0.0
 11
-73.8663541426514
 21
-120.9080365805917
 31
0.0
1001
TOP
1070
     7
  0
ELLIPSE
  5
7EF
330
70C
100
AcDbEntity
  8
P-0000
  6
Continuous
 62
     0
100
AcDbEllipse
 10
-65.10163245619105
 20
-120.0496528024836
 30
0.0
 11
-0.0000000000000277
 21
1.430639630180138
 31
0.0
210
0.0
220
0.0
230
-1.0
 40
0.9241881291669729
 41
4.077362244994374
 42
6.283185307179586
1001
TOP
1070
     7
  0
LINE
  5
7F0
330
70C
100
AcDbEntity
  8
P-0000
  6
Continuous
 62
     0
100
AcDbLine
 10
-64.54498399118683
 20
-124.055443766988
 30
0.0
 11
-68.24708844850608
 21
-118.6190131723036
 31
0.0
1001
TOP
1070
     7
  0
LINE
  5
7F1
330
70C
100
AcDbEntity
  8
P-0000
  6
Continuous
 62
     0
100
AcDbLine
 10
-68.24708844850608
 20
-118.6190131723036
 30
0.0
 11
-64.54498399118683
 21
-124.055443766988
 31
0.0
1001
TOP
1070
     7
  0
ELLIPSE
  5
7F2
330
70C
100
AcDbEntity
  8
P-0000
  6
Continuous
 62
     0
100
AcDbEllipse
 10
-65.10163245619105
 20
-120.0496528024836
 30
0.0
 11
0.0000000000000073
 21
1.430639630180138
 31
0.0
210
0.0
220
0.0
230
1.0
 40
0.9241881291669608
 41
0.0000000000000056
 42
2.205823062185215
1001
TOP
1070
     7
  0
LINE
  5
7F3
330
70C
100
AcDbEntity
  8
P-0000
  6
Continuous
 62
     0
100
AcDbLine
 10
-64.01611192585551
 20
-124.055443766988
 30
0.0
 11
-66.16606131471133
 21
-120.8983068549025
 31
0.0
1001
TOP
1070
     7
  0
LINE
  5
7F4
330
70C
100
AcDbEntity
  8
P-0000
  6
Continuous
 62
     0
100
AcDbLine
 10
-66.16606131471133
 20
-120.8983068549025
 30
0.0
 11
-64.01611192585551
 21
-124.055443766988
 31
0.0
1001
TOP
1070
     7
  0
LINE
  5
7F5
330
70C
100
AcDbEntity
  8
P-0000
  6
Continuous
 62
     0
100
AcDbLine
 10
-67.42322631086892
 20
-122.4817401737899
 30
0.0
 11
-68.24708844850608
 21
-121.2719230596353
 31
0.0
1001
TOP
1070
     7
  0
LINE
  5
7F6
330
70C
100
AcDbEntity
  8
P-0000
  6
Continuous
 62
     0
100
AcDbLine
 10
-68.24708844850608
 20
-121.2719230596353
 30
0.0
 11
-67.42322631086892
 21
-122.4817401737899
 31
0.0
1001
TOP
1070
     7
  0
LINE
  5
7F7
330
70C
100
AcDbEntity
  8
P-0000
  6
Continuous
 62
     0
100
AcDbLine
 10
-69.07095058614323
 20
-122.4817401737899
 30
0.0
 11
-68.24708844850608
 21
-121.2719230596353
 31
0.0
1001
TOP
1070
     7
  0
LINE
  5
7F8
330
70C
100
AcDbEntity
  8
P-0000
  6
Continuous
 62
     0
100
AcDbLine
 10
-69.07095058614323
 20
-122.4817401737899
 30
0.0
 11
-68.24708844850608
 21
-121.2719230596353
 31
0.0
1001
TOP
1070
     7
  0
LINE
  5
7F9
330
70C
100
AcDbEntity
  8
P-0000
  6
Continuous
 62
     0
100
AcDbLine
 10
-69.07095058614323
 20
-122.4817401737899
 30
0.0
 11
-67.42322631086892
 21
-122.4817401737899
 31
0.0
1001
TOP
1070
     7
  0
LINE
  5
7FA
330
70C
100
AcDbEntity
  8
P-0000
  6
Continuous
 62
     0
100
AcDbLine
 10
-67.42322631086892
 20
-122.4817401737899
 30
0.0
 11
-69.07095058614323
 21
-122.4817401737899
 31
0.0
1001
TOP
1070
     7
  0
LINE
  5
7FB
330
70C
100
AcDbEntity
  8
P-0000
  6
Continuous
 62
     0
100
AcDbLine
 10
-64.01611192585551
 20
-124.055443766988
 30
0.0
 11
-62.44747992382563
 21
-121.7519541961368
 31
0.0
1001
TOP
1070
     7
  0
LINE
  5
7FC
330
70C
100
AcDbEntity
  8
P-0000
  6
Continuous
 62
     0
100
AcDbLine
 10
-64.01611192585551
 20
-124.055443766988
 30
0.0
 11
-62.44747992382563
 21
-121.7519541961368
 31
0.0
1001
TOP
1070
     7
  0
LINE
  5
7FD
330
70C
100
AcDbEntity
  8
P-0000
  6
Continuous
 62
     0
100
AcDbLine
 10
-62.44747992382563
 20
-121.7519541961368
 30
0.0
 11
-63.46925566656012
 21
-121.7519541961368
 31
0.0
1001
TOP
1070
     7
  0
LINE
  5
7FE
330
70C
100
AcDbEntity
  8
P-0000
  6
Continuous
 62
     0
100
AcDbLine
 10
-63.46925566656012
 20
-120.9225027431548
 30
0.0
 11
-61.88263947056615
 21
-120.9225027431548
 31
0.0
1001
TOP
1070
     7
  0
LINE
  5
7FF
330
70C
100
AcDbEntity
  8
P-0000
  6
Continuous
 62
     0
100
AcDbLine
 10
-62.44747992382563
 20
-121.7519541961368
 30
0.0
 11
-63.46925566656012
 21
-121.7519541961368
 31
0.0
1001
TOP
1070
     7
  0
LINE
  5
800
330
70C
100
AcDbEntity
  8
P-0000
  6
Continuous
 62
     0
100
AcDbLine
 10
-61.88263947056615
 20
-120.9225027431548
 30
0.0
 11
-63.46925566656012
 21
-120.9225027431548
 31
0.0
1001
TOP
1070
     7
  0
ELLIPSE
  5
801
330
70C
100
AcDbEntity
  8
P-0000
  6
Continuous
 62
     0
100
AcDbEllipse
 10
-63.46925566656012
 20
-121.3372284696458
 30
0.0
 11
0.0000000000000016
 21
0.4147257264910956
 31
0.0
210
0.0
220
0.0
230
-1.0
 40
0.9241881291669779
 41
3.141592653589793
 42
6.283185307179586
1001
TOP
1070
     7
  0
ELLIPSE
  5
802
330
70C
100
AcDbEntity
  8
P-0000
  6
Continuous
 62
     0
100
AcDbEllipse
 10
-63.46925566656012
 20
-121.3372284696458
 30
0.0
 11
-0.0000000000000201
 21
0.4147257264910956
 31
0.0
210
0.0
220
0.0
230
1.0
 40
0.9241881291669438
 41
-0.0000000000000524
 42
3.14159265358974
1001
TOP
1070
     7
  0
ELLIPSE
  5
803
330
70C
100
AcDbEntity
  8
P-0000
  6
Continuous
 62
     0
100
AcDbEllipse
 10
-55.55415888055438
 20
-120.3357807285197
 30
0.0
 11
-0.0000000000001066
 21
0.6294814372792618
 31
0.0
210
0.0
220
0.0
230
1.0
 40
0.9241881291669697
 41
3.141592653589633
 42
6.283185307179426
1001
TOP
1070
     7
  0
ELLIPSE
  5
804
330
70C
100
AcDbEntity
  8
P-0000
  6
Continuous
 62
     0
100
AcDbEllipse
 10
-55.55415888055438
 20
-120.3357807285197
 30
0.0
 11
0.0000000000000215
 21
0.6294814372792617
 31
0.0
210
0.0
220
0.0
230
-1.0
 40
0.9241881291669697
 41
0.0
 42
3.141592653589793
1001
TOP
1070
     7
  0
ELLIPSE
  5
805
330
70C
100
AcDbEntity
  8
P-0000
  6
Continuous
 62
     0
100
AcDbEllipse
 10
-55.55415888055438
 20
-120.3357807285197
 30
0.0
 11
0.0000000000000215
 21
1.716767556216168
 31
0.0
210
0.0
220
0.0
230
1.0
 40
0.9241881291669681
 41
3.141592653589806
 42
6.283185307179599
1001
TOP
1070
     7
  0
ELLIPSE
  5
806
330
70C
100
AcDbEntity
  8
P-0000
  6
Continuous
 62
     0
100
AcDbEllipse
 10
-55.55415888055438
 20
-120.3357807285197
 30
0.0
 11
0.0000000000000018
 21
1.716767556216167
 31
0.0
210
0.0
220
0.0
230
-1.0
 40
0.9241881291669688
 41
0.0
 42
3.141592653589793
1001
TOP
1070
     7
  0
LINE
  5
807
330
70C
100
AcDbEntity
  8
P-0000
  6
Continuous
 62
     0
100
AcDbLine
 10
-59.78513540320495
 20
-121.2719230596353
 30
0.0
 11
-58.9612732655678
 21
-122.4817401737899
 31
0.0
1001
TOP
1070
     7
  0
LINE
  5
808
330
70C
100
AcDbEntity
  8
P-0000
  6
Continuous
 62
     0
100
AcDbLine
 10
-58.9612732655678
 20
-122.4817401737899
 30
0.0
 11
-59.78513540320495
 21
-121.2719230596353
 31
0.0
1001
TOP
1070
     7
  0
LINE
  5
809
330
70C
100
AcDbEntity
  8
P-0000
  6
Continuous
 62
     0
100
AcDbLine
 10
-56.08303094588571
 20
-124.055443766988
 30
0.0
 11
-59.78513540320495
 21
-118.6190131723036
 31
0.0
1001
TOP
1070
     7
  0
LINE
  5
80A
330
70C
100
AcDbEntity
  8
P-0000
  6
Continuous
 62
     0
100
AcDbLine
 10
-55.55415888055438
 20
-124.055443766988
 30
0.0
 11
-59.25626333787364
 21
-118.6190131723036
 31
0.0
1001
TOP
1070
     7
  0
LINE
  5
80B
330
70C
100
AcDbEntity
  8
P-0000
  6
Continuous
 62
     0
100
AcDbLine
 10
-55.55415888055438
 20
-124.055443766988
 30
0.0
 11
-59.25626333787364
 21
-118.6190131723036
 31
0.0
1001
TOP
1070
     7
  0
LINE
  5
80C
330
70C
100
AcDbEntity
  8
P-0000
  6
Continuous
 62
     0
100
AcDbLine
 10
-56.08303094588571
 20
-124.055443766988
 30
0.0
 11
-59.78513540320495
 21
-118.6190131723036
 31
0.0
1001
TOP
1070
     7
  0
LINE
  5
80D
330
70C
100
AcDbEntity
  8
P-0000
  6
Continuous
 62
     0
100
AcDbLine
 10
-55.55415888055438
 20
-124.055443766988
 30
0.0
 11
-55.55415888055438
 21
-122.0525482847359
 31
0.0
1001
TOP
1070
     7
  0
LINE
  5
80E
330
70C
100
AcDbEntity
  8
P-0000
  6
Continuous
 62
     0
100
AcDbLine
 10
-55.55415888055438
 20
-122.0525482847359
 30
0.0
 11
-55.55415888055438
 21
-124.055443766988
 31
0.0
1001
TOP
1070
     7
  0
LINE
  5
80F
330
70C
100
AcDbEntity
  8
P-0000
  6
Continuous
 62
     0
100
AcDbLine
 10
-59.25626333787364
 20
-118.6190131723036
 30
0.0
 11
-55.55415888055438
 21
-118.6190131723036
 31
0.0
1001
TOP
1070
     7
  0
LINE
  5
810
330
70C
100
AcDbEntity
  8
P-0000
  6
Continuous
 62
     0
100
AcDbLine
 10
-59.25626333787364
 20
-118.6190131723036
 30
0.0
 11
-55.55415888055438
 21
-118.6190131723036
 31
0.0
1001
TOP
1070
     7
  0
LINE
  5
811
330
70C
100
AcDbEntity
  8
P-0000
  6
Continuous
 62
     0
100
AcDbLine
 10
-55.55415888055438
 20
-119.7062992912404
 30
0.0
 11
-56.41148833382832
 21
-119.7062992912404
 31
0.0
1001
TOP
1070
     7
  0
LINE
  5
812
330
70C
100
AcDbEntity
  8
P-0000
  6
Continuous
 62
     0
100
AcDbLine
 10
-56.41148833382832
 20
-119.7062992912404
 30
0.0
 11
-55.55415888055438
 21
-119.7062992912404
 31
0.0
1001
TOP
1070
     7
  0
LINE
  5
813
330
70C
100
AcDbEntity
  8
P-0000
  6
Continuous
 62
     0
100
AcDbLine
 10
-55.55415888055438
 20
-120.9652621657989
 30
0.0
 11
-56.41148833382832
 21
-119.7062992912404
 31
0.0
1001
TOP
1070
     7
  0
LINE
  5
814
330
70C
100
AcDbEntity
  8
P-0000
  6
Continuous
 62
     0
100
AcDbLine
 10
-55.55415888055438
 20
-120.9652621657989
 30
0.0
 11
-56.41148833382832
 21
-119.7062992912404
 31
0.0
1001
TOP
1070
     7
  0
LINE
  5
815
330
70C
100
AcDbEntity
  8
0
 62
     0
 48
35.0
100
AcDbLine
 10
7.000000000000056
 20
142.5
 30
0.0
 11
98.00000000000004
 21
142.5
 31
0.0
1001
TOP
1070
     1
  0
LINE
  5
816
330
70C
100
AcDbEntity
  8
0
 62
     0
100
AcDbLine
 10
7.000000000000056
 20
143.5
 30
0.0
 11
100.0
 21
143.5
 31
0.0
1001
TOP
1070
   256
  0
ARC
  5
817
330
70C
100
AcDbEntity
  8
0
 62
     0
 48
35.0
100
AcDbCircle
 10
98.00000000000004
 20
141.5
 30
0.0
 40
1.0
100
AcDbArc
 50
0.0
 51
90.0
1001
TOP
1070
     1
  0
LINE
  5
818
330
70C
100
AcDbEntity
  8
0
 62
     0
 48
35.0
100
AcDbLine
 10
99.00000000000003
 20
141.5
 30
0.0
 11
99.00000000000005
 21
113.5
 31
0.0
1001
TOP
1070
     1
  0
LINE
  5
819
330
70C
100
AcDbEntity
  8
0
 62
     0
100
AcDbLine
 10
100.0
 20
143.5
 30
0.0
 11
100.0
 21
113.5
 31
0.0
1001
TOP
1070
   256
  0
ARC
  5
81A
330
70C
100
AcDbEntity
  8
0
 62
     0
 48
35.0
100
AcDbCircle
 10
98.00000000000006
 20
113.5
 30
0.0
 40
1.0
100
AcDbArc
 50
270.0
 51
0.0
1001
TOP
1070
     1
  0
ARC
  5
81B
330
70C
100
AcDbEntity
  8
0
 62
     0
100
AcDbCircle
 10
98.00000000000006
 20
113.5
 30
0.0
 40
2.0
100
AcDbArc
 50
270.0
 51
0.0
1001
TOP
1070
   256
  0
LINE
  5
81C
330
70C
100
AcDbEntity
  8
0
 62
     0
 48
35.0
100
AcDbLine
 10
98.00000000000006
 20
112.5
 30
0.0
 11
7.000000000000056
 21
112.5
 31
0.0
1001
TOP
1070
     1
  0
LINE
  5
81D
330
70C
100
AcDbEntity
  8
0
 62
     0
100
AcDbLine
 10
98.00000000000006
 20
111.4999999999999
 30
0.0
 11
7.000000000000056
 21
111.5
 31
0.0
1001
TOP
1070
   256
  0
ARC
  5
81E
330
70C
100
AcDbEntity
  8
0
 62
     0
 48
35.0
100
AcDbCircle
 10
7.000000000000056
 20
113.5
 30
0.0
 40
1.0
100
AcDbArc
 50
180.0
 51
270.0
1001
TOP
1070
     1
  0
ARC
  5
81F
330
70C
100
AcDbEntity
  8
0
 62
     0
100
AcDbCircle
 10
7.000000000000056
 20
113.5
 30
0.0
 40
2.0
100
AcDbArc
 50
180.0
 51
270.0
1001
TOP
1070
   256
  0
LINE
  5
820
330
70C
100
AcDbEntity
  8
0
 62
     0
 48
35.0
100
AcDbLine
 10
6.000000000000056
 20
113.5
 30
0.0
 11
6.000000000000056
 21
141.5
 31
0.0
1001
TOP
1070
     1
  0
LINE
  5
821
330
70C
100
AcDbEntity
  8
0
 62
     0
100
AcDbLine
 10
5.000000000000056
 20
113.5
 30
0.0
 11
5.000000000000056
 21
141.5
 31
0.0
1001
TOP
1070
   256
  0
ARC
  5
822
330
70C
100
AcDbEntity
  8
0
 62
     0
 48
35.0
100
AcDbCircle
 10
7.000000000000056
 20
141.5
 30
0.0
 40
1.0
100
AcDbArc
 50
90.0
 51
180.0
1001
TOP
1070
     1
  0
ARC
  5
823
330
70C
100
AcDbEntity
  8
0
 62
     0
100
AcDbCircle
 10
7.000000000000056
 20
141.5
 30
0.0
 40
2.0
100
AcDbArc
 50
90.0
 51
180.0
1001
TOP
1070
   256
  0
MTEXT
  5
824
330
70C
100
AcDbEntity
  8
0
 62
     0
100
AcDbMText
 10
29.58535811428735
 20
135.6251466847724
 30
0.0
 40
6.0
 41
54.93080742428151
 71
     1
 72
     5
  1
{\fVrinda|b0|i0|c0|p2;BAR CODE\PMontaggio}
 73
     1
 44
1.0
1001
TOP
1070
   256
1001
ACAD
1000
MTEXTBEGIN
1070
    73
1070
     1
1070
    44
1040
1.0
1070
    74
1070
     0
1000
MTEXTEND
  0
ENDBLK
  5
828
330
70C
100
AcDbEntity
  8
0
 62
     7
100
AcDbBlockEnd
  0
BLOCK
  5
2C30
330
2C2F
100
AcDbEntity
  8
0
 62
     3
100
AcDbBlockBegin
  2
*D1
 70
     1
 10
0.0
 20
0.0
 30
0.0
  3
*D1
  1

  0
LINE
  5
3223
330
2C2F
100
AcDbEntity
  8
P-376E
  6
Continuous
 62
     2
370
    -2
100
AcDbLine
 10
280.7091575290124
 20
-467.448069154801
 30
0.0
 11
280.7091575290124
 21
-548.8800427952451
 31
0.0
  0
LINE
  5
3224
330
2C2F
100
AcDbEntity
  8
P-376E
  6
Continuous
 62
     2
370
    -2
100
AcDbLine
 10
350.7091575290106
 20
-386.1746064371246
 30
0.0
 11
350.7091575290106
 21
-548.8800427952451
 31
0.0
  0
LINE
  5
3225
330
2C2F
100
AcDbEntity
  8
P-376E
  6
Continuous
 62
     2
370
    -2
100
AcDbLine
 10
300.7091575290124
 20
-533.8800427952451
 30
0.0
 11
330.7091575290106
 21
-533.8800427952451
 31
0.0
  0
SOLID
  5
3226
330
2C2F
100
AcDbEntity
  8
P-376E
  6
Continuous
 62
     2
100
AcDbTrace
 10
300.7091575290124
 20
-530.5467094619117
 30
0.0
 11
300.7091575290124
 21
-537.2133761285785
 31
0.0
 12
280.7091575290124
 22
-533.8800427952451
 32
0.0
 13
280.7091575290124
 23
-533.8800427952451
 33
0.0
  0
SOLID
  5
3227
330
2C2F
100
AcDbEntity
  8
P-376E
  6
Continuous
 62
     2
100
AcDbTrace
 10
330.7091575290106
 20
-530.5467094619117
 30
0.0
 11
330.7091575290106
 21
-537.2133761285785
 31
0.0
 12
350.7091575290106
 22
-533.8800427952451
 32
0.0
 13
350.7091575290106
 23
-533.8800427952451
 33
0.0
  0
MTEXT
  5
3228
330
2C2F
100
AcDbEntity
  8
P-376E
  6
Continuous
 62
     1
100
AcDbMText
 10
315.7091575290114
 20
-513.5812089760031
 30
0.0
 40
20.0
 41
0.0
 71
     5
 72
     1
  1
\A1;7
  7
Stile_Quota
 73
     1
 44
1.0
1001
ACAD
1000
MTEXTBEGIN
1070
    73
1070
     1
1070
    44
1040
1.0
1070
    74
1070
     0
1000
MTEXTEND
  0
POINT
  5
3229
330
2C2F
100
AcDbEntity
  8
Defpoints
  6
Continuous
 62
     0
100
AcDbPoint
 10
280.7091575290124
 20
-457.448069154801
 30
0.0
  0
POINT
  5
322A
330
2C2F
100
AcDbEntity
  8
Defpoints
  6
Continuous
 62
     0
100
AcDbPoint
 10
350.7091575290106
 20
-376.1746064371246
 30
0.0
  0
POINT
  5
322B
330
2C2F
100
AcDbEntity
  8
Defpoints
  6
Continuous
 62
     0
100
AcDbPoint
 10
350.7091575290106
 20
-533.8800427952451
 30
0.0
  0
ENDBLK
  5
2C31
330
2C2F
100
AcDbEntity
  8
0
 62
     3
100
AcDbBlockEnd
  0
BLOCK
  5
2C3D
330
2C3C
100
AcDbEntity
  8
0
 62
     3
100
AcDbBlockBegin
  2
*D2
 70
     1
 10
0.0
 20
0.0
 30
0.0
  3
*D2
  1

  0
LINE
  5
321A
330
2C3C
100
AcDbEntity
  8
P-376E
  6
Continuous
 62
     2
370
    -2
100
AcDbLine
 10
350.7091575290106
 20
-416.1746064371246
 30
0.0
 11
350.7091575290106
 21
-548.8800427952451
 31
0.0
  0
LINE
  5
321B
330
2C3C
100
AcDbEntity
  8
P-376E
  6
Continuous
 62
     2
370
    -2
100
AcDbLine
 10
430.7091575290123
 20
-226.1746064371246
 30
0.0
 11
430.7091575290123
 21
-548.8800427952451
 31
0.0
  0
LINE
  5
321C
330
2C3C
100
AcDbEntity
  8
P-376E
  6
Continuous
 62
     2
370
    -2
100
AcDbLine
 10
370.7091575290105
 20
-533.8800427952451
 30
0.0
 11
410.7091575290123
 21
-533.8800427952451
 31
0.0
  0
SOLID
  5
321D
330
2C3C
100
AcDbEntity
  8
P-376E
  6
Continuous
 62
     2
100
AcDbTrace
 10
370.7091575290105
 20
-530.5467094619117
 30
0.0
 11
370.7091575290105
 21
-537.2133761285785
 31
0.0
 12
350.7091575290106
 22
-533.8800427952451
 32
0.0
 13
350.7091575290106
 23
-533.8800427952451
 33
0.0
  0
SOLID
  5
321E
330
2C3C
100
AcDbEntity
  8
P-376E
  6
Continuous
 62
     2
100
AcDbTrace
 10
410.7091575290123
 20
-530.5467094619117
 30
0.0
 11
410.7091575290123
 21
-537.2133761285785
 31
0.0
 12
430.7091575290123
 22
-533.8800427952451
 32
0.0
 13
430.7091575290123
 23
-533.8800427952451
 33
0.0
  0
MTEXT
  5
321F
330
2C3C
100
AcDbEntity
  8
P-376E
  6
Continuous
 62
     1
100
AcDbMText
 10
390.7091575290115
 20
-513.6540952733792
 30
0.0
 40
20.0
 41
0.0
 71
     5
 72
     1
  1
\A1;8
  7
Stile_Quota
 73
     1
 44
1.0
1001
ACAD
1000
MTEXTBEGIN
1070
    73
1070
     1
1070
    44
1040
1.0
1070
    74
1070
     0
1000
MTEXTEND
  0
POINT
  5
3220
330
2C3C
100
AcDbEntity
  8
Defpoints
  6
Continuous
 62
     0
100
AcDbPoint
 10
350.7091575290106
 20
-406.1746064371245
 30
0.0
  0
POINT
  5
3221
330
2C3C
100
AcDbEntity
  8
Defpoints
  6
Continuous
 62
     0
100
AcDbPoint
 10
430.7091575290123
 20
-216.1746064371246
 30
0.0
  0
POINT
  5
3222
330
2C3C
100
AcDbEntity
  8
Defpoints
  6
Continuous
 62
     0
100
AcDbPoint
 10
430.7091575290123
 20
-533.8800427952451
 30
0.0
  0
ENDBLK
  5
2C3E
330
2C3C
100
AcDbEntity
  8
0
 62
     3
100
AcDbBlockEnd
  0
BLOCK
  5
2C4A
330
2C49
100
AcDbEntity
  8
0
 62
     3
100
AcDbBlockBegin
  2
*D3
 70
     1
 10
0.0
 20
0.0
 30
0.0
  3
*D3
  1

  0
LINE
  5
3211
330
2C49
100
AcDbEntity
  8
P-376E
  6
Continuous
 62
     2
370
    -2
100
AcDbLine
 10
430.7302228171975
 20
-226.174606437125
 30
0.0
 11
430.7302228171975
 21
-548.8800427952451
 31
0.0
  0
LINE
  5
3212
330
2C49
100
AcDbEntity
  8
P-376E
  6
Continuous
 62
     2
370
    -2
100
AcDbLine
 10
650.7091575290123
 20
-371.5303495191629
 30
0.0
 11
650.7091575290123
 21
-548.8800427952451
 31
0.0
  0
LINE
  5
3213
330
2C49
100
AcDbEntity
  8
P-376E
  6
Continuous
 62
     2
370
    -2
100
AcDbLine
 10
450.7302228171974
 20
-533.8800427952451
 30
0.0
 11
630.7091575290123
 21
-533.8800427952451
 31
0.0
  0
SOLID
  5
3214
330
2C49
100
AcDbEntity
  8
P-376E
  6
Continuous
 62
     2
100
AcDbTrace
 10
450.7302228171974
 20
-530.5467094619117
 30
0.0
 11
450.7302228171974
 21
-537.2133761285785
 31
0.0
 12
430.7302228171975
 22
-533.8800427952451
 32
0.0
 13
430.7302228171975
 23
-533.8800427952451
 33
0.0
  0
SOLID
  5
3215
330
2C49
100
AcDbEntity
  8
P-376E
  6
Continuous
 62
     2
100
AcDbTrace
 10
630.7091575290123
 20
-530.5467094619117
 30
0.0
 11
630.7091575290123
 21
-537.2133761285785
 31
0.0
 12
650.7091575290123
 22
-533.8800427952451
 32
0.0
 13
650.7091575290123
 23
-533.8800427952451
 33
0.0
  0
MTEXT
  5
3216
330
2C49
100
AcDbEntity
  8
P-376E
  6
Continuous
 62
     1
100
AcDbMText
 10
540.7196901731049
 20
-513.8800427952451
 30
0.0
 40
20.0
 41
0.0
 71
     5
 72
     1
  1
\A1;22
  7
Stile_Quota
 73
     1
 44
1.0
1001
ACAD
1000
MTEXTBEGIN
1070
    73
1070
     1
1070
    44
1040
1.0
1070
    74
1070
     0
1000
MTEXTEND
  0
POINT
  5
3217
330
2C49
100
AcDbEntity
  8
Defpoints
  6
Continuous
 62
     0
100
AcDbPoint
 10
430.7302228171975
 20
-216.174606437125
 30
0.0
  0
POINT
  5
3218
330
2C49
100
AcDbEntity
  8
Defpoints
  6
Continuous
 62
     0
100
AcDbPoint
 10
650.7091575290123
 20
-361.5303495191629
 30
0.0
  0
POINT
  5
3219
330
2C49
100
AcDbEntity
  8
Defpoints
  6
Continuous
 62
     0
100
AcDbPoint
 10
650.7091575290123
 20
-533.8800427952451
 30
0.0
  0
ENDBLK
  5
2C4B
330
2C49
100
AcDbEntity
  8
0
 62
     3
100
AcDbBlockEnd
  0
BLOCK
  5
2C57
330
2C56
100
AcDbEntity
  8
0
 62
     3
100
AcDbBlockBegin
  2
*D4
 70
     1
 10
0.0
 20
0.0
 30
0.0
  3
*D4
  1

  0
LINE
  5
3206
330
2C56
100
AcDbEntity
  8
P-376E
  6
Continuous
 62
     2
370
    -2
100
AcDbLine
 10
618.2302228171975
 20
-112.4851021435893
 30
0.0
 11
618.2302228171975
 21
62.97347303660354
 31
0.0
  0
LINE
  5
3207
330
2C56
100
AcDbEntity
  8
P-376E
  6
Continuous
 62
     2
370
    -2
100
AcDbLine
 10
683.230222817196
 20
-112.4851021435893
 30
0.0
 11
683.230222817196
 21
62.97347303660354
 31
0.0
  0
LINE
  5
3208
330
2C56
100
AcDbEntity
  8
P-376E
  6
Continuous
 62
     2
370
    -2
100
AcDbLine
 10
598.2302228171975
 20
47.97347303660354
 30
0.0
 11
578.2302228171975
 21
47.97347303660354
 31
0.0
  0
LINE
  5
3209
330
2C56
100
AcDbEntity
  8
P-376E
  6
Continuous
 62
     2
370
    -2
100
AcDbLine
 10
703.230222817196
 20
47.97347303660354
 30
0.0
 11
776.131097452766
 21
47.97347303660354
 31
0.0
  0
LINE
  5
320A
330
2C56
100
AcDbEntity
  8
P-376E
  6
Continuous
 62
     2
370
    -2
100
AcDbLine
 10
618.2302228171975
 20
47.97347303660354
 30
0.0
 11
683.230222817196
 21
47.97347303660354
 31
0.0
  0
SOLID
  5
320B
330
2C56
100
AcDbEntity
  8
P-376E
  6
Continuous
 62
     2
100
AcDbTrace
 10
598.2302228171975
 20
51.30680636993687
 30
0.0
 11
598.2302228171975
 21
44.6401397032702
 31
0.0
 12
618.2302228171975
 22
47.97347303660354
 32
0.0
 13
618.2302228171975
 23
47.97347303660354
 33
0.0
  0
SOLID
  5
320C
330
2C56
100
AcDbEntity
  8
P-376E
  6
Continuous
 62
     2
100
AcDbTrace
 10
703.230222817196
 20
51.30680636993687
 30
0.0
 11
703.230222817196
 21
44.6401397032702
 31
0.0
 12
683.230222817196
 22
47.97347303660354
 32
0.0
 13
683.230222817196
 23
47.97347303660354
 33
0.0
  0
MTEXT
  5
320D
330
2C56
100
AcDbEntity
  8
P-376E
  6
Continuous
 62
     1
100
AcDbMText
 10
749.6806601349817
 20
68.40350219112249
 30
0.0
 40
20.0
 41
0.0
 71
     5
 72
     1
  1
\A1;%%c7
  7
Stile_Quota
 73
     1
 44
1.0
1001
ACAD
1000
MTEXTBEGIN
1070
    73
1070
     1
1070
    44
1040
1.0
1070
    74
1070
     0
1000
MTEXTEND
  0
POINT
  5
320E
330
2C56
100
AcDbEntity
  8
Defpoints
  6
Continuous
 62
     0
100
AcDbPoint
 10
618.2302228171975
 20
-122.4851021435893
 30
0.0
  0
POINT
  5
320F
330
2C56
100
AcDbEntity
  8
Defpoints
  6
Continuous
 62
     0
100
AcDbPoint
 10
683.230222817196
 20
-122.4851021435893
 30
0.0
  0
POINT
  5
3210
330
2C56
100
AcDbEntity
  8
Defpoints
  6
Continuous
 62
     0
100
AcDbPoint
 10
683.230222817196
 20
47.97347303660354
 30
0.0
  0
ENDBLK
  5
2C58
330
2C56
100
AcDbEntity
  8
0
 62
     3
100
AcDbBlockEnd
  0
BLOCK
  5
2C64
330
2C63
100
AcDbEntity
  8
0
 62
     3
100
AcDbBlockBegin
  2
*D5
 70
     1
 10
0.0
 20
0.0
 30
0.0
  3
*D5
  1

  0
LINE
  5
3368
330
2C63
100
AcDbEntity
  8
P-376E
  6
Continuous
 62
     2
370
    -2
100
AcDbLine
 10
65.70915752926158
 20
-216.174606437125
 30
0.0
 11
8.097597492616879
 21
-216.174606437125
 31
0.0
  0
LINE
  5
3369
330
2C63
100
AcDbEntity
  8
P-376E
  6
Continuous
 62
     2
370
    -2
100
AcDbLine
 10
200.1820835805502
 20
-376.1746064371246
 30
0.0
 11
8.097597492616843
 21
-376.1746064371245
 31
0.0
  0
LINE
  5
336A
330
2C63
100
AcDbEntity
  8
P-376E
  6
Continuous
 62
     2
370
    -2
100
AcDbLine
 10
23.09759749261687
 20
-236.174606437125
 30
0.0
 11
23.09759749261685
 21
-356.1746064371245
 31
0.0
  0
SOLID
  5
336B
330
2C63
100
AcDbEntity
  8
P-376E
  6
Continuous
 62
     2
100
AcDbTrace
 10
19.76426415928354
 20
-236.174606437125
 30
0.0
 11
26.43093082595021
 21
-236.174606437125
 31
0.0
 12
23.09759749261688
 22
-216.174606437125
 32
0.0
 13
23.09759749261688
 23
-216.174606437125
 33
0.0
  0
SOLID
  5
336C
330
2C63
100
AcDbEntity
  8
P-376E
  6
Continuous
 62
     2
100
AcDbTrace
 10
19.76426415928352
 20
-356.1746064371245
 30
0.0
 11
26.43093082595018
 21
-356.1746064371245
 31
0.0
 12
23.09759749261684
 22
-376.1746064371245
 32
0.0
 13
23.09759749261684
 23
-376.1746064371245
 33
0.0
  0
MTEXT
  5
336D
330
2C63
100
AcDbEntity
  8
P-376E
  6
Continuous
 62
     1
100
AcDbMText
 10
2.871649970751018
 20
-296.1746064371247
 30
0.0
 40
20.0
 41
0.0
 71
     5
 72
     1
  1
\A1;16
  7
Stile_Quota
 11
0.0000000000000001
 21
1.0
 31
0.0
 73
     1
 44
1.0
1001
ACAD
1000
MTEXTBEGIN
1070
    73
1070
     1
1070
    44
1040
1.0
1070
    74
1070
     0
1000
MTEXTEND
  0
POINT
  5
336E
330
2C63
100
AcDbEntity
  8
Defpoints
  6
Continuous
 62
     0
100
AcDbPoint
 10
75.70915752926158
 20
-216.174606437125
 30
0.0
  0
POINT
  5
336F
330
2C63
100
AcDbEntity
  8
Defpoints
  6
Continuous
 62
     0
100
AcDbPoint
 10
210.1820835805502
 20
-376.1746064371246
 30
0.0
  0
POINT
  5
3370
330
2C63
100
AcDbEntity
  8
Defpoints
  6
Continuous
 62
     0
100
AcDbPoint
 10
23.09759749261684
 20
-376.1746064371245
 30
0.0
  0
ENDBLK
  5
2C65
330
2C63
100
AcDbEntity
  8
0
 62
     3
100
AcDbBlockEnd
  0
BLOCK
  5
2CCC
330
2CCB
100
AcDbEntity
  8
0
 62
     3
100
AcDbBlockBegin
  2
*D6
 70
     1
 10
0.0
 20
0.0
 30
0.0
  3
*D6
  1

  0
LINE
  5
330E
330
2CCB
100
AcDbEntity
  8
P-376E
  6
Continuous
 62
     2
370
    -2
100
AcDbLine
 10
-825.7890631552637
 20
1160.119811606207
 30
0.0
 11
-974.7102177921496
 21
1160.119811606207
 31
0.0
  0
LINE
  5
330F
330
2CCB
100
AcDbEntity
  8
P-376E
  6
Continuous
 62
     2
370
    -2
100
AcDbLine
 10
-825.7890631552637
 20
860.1198116062068
 30
0.0
 11
-974.7102177921496
 21
860.1198116062068
 31
0.0
  0
LINE
  5
3310
330
2CCB
100
AcDbEntity
  8
P-376E
  6
Continuous
 62
     2
370
    -2
100
AcDbLine
 10
-959.7102177921495
 20
1140.119811606207
 30
0.0
 11
-959.7102177921495
 21
880.1198116062069
 31
0.0
  0
SOLID
  5
3311
330
2CCB
100
AcDbEntity
  8
P-376E
  6
Continuous
 62
     2
100
AcDbTrace
 10
-963.0435511254828
 20
1140.119811606207
 30
0.0
 11
-956.3768844588162
 21
1140.119811606207
 31
0.0
 12
-959.7102177921495
 22
1160.119811606207
 32
0.0
 13
-959.7102177921495
 23
1160.119811606207
 33
0.0
  0
SOLID
  5
3312
330
2CCB
100
AcDbEntity
  8
P-376E
  6
Continuous
 62
     2
100
AcDbTrace
 10
-963.0435511254828
 20
880.1198116062069
 30
0.0
 11
-956.3768844588162
 21
880.1198116062069
 31
0.0
 12
-959.7102177921495
 22
860.1198116062068
 32
0.0
 13
-959.7102177921495
 23
860.1198116062068
 33
0.0
  0
MTEXT
  5
3313
330
2CCB
100
AcDbEntity
  8
P-376E
  6
Continuous
 62
     1
100
AcDbMText
 10
-979.9361653140156
 20
1010.119811606207
 30
0.0
 40
20.0
 41
0.0
 71
     5
 72
     1
  1
\A1;30
  7
Stile_Quota
 11
0.0000000000000001
 21
1.0
 31
0.0
 73
     1
 44
1.0
1001
ACAD
1000
MTEXTBEGIN
1070
    73
1070
     1
1070
    44
1040
1.0
1070
    74
1070
     0
1000
MTEXTEND
  0
POINT
  5
3314
330
2CCB
100
AcDbEntity
  8
Defpoints
  6
Continuous
 62
     0
100
AcDbPoint
 10
-815.7890631552636
 20
1160.119811606207
 30
0.0
  0
POINT
  5
3315
330
2CCB
100
AcDbEntity
  8
Defpoints
  6
Continuous
 62
     0
100
AcDbPoint
 10
-815.7890631552636
 20
860.1198116062068
 30
0.0
  0
POINT
  5
3316
330
2CCB
100
AcDbEntity
  8
Defpoints
  6
Continuous
 62
     0
100
AcDbPoint
 10
-959.7102177921495
 20
860.1198116062068
 30
0.0
  0
ENDBLK
  5
2CCD
330
2CCB
100
AcDbEntity
  8
0
 62
     3
100
AcDbBlockEnd
  0
BLOCK
  5
2CD9
330
2CD8
100
AcDbEntity
  8
0
 62
     3
100
AcDbBlockBegin
  2
*D7
 70
     1
 10
0.0
 20
0.0
 30
0.0
  3
*D7
  1

  0
LINE
  5
338E
330
2CD8
100
AcDbEntity
  8
P-376E
  6
Continuous
 62
     2
370
    -2
100
AcDbLine
 10
-733.3591778832688
 20
-139.8801883937949
 30
0.0
 11
-1040.956103362196
 21
-139.8801883937948
 31
0.0
  0
LINE
  5
338F
330
2CD8
100
AcDbEntity
  8
P-376E
  6
Continuous
 62
     2
370
    -2
100
AcDbLine
 10
-825.7890631552637
 20
1160.119811606207
 30
0.0
 11
-1040.956103362196
 21
1160.119811606207
 31
0.0
  0
LINE
  5
3390
330
2CD8
100
AcDbEntity
  8
P-376E
  6
Continuous
 62
     2
370
    -2
100
AcDbLine
 10
-1025.956103362196
 20
-119.8801883937948
 30
0.0
 11
-1025.956103362196
 21
1140.119811606207
 31
0.0
  0
SOLID
  5
3391
330
2CD8
100
AcDbEntity
  8
P-376E
  6
Continuous
 62
     2
100
AcDbTrace
 10
-1029.289436695529
 20
-119.8801883937948
 30
0.0
 11
-1022.622770028863
 21
-119.8801883937948
 31
0.0
 12
-1025.956103362196
 22
-139.8801883937948
 32
0.0
 13
-1025.956103362196
 23
-139.8801883937948
 33
0.0
  0
SOLID
  5
3392
330
2CD8
100
AcDbEntity
  8
P-376E
  6
Continuous
 62
     2
100
AcDbTrace
 10
-1029.289436695529
 20
1140.119811606207
 30
0.0
 11
-1022.622770028862
 21
1140.119811606207
 31
0.0
 12
-1025.956103362196
 22
1160.119811606207
 32
0.0
 13
-1025.956103362196
 23
1160.119811606207
 33
0.0
  0
MTEXT
  5
3393
330
2CD8
100
AcDbEntity
  8
P-376E
  6
Continuous
 62
     1
100
AcDbMText
 10
-1046.182050884062
 20
510.1198116062058
 30
0.0
 40
20.0
 41
0.0
 71
     5
 72
     1
  1
\A1;130
  7
Stile_Quota
 11
0.0000000000000001
 21
1.0
 31
0.0
 73
     1
 44
1.0
1001
ACAD
1000
MTEXTBEGIN
1070
    73
1070
     1
1070
    44
1040
1.0
1070
    74
1070
     0
1000
MTEXTEND
  0
POINT
  5
3394
330
2CD8
100
AcDbEntity
  8
Defpoints
  6
Continuous
 62
     0
100
AcDbPoint
 10
-723.3591778832687
 20
-139.8801883937949
 30
0.0
  0
POINT
  5
3395
330
2CD8
100
AcDbEntity
  8
Defpoints
  6
Continuous
 62
     0
100
AcDbPoint
 10
-815.7890631552636
 20
1160.119811606207
 30
0.0
  0
POINT
  5
3396
330
2CD8
100
AcDbEntity
  8
Defpoints
  6
Continuous
 62
     0
100
AcDbPoint
 10
-1025.956103362196
 20
1160.119811606207
 30
0.0
  0
ENDBLK
  5
2CDA
330
2CD8
100
AcDbEntity
  8
0
 62
     3
100
AcDbBlockEnd
  0
BLOCK
  5
2CE5
330
2CE4
100
AcDbEntity
  8
0
 62
     3
100
AcDbBlockBegin
  2
*D8
 70
     1
 10
0.0
 20
0.0
 30
0.0
  3
*D8
  1

  0
LINE
  5
3320
330
2CE4
100
AcDbEntity
  8
P-376E
  6
Continuous
 62
     2
370
    -2
100
AcDbLine
 10
-703.3241033563863
 20
-14.88018839379492
 30
0.0
 11
-908.9214411019602
 21
-14.88018839379486
 31
0.0
  0
LINE
  5
3321
330
2CE4
100
AcDbEntity
  8
P-376E
  6
Continuous
 62
     2
370
    -2
100
AcDbLine
 10
-699.9868832165702
 20
-264.8801883937949
 30
0.0
 11
-908.9214411019604
 21
-264.8801883937949
 31
0.0
  0
LINE
  5
3322
330
2CE4
100
AcDbEntity
  8
P-376E
  6
Continuous
 62
     2
370
    -2
100
AcDbLine
 10
-893.9214411019602
 20
-34.88018839379487
 30
0.0
 11
-893.9214411019602
 21
-244.8801883937949
 31
0.0
  0
SOLID
  5
3323
330
2CE4
100
AcDbEntity
  8
P-376E
  6
Continuous
 62
     2
100
AcDbTrace
 10
-897.2547744352935
 20
-34.88018839379487
 30
0.0
 11
-890.5881077686268
 21
-34.88018839379487
 31
0.0
 12
-893.9214411019602
 22
-14.88018839379487
 32
0.0
 13
-893.9214411019602
 23
-14.88018839379487
 33
0.0
  0
SOLID
  5
3324
330
2CE4
100
AcDbEntity
  8
P-376E
  6
Continuous
 62
     2
100
AcDbTrace
 10
-897.2547744352935
 20
-244.8801883937949
 30
0.0
 11
-890.5881077686268
 21
-244.8801883937949
 31
0.0
 12
-893.9214411019603
 22
-264.8801883937949
 32
0.0
 13
-893.9214411019603
 23
-264.8801883937949
 33
0.0
  0
MTEXT
  5
3325
330
2CE4
100
AcDbEntity
  8
P-376E
  6
Continuous
 62
     1
100
AcDbMText
 10
-914.147388623826
 20
-139.880188393795
 30
0.0
 40
20.0
 41
0.0
 71
     5
 72
     1
  1
\A1;25
  7
Stile_Quota
 11
0.0000000000000001
 21
1.0
 31
0.0
 73
     1
 44
1.0
1001
ACAD
1000
MTEXTBEGIN
1070
    73
1070
     1
1070
    44
1040
1.0
1070
    74
1070
     0
1000
MTEXTEND
  0
POINT
  5
3326
330
2CE4
100
AcDbEntity
  8
Defpoints
  6
Continuous
 62
     0
100
AcDbPoint
 10
-693.3241033563863
 20
-14.88018839379492
 30
0.0
  0
POINT
  5
3327
330
2CE4
100
AcDbEntity
  8
Defpoints
  6
Continuous
 62
     0
100
AcDbPoint
 10
-689.9868832165703
 20
-264.8801883937949
 30
0.0
  0
POINT
  5
3328
330
2CE4
100
AcDbEntity
  8
Defpoints
  6
Continuous
 62
     0
100
AcDbPoint
 10
-893.9214411019603
 20
-264.8801883937949
 30
0.0
  0
ENDBLK
  5
2CE6
330
2CE4
100
AcDbEntity
  8
0
 62
     3
100
AcDbBlockEnd
  0
BLOCK
  5
2CF2
330
2CF1
100
AcDbEntity
  8
0
 62
     3
100
AcDbBlockBegin
  2
*D9
 70
     1
 10
0.0
 20
0.0
 30
0.0
  3
*D9
  1

  0
LINE
  5
3329
330
2CF1
100
AcDbEntity
  8
P-376E
  6
Continuous
 62
     2
370
    -2
100
AcDbLine
 10
-585.7890631552636
 20
-456.3863369580749
 30
0.0
 11
-585.7890631552636
 21
-705.9147258618322
 31
0.0
  0
LINE
  5
332A
330
2CF1
100
AcDbEntity
  8
P-376E
  6
Continuous
 62
     2
370
    -2
100
AcDbLine
 10
-515.7890631552636
 20
-589.8053205833821
 30
0.0
 11
-515.7890631552636
 21
-705.9147258618322
 31
0.0
  0
LINE
  5
332B
330
2CF1
100
AcDbEntity
  8
P-376E
  6
Continuous
 62
     2
370
    -2
100
AcDbLine
 10
-565.7890631552636
 20
-690.9147258618323
 30
0.0
 11
-535.7890631552636
 21
-690.9147258618323
 31
0.0
  0
SOLID
  5
332C
330
2CF1
100
AcDbEntity
  8
P-376E
  6
Continuous
 62
     2
100
AcDbTrace
 10
-565.7890631552636
 20
-687.5813925284989
 30
0.0
 11
-565.7890631552636
 21
-694.2480591951656
 31
0.0
 12
-585.7890631552636
 22
-690.9147258618323
 32
0.0
 13
-585.7890631552636
 23
-690.9147258618323
 33
0.0
  0
SOLID
  5
332D
330
2CF1
100
AcDbEntity
  8
P-376E
  6
Continuous
 62
     2
100
AcDbTrace
 10
-535.7890631552636
 20
-687.5813925284989
 30
0.0
 11
-535.7890631552636
 21
-694.2480591951656
 31
0.0
 12
-515.7890631552636
 22
-690.9147258618323
 32
0.0
 13
-515.7890631552636
 23
-690.9147258618323
 33
0.0
  0
MTEXT
  5
332E
330
2CF1
100
AcDbEntity
  8
P-376E
  6
Continuous
 62
     1
100
AcDbMText
 10
-550.7890631552636
 20
-670.6158920425902
 30
0.0
 40
20.0
 41
0.0
 71
     5
 72
     1
  1
\A1;7
  7
Stile_Quota
 73
     1
 44
1.0
1001
ACAD
1000
MTEXTBEGIN
1070
    73
1070
     1
1070
    44
1040
1.0
1070
    74
1070
     0
1000
MTEXTEND
  0
POINT
  5
332F
330
2CF1
100
AcDbEntity
  8
Defpoints
  6
Continuous
 62
     0
100
AcDbPoint
 10
-585.7890631552636
 20
-446.3863369580749
 30
0.0
  0
POINT
  5
3330
330
2CF1
100
AcDbEntity
  8
Defpoints
  6
Continuous
 62
     0
100
AcDbPoint
 10
-515.7890631552636
 20
-579.8053205833821
 30
0.0
  0
POINT
  5
3331
330
2CF1
100
AcDbEntity
  8
Defpoints
  6
Continuous
 62
     0
100
AcDbPoint
 10
-515.7890631552636
 20
-690.9147258618323
 30
0.0
  0
ENDBLK
  5
2CF3
330
2CF1
100
AcDbEntity
  8
0
 62
     3
100
AcDbBlockEnd
  0
BLOCK
  5
2CFF
330
2CFE
100
AcDbEntity
  8
0
 62
     3
100
AcDbBlockBegin
  2
*D10
 70
     1
 10
0.0
 20
0.0
 30
0.0
  3
*D10
  1

  0
LINE
  5
3332
330
2CFE
100
AcDbEntity
  8
P-376E
  6
Continuous
 62
     2
370
    -2
100
AcDbLine
 10
-435.7890631552636
 20
-580.871166361172
 30
0.0
 11
-435.7890631552636
 21
-705.9318651339163
 31
0.0
  0
LINE
  5
3333
330
2CFE
100
AcDbEntity
  8
P-376E
  6
Continuous
 62
     2
370
    -2
100
AcDbLine
 10
-215.7890631552636
 20
-261.1039281019643
 30
0.0
 11
-215.7890631552637
 21
-705.9318651339163
 31
0.0
  0
LINE
  5
3334
330
2CFE
100
AcDbEntity
  8
P-376E
  6
Continuous
 62
     2
370
    -2
100
AcDbLine
 10
-415.7890631552636
 20
-690.9318651339162
 30
0.0
 11
-235.7890631552637
 21
-690.9318651339162
 31
0.0
  0
SOLID
  5
3335
330
2CFE
100
AcDbEntity
  8
P-376E
  6
Continuous
 62
     2
100
AcDbTrace
 10
-415.7890631552636
 20
-687.5985318005829
 30
0.0
 11
-415.7890631552636
 21
-694.2651984672497
 31
0.0
 12
-435.7890631552636
 22
-690.9318651339162
 32
0.0
 13
-435.7890631552636
 23
-690.9318651339162
 33
0.0
  0
SOLID
  5
3336
330
2CFE
100
AcDbEntity
  8
P-376E
  6
Continuous
 62
     2
100
AcDbTrace
 10
-235.7890631552637
 20
-687.5985318005829
 30
0.0
 11
-235.7890631552637
 21
-694.2651984672497
 31
0.0
 12
-215.7890631552637
 22
-690.9318651339162
 32
0.0
 13
-215.7890631552637
 23
-690.9318651339162
 33
0.0
  0
MTEXT
  5
3337
330
2CFE
100
AcDbEntity
  8
P-376E
  6
Continuous
 62
     1
100
AcDbMText
 10
-325.7890631552637
 20
-670.9318651339162
 30
0.0
 40
20.0
 41
0.0
 71
     5
 72
     1
  1
\A1;22
  7
Stile_Quota
 73
     1
 44
1.0
1001
ACAD
1000
MTEXTBEGIN
1070
    73
1070
     1
1070
    44
1040
1.0
1070
    74
1070
     0
1000
MTEXTEND
  0
POINT
  5
3338
330
2CFE
100
AcDbEntity
  8
Defpoints
  6
Continuous
 62
     0
100
AcDbPoint
 10
-435.7890631552636
 20
-570.8711663611721
 30
0.0
  0
POINT
  5
3339
330
2CFE
100
AcDbEntity
  8
Defpoints
  6
Continuous
 62
     0
100
AcDbPoint
 10
-215.7890631552636
 20
-251.1039281019644
 30
0.0
  0
POINT
  5
333A
330
2CFE
100
AcDbEntity
  8
Defpoints
  6
Continuous
 62
     0
100
AcDbPoint
 10
-215.7890631552637
 20
-690.9318651339162
 30
0.0
  0
ENDBLK
  5
2D00
330
2CFE
100
AcDbEntity
  8
0
 62
     3
100
AcDbBlockEnd
  0
BLOCK
  5
2D0C
330
2D0B
100
AcDbEntity
  8
0
 62
     3
100
AcDbBlockBegin
  2
*D11
 70
     1
 10
0.0
 20
0.0
 30
0.0
  3
*D11
  1

  0
LINE
  5
333B
330
2D0B
100
AcDbEntity
  8
P-376E
  6
Continuous
 62
     2
370
    -2
100
AcDbLine
 10
-815.7890631552636
 20
1170.119811606207
 30
0.0
 11
-815.7890631552636
 21
1286.322862441237
 31
0.0
  0
LINE
  5
333C
330
2D0B
100
AcDbEntity
  8
P-376E
  6
Continuous
 62
     2
370
    -2
100
AcDbLine
 10
-515.7890631552636
 20
1170.119811606207
 30
0.0
 11
-515.7890631552636
 21
1286.322862441237
 31
0.0
  0
LINE
  5
333D
330
2D0B
100
AcDbEntity
  8
P-376E
  6
Continuous
 62
     2
370
    -2
100
AcDbLine
 10
-795.7890631552636
 20
1271.322862441237
 30
0.0
 11
-535.7890631552636
 21
1271.322862441237
 31
0.0
  0
SOLID
  5
333E
330
2D0B
100
AcDbEntity
  8
P-376E
  6
Continuous
 62
     2
100
AcDbTrace
 10
-795.7890631552636
 20
1274.65619577457
 30
0.0
 11
-795.7890631552636
 21
1267.989529107903
 31
0.0
 12
-815.7890631552636
 22
1271.322862441237
 32
0.0
 13
-815.7890631552636
 23
1271.322862441237
 33
0.0
  0
SOLID
  5
333F
330
2D0B
100
AcDbEntity
  8
P-376E
  6
Continuous
 62
     2
100
AcDbTrace
 10
-535.7890631552636
 20
1274.65619577457
 30
0.0
 11
-535.7890631552636
 21
1267.989529107903
 31
0.0
 12
-515.7890631552636
 22
1271.322862441237
 32
0.0
 13
-515.7890631552636
 23
1271.322862441237
 33
0.0
  0
MTEXT
  5
3340
330
2D0B
100
AcDbEntity
  8
P-376E
  6
Continuous
 62
     1
100
AcDbMText
 10
-665.7890631552636
 20
1291.548809963102
 30
0.0
 40
20.0
 41
0.0
 71
     5
 72
     1
  1
\A1;30
  7
Stile_Quota
 73
     1
 44
1.0
1001
ACAD
1000
MTEXTBEGIN
1070
    73
1070
     1
1070
    44
1040
1.0
1070
    74
1070
     0
1000
MTEXTEND
  0
POINT
  5
3341
330
2D0B
100
AcDbEntity
  8
Defpoints
  6
Continuous
 62
     0
100
AcDbPoint
 10
-815.7890631552636
 20
1160.119811606207
 30
0.0
  0
POINT
  5
3342
330
2D0B
100
AcDbEntity
  8
Defpoints
  6
Continuous
 62
     0
100
AcDbPoint
 10
-515.7890631552636
 20
1160.119811606207
 30
0.0
  0
POINT
  5
3343
330
2D0B
100
AcDbEntity
  8
Defpoints
  6
Continuous
 62
     0
100
AcDbPoint
 10
-515.7890631552636
 20
1271.322862441237
 30
0.0
  0
ENDBLK
  5
2D0D
330
2D0B
100
AcDbEntity
  8
0
 62
     3
100
AcDbBlockEnd
  0
BLOCK
  5
2D19
330
2D18
100
AcDbEntity
  8
0
 62
     3
100
AcDbBlockBegin
  2
*D12
 70
     1
 10
0.0
 20
0.0
 30
0.0
  3
*D12
  1

  0
LINE
  5
3344
330
2D18
100
AcDbEntity
  8
P-376E
  6
Continuous
 62
     2
370
    -2
100
AcDbLine
 10
-515.7890631552636
 20
1170.119811606207
 30
0.0
 11
-515.7890631552636
 21
1286.322862441237
 31
0.0
  0
LINE
  5
3345
330
2D18
100
AcDbEntity
  8
P-376E
  6
Continuous
 62
     2
370
    -2
100
AcDbLine
 10
-435.7890631552636
 20
790.1198116062069
 30
0.0
 11
-435.7890631552636
 21
1286.322862441237
 31
0.0
  0
LINE
  5
3346
330
2D18
100
AcDbEntity
  8
P-376E
  6
Continuous
 62
     2
370
    -2
100
AcDbLine
 10
-495.7890631552636
 20
1271.322862441237
 30
0.0
 11
-455.7890631552636
 21
1271.322862441237
 31
0.0
  0
SOLID
  5
3347
330
2D18
100
AcDbEntity
  8
P-376E
  6
Continuous
 62
     2
100
AcDbTrace
 10
-495.7890631552636
 20
1274.65619577457
 30
0.0
 11
-495.7890631552636
 21
1267.989529107903
 31
0.0
 12
-515.7890631552636
 22
1271.322862441237
 32
0.0
 13
-515.7890631552636
 23
1271.322862441237
 33
0.0
  0
SOLID
  5
3348
330
2D18
100
AcDbEntity
  8
P-376E
  6
Continuous
 62
     2
100
AcDbTrace
 10
-455.7890631552636
 20
1274.65619577457
 30
0.0
 11
-455.7890631552636
 21
1267.989529107903
 31
0.0
 12
-435.7890631552636
 22
1271.322862441237
 32
0.0
 13
-435.7890631552636
 23
1271.322862441237
 33
0.0
  0
MTEXT
  5
3349
330
2D18
100
AcDbEntity
  8
P-376E
  6
Continuous
 62
     1
100
AcDbMText
 10
-475.7890631552636
 20
1291.548809963102
 30
0.0
 40
20.0
 41
0.0
 71
     5
 72
     1
  1
\A1;8
  7
Stile_Quota
 73
     1
 44
1.0
1001
ACAD
1000
MTEXTBEGIN
1070
    73
1070
     1
1070
    44
1040
1.0
1070
    74
1070
     0
1000
MTEXTEND
  0
POINT
  5
334A
330
2D18
100
AcDbEntity
  8
Defpoints
  6
Continuous
 62
     0
100
AcDbPoint
 10
-515.7890631552636
 20
1160.119811606207
 30
0.0
  0
POINT
  5
334B
330
2D18
100
AcDbEntity
  8
Defpoints
  6
Continuous
 62
     0
100
AcDbPoint
 10
-435.7890631552636
 20
780.1198116062068
 30
0.0
  0
POINT
  5
334C
330
2D18
100
AcDbEntity
  8
Defpoints
  6
Continuous
 62
     0
100
AcDbPoint
 10
-435.7890631552636
 20
1271.322862441237
 30
0.0
  0
ENDBLK
  5
2D1A
330
2D18
100
AcDbEntity
  8
0
 62
     3
100
AcDbBlockEnd
  0
BLOCK
  5
2D26
330
2D25
100
AcDbEntity
  8
0
 62
     3
100
AcDbBlockBegin
  2
*D13
 70
     1
 10
0.0
 20
0.0
 30
0.0
  3
*D13
  1

  0
LINE
  5
334D
330
2D25
100
AcDbEntity
  8
P-376E
  6
Continuous
 62
     2
370
    -2
100
AcDbLine
 10
-825.7890631552637
 20
860.1198116062068
 30
0.0
 11
-974.7102177921494
 21
860.1198116062068
 31
0.0
  0
LINE
  5
334E
330
2D25
100
AcDbEntity
  8
P-376E
  6
Continuous
 62
     2
370
    -2
100
AcDbLine
 10
-445.7890631552636
 20
780.1198116062068
 30
0.0
 11
-974.7102177921494
 21
780.119811606207
 31
0.0
  0
LINE
  5
334F
330
2D25
100
AcDbEntity
  8
P-376E
  6
Continuous
 62
     2
370
    -2
100
AcDbLine
 10
-959.7102177921495
 20
840.1198116062069
 30
0.0
 11
-959.7102177921495
 21
800.119811606207
 31
0.0
  0
SOLID
  5
3350
330
2D25
100
AcDbEntity
  8
P-376E
  6
Continuous
 62
     2
100
AcDbTrace
 10
-963.0435511254828
 20
840.1198116062069
 30
0.0
 11
-956.376884458816
 21
840.1198116062069
 31
0.0
 12
-959.7102177921495
 22
860.1198116062068
 32
0.0
 13
-959.7102177921495
 23
860.1198116062068
 33
0.0
  0
SOLID
  5
3351
330
2D25
100
AcDbEntity
  8
P-376E
  6
Continuous
 62
     2
100
AcDbTrace
 10
-963.0435511254828
 20
800.119811606207
 30
0.0
 11
-956.376884458816
 21
800.119811606207
 31
0.0
 12
-959.7102177921495
 22
780.119811606207
 32
0.0
 13
-959.7102177921495
 23
780.119811606207
 33
0.0
  0
MTEXT
  5
3352
330
2D25
100
AcDbEntity
  8
P-376E
  6
Continuous
 62
     1
100
AcDbMText
 10
-979.9361653140156
 20
820.1198116062068
 30
0.0
 40
20.0
 41
0.0
 71
     5
 72
     1
  1
\A1;8
  7
Stile_Quota
 11
0.0000000000000001
 21
1.0
 31
0.0
 73
     1
 44
1.0
1001
ACAD
1000
MTEXTBEGIN
1070
    73
1070
     1
1070
    44
1040
1.0
1070
    74
1070
     0
1000
MTEXTEND
  0
POINT
  5
3353
330
2D25
100
AcDbEntity
  8
Defpoints
  6
Continuous
 62
     0
100
AcDbPoint
 10
-815.7890631552636
 20
860.1198116062068
 30
0.0
  0
POINT
  5
3354
330
2D25
100
AcDbEntity
  8
Defpoints
  6
Continuous
 62
     0
100
AcDbPoint
 10
-435.7890631552636
 20
780.1198116062068
 30
0.0
  0
POINT
  5
3355
330
2D25
100
AcDbEntity
  8
Defpoints
  6
Continuous
 62
     0
100
AcDbPoint
 10
-959.7102177921495
 20
780.119811606207
 30
0.0
  0
ENDBLK
  5
2D27
330
2D25
100
AcDbEntity
  8
0
 62
     3
100
AcDbBlockEnd
  0
BLOCK
  5
2D33
330
2D32
100
AcDbEntity
  8
0
 62
     3
100
AcDbBlockBegin
  2
*D14
 70
     1
 10
0.0
 20
0.0
 30
0.0
  3
*D14
  1

  0
LINE
  5
33BB
330
2D32
100
AcDbEntity
  8
P-376E
  6
Continuous
 62
     2
370
    -2
100
AcDbLine
 10
-445.7890631552636
 20
780.1198116062068
 30
0.0
 11
-974.7102177921494
 21
780.119811606207
 31
0.0
  0
LINE
  5
33BC
330
2D32
100
AcDbEntity
  8
P-376E
  6
Continuous
 62
     2
370
    -2
100
AcDbLine
 10
-733.3591778832688
 20
-139.8801883937949
 30
0.0
 11
-974.7102177921497
 21
-139.8801883937948
 31
0.0
  0
LINE
  5
33BD
330
2D32
100
AcDbEntity
  8
P-376E
  6
Continuous
 62
     2
370
    -2
100
AcDbLine
 10
-959.7102177921495
 20
760.119811606207
 30
0.0
 11
-959.7102177921497
 21
-119.8801883937948
 31
0.0
  0
SOLID
  5
33BE
330
2D32
100
AcDbEntity
  8
P-376E
  6
Continuous
 62
     2
100
AcDbTrace
 10
-963.0435511254828
 20
760.119811606207
 30
0.0
 11
-956.3768844588162
 21
760.119811606207
 31
0.0
 12
-959.7102177921495
 22
780.119811606207
 32
0.0
 13
-959.7102177921495
 23
780.119811606207
 33
0.0
  0
SOLID
  5
33BF
330
2D32
100
AcDbEntity
  8
P-376E
  6
Continuous
 62
     2
100
AcDbTrace
 10
-963.043551125483
 20
-119.8801883937948
 30
0.0
 11
-956.3768844588164
 21
-119.8801883937948
 31
0.0
 12
-959.7102177921497
 22
-139.8801883937949
 32
0.0
 13
-959.7102177921497
 23
-139.8801883937949
 33
0.0
  0
MTEXT
  5
33C0
330
2D32
100
AcDbEntity
  8
P-376E
  6
Continuous
 62
     1
100
AcDbMText
 10
-979.9434539437532
 20
320.1198116062059
 30
0.0
 40
20.0
 41
0.0
 71
     5
 72
     1
  1
\A1;92
  7
Stile_Quota
 11
0.0000000000000001
 21
1.0
 31
0.0
 73
     1
 44
1.0
1001
ACAD
1000
MTEXTBEGIN
1070
    73
1070
     1
1070
    44
1040
1.0
1070
    74
1070
     0
1000
MTEXTEND
  0
POINT
  5
33C1
330
2D32
100
AcDbEntity
  8
Defpoints
  6
Continuous
 62
     0
100
AcDbPoint
 10
-435.7890631552636
 20
780.1198116062068
 30
0.0
  0
POINT
  5
33C2
330
2D32
100
AcDbEntity
  8
Defpoints
  6
Continuous
 62
     0
100
AcDbPoint
 10
-723.3591778832687
 20
-139.8801883937949
 30
0.0
  0
POINT
  5
33C3
330
2D32
100
AcDbEntity
  8
Defpoints
  6
Continuous
 62
     0
100
AcDbPoint
 10
-959.7102177921497
 20
-139.8801883937949
 30
0.0
  0
ENDBLK
  5
2D34
330
2D32
100
AcDbEntity
  8
0
 62
     3
100
AcDbBlockEnd
  0
BLOCK
  5
2E60
330
2E5F
100
AcDbEntity
  8
0
 62
     3
100
AcDbBlockBegin
  2
*D15
 70
     1
 10
0.0
 20
0.0
 30
0.0
  3
*D15
  1

  0
LINE
  5
335F
330
2E5F
100
AcDbEntity
  8
P-376E
  6
Continuous
 62
     2
370
    -2
100
AcDbLine
 10
-515.7890631552636
 20
-589.8053205833821
 30
0.0
 11
-515.7890631552636
 21
-705.9318651339163
 31
0.0
  0
LINE
  5
3360
330
2E5F
100
AcDbEntity
  8
P-376E
  6
Continuous
 62
     2
370
    -2
100
AcDbLine
 10
-435.7890631552636
 20
-580.871166361172
 30
0.0
 11
-435.7890631552636
 21
-705.9318651339163
 31
0.0
  0
LINE
  5
3361
330
2E5F
100
AcDbEntity
  8
P-376E
  6
Continuous
 62
     2
370
    -2
100
AcDbLine
 10
-495.7890631552636
 20
-690.9318651339162
 30
0.0
 11
-455.7890631552636
 21
-690.9318651339162
 31
0.0
  0
SOLID
  5
3362
330
2E5F
100
AcDbEntity
  8
P-376E
  6
Continuous
 62
     2
100
AcDbTrace
 10
-495.7890631552636
 20
-687.5985318005829
 30
0.0
 11
-495.7890631552636
 21
-694.2651984672497
 31
0.0
 12
-515.7890631552636
 22
-690.9318651339162
 32
0.0
 13
-515.7890631552636
 23
-690.9318651339162
 33
0.0
  0
SOLID
  5
3363
330
2E5F
100
AcDbEntity
  8
P-376E
  6
Continuous
 62
     2
100
AcDbTrace
 10
-455.7890631552636
 20
-687.5985318005829
 30
0.0
 11
-455.7890631552636
 21
-694.2651984672497
 31
0.0
 12
-435.7890631552636
 22
-690.9318651339162
 32
0.0
 13
-435.7890631552636
 23
-690.9318651339162
 33
0.0
  0
MTEXT
  5
3364
330
2E5F
100
AcDbEntity
  8
P-376E
  6
Continuous
 62
     1
100
AcDbMText
 10
-475.7890631552636
 20
-670.7059176120504
 30
0.0
 40
20.0
 41
0.0
 71
     5
 72
     1
  1
\A1;8
  7
Stile_Quota
 73
     1
 44
1.0
1001
ACAD
1000
MTEXTBEGIN
1070
    73
1070
     1
1070
    44
1040
1.0
1070
    74
1070
     0
1000
MTEXTEND
  0
POINT
  5
3365
330
2E5F
100
AcDbEntity
  8
Defpoints
  6
Continuous
 62
     0
100
AcDbPoint
 10
-515.7890631552636
 20
-579.8053205833821
 30
0.0
  0
POINT
  5
3366
330
2E5F
100
AcDbEntity
  8
Defpoints
  6
Continuous
 62
     0
100
AcDbPoint
 10
-435.7890631552636
 20
-570.8711663611721
 30
0.0
  0
POINT
  5
3367
330
2E5F
100
AcDbEntity
  8
Defpoints
  6
Continuous
 62
     0
100
AcDbPoint
 10
-435.7890631552636
 20
-690.9318651339162
 30
0.0
  0
ENDBLK
  5
2E61
330
2E5F
100
AcDbEntity
  8
0
 62
     3
100
AcDbBlockEnd
  0
ENDSEC
  0
SECTION
  2
ENTITIES
  0
LINE
  5
1D3D
330
2
100
AcDbEntity
  8
P-2B67
  6
Continuous
 62
   144
100
AcDbLine
 10
-44.0
 20
-23.71085846227288
 30
0.0
 11
-30.0
 21
-23.71085846227288
 31
0.0
1001
TOP
1070
     7
  0
LINE
  5
1D3E
330
2
100
AcDbEntity
  8
P-2B67
  6
Continuous
 62
   144
100
AcDbLine
 10
-30.0
 20
-23.71085846227288
 30
0.0
 11
-30.0
 21
-13.71085846227288
 31
0.0
1001
TOP
1070
     7
  0
LINE
  5
1D3F
330
2
100
AcDbEntity
  8
P-2B67
  6
Continuous
 62
   144
100
AcDbLine
 10
-30.0
 20
31.28914153772712
 30
0.0
 11
-44.0
 21
31.28914153772712
 31
0.0
1001
TOP
1070
     7
  0
LINE
  5
1D40
330
2
100
AcDbEntity
  8
P-2B67
  6
Continuous
 62
   144
100
AcDbLine
 10
-44.0
 20
-15.21085846227288
 30
0.0
 11
-30.0
 21
-15.21085846227288
 31
0.0
1001
TOP
1070
     7
  0
LINE
  5
1D41
330
2
100
AcDbEntity
  8
P-2B67
  6
Continuous
 62
   144
100
AcDbLine
 10
-30.0
 20
22.78914153772712
 30
0.0
 11
-44.0
 21
22.78914153772712
 31
0.0
1001
TOP
1070
     7
  0
LINE
  5
1D42
330
2
100
AcDbEntity
  8
P-2B67
  6
ASSI
 62
   144
100
AcDbLine
 10
-29.29139602552437
 20
3.789141537727118
 30
0.0
 11
-45.64874050025037
 21
3.789141537727118
 31
0.0
1001
TOP
1070
     2
  0
LINE
  5
1D43
330
2
100
AcDbEntity
  8
P-2B67
  6
ASSI
 62
   144
100
AcDbLine
 10
-35.240644431688
 20
16.28914153772712
 30
0.0
 11
-38.88619585130778
 21
16.28914153772712
 31
0.0
1001
TOP
1070
     2
  0
LINE
  5
1D44
330
2
100
AcDbEntity
  8
P-2B67
  6
ASSI
 62
   144
100
AcDbLine
 10
-35.24063745096851
 20
-8.710858462272881
 30
0.0
 11
-38.88619585130778
 21
-8.710858462272881
 31
0.0
1001
TOP
1070
     2
  0
LINE
  5
1D46
330
2
100
AcDbEntity
  8
P-2B67
  6
Continuous
 62
   144
100
AcDbLine
 10
-44.0
 20
31.28914153772712
 30
0.0
 11
-44.0
 21
-23.71085846227288
 31
0.0
1001
TOP
1070
     7
  0
LINE
  5
1D47
330
2
100
AcDbEntity
  8
P-2B67
  6
Continuous
 62
   144
100
AcDbLine
 10
-169.8971497722796
 20
149.7830309074952
 30
0.0
 11
-114.8971497722796
 21
149.7830309074952
 31
0.0
1001
TOP
1070
     7
  0
LINE
  5
1D48
330
2
100
AcDbEntity
  8
P-2B67
  6
Continuous
 62
   144
100
AcDbLine
 10
-114.8971497722796
 20
149.7830309074952
 30
0.0
 11
-114.8971497722796
 21
172.7830309074952
 31
0.0
1001
TOP
1070
     7
  0
LINE
  5
1D49
330
2
100
AcDbEntity
  8
P-2B67
  6
Continuous
 62
   144
100
AcDbLine
 10
-114.8971497722796
 20
172.7830309074952
 30
0.0
 11
-123.3971497722796
 21
172.7830309074952
 31
0.0
1001
TOP
1070
     7
  0
LINE
  5
1D4A
330
2
100
AcDbEntity
  8
P-2B67
  6
Continuous
 62
   144
100
AcDbLine
 10
-161.3971497722796
 20
157.2830309074952
 30
0.0
 11
-159.8971497722796
 21
157.2830309074952
 31
0.0
1001
TOP
1070
     7
  0
LINE
  5
1D4B
330
2
100
AcDbEntity
  8
P-2B67
  6
Continuous
 62
   144
100
AcDbLine
 10
-123.3971497722796
 20
172.7830309074952
 30
0.0
 11
-123.3971497722796
 21
157.2830309074952
 31
0.0
1001
TOP
1070
     7
  0
LINE
  5
1D4C
330
2
100
AcDbEntity
  8
P-2B67
  6
Continuous
 62
   144
100
AcDbLine
 10
-169.8971497722796
 20
172.7830309074952
 30
0.0
 11
-161.3971497722796
 21
172.7830309074952
 31
0.0
1001
TOP
1070
     7
  0
LINE
  5
1D4D
330
2
100
AcDbEntity
  8
P-2B67
  6
Continuous
 62
   144
100
AcDbLine
 10
-161.3971497722796
 20
172.7830309074952
 30
0.0
 11
-161.3971497722796
 21
157.2830309074952
 31
0.0
1001
TOP
1070
     7
  0
LINE
  5
1D4E
330
2
100
AcDbEntity
  8
P-2B67
  6
Continuous
 62
   144
100
AcDbLine
 10
-169.8971497722796
 20
149.7830309074952
 30
0.0
 11
-169.8971497722796
 21
172.7830309074952
 31
0.0
1001
TOP
1070
     7
  0
LINE
  5
1D50
330
2
100
AcDbEntity
  8
P-2B67
  6
ASSI
 62
   144
100
AcDbLine
 10
-154.8971497722796
 20
147.3840507977083
 30
0.0
 11
-154.8971497722796
 21
154.1127899429591
 31
0.0
1001
TOP
1070
     2
  0
LINE
  5
1D51
330
2
100
AcDbEntity
  8
P-2B67
  6
Continuous
 62
   144
100
AcDbLine
 10
-44.0
 20
149.7830309074952
 30
0.0
 11
-30.0
 21
149.7830309074952
 31
0.0
1001
TOP
1070
     7
  0
LINE
  5
1D52
330
2
100
AcDbEntity
  8
P-2B67
  6
Continuous
 62
   144
100
AcDbLine
 10
-44.0
 20
149.7830309074952
 30
0.0
 11
-44.0
 21
165.7830309074952
 31
0.0
1001
TOP
1070
     7
  0
LINE
  5
1D53
330
2
100
AcDbEntity
  8
P-2B67
  6
Continuous
 62
   144
100
AcDbLine
 10
-30.0
 20
149.7830309074952
 30
0.0
 11
-30.0
 21
165.7830309074952
 31
0.0
1001
TOP
1070
     7
  0
LINE
  5
1D54
330
2
100
AcDbEntity
  8
P-2B67
  6
ASSI
 62
   144
100
AcDbLine
 10
-39.09823942744697
 20
165.7830309074952
 30
0.0
 11
-35.09823942744697
 21
165.7830309074952
 31
0.0
1001
TOP
1070
     2
  0
ARC
  5
1D55
330
2
100
AcDbEntity
  8
P-2B67
  6
Continuous
 62
   144
100
AcDbCircle
 10
-37.0
 20
165.7830309074952
 30
0.0
 40
7.000000000000006
100
AcDbArc
 50
0.0
 51
180.0
1001
TOP
1070
     7
  0
CIRCLE
  5
1D56
330
2
100
AcDbEntity
  8
P-2B67
  6
Continuous
 62
   144
100
AcDbCircle
 10
-37.0
 20
165.7830309074952
 30
0.0
 40
4.0
1001
TOP
1070
     7
  0
LINE
  5
1D57
330
2
100
AcDbEntity
  8
P-2B67
  6
Continuous
 62
   144
100
AcDbLine
 10
-44.0
 20
157.2830309074952
 30
0.0
 11
-30.0
 21
157.2830309074952
 31
0.0
1001
TOP
1070
     7
  0
LINE
  5
1D58
330
2
100
AcDbEntity
  8
P-2B67
  6
ASSI
 62
   144
100
AcDbLine
 10
-129.8971497722793
 20
147.3840507977083
 30
0.0
 11
-129.8971497722796
 21
154.1127899429591
 31
0.0
1001
TOP
1070
     2
  0
LINE
  5
1D59
330
2
100
AcDbEntity
  8
P-2B67
  6
ASSI
 62
   144
100
AcDbLine
 10
-37.0
 20
163.0977091029863
 30
0.0
 11
-37.0
 21
168.2460810704393
 31
0.0
1001
TOP
1070
     2
  0
LINE
  5
1D5A
330
2
100
AcDbEntity
  8
P-2B67
  6
ASSI
 62
   144
100
AcDbLine
 10
-142.3971497722796
 20
147.4242178578424
 30
0.0
 11
-142.3971497722796
 21
151.847945175867
 31
0.0
1001
TOP
1070
     2
  0
LINE
  5
1D5D
330
2
100
AcDbEntity
  8
P-2B67
  6
ASSI
 62
   144
100
AcDbLine
 10
-37.0
 20
17.4002244439348
 30
0.0
 11
-37.0
 21
14.53434366369242
 31
0.0
1001
TOP
1070
     2
  0
LINE
  5
1D5E
330
2
100
AcDbEntity
  8
P-2B67
  6
ASSI
 62
   144
100
AcDbLine
 10
-37.0
 20
-7.599775556065196
 30
0.0
 11
-37.0
 21
-10.46565633630757
 31
0.0
1001
TOP
1070
     2
  0
LINE
  5
1D5F
330
2
100
AcDbEntity
  8
P-2B67
  6
ASSI
 62
   144
100
AcDbLine
 10
-37.0
 20
5.3559211991153
 30
0.0
 11
-37.0
 21
2.490040418872922
 31
0.0
1001
TOP
1070
     2
  0
LINE
  5
1D60
330
2
100
AcDbEntity
  8
P-2B67
  6
ASSI
 62
   144
100
AcDbLine
 10
-37.0
 20
147.4242178578424
 30
0.0
 11
-37.0
 21
151.847945175867
 31
0.0
1001
TOP
1070
     2
  0
LINE
  5
1DFD
330
2
100
AcDbEntity
  8
P-6B8B
  6
Continuous
 62
   144
100
AcDbLine
 10
-123.3971497722798
 20
158.7830309074952
 30
0.0
 11
-123.3971497722798
 21
172.7830309074952
 31
0.0
1001
TOP
1070
     7
  0
LINE
  5
1DFE
330
2
100
AcDbEntity
  8
P-6B8B
  6
Continuous
 62
   144
100
AcDbLine
 10
-123.3971497722798
 20
172.7830309074952
 30
0.0
 11
-124.8971497722798
 21
172.7830309074952
 31
0.0
1001
TOP
1070
     7
  0
LINE
  5
1E02
330
2
100
AcDbEntity
  8
P-6B8B
  6
Continuous
 62
   144
100
AcDbLine
 10
-124.8971497722798
 20
172.7830309074952
 30
0.0
 11
-124.8971497722798
 21
158.7830309074952
 31
0.0
1001
TOP
1070
     7
  0
LINE
  5
1E03
330
2
100
AcDbEntity
  8
P-6B8B
  6
Continuous
 62
   144
100
AcDbLine
 10
-124.8971497722798
 20
158.7830309074952
 30
0.0
 11
-123.3971497722798
 21
158.7830309074952
 31
0.0
1001
TOP
1070
     7
  0
CIRCLE
  5
1E08
330
2
100
AcDbEntity
  8
P-6B8B
  6
Continuous
 62
   144
100
AcDbCircle
 10
-37.0
 20
165.7830309074951
 30
0.0
 40
7.0
1001
TOP
1070
     7
  0
CIRCLE
  5
1E09
330
2
100
AcDbEntity
  8
P-6B8B
  6
TRATTEGGIO
 62
   144
100
AcDbCircle
 10
-37.0
 20
165.7830309074951
 30
0.0
 40
5.0
1001
TOP
1070
     3
  0
LINE
  5
1E0D
330
2
100
AcDbEntity
  8
P-6B8B
  6
ASSI
 62
   144
100
AcDbLine
 10
-122.5567200067637
 20
165.7830309074952
 30
0.0
 11
-137.9454478773161
 21
165.7830309074952
 31
0.0
1001
TOP
1070
     2
  0
LINE
  5
1E0E
330
2
100
AcDbEntity
  8
P-6B8B
  6
ASSI
 62
   144
100
AcDbLine
 10
-39.95425471952012
 20
165.7830309074952
 30
0.0
 11
-34.40059651836964
 21
165.7830309074952
 31
0.0
1001
TOP
1070
     2
  0
LINE
  5
1E0F
330
2
100
AcDbEntity
  8
P-6B8B
  6
ASSI
 62
   144
100
AcDbLine
 10
-37.0
 20
168.9919280577642
 30
0.0
 11
-37.0
 21
162.9561466523945
 31
0.0
1001
TOP
1070
     2
  0
LINE
  5
1E10
330
2
100
AcDbEntity
  8
P-6B8B
  6
Continuous
 62
   144
100
AcDbLine
 10
-44.0
 20
-15.21085846227288
 30
0.0
 11
-30.0
 21
-15.21085846227288
 31
0.0
1001
TOP
1070
     7
  0
LINE
  5
1E11
330
2
100
AcDbEntity
  8
P-6B8B
  6
Continuous
 62
   144
100
AcDbLine
 10
-30.0
 20
-15.21085846227288
 30
0.0
 11
-30.0
 21
-13.71085846227288
 31
0.0
1001
TOP
1070
     7
  0
LINE
  5
1E15
330
2
100
AcDbEntity
  8
P-6B8B
  6
Continuous
 62
   144
100
AcDbLine
 10
-30.0
 20
-13.71085846227288
 30
0.0
 11
-44.0
 21
-13.71085846227288
 31
0.0
1001
TOP
1070
     7
  0
LINE
  5
1E16
330
2
100
AcDbEntity
  8
P-6B8B
  6
Continuous
 62
   144
100
AcDbLine
 10
-44.0
 20
-13.71085846227288
 30
0.0
 11
-44.0
 21
-15.21085846227288
 31
0.0
1001
TOP
1070
     7
  0
CIRCLE
  5
1E19
330
2
100
AcDbEntity
  8
P-6B8B
  6
Continuous
 62
   144
100
AcDbCircle
 10
-37.0
 20
165.7830309074951
 30
0.0
 40
4.0
1001
TOP
1070
     7
  0
LINE
  5
1E4B
330
2
100
AcDbEntity
  8
P-09EB
  6
Continuous
 62
   144
100
AcDbLine
 10
-161.3971497722796
 20
172.7830309074952
 30
0.0
 11
-161.3971497722796
 21
158.7830309074952
 31
0.0
1001
TOP
1070
     7
  0
LINE
  5
1E4C
330
2
100
AcDbEntity
  8
P-09EB
  6
Continuous
 62
   144
100
AcDbLine
 10
-161.3971497722796
 20
158.7830309074952
 30
0.0
 11
-159.8971497722796
 21
158.7830309074952
 31
0.0
1001
TOP
1070
     7
  0
LINE
  5
1E50
330
2
100
AcDbEntity
  8
P-09EB
  6
Continuous
 62
   144
100
AcDbLine
 10
-159.8971497722796
 20
158.7830309074952
 30
0.0
 11
-159.8971497722796
 21
172.7830309074952
 31
0.0
1001
TOP
1070
     7
  0
LINE
  5
1E51
330
2
100
AcDbEntity
  8
P-09EB
  6
Continuous
 62
   144
100
AcDbLine
 10
-159.8971497722796
 20
172.7830309074952
 30
0.0
 11
-161.3971497722796
 21
172.7830309074952
 31
0.0
1001
TOP
1070
     7
  0
CIRCLE
  5
1E56
330
2
100
AcDbEntity
  8
P-09EB
  6
Continuous
 62
   144
100
AcDbCircle
 10
-37.0
 20
165.7830309074951
 30
0.0
 40
7.0
1001
TOP
1070
     7
  0
CIRCLE
  5
1E57
330
2
100
AcDbEntity
  8
P-09EB
  6
TRATTEGGIO
 62
   144
100
AcDbCircle
 10
-37.0
 20
165.7830309074951
 30
0.0
 40
5.0
1001
TOP
1070
     3
  0
LINE
  5
1E5B
330
2
100
AcDbEntity
  8
P-09EB
  6
ASSI
 62
   144
100
AcDbLine
 10
-162.2375795377957
 20
165.7830309074952
 30
0.0
 11
-146.8488516672432
 21
165.7830309074952
 31
0.0
1001
TOP
1070
     2
  0
LINE
  5
1E5C
330
2
100
AcDbEntity
  8
P-09EB
  6
ASSI
 62
   144
100
AcDbLine
 10
-39.95425471952012
 20
165.7830309074952
 30
0.0
 11
-34.40059651836964
 21
165.7830309074952
 31
0.0
1001
TOP
1070
     2
  0
LINE
  5
1E5D
330
2
100
AcDbEntity
  8
P-09EB
  6
ASSI
 62
   144
100
AcDbLine
 10
-37.0
 20
168.9919280577642
 30
0.0
 11
-37.0
 21
162.9561466523945
 31
0.0
1001
TOP
1070
     2
  0
LINE
  5
1E5E
330
2
100
AcDbEntity
  8
P-09EB
  6
Continuous
 62
   144
100
AcDbLine
 10
-30.0
 20
22.78914153772712
 30
0.0
 11
-44.0
 21
22.78914153772712
 31
0.0
1001
TOP
1070
     7
  0
LINE
  5
1E5F
330
2
100
AcDbEntity
  8
P-09EB
  6
Continuous
 62
   144
100
AcDbLine
 10
-44.0
 20
22.78914153772712
 30
0.0
 11
-44.0
 21
21.28914153772712
 31
0.0
1001
TOP
1070
     7
  0
LINE
  5
1E63
330
2
100
AcDbEntity
  8
P-09EB
  6
Continuous
 62
   144
100
AcDbLine
 10
-44.0
 20
21.28914153772712
 30
0.0
 11
-30.0
 21
21.28914153772712
 31
0.0
1001
TOP
1070
     7
  0
LINE
  5
1E64
330
2
100
AcDbEntity
  8
P-09EB
  6
Continuous
 62
   144
100
AcDbLine
 10
-30.0
 20
21.28914153772712
 30
0.0
 11
-30.0
 21
22.78914153772712
 31
0.0
1001
TOP
1070
     7
  0
CIRCLE
  5
1E67
330
2
100
AcDbEntity
  8
P-09EB
  6
Continuous
 62
   144
100
AcDbCircle
 10
-37.0
 20
165.7830309074951
 30
0.0
 40
4.0
1001
TOP
1070
     7
  0
LINE
  5
1E86
330
2
100
AcDbEntity
  8
P-13E7
  6
TRATTEGGIO
 62
   144
100
AcDbLine
 10
-33.0
 20
31.28914153772712
 30
0.0
 11
-33.0
 21
-23.71085846227288
 31
0.0
1001
TOP
1070
     3
  0
LINE
  5
1E87
330
2
100
AcDbEntity
  8
P-13E7
  6
Continuous
 62
   144
100
AcDbLine
 10
-33.0
 20
-23.71085846227288
 30
0.0
 11
-41.0
 21
-23.71085846227288
 31
0.0
1001
TOP
1070
     7
  0
LINE
  5
1E88
330
2
100
AcDbEntity
  8
P-13E7
  6
TRATTEGGIO
 62
   144
100
AcDbLine
 10
-41.0
 20
-23.71085846227288
 30
0.0
 11
-41.0
 21
31.28914153772712
 31
0.0
1001
TOP
1070
     3
  0
LINE
  5
1E89
330
2
100
AcDbEntity
  8
P-13E7
  6
Continuous
 62
   144
100
AcDbLine
 10
-41.0
 20
31.28914153772712
 30
0.0
 11
-33.0
 21
31.28914153772712
 31
0.0
1001
TOP
1070
     7
  0
LINE
  5
1E91
330
2
100
AcDbEntity
  8
P-13E7
  6
ASSI
 62
   144
100
AcDbLine
 10
-37.0
 20
164.8039346890356
 30
0.0
 11
-37.0
 21
167.1145757946914
 31
0.0
1001
TOP
1070
     2
  0
CIRCLE
  5
1E92
330
2
100
AcDbEntity
  8
P-13E7
  6
Continuous
 62
   144
100
AcDbCircle
 10
-37.0
 20
165.7830309074951
 30
0.0
 40
4.0
1001
TOP
1070
     7
  0
LINE
  5
1E93
330
2
100
AcDbEntity
  8
P-13E7
  6
ASSI
 62
   144
100
AcDbLine
 10
-38.08520387318163
 20
165.7830309074951
 30
0.0
 11
-35.57239944118192
 21
165.7830309074951
 31
0.0
1001
TOP
1070
     2
  0
LINE
  5
1E94
330
2
100
AcDbEntity
  8
P-13E7
  6
ASSI
 62
   144
100
AcDbLine
 10
-37.0
 20
34.5906588116286
 30
0.0
 11
-37.0
 21
-25.83087295828409
 31
0.0
1001
TOP
1070
     2
  0
LINE
  5
1EC1
330
2
100
AcDbEntity
  8
P-13E7
  6
TRATTEGGIO
 62
   144
100
AcDbLine
 10
-114.8971497722796
 20
161.7830309074952
 30
0.0
 11
-169.8971497722796
 21
161.7830309074952
 31
0.0
1001
TOP
1070
     3
  0
LINE
  5
1EC2
330
2
100
AcDbEntity
  8
P-13E7
  6
Continuous
 62
   144
100
AcDbLine
 10
-169.8971497722796
 20
161.7830309074952
 30
0.0
 11
-169.8971497722796
 21
169.7830309074952
 31
0.0
1001
TOP
1070
     7
  0
LINE
  5
1EC3
330
2
100
AcDbEntity
  8
P-13E7
  6
TRATTEGGIO
 62
   144
100
AcDbLine
 10
-169.8971497722796
 20
169.7830309074952
 30
0.0
 11
-114.8971497722796
 21
169.7830309074952
 31
0.0
1001
TOP
1070
     3
  0
LINE
  5
1EC4
330
2
100
AcDbEntity
  8
P-13E7
  6
Continuous
 62
   144
100
AcDbLine
 10
-114.8971497722796
 20
169.7830309074952
 30
0.0
 11
-114.8971497722796
 21
161.7830309074952
 31
0.0
1001
TOP
1070
     7
  0
LINE
  5
1ECC
330
2
100
AcDbEntity
  8
P-13E7
  6
ASSI
 62
   144
100
AcDbLine
 10
-111.5956324983781
 20
165.7830309074952
 30
0.0
 11
-172.0171642682908
 21
165.7830309074952
 31
0.0
1001
TOP
1070
     2
  0
LINE
  5
1EDB
330
2
100
AcDbEntity
  8
P-2B67
  6
Continuous
 62
   144
100
AcDbLine
 10
-124.8971497722797
 20
157.2830309074952
 30
0.0
 11
-123.3971497722796
 21
157.2830309074952
 31
0.0
1001
TOP
1070
     7
  0
LINE
  5
1EDC
330
2
100
AcDbEntity
  8
P-2B67
  6
Continuous
 62
   144
100
AcDbLine
 10
-30.0
 20
21.28914153772712
 30
0.0
 11
-30.0
 21
31.28914153772712
 31
0.0
1001
TOP
1070
     7
  0
LINE
  5
1EDD
330
2
100
AcDbEntity
  8
P-2B67
  6
TRATTEGGIO
 62
   144
100
AcDbLine
 10
-159.8971497722796
 20
157.2830309074952
 30
0.0
 11
-124.8971497722797
 21
157.2830309074952
 31
0.0
1001
TOP
1070
     3
  0
LINE
  5
2894
330
2
100
AcDbEntity
  8
P-538C
  6
Continuous
 62
   144
100
AcDbLine
 10
16.0
 20
149.7830309074952
 30
0.0
 11
-22.0
 21
149.7830309074952
 31
0.0
1001
TOP
1070
     7
  0
LINE
  5
2895
330
2
100
AcDbEntity
  8
P-538C
  6
Continuous
 62
   144
100
AcDbLine
 10
-22.0
 20
149.7830309074952
 30
0.0
 11
-22.0
 21
148.2830309074952
 31
0.0
1001
TOP
1070
     7
  0
LINE
  5
2896
330
2
100
AcDbEntity
  8
P-538C
  6
Continuous
 62
   144
100
AcDbLine
 10
-22.0
 20
148.2830309074952
 30
0.0
 11
-23.5
 21
148.2830309074952
 31
0.0
1001
TOP
1070
     7
  0
LINE
  5
2897
330
2
100
AcDbEntity
  8
P-538C
  6
Continuous
 62
   144
100
AcDbLine
 10
-23.5
 20
148.2830309074952
 30
0.0
 11
-23.5
 21
156.2830309074952
 31
0.0
1001
TOP
1070
     7
  0
LINE
  5
2898
330
2
100
AcDbEntity
  8
P-538C
  6
Continuous
 62
   144
100
AcDbLine
 10
-26.0
 20
158.7830309074952
 30
0.0
 11
-37.0
 21
158.7830309074952
 31
0.0
1001
TOP
1070
     7
  0
ARC
  5
2899
330
2
100
AcDbEntity
  8
P-538C
  6
Continuous
 62
   144
100
AcDbCircle
 10
-37.0
 20
165.7830309074952
 30
0.0
 40
7.0
100
AcDbArc
 50
36.23861942494838
 51
270.0
1001
TOP
1070
     7
  0
LINE
  5
289A
330
2
100
AcDbEntity
  8
P-538C
  6
Continuous
 62
   144
100
AcDbLine
 10
-24.14758865245631
 20
165.869546341099
 30
0.0
 11
-3.459449055626009
 21
163.1659390698172
 31
0.0
1001
TOP
1070
     7
  0
ARC
  5
289B
330
2
100
AcDbEntity
  8
P-538C
  6
Continuous
 62
   144
100
AcDbCircle
 10
-23.28844533173333
 20
175.8325716223305
 30
0.0
 40
10.0
100
AcDbArc
 50
216.2386194249484
 51
265.0713954149531
1001
TOP
1070
     7
  0
ARC
  5
289C
330
2
100
AcDbEntity
  8
P-538C
  6
Continuous
 62
   144
100
AcDbCircle
 10
-5.893866493490349
 20
138.787185784667
 30
0.0
 40
24.5
100
AcDbArc
 50
26.66736070802539
 51
84.2974533643863
1001
TOP
1070
     7
  0
CIRCLE
  5
289D
330
2
100
AcDbEntity
  8
P-538C
  6
Continuous
 62
   144
100
AcDbCircle
 10
-37.0
 20
165.7830309074952
 30
0.0
 40
5.0
1001
TOP
1070
     7
  0
LINE
  5
289E
330
2
100
AcDbEntity
  8
P-538C
  6
ASSI
 62
   144
100
AcDbLine
 10
0.0
 20
145.5600521365945
 30
0.0
 11
0.0
 21
152.639665244774
 31
0.0
1001
TOP
1070
     2
  0
LINE
  5
289F
330
2
100
AcDbEntity
  8
P-538C
  6
Continuous
 62
   144
100
AcDbLine
 10
16.0
 20
21.28914153772712
 30
0.0
 11
16.0
 21
-13.71085846227288
 31
0.0
1001
TOP
1070
     7
  0
LINE
  5
28A0
330
2
100
AcDbEntity
  8
P-538C
  6
Continuous
 62
   144
100
AcDbLine
 10
-44.0
 20
21.28914153772712
 30
0.0
 11
-44.0
 21
-13.71085846227288
 31
0.0
1001
TOP
1070
     7
  0
LINE
  5
28A1
330
2
100
AcDbEntity
  8
P-538C
  6
TRATTEGGIO
 62
   144
100
AcDbLine
 10
-22.0
 20
21.28914153772712
 30
0.0
 11
-22.0
 21
-13.71085846227288
 31
0.0
1001
TOP
1070
     3
  0
LINE
  5
28A2
330
2
100
AcDbEntity
  8
P-538C
  6
Continuous
 62
   144
100
AcDbLine
 10
-44.0
 20
-13.71085846227288
 30
0.0
 11
16.0
 21
-13.71085846227288
 31
0.0
1001
TOP
1070
     7
  0
LINE
  5
28A3
330
2
100
AcDbEntity
  8
P-538C
  6
Continuous
 62
   144
100
AcDbLine
 10
-44.0
 20
21.28914153772712
 30
0.0
 11
16.0
 21
21.28914153772712
 31
0.0
1001
TOP
1070
     7
  0
LINE
  5
28A4
330
2
100
AcDbEntity
  8
P-538C
  6
ASSI
 62
   144
100
AcDbLine
 10
1.837686270165704
 20
3.789141537727118
 30
0.0
 11
-2.126767262271187
 21
3.789141537727118
 31
0.0
1001
TOP
1070
     2
  0
LINE
  5
28A5
330
2
100
AcDbEntity
  8
P-538C
  6
ASSI
 62
   144
100
AcDbLine
 10
0.0
 20
5.9923051257947
 30
0.0
 11
0.0
 21
1.413807804417274
 31
0.0
1001
TOP
1070
     2
  0
LINE
  5
28A6
330
2
100
AcDbEntity
  8
P-538C
  6
ASSI
 62
   144
100
AcDbLine
 10
-37.0
 20
23.44139262872307
 30
0.0
 11
-37.0
 21
-17.83430112806172
 31
0.0
1001
TOP
1070
     2
  0
ARC
  5
28A9
330
2
100
AcDbEntity
  8
P-538C
  6
Continuous
 62
   144
100
AcDbCircle
 10
-26.0
 20
156.2830309074952
 30
0.0
 40
2.5
100
AcDbArc
 50
0.0
 51
90.0
1001
TOP
1070
     7
  0
LINE
  5
28AB
330
2
100
AcDbEntity
  8
P-538C
  6
Continuous
 62
   144
100
AcDbLine
 10
-159.8971497722796
 20
149.7830309074952
 30
0.0
 11
-124.8971497722796
 21
149.7830309074952
 31
0.0
1001
TOP
1070
     7
  0
LINE
  5
28AC
330
2
100
AcDbEntity
  8
P-538C
  6
Continuous
 62
   144
100
AcDbLine
 10
-159.8971497722796
 20
172.7830309074952
 30
0.0
 11
-159.8971497722795
 21
149.7830309074952
 31
0.0
1001
TOP
1070
     7
  0
LINE
  5
28AD
330
2
100
AcDbEntity
  8
P-538C
  6
Continuous
 62
   144
100
AcDbLine
 10
-124.89714977228
 20
172.7830309074952
 30
0.0
 11
-124.8971497722796
 21
149.7830309074952
 31
0.0
1001
TOP
1070
     7
  0
LINE
  5
28AE
330
2
100
AcDbEntity
  8
P-538C
  6
Continuous
 62
   144
100
AcDbLine
 10
-159.8971497722796
 20
172.7830309074952
 30
0.0
 11
-124.89714977228
 21
172.7830309074952
 31
0.0
1001
TOP
1070
     7
  0
LINE
  5
28B2
330
2
100
AcDbEntity
  8
P-538C
  6
ASSI
 62
   144
100
AcDbLine
 10
-121.1494282873445
 20
165.7830309074952
 30
0.0
 11
-164.4040341788059
 21
165.7830309074952
 31
0.0
1001
TOP
1070
     2
  0
LINE
  5
28B3
330
2
100
AcDbEntity
  8
P-538C
  6
ASSI
 62
   144
100
AcDbLine
 10
-142.3971497722796
 20
144.6844675724378
 30
0.0
 11
-142.3971497722796
 21
152.0716560817268
 31
0.0
1001
TOP
1070
     2
  0
LINE
  5
28B4
330
2
100
AcDbEntity
  8
P-538C
  6
ASSI
 62
   144
100
AcDbLine
 10
-19.29675383312678
 20
3.789141537727118
 30
0.0
 11
-24.2967917971514
 21
3.789141537727118
 31
0.0
1001
TOP
1070
     2
  0
LINE
  5
28B5
330
2
100
AcDbEntity
  8
P-538C
  6
ASSI
 62
   144
100
AcDbLine
 10
-35.1623137298343
 20
165.7830309074952
 30
0.0
 11
-39.12676726227119
 21
165.7830309074952
 31
0.0
1001
TOP
1070
     2
  0
LINE
  5
28B6
330
2
100
AcDbEntity
  8
P-538C
  6
ASSI
 62
   144
100
AcDbLine
 10
-37.0
 20
167.9861944955628
 30
0.0
 11
-37.0
 21
163.4076971741854
 31
0.0
1001
TOP
1070
     2
  0
POINT
  5
28C8
330
2
100
AcDbEntity
  8
P-5AEF
  6
TRATTEGGIO
 62
   144
100
AcDbPoint
 10
-6.25
 20
136.8830309074951
 30
0.0
 50
180.0
1001
TOP
1070
     3
  0
ARC
  5
28C9
330
2
100
AcDbEntity
  8
P-5AEF
  6
Continuous
 62
   144
100
AcDbCircle
 10
0.0
 20
147.6940002952506
 30
0.0
 40
12.48757619007707
100
AcDbArc
 50
208.251843770223
 51
239.9670837231141
1001
TOP
1070
     7
  0
ARC
  5
28CA
330
2
100
AcDbEntity
  8
P-5AEF
  6
Continuous
 62
   144
100
AcDbCircle
 10
0.0
 20
147.6940002952506
 30
0.0
 40
12.48757619007707
100
AcDbArc
 50
300.0329162768859
 51
331.748156229777
1001
TOP
1070
     7
  0
LINE
  5
28CB
330
2
100
AcDbEntity
  8
P-5AEF
  6
Continuous
 62
   144
100
AcDbLine
 10
6.25
 20
136.8830309074951
 30
0.0
 11
-6.25
 21
136.8830309074951
 31
0.0
1001
TOP
1070
     7
  0
LINE
  5
28CC
330
2
100
AcDbEntity
  8
P-5AEF
  6
Continuous
 62
   144
100
AcDbLine
 10
11.0
 20
141.7830309074952
 30
0.0
 11
-11.0
 21
141.7830309074952
 31
0.0
1001
TOP
1070
     7
  0
CIRCLE
  5
28CD
330
2
100
AcDbEntity
  8
P-5AEF
  6
TRATTEGGIO
 62
   144
100
AcDbCircle
 10
0.0
 20
3.789141537727118
 30
0.0
 40
11.00000000000007
1001
TOP
1070
     3
  0
LINE
  5
28CE
330
2
100
AcDbEntity
  8
P-5AEF
  6
ASSI
 62
   144
100
AcDbLine
 10
-4.183392242684931
 20
3.789141537727118
 30
0.0
 11
4.008314104419696
 21
3.789141537727118
 31
0.0
1001
TOP
1070
     2
  0
LINE
  5
28CF
330
2
100
AcDbEntity
  8
P-5AEF
  6
ASSI
 62
   144
100
AcDbLine
 10
0.0
 20
0.0
 30
0.0
 11
0.0
 21
7.440868866282471
 31
0.0
1001
TOP
1070
     2
  0
LINE
  5
28D0
330
2
100
AcDbEntity
  8
P-5AEF
  6
ASSI
 62
   144
100
AcDbLine
 10
0.0
 20
145.246537668891
 30
0.0
 11
0.0
 21
135.9919254023457
 31
0.0
1001
TOP
1070
     2
  0
POINT
  5
28E8
330
2
100
AcDbEntity
  8
P-5AEF
  6
TRATTEGGIO
 62
   144
100
AcDbPoint
 10
-148.6471497722796
 20
136.8830309074951
 30
0.0
 50
180.0
1001
TOP
1070
     3
  0
ARC
  5
28E9
330
2
100
AcDbEntity
  8
P-5AEF
  6
Continuous
 62
   144
100
AcDbCircle
 10
-142.3971497722796
 20
147.6940002952506
 30
0.0
 40
12.48757619007707
100
AcDbArc
 50
208.251843770223
 51
239.9670837231141
1001
TOP
1070
     7
  0
ARC
  5
28EA
330
2
100
AcDbEntity
  8
P-5AEF
  6
Continuous
 62
   144
100
AcDbCircle
 10
-142.3971497722796
 20
147.6940002952506
 30
0.0
 40
12.48757619007707
100
AcDbArc
 50
300.0329162768859
 51
331.748156229777
1001
TOP
1070
     7
  0
LINE
  5
28EB
330
2
100
AcDbEntity
  8
P-5AEF
  6
Continuous
 62
   144
100
AcDbLine
 10
-136.1471497722796
 20
136.8830309074951
 30
0.0
 11
-148.6471497722796
 21
136.8830309074951
 31
0.0
1001
TOP
1070
     7
  0
LINE
  5
28EC
330
2
100
AcDbEntity
  8
P-5AEF
  6
Continuous
 62
   144
100
AcDbLine
 10
-131.3971497722796
 20
141.7830309074952
 30
0.0
 11
-153.3971497722796
 21
141.7830309074952
 31
0.0
1001
TOP
1070
     7
  0
LINE
  5
28ED
330
2
100
AcDbEntity
  8
P-5AEF
  6
ASSI
 62
   144
100
AcDbLine
 10
-142.3971497722796
 20
145.246537668891
 30
0.0
 11
-142.3971497722796
 21
135.9919254023457
 31
0.0
1001
TOP
1070
     2
  0
ENDSEC
  0
SECTION
  2
OBJECTS
  0
DICTIONARY
  5
1A
330
0
100
AcDbDictionary
281
     1
  3
ACAD_2007HEADERVARS_RT
350
35B9
  3
ACAD_COLOR
350
2C5
  3
ACAD_GROUP
350
18
  3
ACAD_LAYOUT
350
45
  3
ACAD_MATERIAL
350
2B0
  3
ACAD_MLEADERSTYLE
350
354
  3
ACAD_MLINESTYLE
350
19
  3
ACAD_PLOTSETTINGS
350
46
  3
ACAD_PLOTSTYLENAME
350
43
  3
ACAD_SCALELIST
350
332
  3
ACAD_TABLESTYLE
350
2C6
  3
ACAD_VISUALSTYLE
350
2B4
  3
ACDB_RECOMPOSE_DATA
350
35B7
  3
AcDbVariableDictionary
350
2AA
  3
AEC_PROPERTY_SET_DEFS
350
82B
  3
DWGPROPS
350
35B8
  3
qs_topprt_diz
350
50
  3
QSCATDICT
350
6D9
  3
QsPallStyleDict
350
6EA
  3
QsTop499
350
3593
  3
TopSpotLight
350
6E0
  0
DICTIONARY
  5
300
330
12
100
AcDbDictionary
280
     1
281
     1
  0
DICTIONARY
  5
70A
330
A
100
AcDbDictionary
280
     1
281
     1
  3
ACAD_LAYERSTATES
360
70B
  0
DICTIONARY
  5
37B
330
4
100
AcDbDictionary
280
     1
281
     1
  3
ADSK_XREC_LAYER_RECONCILED
360
6F5
  0
DICTIONARY
  5
6F6
330
6DB
100
AcDbDictionary
280
     1
281
     1
  3
ADSK_XREC_LAYER_RECONCILED
360
6F7
  0
DICTIONARY
  5
1E72
330
1E71
100
AcDbDictionary
280
     1
281
     1
  0
DICTIONARY
  5
286C
330
286B
100
AcDbDictionary
280
     1
281
     1
  0
DICTIONARY
  5
825
330
70C
100
AcDbDictionary
280
     1
281
     1
  3
ACAD_SORTENTS
360
826
  0
DICTIONARY
  5
35B9
102
{ACAD_REACTORS
330
1A
102
}
330
1A
100
AcDbDictionary
281
     1
  3
INTERFEREVPVS
350
35BA
  0
DICTIONARY
  5
2C5
102
{ACAD_REACTORS
330
1A
102
}
330
1A
100
AcDbDictionary
281
     1
  0
DICTIONARY
  5
18
102
{ACAD_REACTORS
330
1A
102
}
330
1A
100
AcDbDictionary
281
     1
  0
DICTIONARY
  5
45
102
{ACAD_REACTORS
330
1A
102
}
330
1A
100
AcDbDictionary
281
     1
  3
Layout1
350
48
  3
Model
350
47
  0
DICTIONARY
  5
2B0
102
{ACAD_REACTORS
330
1A
102
}
330
1A
100
AcDbDictionary
281
     1
  3
ByBlock
350
2B2
  3
ByLayer
350
2B1
  3
Global
350
2B3
  0
DICTIONARY
  5
354
102
{ACAD_REACTORS
330
1A
102
}
330
1A
100
AcDbDictionary
281
     1
  3
Standard
350
355
  0
DICTIONARY
  5
19
102
{ACAD_REACTORS
330
1A
102
}
330
1A
100
AcDbDictionary
281
     1
  3
STANDARD
350
1C
  0
DICTIONARY
  5
46
102
{ACAD_REACTORS
330
1A
102
}
330
1A
100
AcDbDictionary
281
     1
  3
Kyocera_1010 OR
350
33F6
  3
Kyocera_1010 VER
350
33F7
  3
Olivetti_200 A3
350
33F8
  3
Olivetti_200 A4
350
33F9
  3
PLOTTER
350
33FA
  0
ACDBDICTIONARYWDFLT
  5
43
102
{ACAD_REACTORS
330
1A
102
}
330
1A
100
AcDbDictionary
281
     1
  3
Normal
350
44
100
AcDbDictionaryWithDefault
340
44
  0
DICTIONARY
  5
332
102
{ACAD_REACTORS
330
1A
102
}
330
1A
100
AcDbDictionary
281
     1
  3
A0
350
333
  3
A1
350
334
  3
A2
350
335
  3
A3
350
336
  3
A4
350
337
  3
A5
350
338
  3
A6
350
339
  3
A7
350
33A
  3
A8
350
33B
  3
A9
350
33C
  3
B0
350
33D
  3
B1
350
33E
  3
B2
350
33F
  3
B3
350
340
  3
B4
350
341
  3
B5
350
342
  3
B6
350
343
  3
B7
350
344
  3
B8
350
345
  3
B9
350
346
  3
C0
350
347
  3
C1
350
348
  3
C2
350
349
  3
C3
350
34A
  3
C4
350
34B
  3
C5
350
34C
  3
C6
350
34D
  3
C7
350
34E
  3
C8
350
34F
  3
C9
350
350
  3
D0
350
351
  3
D1
350
352
  3
D2
350
353
  0
DICTIONARY
  5
2C6
102
{ACAD_REACTORS
330
1A
102
}
330
1A
100
AcDbDictionary
281
     1
  3
Standard
350
2C7
  0
DICTIONARY
  5
2B4
102
{ACAD_REACTORS
330
1A
102
}
330
1A
100
AcDbDictionary
281
     1
  3
2dWireframe
350
2BA
  3
3D Hidden
350
2BC
  3
3dWireframe
350
2BB
  3
Basic
350
2B9
  3
Brighten
350
2C0
  3
ColorChange
350
2C4
  3
Conceptual
350
2BD
  3
Dim
350
2BF
  3
EdgeColorOff
350
35AA
  3
Facepattern
350
2C3
  3
Flat
350
2B5
  3
FlatWithEdges
350
2B6
  3
Gouraud
350
2B7
  3
GouraudWithEdges
350
2B8
  3
Hidden
350
35A2
  3
JitterOff
350
35A8
  3
Linepattern
350
2C2
  3
OverhangOff
350
35A9
  3
Realistic
350
2BE
  3
Shaded
350
35A7
  3
Shaded with edges
350
35A6
  3
Shades of Gray
350
35A3
  3
Sketchy
350
35A4
  3
Thicken
350
2C1
  3
Wireframe
350
35A1
  3
X-Ray
350
35A5
  0
XRECORD
  5
35B7
102
{ACAD_REACTORS
330
1A
102
}
330
1A
100
AcDbXrecord
280
     1
 90
        1
330
2C7
  0
DICTIONARY
  5
2AA
102
{ACAD_REACTORS
330
1A
102
}
330
1A
100
AcDbDictionary
281
     1
  3
CANNOSCALE
350
36B
  3
CMLEADERSTYLE
350
369
  3
CTABLESTYLE
350
312
  3
DIMASSOC
350
2AB
  3
DRAWORDERCTL
350
A27
  3
INDEXCTL
350
314
  3
LAYEREVAL
350
A29
  3
LAYERNOTIFY
350
A2A
  3
LIGHTINGUNITS
350
36C
  3
MLEADERSCALE
350
A28
  3
MSLTSCALE
350
36A
  3
SORTENTS
350
313
  3
XCLIPFRAME
350
35B5
  0
DICTIONARY
  5
82B
102
{ACAD_REACTORS
330
1A
102
}
330
1A
100
AcDbDictionary
281
     1
  0
XRECORD
  5
35B8
102
{ACAD_REACTORS
330
1A
102
}
330
1A
100
AcDbXrecord
280
     1
  1
DWGPROPS COOKIE
  2

  3

  4

  6

  7

  8
mpistoia
  9

300
=
301
=
302
=
303
=
304
=
305
=
306
=
307
=
308
=
309
=
 40
0.3323887962962963
 41
2455124.338326817
 42
2455665.626569699
  1

 90
        0
  0
DICTIONARY
  5
50
102
{ACAD_REACTORS
330
1A
102
}
330
1A
100
AcDbDictionary
281
     1
  3
UCNT
350
51
  0
DICTIONARY
  5
6D9
102
{ACAD_REACTORS
330
1A
102
}
330
1A
100
AcDbDictionary
280
     1
281
     1
  3
DEFAULT
360
6DA
  0
DICTIONARY
  5
6EA
102
{ACAD_REACTORS
330
1A
102
}
330
1A
100
AcDbDictionary
281
     1
  3
DEFAULT
350
6EB
  0
DICTIONARY
  5
3593
102
{ACAD_REACTORS
330
1A
102
}
330
1A
100
AcDbDictionary
281
     1
  3
TOP
350
359E
  3
X087d
350
3599
  3
X1b75
350
359D
  3
X2df5
350
3596
  3
X3cb4
350
3595
  3
X5cd9
350
3597
  3
X60af
350
359A
  3
X62e7
350
3598
  3
X6ca8
350
359B
  3
X6f97
350
3594
  3
X7cbc
350
359C
  0
DICTIONARY
  5
6E0
102
{ACAD_REACTORS
330
1A
102
}
330
1A
100
AcDbDictionary
281
     1
  3
colors
350
6E1
  0
DICTIONARY
  5
70B
102
{ACAD_REACTORS
330
70A
102
}
330
70A
100
AcDbDictionary
281
     1
  0
XRECORD
  5
6F5
102
{ACAD_REACTORS
330
37B
102
}
330
37B
100
AcDbXrecord
280
     1
290
     1
  0
XRECORD
  5
6F7
102
{ACAD_REACTORS
330
6F6
102
}
330
6F6
100
AcDbXrecord
280
     1
290
     1
  0
SORTENTSTABLE
  5
826
102
{ACAD_REACTORS
330
825
102
}
330
825
100
AcDbSortentsTable
330
70C
331
71F
  5
73D
331
73B
  5
75A
331
723
  5
728
331
73F
  5
75E
331
70F
  5
713
331
727
  5
744
331
75B
  5
737
331
743
  5
762
331
72B
  5
747
331
713
  5
70F
331
75F
  5
723
331
72F
  5
74B
331
747
  5
766
331
74B
  5
720
331
733
  5
74F
331
763
  5
72A
331
74F
  5
753
331
737
  5
754
331
767
  5
721
331
753
  5
72F
331
757
  5
733
331
720
  5
73E
331
738
  5
757
331
724
  5
741
331
73C
  5
75B
331
758
  5
734
331
740
  5
75F
331
728
  5
743
331
710
  5
714
331
75C
  5
72C
331
744
  5
763
331
72C
  5
749
331
714
  5
710
331
760
  5
726
331
748
  5
768
331
730
  5
74C
331
764
  5
72B
331
74C
  5
724
331
734
  5
750
331
768
  5
767
331
750
  5
738
331
754
  5
730
331
71D
  5
73B
331
739
  5
758
331
721
  5
73F
331
73D
  5
75C
331
70D
  5
711
331
725
  5
740
331
759
  5
735
331
741
  5
760
331
729
  5
745
331
711
  5
70D
331
75D
  5
72D
331
72D
  5
748
331
745
  5
764
331
761
  5
727
331
749
  5
76A
331
731
  5
74D
331
765
  5
71F
331
74D
  5
755
331
735
  5
751
331
751
  5
739
331
769
  5
71E
331
755
  5
731
331
71E
  5
73C
331
722
  5
725
331
73A
  5
759
331
73E
  5
75D
331
70E
  5
712
331
726
  5
742
331
75A
  5
736
331
742
  5
761
331
72A
  5
746
331
712
  5
70E
331
75E
  5
72E
331
746
  5
765
331
72E
  5
74A
331
762
  5
729
331
74A
  5
71D
331
732
  5
74E
331
766
  5
722
331
74E
  5
756
331
736
  5
752
331
76A
  5
769
331
752
  5
73A
331
756
  5
732
  0
XRECORD
  5
35BA
102
{ACAD_REACTORS
330
35B9
102
}
330
35B9
100
AcDbXrecord
280
     1
340
2BB
  0
LAYOUT
  5
48
102
{ACAD_XDICTIONARY
360
35BD
102
}
102
{ACAD_REACTORS
330
45
102
}
330
45
100
AcDbPlotSettings
  1

  2
RICOH Aficio 270 PCL 6 A4
  4

  6

 40
0.0
 41
0.0
 42
0.0
 43
0.0
 44
0.0
 45
0.0
 46
0.0
 47
0.0
 48
0.0
 49
0.0
140
0.0
141
0.0
142
1.0
143
1.0
 70
   688
 72
     0
 73
     0
 74
     5
  7
DIERRE BN.ctb
 75
    16
147
1.0
148
0.0
149
0.0
100
AcDbLayout
  1
Layout1
 70
     0
 71
     1
 10
0.0
 20
0.0
 11
12.0
 21
9.0
 12
0.0
 22
0.0
 32
0.0
 14
1.000000000000000E+20
 24
1.000000000000000E+20
 34
1.000000000000000E+20
 15
-1.000000000000000E+20
 25
-1.000000000000000E+20
 35
-1.000000000000000E+20
146
0.0
 13
0.0
 23
0.0
 33
0.0
 16
1.0
 26
0.0
 36
0.0
 17
0.0
 27
1.0
 37
0.0
 76
     0
330
7
  0
LAYOUT
  5
47
102
{ACAD_XDICTIONARY
360
35BB
102
}
102
{ACAD_REACTORS
330
45
102
}
330
45
100
AcDbPlotSettings
  1
Olivetti_200 A4
  2
Olivetti_200.pc3
  4
A4
  6

 40
4.984749794006347
 41
5.154074668884277
 42
5.111740112304687
 43
4.9847412109375
 44
210.0156707763672
 45
297.0106506347656
 46
51.67548120477697
 47
0.0
 48
0.0
 49
0.0
140
0.0
141
0.0
142
1.0
143
0.4718508448115938
 70
 11956
 72
     1
 73
     0
 74
     1
  7
DIERRE BN.ctb
 75
     0
147
2.119313785268927
148
-222.4649060220283
149
-239.0808115236937
100
AcDbLayout
  1
Model
 70
     1
 71
     0
 10
0.0
 20
0.0
 11
12.0
 21
9.0
 12
0.0
 22
0.0
 32
0.0
 14
0.0
 24
0.0
 34
0.0
 15
0.0
 25
0.0
 35
0.0
146
0.0
 13
0.0
 23
0.0
 33
0.0
 16
1.0
 26
0.0
 36
0.0
 17
0.0
 27
1.0
 37
0.0
 76
     0
330
2
331
2AE
1001
ACAD_PSEXT
1000
Olivetti_200.pc3
1000
Olivetti d-Copia 200MF KX
1000
IP_192.168.1.151
1000

1070
     0
  0
MATERIAL
  5
2B2
102
{ACAD_XDICTIONARY
360
35C1
102
}
102
{ACAD_REACTORS
330
2B0
102
}
330
2B0
100
AcDbMaterial
  1
ByBlock
 73
     1
 78
     1
172
     1
176
     1
270
     1
274
     1
  0
MATERIAL
  5
2B1
102
{ACAD_XDICTIONARY
360
35BF
102
}
102
{ACAD_REACTORS
330
2B0
102
}
330
2B0
100
AcDbMaterial
  1
ByLayer
 73
     1
 78
     1
172
     1
176
     1
270
     1
274
     1
  0
MATERIAL
  5
2B3
102
{ACAD_XDICTIONARY
360
35C3
102
}
102
{ACAD_REACTORS
330
2B0
102
}
330
2B0
100
AcDbMaterial
  1
Global
 73
     1
 78
     1
172
     1
176
     1
270
     1
274
     1
  0
MLEADERSTYLE
  5
355
102
{ACAD_REACTORS
330
354
102
}
330
354
100
AcDbMLeaderStyle
170
     2
171
     1
172
     0
 90
        2
 40
0.0
 41
0.0
173
     1
 91
-1056964608
340
E
 92
       -2
290
     1
 42
2.0
291
     1
 43
0.36
  3
Standard
 44
4.0
300

342
C
174
     1
178
     6
175
     1
176
     0
 93
-1056964608
 45
4.0
292
     0
297
     0
 46
4.0
 94
-1056964608
 47
1.0
 49
1.0
140
1.0
293
     1
141
0.0
294
     1
177
     0
142
1.0
295
     0
296
     0
143
0.125
1001
ACAD_MLEADERVER
1070
     2
  0
MLINESTYLE
  5
1C
102
{ACAD_REACTORS
330
19
102
}
330
19
100
AcDbMlineStyle
  2
STANDARD
 70
     0
  3

 62
     0
 51
90.0
 52
90.0
 71
     2
 49
0.5
 62
   256
  6
BYLAYER
 49
-0.5
 62
   256
  6
BYLAYER
  0
PLOTSETTINGS
  5
33F6
102
{ACAD_XDICTIONARY
360
35E6
102
}
102
{ACAD_REACTORS
330
46
102
}
330
46
100
AcDbPlotSettings
  1
Kyocera_1010 OR
  2
Kyocera_1010.pc3
  4
A4
  6

 40
4.984749794006347
 41
5.154074668884277
 42
5.111740112304687
 43
4.9847412109375
 44
210.0156707763672
 45
297.0106506347656
 46
0.0
 47
109.7870247470818
 48
0.0
 49
0.0
140
0.0
141
0.0
142
1.0
143
0.6770771918566143
 70
 11956
 72
     1
 73
     1
 74
     1
  7
DIERRE BN.ctb
 75
     0
147
1.476936473458659
148
-222.4649060220283
149
-239.0808115236937
1001
ACAD_PSEXT
1000
Kyocera_1010.pc3
1000
Kyocera Mita FS-1010 KX
1000
\\PC5
1000

1070
     0
  0
PLOTSETTINGS
  5
33F7
102
{ACAD_XDICTIONARY
360
35E8
102
}
102
{ACAD_REACTORS
330
46
102
}
330
46
100
AcDbPlotSettings
  1
Kyocera_1010 VER
  2
Kyocera_1010.pc3
  4
A4
  6

 40
4.984749794006347
 41
5.154074668884277
 42
5.111740112304687
 43
4.9847412109375
 44
210.0156707763672
 45
297.0106506347656
 46
51.67548120477697
 47
0.0
 48
0.0
 49
0.0
140
0.0
141
0.0
142
1.0
143
0.4718508448115938
 70
 11956
 72
     1
 73
     0
 74
     1
  7
DIERRE BN.ctb
 75
     0
147
2.119313785268927
148
-222.4649060220283
149
-239.0808115236937
1001
ACAD_PSEXT
1000
Kyocera_1010.pc3
1000
Kyocera Mita FS-1010 KX
1000
\\PC5
1000

1070
     0
  0
PLOTSETTINGS
  5
33F8
102
{ACAD_XDICTIONARY
360
35EA
102
}
102
{ACAD_REACTORS
330
46
102
}
330
46
100
AcDbPlotSettings
  1
Olivetti_200 A3
  2
Olivetti_200.pc3
  4
A3
  6

 40
4.984749794006347
 41
5.111746788024902
 42
5.154083251953125
 43
4.9847412109375
 44
297.0106506347656
 45
419.9889831542968
 46
0.0
 47
156.6621412366913
 48
0.0
 49
0.0
140
0.0
141
0.0
142
1.0
143
0.4718508730467012
 70
 11956
 72
     1
 73
     1
 74
     1
  7
DIERRE BN.ctb
 75
     0
147
2.119313658451206
148
-222.4649060220283
149
-239.0808115236937
1001
ACAD_PSEXT
1000
Olivetti_200.pc3
1000
Olivetti d-Copia 200MF KX
1000
IP_192.168.1.151
1000

1070
     0
  0
PLOTSETTINGS
  5
33F9
102
{ACAD_XDICTIONARY
360
35EC
102
}
102
{ACAD_REACTORS
330
46
102
}
330
46
100
AcDbPlotSettings
  1
Olivetti_200 A4
  2
Olivetti_200.pc3
  4
A4
  6

 40
4.984749794006347
 41
5.154074668884277
 42
5.111740112304687
 43
4.9847412109375
 44
210.0156707763672
 45
297.0106506347656
 46
51.67548120477697
 47
0.0
 48
0.0
 49
0.0
140
0.0
141
0.0
142
1.0
143
0.4718508448115938
 70
 11956
 72
     1
 73
     0
 74
     1
  7
DIERRE BN.ctb
 75
     0
147
2.119313785268927
148
-222.4649060220283
149
-239.0808115236937
1001
ACAD_PSEXT
1000
Olivetti_200.pc3
1000
Olivetti d-Copia 200MF KX
1000
IP_192.168.1.151
1000

1070
     0
  0
PLOTSETTINGS
  5
33FA
102
{ACAD_XDICTIONARY
360
35EE
102
}
102
{ACAD_REACTORS
330
46
102
}
330
46
100
AcDbPlotSettings
  1
PLOTTER
  2
PLOTTER.pc3
  4
User622
  6

 40
0.0
 41
0.0
 42
0.0
 43
0.0
 44
841.0
 45
1189.0
 46
0.0
 47
0.0
 48
0.0
 49
0.0
140
0.0
141
0.0
142
1.0
143
1.0
 70
 11936
 72
     1
 73
     0
 74
     1
  7
DIERRE BN.ctb
 75
     0
147
2.194137304425714
148
-222.4649060220283
149
-239.0808115236937
1001
ACAD_PSEXT
1000
PLOTTER.pc3
1000
HP DesignJet 430 (E/A0) by HP
1000
\\SERVER2003
1000

1070
     0
  0
ACDBPLACEHOLDER
  5
44
102
{ACAD_REACTORS
330
43
102
}
330
43
  0
SCALE
  5
333
102
{ACAD_REACTORS
330
332
102
}
330
332
100
AcDbScale
 70
     0
300
1:1
140
1.0
141
1.0
290
     1
  0
SCALE
  5
334
102
{ACAD_REACTORS
330
332
102
}
330
332
100
AcDbScale
 70
     0
300
1:2
140
1.0
141
2.0
290
     0
  0
SCALE
  5
335
102
{ACAD_REACTORS
330
332
102
}
330
332
100
AcDbScale
 70
     0
300
1:4
140
1.0
141
4.0
290
     0
  0
SCALE
  5
336
102
{ACAD_REACTORS
330
332
102
}
330
332
100
AcDbScale
 70
     0
300
1:5
140
1.0
141
5.0
290
     0
  0
SCALE
  5
337
102
{ACAD_REACTORS
330
332
102
}
330
332
100
AcDbScale
 70
     0
300
1:8
140
1.0
141
8.0
290
     0
  0
SCALE
  5
338
102
{ACAD_REACTORS
330
332
102
}
330
332
100
AcDbScale
 70
     0
300
1:10
140
1.0
141
10.0
290
     0
  0
SCALE
  5
339
102
{ACAD_REACTORS
330
332
102
}
330
332
100
AcDbScale
 70
     0
300
1:16
140
1.0
141
16.0
290
     0
  0
SCALE
  5
33A
102
{ACAD_REACTORS
330
332
102
}
330
332
100
AcDbScale
 70
     0
300
1:20
140
1.0
141
20.0
290
     0
  0
SCALE
  5
33B
102
{ACAD_REACTORS
330
332
102
}
330
332
100
AcDbScale
 70
     0
300
1:30
140
1.0
141
30.0
290
     0
  0
SCALE
  5
33C
102
{ACAD_REACTORS
330
332
102
}
330
332
100
AcDbScale
 70
     0
300
1:40
140
1.0
141
40.0
290
     0
  0
SCALE
  5
33D
102
{ACAD_REACTORS
330
332
102
}
330
332
100
AcDbScale
 70
     0
300
1:50
140
1.0
141
50.0
290
     0
  0
SCALE
  5
33E
102
{ACAD_REACTORS
330
332
102
}
330
332
100
AcDbScale
 70
     0
300
1:100
140
1.0
141
100.0
290
     0
  0
SCALE
  5
33F
102
{ACAD_REACTORS
330
332
102
}
330
332
100
AcDbScale
 70
     0
300
2:1
140
2.0
141
1.0
290
     0
  0
SCALE
  5
340
102
{ACAD_REACTORS
330
332
102
}
330
332
100
AcDbScale
 70
     0
300
4:1
140
4.0
141
1.0
290
     0
  0
SCALE
  5
341
102
{ACAD_REACTORS
330
332
102
}
330
332
100
AcDbScale
 70
     0
300
8:1
140
8.0
141
1.0
290
     0
  0
SCALE
  5
342
102
{ACAD_REACTORS
330
332
102
}
330
332
100
AcDbScale
 70
     0
300
10:1
140
10.0
141
1.0
290
     0
  0
SCALE
  5
343
102
{ACAD_REACTORS
330
332
102
}
330
332
100
AcDbScale
 70
     0
300
100:1
140
100.0
141
1.0
290
     0
  0
SCALE
  5
344
102
{ACAD_REACTORS
330
332
102
}
330
332
100
AcDbScale
 70
     0
300
1/128" = 1'-0"
140
0.0078125
141
12.0
290
     0
  0
SCALE
  5
345
102
{ACAD_REACTORS
330
332
102
}
330
332
100
AcDbScale
 70
     0
300
1/64" = 1'-0"
140
0.015625
141
12.0
290
     0
  0
SCALE
  5
346
102
{ACAD_REACTORS
330
332
102
}
330
332
100
AcDbScale
 70
     0
300
1/32" = 1'-0"
140
0.03125
141
12.0
290
     0
  0
SCALE
  5
347
102
{ACAD_REACTORS
330
332
102
}
330
332
100
AcDbScale
 70
     0
300
1/16" = 1'-0"
140
0.0625
141
12.0
290
     0
  0
SCALE
  5
348
102
{ACAD_REACTORS
330
332
102
}
330
332
100
AcDbScale
 70
     0
300
3/32" = 1'-0"
140
0.09375
141
12.0
290
     0
  0
SCALE
  5
349
102
{ACAD_REACTORS
330
332
102
}
330
332
100
AcDbScale
 70
     0
300
1/8" = 1'-0"
140
0.125
141
12.0
290
     0
  0
SCALE
  5
34A
102
{ACAD_REACTORS
330
332
102
}
330
332
100
AcDbScale
 70
     0
300
3/16" = 1'-0"
140
0.1875
141
12.0
290
     0
  0
SCALE
  5
34B
102
{ACAD_REACTORS
330
332
102
}
330
332
100
AcDbScale
 70
     0
300
1/4" = 1'-0"
140
0.25
141
12.0
290
     0
  0
SCALE
  5
34C
102
{ACAD_REACTORS
330
332
102
}
330
332
100
AcDbScale
 70
     0
300
3/8" = 1'-0"
140
0.375
141
12.0
290
     0
  0
SCALE
  5
34D
102
{ACAD_REACTORS
330
332
102
}
330
332
100
AcDbScale
 70
     0
300
1/2" = 1'-0"
140
0.5
141
12.0
290
     0
  0
SCALE
  5
34E
102
{ACAD_REACTORS
330
332
102
}
330
332
100
AcDbScale
 70
     0
300
3/4" = 1'-0"
140
0.75
141
12.0
290
     0
  0
SCALE
  5
34F
102
{ACAD_REACTORS
330
332
102
}
330
332
100
AcDbScale
 70
     0
300
1" = 1'-0"
140
1.0
141
12.0
290
     0
  0
SCALE
  5
350
102
{ACAD_REACTORS
330
332
102
}
330
332
100
AcDbScale
 70
     0
300
1-1/2" = 1'-0"
140
1.5
141
12.0
290
     0
  0
SCALE
  5
351
102
{ACAD_REACTORS
330
332
102
}
330
332
100
AcDbScale
 70
     0
300
3" = 1'-0"
140
3.0
141
12.0
290
     0
  0
SCALE
  5
352
102
{ACAD_REACTORS
330
332
102
}
330
332
100
AcDbScale
 70
     0
300
6" = 1'-0"
140
6.0
141
12.0
290
     0
  0
SCALE
  5
353
102
{ACAD_REACTORS
330
332
102
}
330
332
100
AcDbScale
 70
     0
300
1'-0" = 1'-0"
140
12.0
141
12.0
290
     0
  0
TABLESTYLE
  5
2C7
102
{ACAD_XDICTIONARY
360
362
102
}
102
{ACAD_REACTORS
330
2C6
102
}
330
2C6
100
AcDbTableStyle
  3
Standard
 70
     0
 71
     0
 40
1.5
 41
1.5
280
     0
281
     0
  7
STANDARD
140
4.5
170
     2
 62
     0
 63
     7
283
     0
274
    -2
284
     1
 64
     0
275
    -2
285
     1
 65
     0
276
    -2
286
     1
 66
     0
277
    -2
287
     1
 67
     0
278
    -2
288
     1
 68
     0
279
    -2
289
     1
 69
     0
  7
STANDARD
140
6.0
170
     5
 62
     0
 63
     7
283
     0
274
    -2
284
     1
 64
     0
275
    -2
285
     1
 65
     0
276
    -2
286
     1
 66
     0
277
    -2
287
     1
 67
     0
278
    -2
288
     1
 68
     0
279
    -2
289
     1
 69
     0
  7
STANDARD
140
4.5
170
     5
 62
     0
 63
     7
283
     0
274
    -2
284
     1
 64
     0
275
    -2
285
     1
 65
     0
276
    -2
286
     1
 66
     0
277
    -2
287
     1
 67
     0
278
    -2
288
     1
 68
     0
279
    -2
289
     1
 69
     0
  0
VISUALSTYLE
  5
2BA
102
{ACAD_XDICTIONARY
360
35CF
102
}
102
{ACAD_REACTORS
330
2B4
102
}
330
2B4
100
AcDbVisualStyle
  2
2dWireframe
 70
     4
 71
     0
 72
     2
 73
     0
 90
        0
 40
-0.6
 41
-30.0
 62
     5
 63
     7
 74
     1
 91
        4
 64
     7
 65
   257
 75
     1
175
     1
 42
1.0
 92
        0
 66
   257
 43
1.0
 76
     1
 77
     6
 78
     2
 67
     7
 79
     5
170
     0
171
     0
290
     0
174
     0
 93
        1
 44
0.0
173
     0
291
     0
 45
0.0
1001
ACAD
1000
AcDbSavedByObjectVersion
1070
     0
  0
VISUALSTYLE
  5
2BC
102
{ACAD_XDICTIONARY
360
35D3
102
}
102
{ACAD_REACTORS
330
2B4
102
}
330
2B4
100
AcDbVisualStyle
  2
3D Hidden
 70
     6
 71
     1
 72
     2
 73
     2
 90
        0
 40
-0.6
 41
-30.0
 62
     5
 63
     7
 74
     2
 91
        2
 64
     7
 65
   257
 75
     2
175
     1
 42
40.0
 92
        0
 66
   257
 43
1.0
 76
     1
 77
     6
 78
     2
 67
     7
 79
     3
170
     0
171
     0
290
     0
174
     0
 93
        1
 44
0.0
173
     0
291
     0
 45
0.0
1001
ACAD
1000
AcDbSavedByObjectVersion
1070
     0
  0
VISUALSTYLE
  5
2BB
102
{ACAD_XDICTIONARY
360
35D1
102
}
102
{ACAD_REACTORS
330
2B4
102
}
330
2B4
100
AcDbVisualStyle
  2
3dWireframe
 70
     5
 71
     0
 72
     2
 73
     0
 90
        0
 40
-0.6
 41
-30.0
 62
     5
 63
     7
 74
     1
 91
        4
 64
     7
 65
   257
 75
     1
175
     1
 42
1.0
 92
        0
 66
   257
 43
1.0
 76
     1
 77
     6
 78
     2
 67
     7
 79
     5
170
     0
171
     0
290
     0
174
     0
 93
        1
 44
0.0
173
     0
291
     0
 45
0.0
1001
ACAD
1000
AcDbSavedByObjectVersion
1070
     0
  0
VISUALSTYLE
  5
2B9
102
{ACAD_XDICTIONARY
360
35CD
102
}
102
{ACAD_REACTORS
330
2B4
102
}
330
2B4
100
AcDbVisualStyle
  2
Basic
 70
     7
 71
     1
 72
     0
 73
     1
 90
        0
 40
-0.6
 41
-30.0
 62
     5
 63
     7
 74
     0
 91
        4
 64
     7
 65
   257
 75
     1
175
     1
 42
1.0
 92
        8
 66
     7
 43
1.0
 76
     1
 77
     6
 78
     2
 67
     7
 79
     5
170
     0
171
     0
290
     0
174
     0
 93
        1
 44
0.0
173
     0
291
     1
 45
0.0
1001
ACAD
1000
AcDbSavedByObjectVersion
1070
     0
  0
VISUALSTYLE
  5
2C0
102
{ACAD_XDICTIONARY
360
35DB
102
}
102
{ACAD_REACTORS
330
2B4
102
}
330
2B4
100
AcDbVisualStyle
  2
Brighten
 70
    12
 71
     2
 72
     2
 73
     0
 90
        0
 40
-0.6
 41
-30.0
 62
     5
 63
     7
 74
     1
 91
        4
 64
     7
 65
   257
 75
     1
175
     1
 42
1.0
 92
        8
 66
     7
 43
1.0
 76
     1
 77
     6
 78
     2
 67
     7
 79
     5
170
     0
171
     0
290
     0
174
     0
 93
        1
 44
50.0
173
     0
291
     1
 45
0.0
1001
ACAD
1000
AcDbSavedByObjectVersion
1070
     0
  0
VISUALSTYLE
  5
2C4
102
{ACAD_XDICTIONARY
360
35E3
102
}
102
{ACAD_REACTORS
330
2B4
102
}
330
2B4
100
AcDbVisualStyle
  2
ColorChange
 70
    16
 71
     2
 72
     2
 73
     3
 90
        0
 40
-0.6
 41
-30.0
 62
     5
 63
     8
 74
     1
 91
        4
 64
     7
 65
   257
 75
     1
175
     1
 42
1.0
 92
        8
 66
     8
 43
1.0
 76
     1
 77
     6
 78
     2
 67
     7
 79
     5
170
     0
171
     0
290
     0
174
     0
 93
        1
 44
0.0
173
     0
291
     1
 45
0.0
1001
ACAD
1000
AcDbSavedByObjectVersion
1070
     0
  0
VISUALSTYLE
  5
2BD
102
{ACAD_XDICTIONARY
360
35D5
102
}
102
{ACAD_REACTORS
330
2B4
102
}
330
2B4
100
AcDbVisualStyle
  2
Conceptual
 70
     9
 71
     3
 72
     2
 73
     0
 90
        0
 40
-0.6
 41
-30.0
 62
     5
 63
     7
 74
     2
 91
        2
 64
     7
 65
   257
 75
     1
175
     1
 42
40.0
 92
        8
 66
     7
 43
1.0
 76
     1
 77
     6
 78
     2
 67
     7
 79
     3
170
     0
171
     0
290
     0
174
     0
 93
        1
 44
0.0
173
     0
291
     0
 45
0.0
1001
ACAD
1000
AcDbSavedByObjectVersion
1070
     0
  0
VISUALSTYLE
  5
2BF
102
{ACAD_XDICTIONARY
360
35D9
102
}
102
{ACAD_REACTORS
330
2B4
102
}
330
2B4
100
AcDbVisualStyle
  2
Dim
 70
    11
 71
     2
 72
     2
 73
     0
 90
        0
 40
-0.6
 41
-30.0
 62
     5
 63
     7
 74
     1
 91
        4
 64
     7
 65
   257
 75
     1
175
     1
 42
1.0
 92
        8
 66
     7
 43
1.0
 76
     1
 77
     6
 78
     2
 67
     7
 79
     5
170
     0
171
     0
290
     0
174
     0
 93
        1
 44
-50.0
173
     0
291
     1
 45
0.0
1001
ACAD
1000
AcDbSavedByObjectVersion
1070
     0
  0
VISUALSTYLE
  5
35AA
102
{ACAD_XDICTIONARY
360
3602
102
}
102
{ACAD_REACTORS
330
2B4
102
}
330
2B4
100
AcDbVisualStyle
  2
EdgeColorOff
 70
    22
 71
     2
 72
     2
 73
     0
 90
        0
 40
-0.6
 41
-30.0
 62
     5
 63
     7
 74
     1
 91
        4
 64
     7
 65
   257
 75
     1
175
     1
 42
1.0
 92
        8
 66
     7
 43
1.0
 76
     1
 77
     6
 78
     2
 67
     7
 79
     5
170
     0
171
     0
290
     0
174
     0
 93
        1
 44
0.0
173
     0
291
     1
 45
0.0
1001
ACAD
1000
AcDbSavedByObjectVersion
1070
     0
  0
VISUALSTYLE
  5
2C3
102
{ACAD_XDICTIONARY
360
35E1
102
}
102
{ACAD_REACTORS
330
2B4
102
}
330
2B4
100
AcDbVisualStyle
  2
Facepattern
 70
    15
 71
     2
 72
     2
 73
     0
 90
        0
 40
-0.6
 41
-30.0
 62
     5
 63
     7
 74
     1
 91
        4
 64
     7
 65
   257
 75
     1
175
     1
 42
1.0
 92
        8
 66
     7
 43
1.0
 76
     1
 77
     6
 78
     2
 67
     7
 79
     5
170
     0
171
     0
290
     0
174
     0
 93
        1
 44
0.0
173
     0
291
     1
 45
0.0
1001
ACAD
1000
AcDbSavedByObjectVersion
1070
     0
  0
VISUALSTYLE
  5
2B5
102
{ACAD_XDICTIONARY
360
35C5
102
}
102
{ACAD_REACTORS
330
2B4
102
}
330
2B4
100
AcDbVisualStyle
  2
Flat
 70
     0
 71
     2
 72
     1
 73
     1
 90
        2
 40
-0.6
 41
30.0
 62
     5
 63
     7
 74
     0
 91
        4
 64
     7
 65
   257
 75
     1
175
     1
 42
1.0
 92
        8
 66
     7
 43
1.0
 76
     1
 77
     6
 78
     2
 67
     7
 79
     5
170
     0
171
     0
290
     0
174
     0
 93
       13
 44
0.0
173
     0
291
     1
 45
0.0
1001
ACAD
1000
AcDbSavedByObjectVersion
1070
     0
  0
VISUALSTYLE
  5
2B6
102
{ACAD_XDICTIONARY
360
35C7
102
}
102
{ACAD_REACTORS
330
2B4
102
}
330
2B4
100
AcDbVisualStyle
  2
FlatWithEdges
 70
     1
 71
     2
 72
     1
 73
     1
 90
        2
 40
-0.6
 41
30.0
 62
     5
 63
     7
 74
     1
 91
        4
 64
     7
 65
   257
 75
     1
175
     1
 42
1.0
 92
        0
 66
   257
 43
1.0
 76
     1
 77
     6
 78
     2
 67
     7
 79
     5
170
     0
171
     0
290
     0
174
     0
 93
       13
 44
0.0
173
     0
291
     1
 45
0.0
1001
ACAD
1000
AcDbSavedByObjectVersion
1070
     0
  0
VISUALSTYLE
  5
2B7
102
{ACAD_XDICTIONARY
360
35C9
102
}
102
{ACAD_REACTORS
330
2B4
102
}
330
2B4
100
AcDbVisualStyle
  2
Gouraud
 70
     2
 71
     2
 72
     2
 73
     1
 90
        2
 40
-0.6
 41
30.0
 62
     5
 63
     7
 74
     0
 91
        4
 64
     7
 65
   257
 75
     1
175
     1
 42
1.0
 92
        0
 66
     7
 43
1.0
 76
     1
 77
     6
 78
     2
 67
     7
 79
     5
170
     0
171
     0
290
     0
174
     0
 93
       13
 44
0.0
173
     0
291
     1
 45
0.0
1001
ACAD
1000
AcDbSavedByObjectVersion
1070
     0
  0
VISUALSTYLE
  5
2B8
102
{ACAD_XDICTIONARY
360
35CB
102
}
102
{ACAD_REACTORS
330
2B4
102
}
330
2B4
100
AcDbVisualStyle
  2
GouraudWithEdges
 70
     3
 71
     2
 72
     2
 73
     1
 90
        2
 40
-0.6
 41
30.0
 62
     5
 63
     7
 74
     1
 91
        4
 64
     7
 65
   257
 75
     1
175
     1
 42
1.0
 92
        0
 66
   257
 43
1.0
 76
     1
 77
     6
 78
     2
 67
     7
 79
     5
170
     0
171
     0
290
     0
174
     0
 93
       13
 44
0.0
173
     0
291
     1
 45
0.0
1001
ACAD
1000
AcDbSavedByObjectVersion
1070
     0
  0
VISUALSTYLE
  5
35A2
102
{ACAD_XDICTIONARY
360
35F2
102
}
102
{ACAD_REACTORS
330
2B4
102
}
330
2B4
100
AcDbVisualStyle
  2
Hidden
 70
     6
 71
     1
 72
     2
 73
     2
 90
        0
 40
-0.6
 41
-30.0
 62
     5
 63
     7
 74
     2
 91
        2
 64
     7
 65
   257
 75
     2
175
     1
 42
40.0
 92
        0
 66
   257
 43
1.0
 76
     1
 77
     6
 78
     2
 67
     7
 79
     3
170
     0
171
     0
290
     0
174
     0
 93
        1
 44
0.0
173
     0
291
     0
 45
0.0
1001
ACAD
1000
AcDbSavedByObjectVersion
1070
     0
  0
VISUALSTYLE
  5
35A8
102
{ACAD_XDICTIONARY
360
35FE
102
}
102
{ACAD_REACTORS
330
2B4
102
}
330
2B4
100
AcDbVisualStyle
  2
JitterOff
 70
    20
 71
     2
 72
     2
 73
     0
 90
        0
 40
-0.6
 41
-30.0
 62
     5
 63
     7
 74
     1
 91
        4
 64
     7
 65
   257
 75
     1
175
     1
 42
1.0
 92
       10
 66
     7
 43
1.0
 76
     1
 77
     6
 78
     2
 67
     7
 79
     5
170
     0
171
     0
290
     0
174
     0
 93
        1
 44
0.0
173
     0
291
     1
 45
0.0
1001
ACAD
1000
AcDbSavedByObjectVersion
1070
     0
  0
VISUALSTYLE
  5
2C2
102
{ACAD_XDICTIONARY
360
35DF
102
}
102
{ACAD_REACTORS
330
2B4
102
}
330
2B4
100
AcDbVisualStyle
  2
Linepattern
 70
    14
 71
     2
 72
     2
 73
     0
 90
        0
 40
-0.6
 41
-30.0
 62
     5
 63
     7
 74
     1
 91
        4
 64
     7
 65
   257
 75
     7
175
     7
 42
1.0
 92
        8
 66
     7
 43
1.0
 76
     1
 77
     6
 78
     2
 67
     7
 79
     5
170
     0
171
     0
290
     0
174
     0
 93
        1
 44
0.0
173
     0
291
     1
 45
0.0
1001
ACAD
1000
AcDbSavedByObjectVersion
1070
     0
  0
VISUALSTYLE
  5
35A9
102
{ACAD_XDICTIONARY
360
3600
102
}
102
{ACAD_REACTORS
330
2B4
102
}
330
2B4
100
AcDbVisualStyle
  2
OverhangOff
 70
    21
 71
     2
 72
     2
 73
     0
 90
        0
 40
-0.6
 41
-30.0
 62
     5
 63
     7
 74
     1
 91
        4
 64
     7
 65
   257
 75
     1
175
     1
 42
1.0
 92
        9
 66
     7
 43
1.0
 76
     1
 77
     6
 78
     2
 67
     7
 79
     5
170
     0
171
     0
290
     0
174
     0
 93
        1
 44
0.0
173
     0
291
     1
 45
0.0
1001
ACAD
1000
AcDbSavedByObjectVersion
1070
     0
  0
VISUALSTYLE
  5
2BE
102
{ACAD_XDICTIONARY
360
35D7
102
}
102
{ACAD_REACTORS
330
2B4
102
}
330
2B4
100
AcDbVisualStyle
  2
Realistic
 70
     8
 71
     2
 72
     2
 73
     0
 90
        0
 40
-0.6
 41
-30.0
 62
     5
 63
     7
 74
     1
 91
        0
 64
     7
 65
   257
 75
     1
175
     1
 42
1.0
 92
        8
 66
     8
 43
1.0
 76
     1
 77
     6
 78
     2
 67
     7
 79
     5
170
     0
171
     0
290
     0
174
     0
 93
       13
 44
0.0
173
     0
291
     0
 45
0.0
1001
ACAD
1000
AcDbSavedByObjectVersion
1070
     0
  0
VISUALSTYLE
  5
35A7
102
{ACAD_XDICTIONARY
360
35FC
102
}
102
{ACAD_REACTORS
330
2B4
102
}
330
2B4
100
AcDbVisualStyle
  2
Shaded
 70
    27
 71
     2
 72
     2
 73
     1
 90
        2
 40
-0.6
 41
30.0
 62
     5
 63
     7
 74
     0
 91
        4
 64
     7
 65
   257
 75
     1
175
     1
 42
1.0
 92
        8
 66
   257
 43
1.0
 76
     1
 77
     6
 78
     2
 67
     8
 79
     3
170
     0
171
     0
290
     0
174
     0
 93
        5
 44
0.0
173
     0
291
     0
 45
0.0
1001
ACAD
1000
AcDbSavedByObjectVersion
1070
     0
  0
VISUALSTYLE
  5
35A6
102
{ACAD_XDICTIONARY
360
35FA
102
}
102
{ACAD_REACTORS
330
2B4
102
}
330
2B4
100
AcDbVisualStyle
  2
Shaded with edges
 70
    26
 71
     2
 72
     2
 73
     1
 90
        2
 40
-0.6
 41
30.0
 62
     5
 63
     7
 74
     1
 91
       10
 64
     7
 65
   257
 75
     2
175
     1
 42
1.0
 92
        8
 66
   257
 43
1.0
 76
     1
 77
     6
 78
     2
 67
     7
 79
     3
170
     0
171
     0
290
     0
174
     0
 93
        5
 44
0.0
173
     0
291
     0
 45
0.0
1001
ACAD
1000
AcDbSavedByObjectVersion
1070
     0
  0
VISUALSTYLE
  5
35A3
102
{ACAD_XDICTIONARY
360
35F4
102
}
102
{ACAD_REACTORS
330
2B4
102
}
330
2B4
100
AcDbVisualStyle
  2
Shades of Gray
 70
    23
 71
     2
 72
     2
 73
     3
 90
        0
 40
-0.6
 41
-30.0
 62
     5
 63
     7
 74
     2
 91
        2
 64
     7
 65
     7
 75
     1
175
     1
 42
40.0
 92
        8
 66
     7
 43
1.0
 76
     1
 77
     6
 78
     2
 67
     7
 79
     3
170
     0
171
     0
290
     0
174
     0
 93
        1
 44
0.0
173
     0
291
     0
 45
0.0
1001
ACAD
1000
AcDbSavedByObjectVersion
1070
     0
  0
VISUALSTYLE
  5
35A4
102
{ACAD_XDICTIONARY
360
35F6
102
}
102
{ACAD_REACTORS
330
2B4
102
}
330
2B4
100
AcDbVisualStyle
  2
Sketchy
 70
    24
 71
     1
 72
     2
 73
     2
 90
        0
 40
-0.6
 41
-30.0
 62
     5
 63
     7
 74
     2
 91
        2
 64
     7
 65
     7
 75
     1
175
     1
 42
40.0
 92
       11
 66
     7
 43
1.0
 76
     1
 77
     6
 78
     2
 67
     7
 79
     6
170
     0
171
     0
290
     0
174
     0
 93
        1
 44
0.0
173
     0
291
     0
 45
0.0
1001
ACAD
1000
AcDbSavedByObjectVersion
1070
     0
  0
VISUALSTYLE
  5
2C1
102
{ACAD_XDICTIONARY
360
35DD
102
}
102
{ACAD_REACTORS
330
2B4
102
}
330
2B4
100
AcDbVisualStyle
  2
Thicken
 70
    13
 71
     2
 72
     2
 73
     0
 90
        0
 40
-0.6
 41
-30.0
 62
     5
 63
     7
 74
     1
 91
        4
 64
     7
 65
   257
 75
     1
175
     1
 42
1.0
 92
       12
 66
     7
 43
1.0
 76
     1
 77
     6
 78
     2
 67
     7
 79
     5
170
     0
171
     0
290
     0
174
     0
 93
        1
 44
0.0
173
     0
291
     1
 45
0.0
1001
ACAD
1000
AcDbSavedByObjectVersion
1070
     0
  0
VISUALSTYLE
  5
35A1
102
{ACAD_XDICTIONARY
360
35F0
102
}
102
{ACAD_REACTORS
330
2B4
102
}
330
2B4
100
AcDbVisualStyle
  2
Wireframe
 70
     5
 71
     0
 72
     2
 73
     0
 90
        0
 40
-0.6
 41
-30.0
 62
     5
 63
     7
 74
     1
 91
        4
 64
     7
 65
   257
 75
     1
175
     1
 42
1.0
 92
        0
 66
   257
 43
1.0
 76
     1
 77
     6
 78
     2
 67
     7
 79
     3
170
     0
171
     0
290
     0
174
     0
 93
        1
 44
0.0
173
     0
291
     0
 45
0.0
1001
ACAD
1000
AcDbSavedByObjectVersion
1070
     0
  0
VISUALSTYLE
  5
35A5
102
{ACAD_XDICTIONARY
360
35F8
102
}
102
{ACAD_REACTORS
330
2B4
102
}
330
2B4
100
AcDbVisualStyle
  2
X-Ray
 70
    25
 71
     2
 72
     2
 73
     1
 90
        1
 40
0.5
 41
-30.0
 62
     5
 63
     7
 74
     1
 91
        0
 64
     7
 65
   257
 75
     1
175
     1
 42
1.0
 92
        8
 66
     7
 43
1.0
 76
     1
 77
     6
 78
     2
 67
     7
 79
     3
170
     0
171
     0
290
     0
174
     0
 93
       13
 44
0.0
173
     0
291
     0
 45
0.0
1001
ACAD
1000
AcDbSavedByObjectVersion
1070
     0
  0
DICTIONARYVAR
  5
36B
102
{ACAD_REACTORS
330
2AA
102
}
330
2AA
100
DictionaryVariables
280
     0
  1
1:1
  0
DICTIONARYVAR
  5
369
102
{ACAD_REACTORS
330
2AA
102
}
330
2AA
100
DictionaryVariables
280
     0
  1
STANDARD
  0
DICTIONARYVAR
  5
312
102
{ACAD_REACTORS
330
2AA
102
}
330
2AA
100
DictionaryVariables
280
     0
  1
STANDARD
  0
DICTIONARYVAR
  5
2AB
102
{ACAD_REACTORS
330
2AA
102
}
330
2AA
100
DictionaryVariables
280
     0
  1
2
  0
DICTIONARYVAR
  5
A27
102
{ACAD_REACTORS
330
2AA
102
}
330
2AA
100
DictionaryVariables
280
     0
  1
0
  0
DICTIONARYVAR
  5
314
102
{ACAD_REACTORS
330
2AA
102
}
330
2AA
100
DictionaryVariables
280
     0
  1
0
  0
DICTIONARYVAR
  5
A29
102
{ACAD_REACTORS
330
2AA
102
}
330
2AA
100
DictionaryVariables
280
     0
  1
1
  0
DICTIONARYVAR
  5
A2A
102
{ACAD_REACTORS
330
2AA
102
}
330
2AA
100
DictionaryVariables
280
     0
  1
15
  0
DICTIONARYVAR
  5
36C
102
{ACAD_REACTORS
330
2AA
102
}
330
2AA
100
DictionaryVariables
280
     0
  1
0
  0
DICTIONARYVAR
  5
A28
102
{ACAD_REACTORS
330
2AA
102
}
330
2AA
100
DictionaryVariables
280
     0
  1
10.000000
  0
DICTIONARYVAR
  5
36A
102
{ACAD_REACTORS
330
2AA
102
}
330
2AA
100
DictionaryVariables
280
     0
  1
0
  0
DICTIONARYVAR
  5
313
102
{ACAD_REACTORS
330
2AA
102
}
330
2AA
100
DictionaryVariables
280
     0
  1
127
  0
DICTIONARYVAR
  5
35B5
102
{ACAD_REACTORS
330
2AA
102
}
330
2AA
100
DictionaryVariables
280
     0
  1
0
  0
XRECORD
  5
51
102
{ACAD_REACTORS
330
50
102
}
330
50
100
AcDbXrecord
280
     1
 91
        0
  0
ACAD_PROXY_OBJECT
  5
6DA
102
{ACAD_REACTORS
330
6D9
102
}
330
6D9
100
AcDbProxyObject
 90
      499
 91
      512
 95
  3276827
 70
     0
 93
      153
310
407907440045004600410055004C0054007A00CC
 94
        0
1001
ACAD
1000
AcRTDxfName
1000
ACDBQSCATEGORY
  0
ACAD_PROXY_OBJECT
  5
6EB
102
{ACAD_REACTORS
330
6EA
102
}
330
6EA
100
AcDbProxyObject
 90
      499
 91
      513
 95
  3276827
 70
     0
 93
     2908
310
40B520280D55480A0281203520280A0280C0000000000000A200000000000000448080C00000000000019200000000000000688120280A0280A0E88008A008C008200AA009800A80082280027802980170020E88008A008C008200AA009800A80080A180202860120C86009E008800920086008A008A220024802680228027
310
00298024802780270024802F8022002480268018801680220024802680190024EA2007400B800A200A600BE00A4008A00A8008A00B80082009A00840092008A009C00A8009200B800A8009E00A000BE00880092008A00A400A4008A00B800A8008200840060005C008800AE008E0095A8801D002E00288029802F802900228
310
02A0022802E002080268021002480228027002A0024802E002A00278028002F802200248022802900290022802E002A00278028002F802800208026002600170022002B80238020C86009E008800920086008A0085A200228029802180290024802D00248027802700228050413C
 94
        0
1001
ACAD
1000
AcRTDxfName
1000
ACDBQSPALLSTYLE
  0
XRECORD
  5
359E
102
{ACAD_REACTORS
330
3593
102
}
330
3593
100
AcDbXrecord
280
     1
  9
X6f97
  0
XRECORD
  5
3599
102
{ACAD_REACTORS
330
3593
102
}
330
3593
100
AcDbXrecord
280
     1
  2
.BOCC.CERNIER.DI8/DE10/COLL.# 1.5
  3
P-6B8B
  6
X2df5
280
     1
310
6465736372697A696F6E65002E424F43432E4345524E4945522E4449382F444531302F434F4C4C2E2320312E3500444154410030372F30392F30390064697365676E61746F7265004D6172636F20412E00717461003100554D004E52005245560030004445534352495A494F4E453200303037440024736F7572636500416E61677261666963612047657374696F6E616C6500434F444943450058433330323330004D4154455249414C4500504C415354494341005343414C4100313A3130002E646170727400433A5C444F43554D457E315C6D6172636F6178705C494D504F53547E315C54656D705C70617274636C702E6477670000
 10
-967.9707207806568
 20
-511.3343201441875
 30
0.0
  0
XRECORD
  5
359D
102
{ACAD_REACTORS
330
3593
102
}
330
3593
100
AcDbXrecord
280
     1
  2
.cart
  3
P-5E0F
  6
X6f97
280
     1
310
6465736372697A696F6E65002E6361727400444154410031392F31302F30390064697365676E61746F7265004D6172636F20412E00717461003100554D004E52005245560030005343414C4100313A31300000
 10
0.0
 20
0.0
 30
0.0
  0
XRECORD
  5
3596
102
{ACAD_REACTORS
330
3593
102
}
330
3593
100
AcDbXrecord
280
     1
  2
KIT CERNIERA INFERIORE EPS251NT ARGENTO
  3
P-6509
  6
X6f97
280
     1
310
6465736372697A696F6E65004B4954204345524E4945524120494E464552494F5245204550533235314E5420415247454E544F00444154410031392F31302F30390064697365676E61746F7265004D6172636F20412E00717461003100554D004E520052455600300024736F7572636500416E61677261666963612047657374696F6E616C6500434F4449434500584336363230310000
 10
-741.0509085283065
 20
-623.1238881792177
 30
0.0
  0
XRECORD
  5
3595
102
{ACAD_REACTORS
330
3593
102
}
330
3593
100
AcDbXrecord
280
     1
  2
.1
  3
P-376E
  6
X6f97
280
     1
310
6465736372697A696F6E65002E3100444154410031392F31302F30390064697365676E61746F7265004D6172636F20412E00717461003100554D004E520052455600300000
 10
0.0
 20
0.0
 30
0.0
  0
XRECORD
  5
3597
102
{ACAD_REACTORS
330
3593
102
}
330
3593
100
AcDbXrecord
280
     1
  2
.PERNO D8 X 55 /CERN.INF.(C.2109) INOX
  3
P-13E7
  6
X2df5
280
     1
310
6465736372697A696F6E65002E5045524E4F2044382058203535202F4345524E2E494E462E28432E323130392920494E4F5800444154410030372F30392F30390064697365676E61746F7265004D6172636F20412E00717461003100554D004E52005245560030004445534352495A494F4E453200303038440024736F7572636500416E61677261666963612047657374696F6E616C6500434F444943450058543130333031004D4154455249414C450041495349333034005343414C4100313A3130002E646170727400433A5C444F43554D457E315C6D6172636F6178705C494D504F53547E315C54656D705C70617274636C702E6477670000
 10
-867.5039741348937
 20
-561.7085475996481
 30
0.0
  0
XRECORD
  5
359A
102
{ACAD_REACTORS
330
3593
102
}
330
3593
100
AcDbXrecord
280
     1
  2
.SEMICERNIERA FISSA C.2108 ALL.ANOD.ARG.
  3
P-2B67
  6
X2df5
280
     1
310
6465736372697A696F6E65002E53454D494345524E4945524120464953534120432E3231303820414C4C2E414E4F442E4152472E00444154410030372F30392F30390064697365676E61746F7265004D6172636F20412E00717461003100554D004E52005245560030004445534352495A494F4E453200303037420024736F7572636500416E61677261666963612047657374696F6E616C6500434F444943450058433430333031005343414C4100313A3130002E646170727400433A5C444F43554D457E315C6D6172636F6178705C494D504F53547E315C54656D705C70617274636C702E6477670000
 10
-1334.786343128928
 20
-596.0754200297341
 30
0.0
  0
XRECORD
  5
3598
102
{ACAD_REACTORS
330
3593
102
}
330
3593
100
AcDbXrecord
280
     1
  2
.BOCC.CERNIER.DI8/DE10/COLL.# 1.5
  3
P-09EB
  6
X2df5
280
     1
310
6465736372697A696F6E65002E424F43432E4345524E4945522E4449382F444531302F434F4C4C2E2320312E3500444154410030372F30392F30390064697365676E61746F7265004D6172636F20412E00717461003100554D004E52005245560030004445534352495A494F4E453200303037440024736F7572636500416E61677261666963612047657374696F6E616C6500434F444943450058433330323330004D4154455249414C4500504C415354494341005343414C4100313A3130002E646170727400433A5C444F43554D457E315C6D6172636F6178705C494D504F53547E315C54656D705C70617274636C702E6477670000
 10
-967.9707207806568
 20
-588.6349676420576
 30
0.0
  0
XRECORD
  5
359B
102
{ACAD_REACTORS
330
3593
102
}
330
3593
100
AcDbXrecord
280
     1
  2
.SEMICERNIERA MOBILE C.2348 ALL.ANOD.ARG.
  3
P-538C
  6
X2df5
280
     2
310
6465736372697A696F6E65002E53454D494345524E49455241204D4F42494C4520432E3233343820414C4C2E414E4F442E4152472E00444154410030332F30392F30390064697365676E61746F7265004D6172636F20412E00717461003100554D004E52005245560030004445534352495A494F4E453200303037460024736F7572636500416E61677261666963612047657374696F6E616C6500434F444943450058433430333033005452415454414D454E544900414E4F442E415247454E544F004D4154455249414C4500414C4C554D494E494F005343414C4100313A3130002E646170727400433A5C444F43554D457E315C6D6172636F6178705C49
311
4D504F53547E315C54656D705C70617274636C702E6477670000
 10
-1293.335890569786
 20
-839.7246166463991
 30
0.0
  0
XRECORD
  5
3594
102
{ACAD_REACTORS
330
3593
102
}
330
3593
100
AcDbXrecord
280
     1
  2
XK-CERN.INF.PLAST.TENUTA/ARG.(COMMERCIALE)
  3
P-0000
280
     1
310
6465736372697A696F6E6500584B2D4345524E2E494E462E504C4153542E54454E5554412F4152472E28434F4D4D45524349414C452900444154410033302F30332F313100554D004E520052455600300044495345474E41544F5245004D6172636F20412E005343414C4100313A313000515441003100434F444943450058433636323031002E666D740034004445534352495A494F4E453200584334303330312B584334303330332B584333303233302B5431303330312B58463532363036470000
 10
0.0
 20
0.0
 30
0.0
  0
XRECORD
  5
359C
102
{ACAD_REACTORS
330
3593
102
}
330
3593
100
AcDbXrecord
280
     1
  2
.ROND.RAGG.(XVTC CR.) M6 /R.7039
  3
P-5AEF
  6
X2df5
280
     2
310
6465736372697A696F6E65002E524F4E442E524147472E28585654432043522E29204D36202F522E3730333900444154410030372F30382F30390064697365676E61746F7265004D6172636F20412E00717461003100554D004E52005245560030004445534352495A494F4E453200303339420024736F7572636500416E61677261666963612047657374696F6E616C6500434F44494345005846353236303647004E4F5445004E594C4F4E2052414C37303339004D4154455249414C45004E594C4F4E005343414C4100313A3130002E646170727400433A5C444F43554D457E315C6D6172636F6178705C494D504F53547E315C54656D705C7061727463
311
6C702E6477670000
 10
-1061.625701646775
 20
-755.6192818522704
 30
0.0
  0
XRECORD
  5
6E1
102
{ACAD_REACTORS
330
6E0
102
}
330
6E0
100
AcDbXrecord
280
     1
 90
      202
 91
      144
  0
DICTIONARY
  5
35BD
330
48
100
AcDbDictionary
280
     1
281
     1
  3
ACAD_XREC_ROUNDTRIP
360
35BE
  0
DICTIONARY
  5
35BB
330
47
100
AcDbDictionary
280
     1
281
     1
  3
ACAD_XREC_ROUNDTRIP
360
35BC
  0
DICTIONARY
  5
35C1
330
2B2
100
AcDbDictionary
280
     1
281
     1
  3
ACAD_XREC_ROUNDTRIP
360
35C2
  0
DICTIONARY
  5
35BF
330
2B1
100
AcDbDictionary
280
     1
281
     1
  3
ACAD_XREC_ROUNDTRIP
360
35C0
  0
DICTIONARY
  5
35C3
330
2B3
100
AcDbDictionary
280
     1
281
     1
  3
ACAD_XREC_ROUNDTRIP
360
35C4
  0
DICTIONARY
  5
35E6
330
33F6
100
AcDbDictionary
280
     1
281
     1
  3
ACAD_XREC_ROUNDTRIP
360
35E7
  0
DICTIONARY
  5
35E8
330
33F7
100
AcDbDictionary
280
     1
281
     1
  3
ACAD_XREC_ROUNDTRIP
360
35E9
  0
DICTIONARY
  5
35EA
330
33F8
100
AcDbDictionary
280
     1
281
     1
  3
ACAD_XREC_ROUNDTRIP
360
35EB
  0
DICTIONARY
  5
35EC
330
33F9
100
AcDbDictionary
280
     1
281
     1
  3
ACAD_XREC_ROUNDTRIP
360
35ED
  0
DICTIONARY
  5
35EE
330
33FA
100
AcDbDictionary
280
     1
281
     1
  3
ACAD_XREC_ROUNDTRIP
360
35EF
  0
DICTIONARY
  5
362
330
2C7
100
AcDbDictionary
280
     1
281
     1
  3
ACAD_ROUNDTRIP_2008_TABLESTYLE_CELLSTYLEMAP
360
35B6
  3
ACAD_XREC_ROUNDTRIP
360
35E5
  0
DICTIONARY
  5
35CF
330
2BA
100
AcDbDictionary
280
     1
281
     1
  3
ACAD_XREC_ROUNDTRIP
360
35D0
  0
DICTIONARY
  5
35D3
330
2BC
100
AcDbDictionary
280
     1
281
     1
  3
ACAD_XREC_ROUNDTRIP
360
35D4
  0
DICTIONARY
  5
35D1
330
2BB
100
AcDbDictionary
280
     1
281
     1
  3
ACAD_XREC_ROUNDTRIP
360
35D2
  0
DICTIONARY
  5
35CD
330
2B9
100
AcDbDictionary
280
     1
281
     1
  3
ACAD_XREC_ROUNDTRIP
360
35CE
  0
DICTIONARY
  5
35DB
330
2C0
100
AcDbDictionary
280
     1
281
     1
  3
ACAD_XREC_ROUNDTRIP
360
35DC
  0
DICTIONARY
  5
35E3
330
2C4
100
AcDbDictionary
280
     1
281
     1
  3
ACAD_XREC_ROUNDTRIP
360
35E4
  0
DICTIONARY
  5
35D5
330
2BD
100
AcDbDictionary
280
     1
281
     1
  3
ACAD_XREC_ROUNDTRIP
360
35D6
  0
DICTIONARY
  5
35D9
330
2BF
100
AcDbDictionary
280
     1
281
     1
  3
ACAD_XREC_ROUNDTRIP
360
35DA
  0
DICTIONARY
  5
3602
330
35AA
100
AcDbDictionary
280
     1
281
     1
  3
ACAD_XREC_ROUNDTRIP
360
3603
  0
DICTIONARY
  5
35E1
330
2C3
100
AcDbDictionary
280
     1
281
     1
  3
ACAD_XREC_ROUNDTRIP
360
35E2
  0
DICTIONARY
  5
35C5
330
2B5
100
AcDbDictionary
280
     1
281
     1
  3
ACAD_XREC_ROUNDTRIP
360
35C6
  0
DICTIONARY
  5
35C7
330
2B6
100
AcDbDictionary
280
     1
281
     1
  3
ACAD_XREC_ROUNDTRIP
360
35C8
  0
DICTIONARY
  5
35C9
330
2B7
100
AcDbDictionary
280
     1
281
     1
  3
ACAD_XREC_ROUNDTRIP
360
35CA
  0
DICTIONARY
  5
35CB
330
2B8
100
AcDbDictionary
280
     1
281
     1
  3
ACAD_XREC_ROUNDTRIP
360
35CC
  0
DICTIONARY
  5
35F2
330
35A2
100
AcDbDictionary
280
     1
281
     1
  3
ACAD_XREC_ROUNDTRIP
360
35F3
  0
DICTIONARY
  5
35FE
330
35A8
100
AcDbDictionary
280
     1
281
     1
  3
ACAD_XREC_ROUNDTRIP
360
35FF
  0
DICTIONARY
  5
35DF
330
2C2
100
AcDbDictionary
280
     1
281
     1
  3
ACAD_XREC_ROUNDTRIP
360
35E0
  0
DICTIONARY
  5
3600
330
35A9
100
AcDbDictionary
280
     1
281
     1
  3
ACAD_XREC_ROUNDTRIP
360
3601
  0
DICTIONARY
  5
35D7
330
2BE
100
AcDbDictionary
280
     1
281
     1
  3
ACAD_XREC_ROUNDTRIP
360
35D8
  0
DICTIONARY
  5
35FC
330
35A7
100
AcDbDictionary
280
     1
281
     1
  3
ACAD_XREC_ROUNDTRIP
360
35FD
  0
DICTIONARY
  5
35FA
330
35A6
100
AcDbDictionary
280
     1
281
     1
  3
ACAD_XREC_ROUNDTRIP
360
35FB
  0
DICTIONARY
  5
35F4
330
35A3
100
AcDbDictionary
280
     1
281
     1
  3
ACAD_XREC_ROUNDTRIP
360
35F5
  0
DICTIONARY
  5
35F6
330
35A4
100
AcDbDictionary
280
     1
281
     1
  3
ACAD_XREC_ROUNDTRIP
360
35F7
  0
DICTIONARY
  5
35DD
330
2C1
100
AcDbDictionary
280
     1
281
     1
  3
ACAD_XREC_ROUNDTRIP
360
35DE
  0
DICTIONARY
  5
35F0
330
35A1
100
AcDbDictionary
280
     1
281
     1
  3
ACAD_XREC_ROUNDTRIP
360
35F1
  0
DICTIONARY
  5
35F8
330
35A5
100
AcDbDictionary
280
     1
281
     1
  3
ACAD_XREC_ROUNDTRIP
360
35F9
  0
XRECORD
  5
35BE
102
{ACAD_REACTORS
330
35BD
102
}
330
35BD
100
AcDbXrecord
280
     1
102
SHADEPLOT
 70
     0
102
SHADEPLOTRESLEVEL
 70
     2
102
SHADEPLOTCUSTOMDPI
 70
   300
  0
XRECORD
  5
35BC
102
{ACAD_REACTORS
330
35BB
102
}
330
35BB
100
AcDbXrecord
280
     1
102
SHADEPLOT
 70
     0
102
SHADEPLOTRESLEVEL
 70
     2
102
SHADEPLOTCUSTOMDPI
 70
   300
  0
XRECORD
  5
35C2
102
{ACAD_REACTORS
330
35C1
102
}
330
35C1
100
AcDbXrecord
280
     1
102
MATERIAL
148
0.0
149
0.0
149
0.0
 93
        0
 94
       63
282
     0
 72
     1
 77
     1
171
     1
175
     1
179
     1
273
     0
  0
XRECORD
  5
35C0
102
{ACAD_REACTORS
330
35BF
102
}
330
35BF
100
AcDbXrecord
280
     1
102
MATERIAL
148
0.0
149
0.0
149
0.0
 93
        0
 94
       63
282
     0
 72
     1
 77
     1
171
     1
175
     1
179
     1
273
     0
  0
XRECORD
  5
35C4
102
{ACAD_REACTORS
330
35C3
102
}
330
35C3
100
AcDbXrecord
280
     1
102
MATERIAL
148
0.0
149
0.0
149
0.0
 93
        0
 94
       63
282
     0
 72
     1
 77
     1
171
     1
175
     1
179
     1
273
     0
  0
XRECORD
  5
35E7
102
{ACAD_REACTORS
330
35E6
102
}
330
35E6
100
AcDbXrecord
280
     1
102
SHADEPLOT
 70
     0
102
SHADEPLOTRESLEVEL
 70
     2
102
SHADEPLOTCUSTOMDPI
 70
   300
  0
XRECORD
  5
35E9
102
{ACAD_REACTORS
330
35E8
102
}
330
35E8
100
AcDbXrecord
280
     1
102
SHADEPLOT
 70
     0
102
SHADEPLOTRESLEVEL
 70
     2
102
SHADEPLOTCUSTOMDPI
 70
   300
  0
XRECORD
  5
35EB
102
{ACAD_REACTORS
330
35EA
102
}
330
35EA
100
AcDbXrecord
280
     1
102
SHADEPLOT
 70
     0
102
SHADEPLOTRESLEVEL
 70
     2
102
SHADEPLOTCUSTOMDPI
 70
   300
  0
XRECORD
  5
35ED
102
{ACAD_REACTORS
330
35EC
102
}
330
35EC
100
AcDbXrecord
280
     1
102
SHADEPLOT
 70
     0
102
SHADEPLOTRESLEVEL
 70
     2
102
SHADEPLOTCUSTOMDPI
 70
   300
  0
XRECORD
  5
35EF
102
{ACAD_REACTORS
330
35EE
102
}
330
35EE
100
AcDbXrecord
280
     1
102
SHADEPLOT
 70
     0
102
SHADEPLOTRESLEVEL
 70
     2
102
SHADEPLOTCUSTOMDPI
 70
   300
  0
CELLSTYLEMAP
  5
35B6
102
{ACAD_REACTORS
330
362
102
}
330
362
100
AcDbCellStyleMap
 90
        3
300
CELLSTYLE
  1
TABLEFORMAT_BEGIN
 90
        5
170
     1
 91
        0
 92
    32768
 62
   257
 93
        1
300
CONTENTFORMAT
  1
CONTENTFORMAT_BEGIN
 90
        0
 91
        0
 92
      512
 93
        0
300

 40
0.0
140
1.0
 94
        5
 62
     0
340
C
144
6.0
309
CONTENTFORMAT_END
171
     1
301
MARGIN
  1
CELLMARGIN_BEGIN
 40
1.5
 40
1.5
 40
1.5
 40
1.5
 40
0.18
 40
0.18
309
CELLMARGIN_END
 94
        6
 95
        1
302
GRIDFORMAT
  1
GRIDFORMAT_BEGIN
 90
        0
 91
        1
 62
     0
 92
       -2
340
0
 93
        0
 40
0.045
309
GRIDFORMAT_END
 95
        2
302
GRIDFORMAT
  1
GRIDFORMAT_BEGIN
 90
        0
 91
        1
 62
     0
 92
       -2
340
0
 93
        0
 40
0.045
309
GRIDFORMAT_END
 95
        4
302
GRIDFORMAT
  1
GRIDFORMAT_BEGIN
 90
        0
 91
        1
 62
     0
 92
       -2
340
0
 93
        0
 40
0.045
309
GRIDFORMAT_END
 95
        8
302
GRIDFORMAT
  1
GRIDFORMAT_BEGIN
 90
        0
 91
        1
 62
     0
 92
       -2
340
0
 93
        0
 40
0.045
309
GRIDFORMAT_END
 95
       16
302
GRIDFORMAT
  1
GRIDFORMAT_BEGIN
 90
        0
 91
        1
 62
     0
 92
       -2
340
0
 93
        0
 40
0.045
309
GRIDFORMAT_END
 95
       32
302
GRIDFORMAT
  1
GRIDFORMAT_BEGIN
 90
        0
 91
        1
 62
     0
 92
       -2
340
0
 93
        0
 40
0.045
309
GRIDFORMAT_END
309
TABLEFORMAT_END
  1
CELLSTYLE_BEGIN
 90
        1
 91
        1
300
_TITLE
309
CELLSTYLE_END
300
CELLSTYLE
  1
TABLEFORMAT_BEGIN
 90
        5
170
     1
 91
        0
 92
        0
 62
   257
 93
        1
300
CONTENTFORMAT
  1
CONTENTFORMAT_BEGIN
 90
        0
 91
        0
 92
      512
 93
        0
300

 40
0.0
140
1.0
 94
        5
 62
     0
340
C
144
4.5
309
CONTENTFORMAT_END
171
     1
301
MARGIN
  1
CELLMARGIN_BEGIN
 40
1.5
 40
1.5
 40
1.5
 40
1.5
 40
0.18
 40
0.18
309
CELLMARGIN_END
 94
        6
 95
        1
302
GRIDFORMAT
  1
GRIDFORMAT_BEGIN
 90
        0
 91
        1
 62
     0
 92
       -2
340
0
 93
        0
 40
0.045
309
GRIDFORMAT_END
 95
        2
302
GRIDFORMAT
  1
GRIDFORMAT_BEGIN
 90
        0
 91
        1
 62
     0
 92
       -2
340
0
 93
        0
 40
0.045
309
GRIDFORMAT_END
 95
        4
302
GRIDFORMAT
  1
GRIDFORMAT_BEGIN
 90
        0
 91
        1
 62
     0
 92
       -2
340
0
 93
        0
 40
0.045
309
GRIDFORMAT_END
 95
        8
302
GRIDFORMAT
  1
GRIDFORMAT_BEGIN
 90
        0
 91
        1
 62
     0
 92
       -2
340
0
 93
        0
 40
0.045
309
GRIDFORMAT_END
 95
       16
302
GRIDFORMAT
  1
GRIDFORMAT_BEGIN
 90
        0
 91
        1
 62
     0
 92
       -2
340
0
 93
        0
 40
0.045
309
GRIDFORMAT_END
 95
       32
302
GRIDFORMAT
  1
GRIDFORMAT_BEGIN
 90
        0
 91
        1
 62
     0
 92
       -2
340
0
 93
        0
 40
0.045
309
GRIDFORMAT_END
309
TABLEFORMAT_END
  1
CELLSTYLE_BEGIN
 90
        2
 91
        1
300
_HEADER
309
CELLSTYLE_END
300
CELLSTYLE
  1
TABLEFORMAT_BEGIN
 90
        5
170
     1
 91
        0
 92
        0
 62
   257
 93
        1
300
CONTENTFORMAT
  1
CONTENTFORMAT_BEGIN
 90
        0
 91
        0
 92
      512
 93
        0
300

 40
0.0
140
1.0
 94
        2
 62
     0
340
C
144
4.5
309
CONTENTFORMAT_END
171
     1
301
MARGIN
  1
CELLMARGIN_BEGIN
 40
1.5
 40
1.5
 40
1.5
 40
1.5
 40
0.18
 40
0.18
309
CELLMARGIN_END
 94
        6
 95
        1
302
GRIDFORMAT
  1
GRIDFORMAT_BEGIN
 90
        0
 91
        1
 62
     0
 92
       -2
340
0
 93
        0
 40
0.045
309
GRIDFORMAT_END
 95
        2
302
GRIDFORMAT
  1
GRIDFORMAT_BEGIN
 90
        0
 91
        1
 62
     0
 92
       -2
340
0
 93
        0
 40
0.045
309
GRIDFORMAT_END
 95
        4
302
GRIDFORMAT
  1
GRIDFORMAT_BEGIN
 90
        0
 91
        1
 62
     0
 92
       -2
340
0
 93
        0
 40
0.045
309
GRIDFORMAT_END
 95
        8
302
GRIDFORMAT
  1
GRIDFORMAT_BEGIN
 90
        0
 91
        1
 62
     0
 92
       -2
340
0
 93
        0
 40
0.045
309
GRIDFORMAT_END
 95
       16
302
GRIDFORMAT
  1
GRIDFORMAT_BEGIN
 90
        0
 91
        1
 62
     0
 92
       -2
340
0
 93
        0
 40
0.045
309
GRIDFORMAT_END
 95
       32
302
GRIDFORMAT
  1
GRIDFORMAT_BEGIN
 90
        0
 91
        1
 62
     0
 92
       -2
340
0
 93
        0
 40
0.045
309
GRIDFORMAT_END
309
TABLEFORMAT_END
  1
CELLSTYLE_BEGIN
 90
        3
 91
        2
300
_DATA
309
CELLSTYLE_END
  0
XRECORD
  5
35E5
102
{ACAD_REACTORS
330
362
102
}
330
362
100
AcDbXrecord
280
     1
102
ACAD_ROUNDTRIP_PRE2007_TABLESTYLE
 90
      512
 91
        0
  1

 92
      512
 93
        0
  2

 94
      512
 95
        0
  3

  0
XRECORD
  5
35D0
102
{ACAD_REACTORS
330
35CF
102
}
330
35CF
100
AcDbXrecord
280
     1
102
RTVSPropertyOp0
 70
     1
102
RTVSPropertyOp1
 70
     1
102
RTVSPropertyOp2
 70
     1
102
RTVSPropertyOp3
 70
     1
102
RTVSPropertyOp4
 70
     1
102
RTVSPropertyOp5
 70
     1
102
RTVSPropertyOp6
 70
     1
102
RTVSPropertyOp7
 70
     1
102
RTVSPropertyOp8
 70
     1
102
RTVSPropertyOp9
 70
     1
102
RTVSPropertyOp10
 70
     1
102
RTVSPropertyOp11
 70
     1
102
RTVSPropertyOp12
 70
     1
102
RTVSPropertyOp13
 70
     1
102
RTVSPropertyOp14
 70
     1
102
RTVSPropertyOp15
 70
     1
102
RTVSPropertyOp16
 70
     1
102
RTVSPropertyOp17
 70
     1
102
RTVSPropertyOp18
 70
     1
102
RTVSPropertyOp19
 70
     1
102
RTVSPropertyOp20
 70
     1
102
RTVSPropertyOp21
 70
     1
102
RTVSPropertyOp22
 70
     1
102
RTVSPropertyOp23
 70
     1
102
RTVSPropertyOp24
 70
     1
102
RTVSPropertyOp25
 70
     1
102
RTVSPropertyOp26
 70
     1
102
RTVSPropertyOp27
 70
     1
102
RTVSPropertyOp28
 70
     1
102
RTVSPropertyOp29
 70
     1
102
RTVSPropertyOp30
 70
     1
102
RTVSPropertyOp31
 70
     1
102
RTVSPropertyOp32
 70
     1
  0
XRECORD
  5
35D4
102
{ACAD_REACTORS
330
35D3
102
}
330
35D3
100
AcDbXrecord
280
     1
102
RTVSPropertyOp0
 70
     1
102
RTVSPropertyOp1
 70
     1
102
RTVSPropertyOp2
 70
     1
102
RTVSPropertyOp3
 70
     1
102
RTVSPropertyOp4
 70
     1
102
RTVSPropertyOp5
 70
     1
102
RTVSPropertyOp6
 70
     1
102
RTVSPropertyOp7
 70
     1
102
RTVSPropertyOp8
 70
     1
102
RTVSPropertyOp9
 70
     1
102
RTVSPropertyOp10
 70
     1
102
RTVSPropertyOp11
 70
     1
102
RTVSPropertyOp12
 70
     1
102
RTVSPropertyOp13
 70
     1
102
RTVSPropertyOp14
 70
     1
102
RTVSPropertyOp15
 70
     1
102
RTVSPropertyOp16
 70
     1
102
RTVSPropertyOp17
 70
     1
102
RTVSPropertyOp18
 70
     1
102
RTVSPropertyOp19
 70
     1
102
RTVSPropertyOp20
 70
     1
102
RTVSPropertyOp21
 70
     1
102
RTVSPropertyOp22
 70
     1
102
RTVSPropertyOp23
 70
     1
102
RTVSPropertyOp24
 70
     1
102
RTVSPropertyOp25
 70
     1
102
RTVSPropertyOp26
 70
     1
102
RTVSPropertyOp27
 70
     1
102
RTVSPropertyOp28
 70
     1
102
RTVSPropertyOp29
 70
     1
102
RTVSPropertyOp30
 70
     1
102
RTVSPropertyOp31
 70
     1
102
RTVSPropertyOp32
 70
     1
  0
XRECORD
  5
35D2
102
{ACAD_REACTORS
330
35D1
102
}
330
35D1
100
AcDbXrecord
280
     1
102
RTVSPropertyOp0
 70
     1
102
RTVSPropertyOp1
 70
     1
102
RTVSPropertyOp2
 70
     1
102
RTVSPropertyOp3
 70
     1
102
RTVSPropertyOp4
 70
     1
102
RTVSPropertyOp5
 70
     1
102
RTVSPropertyOp6
 70
     1
102
RTVSPropertyOp7
 70
     1
102
RTVSPropertyOp8
 70
     1
102
RTVSPropertyOp9
 70
     1
102
RTVSPropertyOp10
 70
     1
102
RTVSPropertyOp11
 70
     1
102
RTVSPropertyOp12
 70
     1
102
RTVSPropertyOp13
 70
     1
102
RTVSPropertyOp14
 70
     1
102
RTVSPropertyOp15
 70
     1
102
RTVSPropertyOp16
 70
     1
102
RTVSPropertyOp17
 70
     1
102
RTVSPropertyOp18
 70
     1
102
RTVSPropertyOp19
 70
     1
102
RTVSPropertyOp20
 70
     1
102
RTVSPropertyOp21
 70
     1
102
RTVSPropertyOp22
 70
     1
102
RTVSPropertyOp23
 70
     1
102
RTVSPropertyOp24
 70
     1
102
RTVSPropertyOp25
 70
     1
102
RTVSPropertyOp26
 70
     1
102
RTVSPropertyOp27
 70
     1
102
RTVSPropertyOp28
 70
     1
102
RTVSPropertyOp29
 70
     1
102
RTVSPropertyOp30
 70
     1
102
RTVSPropertyOp31
 70
     1
102
RTVSPropertyOp32
 70
     1
  0
XRECORD
  5
35CE
102
{ACAD_REACTORS
330
35CD
102
}
330
35CD
100
AcDbXrecord
280
     1
102
RTVSPropertyOp0
 70
     1
102
RTVSPropertyOp1
 70
     1
102
RTVSPropertyOp2
 70
     1
102
RTVSPropertyOp3
 70
     1
102
RTVSPropertyOp4
 70
     1
102
RTVSPropertyOp5
 70
     1
102
RTVSPropertyOp6
 70
     1
102
RTVSPropertyOp7
 70
     1
102
RTVSPropertyOp8
 70
     1
102
RTVSPropertyOp9
 70
     1
102
RTVSPropertyOp10
 70
     1
102
RTVSPropertyOp11
 70
     1
102
RTVSPropertyOp12
 70
     1
102
RTVSPropertyOp13
 70
     1
102
RTVSPropertyOp14
 70
     1
102
RTVSPropertyOp15
 70
     1
102
RTVSPropertyOp16
 70
     1
102
RTVSPropertyOp17
 70
     1
102
RTVSPropertyOp18
 70
     1
102
RTVSPropertyOp19
 70
     1
102
RTVSPropertyOp20
 70
     1
102
RTVSPropertyOp21
 70
     1
102
RTVSPropertyOp22
 70
     1
102
RTVSPropertyOp23
 70
     1
102
RTVSPropertyOp24
 70
     1
102
RTVSPropertyOp25
 70
     1
102
RTVSPropertyOp26
 70
     1
102
RTVSPropertyOp27
 70
     1
102
RTVSPropertyOp28
 70
     1
102
RTVSPropertyOp29
 70
     1
102
RTVSPropertyOp30
 70
     1
102
RTVSPropertyOp31
 70
     1
102
RTVSPropertyOp32
 70
     1
  0
XRECORD
  5
35DC
102
{ACAD_REACTORS
330
35DB
102
}
330
35DB
100
AcDbXrecord
280
     1
102
RTVSPropertyOp0
 70
     1
102
RTVSPropertyOp1
 70
     1
102
RTVSPropertyOp2
 70
     1
102
RTVSPropertyOp3
 70
     1
102
RTVSPropertyOp4
 70
     1
102
RTVSPropertyOp5
 70
     1
102
RTVSPropertyOp6
 70
     1
102
RTVSPropertyOp7
 70
     1
102
RTVSPropertyOp8
 70
     1
102
RTVSPropertyOp9
 70
     1
102
RTVSPropertyOp10
 70
     1
102
RTVSPropertyOp11
 70
     1
102
RTVSPropertyOp12
 70
     1
102
RTVSPropertyOp13
 70
     1
102
RTVSPropertyOp14
 70
     1
102
RTVSPropertyOp15
 70
     1
102
RTVSPropertyOp16
 70
     1
102
RTVSPropertyOp17
 70
     1
102
RTVSPropertyOp18
 70
     1
102
RTVSPropertyOp19
 70
     1
102
RTVSPropertyOp20
 70
     1
102
RTVSPropertyOp21
 70
     1
102
RTVSPropertyOp22
 70
     1
102
RTVSPropertyOp23
 70
     1
102
RTVSPropertyOp24
 70
     1
102
RTVSPropertyOp25
 70
     1
102
RTVSPropertyOp26
 70
     1
102
RTVSPropertyOp27
 70
     1
102
RTVSPropertyOp28
 70
     1
102
RTVSPropertyOp29
 70
     1
102
RTVSPropertyOp30
 70
     1
102
RTVSPropertyOp31
 70
     1
102
RTVSPropertyOp32
 70
     1
  0
XRECORD
  5
35E4
102
{ACAD_REACTORS
330
35E3
102
}
330
35E3
100
AcDbXrecord
280
     1
102
RTVSPropertyOp0
 70
     1
102
RTVSPropertyOp1
 70
     1
102
RTVSPropertyOp2
 70
     1
102
RTVSPropertyOp3
 70
     1
102
RTVSPropertyOp4
 70
     1
102
RTVSPropertyOp5
 70
     1
102
RTVSPropertyOp6
 70
     1
102
RTVSPropertyOp7
 70
     1
102
RTVSPropertyOp8
 70
     1
102
RTVSPropertyOp9
 70
     1
102
RTVSPropertyOp10
 70
     1
102
RTVSPropertyOp11
 70
     1
102
RTVSPropertyOp12
 70
     1
102
RTVSPropertyOp13
 70
     1
102
RTVSPropertyOp14
 70
     1
102
RTVSPropertyOp15
 70
     1
102
RTVSPropertyOp16
 70
     1
102
RTVSPropertyOp17
 70
     1
102
RTVSPropertyOp18
 70
     1
102
RTVSPropertyOp19
 70
     1
102
RTVSPropertyOp20
 70
     1
102
RTVSPropertyOp21
 70
     1
102
RTVSPropertyOp22
 70
     1
102
RTVSPropertyOp23
 70
     1
102
RTVSPropertyOp24
 70
     1
102
RTVSPropertyOp25
 70
     1
102
RTVSPropertyOp26
 70
     1
102
RTVSPropertyOp27
 70
     1
102
RTVSPropertyOp28
 70
     1
102
RTVSPropertyOp29
 70
     1
102
RTVSPropertyOp30
 70
     1
102
RTVSPropertyOp31
 70
     1
102
RTVSPropertyOp32
 70
     1
  0
XRECORD
  5
35D6
102
{ACAD_REACTORS
330
35D5
102
}
330
35D5
100
AcDbXrecord
280
     1
102
RTVSPropertyOp0
 70
     1
102
RTVSPropertyOp1
 70
     1
102
RTVSPropertyOp2
 70
     1
102
RTVSPropertyOp3
 70
     1
102
RTVSPropertyOp4
 70
     1
102
RTVSPropertyOp5
 70
     1
102
RTVSPropertyOp6
 70
     1
102
RTVSPropertyOp7
 70
     1
102
RTVSPropertyOp8
 70
     1
102
RTVSPropertyOp9
 70
     1
102
RTVSPropertyOp10
 70
     1
102
RTVSPropertyOp11
 70
     1
102
RTVSPropertyOp12
 70
     1
102
RTVSPropertyOp13
 70
     1
102
RTVSPropertyOp14
 70
     1
102
RTVSPropertyOp15
 70
     1
102
RTVSPropertyOp16
 70
     1
102
RTVSPropertyOp17
 70
     1
102
RTVSPropertyOp18
 70
     1
102
RTVSPropertyOp19
 70
     1
102
RTVSPropertyOp20
 70
     1
102
RTVSPropertyOp21
 70
     1
102
RTVSPropertyOp22
 70
     1
102
RTVSPropertyOp23
 70
     1
102
RTVSPropertyOp24
 70
     1
102
RTVSPropertyOp25
 70
     1
102
RTVSPropertyOp26
 70
     1
102
RTVSPropertyOp27
 70
     1
102
RTVSPropertyOp28
 70
     1
102
RTVSPropertyOp29
 70
     1
102
RTVSPropertyOp30
 70
     1
102
RTVSPropertyOp31
 70
     1
102
RTVSPropertyOp32
 70
     1
  0
XRECORD
  5
35DA
102
{ACAD_REACTORS
330
35D9
102
}
330
35D9
100
AcDbXrecord
280
     1
102
RTVSPropertyOp0
 70
     1
102
RTVSPropertyOp1
 70
     1
102
RTVSPropertyOp2
 70
     1
102
RTVSPropertyOp3
 70
     1
102
RTVSPropertyOp4
 70
     1
102
RTVSPropertyOp5
 70
     1
102
RTVSPropertyOp6
 70
     1
102
RTVSPropertyOp7
 70
     1
102
RTVSPropertyOp8
 70
     1
102
RTVSPropertyOp9
 70
     1
102
RTVSPropertyOp10
 70
     1
102
RTVSPropertyOp11
 70
     1
102
RTVSPropertyOp12
 70
     1
102
RTVSPropertyOp13
 70
     1
102
RTVSPropertyOp14
 70
     1
102
RTVSPropertyOp15
 70
     1
102
RTVSPropertyOp16
 70
     1
102
RTVSPropertyOp17
 70
     1
102
RTVSPropertyOp18
 70
     1
102
RTVSPropertyOp19
 70
     1
102
RTVSPropertyOp20
 70
     1
102
RTVSPropertyOp21
 70
     1
102
RTVSPropertyOp22
 70
     1
102
RTVSPropertyOp23
 70
     1
102
RTVSPropertyOp24
 70
     1
102
RTVSPropertyOp25
 70
     1
102
RTVSPropertyOp26
 70
     1
102
RTVSPropertyOp27
 70
     1
102
RTVSPropertyOp28
 70
     1
102
RTVSPropertyOp29
 70
     1
102
RTVSPropertyOp30
 70
     1
102
RTVSPropertyOp31
 70
     1
102
RTVSPropertyOp32
 70
     1
  0
XRECORD
  5
3603
102
{ACAD_REACTORS
330
3602
102
}
330
3602
100
AcDbXrecord
280
     1
102
RTVSPropertyOp0
 70
     0
102
RTVSPropertyOp1
 70
     0
102
RTVSPropertyOp2
 70
     0
102
RTVSPropertyOp3
 70
     0
102
RTVSPropertyOp4
 70
     0
102
RTVSPropertyOp5
 70
     0
102
RTVSPropertyOp6
 70
     0
102
RTVSPropertyOp7
 70
     0
102
RTVSPropertyOp8
 70
     0
102
RTVSPropertyOp9
 70
     0
102
RTVSPropertyOp10
 70
     0
102
RTVSPropertyOp11
 70
     0
102
RTVSPropertyOp12
 70
     0
102
RTVSPropertyOp13
 70
     0
102
RTVSPropertyOp14
 70
     2
102
RTVSPropertyOp15
 70
     0
102
RTVSPropertyOp16
 70
     0
102
RTVSPropertyOp17
 70
     0
102
RTVSPropertyOp18
 70
     0
102
RTVSPropertyOp19
 70
     0
102
RTVSPropertyOp20
 70
     0
102
RTVSPropertyOp21
 70
     0
102
RTVSPropertyOp22
 70
     0
102
RTVSPropertyOp23
 70
     0
102
RTVSPropertyOp24
 70
     0
102
RTVSPropertyOp25
 70
     0
102
RTVSPropertyOp26
 70
     0
102
RTVSPropertyOp27
 70
     0
102
RTVSPropertyOp28
 70
     0
102
RTVSPropertyOp29
 70
     0
102
RTVSPropertyOp30
 70
     0
102
RTVSPropertyOp31
 70
     0
102
RTVSPropertyOp32
 70
     0
  0
XRECORD
  5
35E2
102
{ACAD_REACTORS
330
35E1
102
}
330
35E1
100
AcDbXrecord
280
     1
102
RTVSPropertyOp0
 70
     1
102
RTVSPropertyOp1
 70
     1
102
RTVSPropertyOp2
 70
     1
102
RTVSPropertyOp3
 70
     1
102
RTVSPropertyOp4
 70
     1
102
RTVSPropertyOp5
 70
     1
102
RTVSPropertyOp6
 70
     1
102
RTVSPropertyOp7
 70
     1
102
RTVSPropertyOp8
 70
     1
102
RTVSPropertyOp9
 70
     1
102
RTVSPropertyOp10
 70
     1
102
RTVSPropertyOp11
 70
     1
102
RTVSPropertyOp12
 70
     1
102
RTVSPropertyOp13
 70
     1
102
RTVSPropertyOp14
 70
     1
102
RTVSPropertyOp15
 70
     1
102
RTVSPropertyOp16
 70
     1
102
RTVSPropertyOp17
 70
     1
102
RTVSPropertyOp18
 70
     1
102
RTVSPropertyOp19
 70
     1
102
RTVSPropertyOp20
 70
     1
102
RTVSPropertyOp21
 70
     1
102
RTVSPropertyOp22
 70
     1
102
RTVSPropertyOp23
 70
     1
102
RTVSPropertyOp24
 70
     1
102
RTVSPropertyOp25
 70
     1
102
RTVSPropertyOp26
 70
     1
102
RTVSPropertyOp27
 70
     1
102
RTVSPropertyOp28
 70
     1
102
RTVSPropertyOp29
 70
     1
102
RTVSPropertyOp30
 70
     1
102
RTVSPropertyOp31
 70
     1
102
RTVSPropertyOp32
 70
     1
  0
XRECORD
  5
35C6
102
{ACAD_REACTORS
330
35C5
102
}
330
35C5
100
AcDbXrecord
280
     1
102
RTVSPropertyOp0
 70
     1
102
RTVSPropertyOp1
 70
     1
102
RTVSPropertyOp2
 70
     1
102
RTVSPropertyOp3
 70
     1
102
RTVSPropertyOp4
 70
     1
102
RTVSPropertyOp5
 70
     1
102
RTVSPropertyOp6
 70
     1
102
RTVSPropertyOp7
 70
     1
102
RTVSPropertyOp8
 70
     1
102
RTVSPropertyOp9
 70
     1
102
RTVSPropertyOp10
 70
     1
102
RTVSPropertyOp11
 70
     1
102
RTVSPropertyOp12
 70
     1
102
RTVSPropertyOp13
 70
     1
102
RTVSPropertyOp14
 70
     1
102
RTVSPropertyOp15
 70
     1
102
RTVSPropertyOp16
 70
     1
102
RTVSPropertyOp17
 70
     1
102
RTVSPropertyOp18
 70
     1
102
RTVSPropertyOp19
 70
     1
102
RTVSPropertyOp20
 70
     1
102
RTVSPropertyOp21
 70
     1
102
RTVSPropertyOp22
 70
     1
102
RTVSPropertyOp23
 70
     1
102
RTVSPropertyOp24
 70
     1
102
RTVSPropertyOp25
 70
     1
102
RTVSPropertyOp26
 70
     1
102
RTVSPropertyOp27
 70
     1
102
RTVSPropertyOp28
 70
     1
102
RTVSPropertyOp29
 70
     1
102
RTVSPropertyOp30
 70
     1
102
RTVSPropertyOp31
 70
     1
102
RTVSPropertyOp32
 70
     1
  0
XRECORD
  5
35C8
102
{ACAD_REACTORS
330
35C7
102
}
330
35C7
100
AcDbXrecord
280
     1
102
RTVSPropertyOp0
 70
     1
102
RTVSPropertyOp1
 70
     1
102
RTVSPropertyOp2
 70
     1
102
RTVSPropertyOp3
 70
     1
102
RTVSPropertyOp4
 70
     1
102
RTVSPropertyOp5
 70
     1
102
RTVSPropertyOp6
 70
     1
102
RTVSPropertyOp7
 70
     1
102
RTVSPropertyOp8
 70
     1
102
RTVSPropertyOp9
 70
     1
102
RTVSPropertyOp10
 70
     1
102
RTVSPropertyOp11
 70
     1
102
RTVSPropertyOp12
 70
     1
102
RTVSPropertyOp13
 70
     1
102
RTVSPropertyOp14
 70
     1
102
RTVSPropertyOp15
 70
     1
102
RTVSPropertyOp16
 70
     1
102
RTVSPropertyOp17
 70
     1
102
RTVSPropertyOp18
 70
     1
102
RTVSPropertyOp19
 70
     1
102
RTVSPropertyOp20
 70
     1
102
RTVSPropertyOp21
 70
     1
102
RTVSPropertyOp22
 70
     1
102
RTVSPropertyOp23
 70
     1
102
RTVSPropertyOp24
 70
     1
102
RTVSPropertyOp25
 70
     1
102
RTVSPropertyOp26
 70
     1
102
RTVSPropertyOp27
 70
     1
102
RTVSPropertyOp28
 70
     1
102
RTVSPropertyOp29
 70
     1
102
RTVSPropertyOp30
 70
     1
102
RTVSPropertyOp31
 70
     1
102
RTVSPropertyOp32
 70
     1
  0
XRECORD
  5
35CA
102
{ACAD_REACTORS
330
35C9
102
}
330
35C9
100
AcDbXrecord
280
     1
102
RTVSPropertyOp0
 70
     1
102
RTVSPropertyOp1
 70
     1
102
RTVSPropertyOp2
 70
     1
102
RTVSPropertyOp3
 70
     1
102
RTVSPropertyOp4
 70
     1
102
RTVSPropertyOp5
 70
     1
102
RTVSPropertyOp6
 70
     1
102
RTVSPropertyOp7
 70
     1
102
RTVSPropertyOp8
 70
     1
102
RTVSPropertyOp9
 70
     1
102
RTVSPropertyOp10
 70
     1
102
RTVSPropertyOp11
 70
     1
102
RTVSPropertyOp12
 70
     1
102
RTVSPropertyOp13
 70
     1
102
RTVSPropertyOp14
 70
     1
102
RTVSPropertyOp15
 70
     1
102
RTVSPropertyOp16
 70
     1
102
RTVSPropertyOp17
 70
     1
102
RTVSPropertyOp18
 70
     1
102
RTVSPropertyOp19
 70
     1
102
RTVSPropertyOp20
 70
     1
102
RTVSPropertyOp21
 70
     1
102
RTVSPropertyOp22
 70
     1
102
RTVSPropertyOp23
 70
     1
102
RTVSPropertyOp24
 70
     1
102
RTVSPropertyOp25
 70
     1
102
RTVSPropertyOp26
 70
     1
102
RTVSPropertyOp27
 70
     1
102
RTVSPropertyOp28
 70
     1
102
RTVSPropertyOp29
 70
     1
102
RTVSPropertyOp30
 70
     1
102
RTVSPropertyOp31
 70
     1
102
RTVSPropertyOp32
 70
     1
  0
XRECORD
  5
35CC
102
{ACAD_REACTORS
330
35CB
102
}
330
35CB
100
AcDbXrecord
280
     1
102
RTVSPropertyOp0
 70
     1
102
RTVSPropertyOp1
 70
     1
102
RTVSPropertyOp2
 70
     1
102
RTVSPropertyOp3
 70
     1
102
RTVSPropertyOp4
 70
     1
102
RTVSPropertyOp5
 70
     1
102
RTVSPropertyOp6
 70
     1
102
RTVSPropertyOp7
 70
     1
102
RTVSPropertyOp8
 70
     1
102
RTVSPropertyOp9
 70
     1
102
RTVSPropertyOp10
 70
     1
102
RTVSPropertyOp11
 70
     1
102
RTVSPropertyOp12
 70
     1
102
RTVSPropertyOp13
 70
     1
102
RTVSPropertyOp14
 70
     1
102
RTVSPropertyOp15
 70
     1
102
RTVSPropertyOp16
 70
     1
102
RTVSPropertyOp17
 70
     1
102
RTVSPropertyOp18
 70
     1
102
RTVSPropertyOp19
 70
     1
102
RTVSPropertyOp20
 70
     1
102
RTVSPropertyOp21
 70
     1
102
RTVSPropertyOp22
 70
     1
102
RTVSPropertyOp23
 70
     1
102
RTVSPropertyOp24
 70
     1
102
RTVSPropertyOp25
 70
     1
102
RTVSPropertyOp26
 70
     1
102
RTVSPropertyOp27
 70
     1
102
RTVSPropertyOp28
 70
     1
102
RTVSPropertyOp29
 70
     1
102
RTVSPropertyOp30
 70
     1
102
RTVSPropertyOp31
 70
     1
102
RTVSPropertyOp32
 70
     1
  0
XRECORD
  5
35F3
102
{ACAD_REACTORS
330
35F2
102
}
330
35F2
100
AcDbXrecord
280
     1
102
RTVSPropertyOp0
 70
     1
102
RTVSPropertyOp1
 70
     1
102
RTVSPropertyOp2
 70
     1
102
RTVSPropertyOp3
 70
     1
102
RTVSPropertyOp4
 70
     1
102
RTVSPropertyOp5
 70
     1
102
RTVSPropertyOp6
 70
     1
102
RTVSPropertyOp7
 70
     1
102
RTVSPropertyOp8
 70
     1
102
RTVSPropertyOp9
 70
     1
102
RTVSPropertyOp10
 70
     1
102
RTVSPropertyOp11
 70
     1
102
RTVSPropertyOp12
 70
     1
102
RTVSPropertyOp13
 70
     1
102
RTVSPropertyOp14
 70
     1
102
RTVSPropertyOp15
 70
     1
102
RTVSPropertyOp16
 70
     1
102
RTVSPropertyOp17
 70
     1
102
RTVSPropertyOp18
 70
     1
102
RTVSPropertyOp19
 70
     1
102
RTVSPropertyOp20
 70
     1
102
RTVSPropertyOp21
 70
     1
102
RTVSPropertyOp22
 70
     1
102
RTVSPropertyOp23
 70
     1
102
RTVSPropertyOp24
 70
     1
102
RTVSPropertyOp25
 70
     1
102
RTVSPropertyOp26
 70
     1
102
RTVSPropertyOp27
 70
     1
102
RTVSPropertyOp28
 70
     1
102
RTVSPropertyOp29
 70
     1
102
RTVSPropertyOp30
 70
     1
102
RTVSPropertyOp31
 70
     1
102
RTVSPropertyOp32
 70
     1
  0
XRECORD
  5
35FF
102
{ACAD_REACTORS
330
35FE
102
}
330
35FE
100
AcDbXrecord
280
     1
102
RTVSPropertyOp0
 70
     0
102
RTVSPropertyOp1
 70
     0
102
RTVSPropertyOp2
 70
     0
102
RTVSPropertyOp3
 70
     0
102
RTVSPropertyOp4
 70
     0
102
RTVSPropertyOp5
 70
     0
102
RTVSPropertyOp6
 70
     0
102
RTVSPropertyOp7
 70
     0
102
RTVSPropertyOp8
 70
     0
102
RTVSPropertyOp9
 70
     0
102
RTVSPropertyOp10
 70
     0
102
RTVSPropertyOp11
 70
     0
102
RTVSPropertyOp12
 70
     0
102
RTVSPropertyOp13
 70
     0
102
RTVSPropertyOp14
 70
     2
102
RTVSPropertyOp15
 70
     0
102
RTVSPropertyOp16
 70
     0
102
RTVSPropertyOp17
 70
     0
102
RTVSPropertyOp18
 70
     0
102
RTVSPropertyOp19
 70
     0
102
RTVSPropertyOp20
 70
     0
102
RTVSPropertyOp21
 70
     0
102
RTVSPropertyOp22
 70
     0
102
RTVSPropertyOp23
 70
     0
102
RTVSPropertyOp24
 70
     0
102
RTVSPropertyOp25
 70
     0
102
RTVSPropertyOp26
 70
     0
102
RTVSPropertyOp27
 70
     0
102
RTVSPropertyOp28
 70
     0
102
RTVSPropertyOp29
 70
     0
102
RTVSPropertyOp30
 70
     0
102
RTVSPropertyOp31
 70
     0
102
RTVSPropertyOp32
 70
     0
  0
XRECORD
  5
35E0
102
{ACAD_REACTORS
330
35DF
102
}
330
35DF
100
AcDbXrecord
280
     1
102
RTVSPropertyOp0
 70
     1
102
RTVSPropertyOp1
 70
     1
102
RTVSPropertyOp2
 70
     1
102
RTVSPropertyOp3
 70
     1
102
RTVSPropertyOp4
 70
     1
102
RTVSPropertyOp5
 70
     1
102
RTVSPropertyOp6
 70
     1
102
RTVSPropertyOp7
 70
     1
102
RTVSPropertyOp8
 70
     1
102
RTVSPropertyOp9
 70
     1
102
RTVSPropertyOp10
 70
     1
102
RTVSPropertyOp11
 70
     1
102
RTVSPropertyOp12
 70
     1
102
RTVSPropertyOp13
 70
     1
102
RTVSPropertyOp14
 70
     1
102
RTVSPropertyOp15
 70
     1
102
RTVSPropertyOp16
 70
     1
102
RTVSPropertyOp17
 70
     1
102
RTVSPropertyOp18
 70
     1
102
RTVSPropertyOp19
 70
     1
102
RTVSPropertyOp20
 70
     1
102
RTVSPropertyOp21
 70
     1
102
RTVSPropertyOp22
 70
     1
102
RTVSPropertyOp23
 70
     1
102
RTVSPropertyOp24
 70
     1
102
RTVSPropertyOp25
 70
     1
102
RTVSPropertyOp26
 70
     1
102
RTVSPropertyOp27
 70
     1
102
RTVSPropertyOp28
 70
     1
102
RTVSPropertyOp29
 70
     1
102
RTVSPropertyOp30
 70
     1
102
RTVSPropertyOp31
 70
     1
102
RTVSPropertyOp32
 70
     1
  0
XRECORD
  5
3601
102
{ACAD_REACTORS
330
3600
102
}
330
3600
100
AcDbXrecord
280
     1
102
RTVSPropertyOp0
 70
     0
102
RTVSPropertyOp1
 70
     0
102
RTVSPropertyOp2
 70
     0
102
RTVSPropertyOp3
 70
     0
102
RTVSPropertyOp4
 70
     0
102
RTVSPropertyOp5
 70
     0
102
RTVSPropertyOp6
 70
     0
102
RTVSPropertyOp7
 70
     0
102
RTVSPropertyOp8
 70
     0
102
RTVSPropertyOp9
 70
     0
102
RTVSPropertyOp10
 70
     0
102
RTVSPropertyOp11
 70
     0
102
RTVSPropertyOp12
 70
     0
102
RTVSPropertyOp13
 70
     0
102
RTVSPropertyOp14
 70
     2
102
RTVSPropertyOp15
 70
     0
102
RTVSPropertyOp16
 70
     0
102
RTVSPropertyOp17
 70
     0
102
RTVSPropertyOp18
 70
     0
102
RTVSPropertyOp19
 70
     0
102
RTVSPropertyOp20
 70
     0
102
RTVSPropertyOp21
 70
     0
102
RTVSPropertyOp22
 70
     0
102
RTVSPropertyOp23
 70
     0
102
RTVSPropertyOp24
 70
     0
102
RTVSPropertyOp25
 70
     0
102
RTVSPropertyOp26
 70
     0
102
RTVSPropertyOp27
 70
     0
102
RTVSPropertyOp28
 70
     0
102
RTVSPropertyOp29
 70
     0
102
RTVSPropertyOp30
 70
     0
102
RTVSPropertyOp31
 70
     0
102
RTVSPropertyOp32
 70
     0
  0
XRECORD
  5
35D8
102
{ACAD_REACTORS
330
35D7
102
}
330
35D7
100
AcDbXrecord
280
     1
102
RTVSPropertyOp0
 70
     1
102
RTVSPropertyOp1
 70
     1
102
RTVSPropertyOp2
 70
     1
102
RTVSPropertyOp3
 70
     1
102
RTVSPropertyOp4
 70
     1
102
RTVSPropertyOp5
 70
     1
102
RTVSPropertyOp6
 70
     1
102
RTVSPropertyOp7
 70
     1
102
RTVSPropertyOp8
 70
     1
102
RTVSPropertyOp9
 70
     1
102
RTVSPropertyOp10
 70
     1
102
RTVSPropertyOp11
 70
     1
102
RTVSPropertyOp12
 70
     1
102
RTVSPropertyOp13
 70
     1
102
RTVSPropertyOp14
 70
     1
102
RTVSPropertyOp15
 70
     1
102
RTVSPropertyOp16
 70
     1
102
RTVSPropertyOp17
 70
     1
102
RTVSPropertyOp18
 70
     1
102
RTVSPropertyOp19
 70
     1
102
RTVSPropertyOp20
 70
     1
102
RTVSPropertyOp21
 70
     1
102
RTVSPropertyOp22
 70
     1
102
RTVSPropertyOp23
 70
     1
102
RTVSPropertyOp24
 70
     1
102
RTVSPropertyOp25
 70
     1
102
RTVSPropertyOp26
 70
     1
102
RTVSPropertyOp27
 70
     1
102
RTVSPropertyOp28
 70
     1
102
RTVSPropertyOp29
 70
     1
102
RTVSPropertyOp30
 70
     1
102
RTVSPropertyOp31
 70
     1
102
RTVSPropertyOp32
 70
     1
  0
XRECORD
  5
35FD
102
{ACAD_REACTORS
330
35FC
102
}
330
35FC
100
AcDbXrecord
280
     1
102
RTVSPropertyOp0
 70
     1
102
RTVSPropertyOp1
 70
     1
102
RTVSPropertyOp2
 70
     1
102
RTVSPropertyOp3
 70
     1
102
RTVSPropertyOp4
 70
     1
102
RTVSPropertyOp5
 70
     1
102
RTVSPropertyOp6
 70
     1
102
RTVSPropertyOp7
 70
     1
102
RTVSPropertyOp8
 70
     1
102
RTVSPropertyOp9
 70
     1
102
RTVSPropertyOp10
 70
     1
102
RTVSPropertyOp11
 70
     1
102
RTVSPropertyOp12
 70
     1
102
RTVSPropertyOp13
 70
     1
102
RTVSPropertyOp14
 70
     1
102
RTVSPropertyOp15
 70
     1
102
RTVSPropertyOp16
 70
     1
102
RTVSPropertyOp17
 70
     1
102
RTVSPropertyOp18
 70
     1
102
RTVSPropertyOp19
 70
     1
102
RTVSPropertyOp20
 70
     1
102
RTVSPropertyOp21
 70
     1
102
RTVSPropertyOp22
 70
     1
102
RTVSPropertyOp23
 70
     1
102
RTVSPropertyOp24
 70
     1
102
RTVSPropertyOp25
 70
     1
102
RTVSPropertyOp26
 70
     1
102
RTVSPropertyOp27
 70
     1
102
RTVSPropertyOp28
 70
     1
102
RTVSPropertyOp29
 70
     1
102
RTVSPropertyOp30
 70
     1
102
RTVSPropertyOp31
 70
     1
102
RTVSPropertyOp32
 70
     1
  0
XRECORD
  5
35FB
102
{ACAD_REACTORS
330
35FA
102
}
330
35FA
100
AcDbXrecord
280
     1
102
RTVSPropertyOp0
 70
     1
102
RTVSPropertyOp1
 70
     1
102
RTVSPropertyOp2
 70
     1
102
RTVSPropertyOp3
 70
     1
102
RTVSPropertyOp4
 70
     1
102
RTVSPropertyOp5
 70
     1
102
RTVSPropertyOp6
 70
     1
102
RTVSPropertyOp7
 70
     1
102
RTVSPropertyOp8
 70
     1
102
RTVSPropertyOp9
 70
     1
102
RTVSPropertyOp10
 70
     1
102
RTVSPropertyOp11
 70
     1
102
RTVSPropertyOp12
 70
     1
102
RTVSPropertyOp13
 70
     1
102
RTVSPropertyOp14
 70
     1
102
RTVSPropertyOp15
 70
     1
102
RTVSPropertyOp16
 70
     1
102
RTVSPropertyOp17
 70
     1
102
RTVSPropertyOp18
 70
     1
102
RTVSPropertyOp19
 70
     1
102
RTVSPropertyOp20
 70
     1
102
RTVSPropertyOp21
 70
     1
102
RTVSPropertyOp22
 70
     1
102
RTVSPropertyOp23
 70
     1
102
RTVSPropertyOp24
 70
     1
102
RTVSPropertyOp25
 70
     1
102
RTVSPropertyOp26
 70
     1
102
RTVSPropertyOp27
 70
     1
102
RTVSPropertyOp28
 70
     1
102
RTVSPropertyOp29
 70
     1
102
RTVSPropertyOp30
 70
     1
102
RTVSPropertyOp31
 70
     1
102
RTVSPropertyOp32
 70
     1
  0
XRECORD
  5
35F5
102
{ACAD_REACTORS
330
35F4
102
}
330
35F4
100
AcDbXrecord
280
     1
102
RTVSPropertyOp0
 70
     1
102
RTVSPropertyOp1
 70
     1
102
RTVSPropertyOp2
 70
     1
102
RTVSPropertyOp3
 70
     1
102
RTVSPropertyOp4
 70
     1
102
RTVSPropertyOp5
 70
     1
102
RTVSPropertyOp6
 70
     1
102
RTVSPropertyOp7
 70
     1
102
RTVSPropertyOp8
 70
     1
102
RTVSPropertyOp9
 70
     1
102
RTVSPropertyOp10
 70
     1
102
RTVSPropertyOp11
 70
     1
102
RTVSPropertyOp12
 70
     1
102
RTVSPropertyOp13
 70
     1
102
RTVSPropertyOp14
 70
     1
102
RTVSPropertyOp15
 70
     1
102
RTVSPropertyOp16
 70
     1
102
RTVSPropertyOp17
 70
     1
102
RTVSPropertyOp18
 70
     1
102
RTVSPropertyOp19
 70
     1
102
RTVSPropertyOp20
 70
     1
102
RTVSPropertyOp21
 70
     1
102
RTVSPropertyOp22
 70
     1
102
RTVSPropertyOp23
 70
     1
102
RTVSPropertyOp24
 70
     1
102
RTVSPropertyOp25
 70
     1
102
RTVSPropertyOp26
 70
     1
102
RTVSPropertyOp27
 70
     1
102
RTVSPropertyOp28
 70
     1
102
RTVSPropertyOp29
 70
     1
102
RTVSPropertyOp30
 70
     1
102
RTVSPropertyOp31
 70
     1
102
RTVSPropertyOp32
 70
     1
  0
XRECORD
  5
35F7
102
{ACAD_REACTORS
330
35F6
102
}
330
35F6
100
AcDbXrecord
280
     1
102
RTVSPropertyOp0
 70
     1
102
RTVSPropertyOp1
 70
     1
102
RTVSPropertyOp2
 70
     1
102
RTVSPropertyOp3
 70
     1
102
RTVSPropertyOp4
 70
     1
102
RTVSPropertyOp5
 70
     1
102
RTVSPropertyOp6
 70
     1
102
RTVSPropertyOp7
 70
     1
102
RTVSPropertyOp8
 70
     1
102
RTVSPropertyOp9
 70
     1
102
RTVSPropertyOp10
 70
     1
102
RTVSPropertyOp11
 70
     1
102
RTVSPropertyOp12
 70
     1
102
RTVSPropertyOp13
 70
     1
102
RTVSPropertyOp14
 70
     1
102
RTVSPropertyOp15
 70
     1
102
RTVSPropertyOp16
 70
     1
102
RTVSPropertyOp17
 70
     1
102
RTVSPropertyOp18
 70
     1
102
RTVSPropertyOp19
 70
     1
102
RTVSPropertyOp20
 70
     1
102
RTVSPropertyOp21
 70
     1
102
RTVSPropertyOp22
 70
     1
102
RTVSPropertyOp23
 70
     1
102
RTVSPropertyOp24
 70
     1
102
RTVSPropertyOp25
 70
     1
102
RTVSPropertyOp26
 70
     1
102
RTVSPropertyOp27
 70
     1
102
RTVSPropertyOp28
 70
     1
102
RTVSPropertyOp29
 70
     1
102
RTVSPropertyOp30
 70
     1
102
RTVSPropertyOp31
 70
     1
102
RTVSPropertyOp32
 70
     1
  0
XRECORD
  5
35DE
102
{ACAD_REACTORS
330
35DD
102
}
330
35DD
100
AcDbXrecord
280
     1
102
RTVSPropertyOp0
 70
     1
102
RTVSPropertyOp1
 70
     1
102
RTVSPropertyOp2
 70
     1
102
RTVSPropertyOp3
 70
     1
102
RTVSPropertyOp4
 70
     1
102
RTVSPropertyOp5
 70
     1
102
RTVSPropertyOp6
 70
     1
102
RTVSPropertyOp7
 70
     1
102
RTVSPropertyOp8
 70
     1
102
RTVSPropertyOp9
 70
     1
102
RTVSPropertyOp10
 70
     1
102
RTVSPropertyOp11
 70
     1
102
RTVSPropertyOp12
 70
     1
102
RTVSPropertyOp13
 70
     1
102
RTVSPropertyOp14
 70
     1
102
RTVSPropertyOp15
 70
     1
102
RTVSPropertyOp16
 70
     1
102
RTVSPropertyOp17
 70
     1
102
RTVSPropertyOp18
 70
     1
102
RTVSPropertyOp19
 70
     1
102
RTVSPropertyOp20
 70
     1
102
RTVSPropertyOp21
 70
     1
102
RTVSPropertyOp22
 70
     1
102
RTVSPropertyOp23
 70
     1
102
RTVSPropertyOp24
 70
     1
102
RTVSPropertyOp25
 70
     1
102
RTVSPropertyOp26
 70
     1
102
RTVSPropertyOp27
 70
     1
102
RTVSPropertyOp28
 70
     1
102
RTVSPropertyOp29
 70
     1
102
RTVSPropertyOp30
 70
     1
102
RTVSPropertyOp31
 70
     1
102
RTVSPropertyOp32
 70
     1
  0
XRECORD
  5
35F1
102
{ACAD_REACTORS
330
35F0
102
}
330
35F0
100
AcDbXrecord
280
     1
102
RTVSPropertyOp0
 70
     1
102
RTVSPropertyOp1
 70
     1
102
RTVSPropertyOp2
 70
     1
102
RTVSPropertyOp3
 70
     1
102
RTVSPropertyOp4
 70
     1
102
RTVSPropertyOp5
 70
     1
102
RTVSPropertyOp6
 70
     1
102
RTVSPropertyOp7
 70
     1
102
RTVSPropertyOp8
 70
     1
102
RTVSPropertyOp9
 70
     1
102
RTVSPropertyOp10
 70
     1
102
RTVSPropertyOp11
 70
     1
102
RTVSPropertyOp12
 70
     1
102
RTVSPropertyOp13
 70
     1
102
RTVSPropertyOp14
 70
     1
102
RTVSPropertyOp15
 70
     1
102
RTVSPropertyOp16
 70
     1
102
RTVSPropertyOp17
 70
     1
102
RTVSPropertyOp18
 70
     1
102
RTVSPropertyOp19
 70
     1
102
RTVSPropertyOp20
 70
     1
102
RTVSPropertyOp21
 70
     1
102
RTVSPropertyOp22
 70
     1
102
RTVSPropertyOp23
 70
     1
102
RTVSPropertyOp24
 70
     1
102
RTVSPropertyOp25
 70
     1
102
RTVSPropertyOp26
 70
     1
102
RTVSPropertyOp27
 70
     1
102
RTVSPropertyOp28
 70
     1
102
RTVSPropertyOp29
 70
     1
102
RTVSPropertyOp30
 70
     1
102
RTVSPropertyOp31
 70
     1
102
RTVSPropertyOp32
 70
     1
  0
XRECORD
  5
35F9
102
{ACAD_REACTORS
330
35F8
102
}
330
35F8
100
AcDbXrecord
280
     1
102
RTVSPropertyOp0
 70
     1
102
RTVSPropertyOp1
 70
     1
102
RTVSPropertyOp2
 70
     1
102
RTVSPropertyOp3
 70
     1
102
RTVSPropertyOp4
 70
     1
102
RTVSPropertyOp5
 70
     1
102
RTVSPropertyOp6
 70
     1
102
RTVSPropertyOp7
 70
     1
102
RTVSPropertyOp8
 70
     1
102
RTVSPropertyOp9
 70
     1
102
RTVSPropertyOp10
 70
     1
102
RTVSPropertyOp11
 70
     1
102
RTVSPropertyOp12
 70
     1
102
RTVSPropertyOp13
 70
     1
102
RTVSPropertyOp14
 70
     1
102
RTVSPropertyOp15
 70
     1
102
RTVSPropertyOp16
 70
     1
102
RTVSPropertyOp17
 70
     1
102
RTVSPropertyOp18
 70
     1
102
RTVSPropertyOp19
 70
     1
102
RTVSPropertyOp20
 70
     1
102
RTVSPropertyOp21
 70
     1
102
RTVSPropertyOp22
 70
     1
102
RTVSPropertyOp23
 70
     1
102
RTVSPropertyOp24
 70
     1
102
RTVSPropertyOp25
 70
     1
102
RTVSPropertyOp26
 70
     1
102
RTVSPropertyOp27
 70
     1
102
RTVSPropertyOp28
 70
     1
102
RTVSPropertyOp29
 70
     1
102
RTVSPropertyOp30
 70
     1
102
RTVSPropertyOp31
 70
     1
102
RTVSPropertyOp32
 70
     1
  0
ENDSEC
  0
EOF
