  0
SECTION
  2
HEADER
  9
$ACADVER
  1
AC1015
  9
$ACADMAINTVER
 70
    20
  9
$DWGCODEPAGE
  3
ANSI_1252
  9
$INSBASE
 10
0.0
 20
0.0
 30
0.0
  9
$EXTMIN
 10
-30.06625029801341
 20
-8.506301198278492
 30
-0.0015258207003583
  9
$EXTMAX
 10
10.01749515002825
 20
116.5277257011362
 30
0.0000000349246037
  9
$LIMMIN
 10
0.0
 20
0.0
  9
$LIMMAX
 10
210.0
 20
297.0
  9
$ORTHOMODE
 70
     0
  9
$REGENMODE
 70
     1
  9
$FILLMODE
 70
     1
  9
$QTEXTMODE
 70
     0
  9
$MIRRTEXT
 70
     1
  9
$LTSCALE
 40
25.4
  9
$ATTMODE
 70
     1
  9
$TEXTSIZE
 40
0.2
  9
$TRACEWID
 40
0.05
  9
$TEXTSTYLE
  7
Standard
  9
$CLAYER
  8
P-0000
  9
$CELTYPE
  6
CONTINUOUS
  9
$CECOLOR
 62
   256
  9
$CELTSCALE
 40
1.0
  9
$DISPSILH
 70
     0
  9
$DIMSCALE
 40
1.0
  9
$DIMASZ
 40
0.18
  9
$DIMEXO
 40
0.0625
  9
$DIMDLI
 40
0.38
  9
$DIMRND
 40
0.0
  9
$DIMDLE
 40
0.0
  9
$DIMEXE
 40
0.18
  9
$DIMTP
 40
0.0
  9
$DIMTM
 40
0.0
  9
$DIMTXT
 40
0.18
  9
$DIMCEN
 40
0.09
  9
$DIMTSZ
 40
0.0
  9
$DIMTOL
 70
     0
  9
$DIMLIM
 70
     0
  9
$DIMTIH
 70
     1
  9
$DIMTOH
 70
     1
  9
$DIMSE1
 70
     0
  9
$DIMSE2
 70
     0
  9
$DIMTAD
 70
     0
  9
$DIMZIN
 70
     0
  9
$DIMBLK
  1

  9
$DIMASO
 70
     1
  9
$DIMSHO
 70
     1
  9
$DIMPOST
  1

  9
$DIMAPOST
  1

  9
$DIMALT
 70
     0
  9
$DIMALTD
 70
     2
  9
$DIMALTF
 40
25.4
  9
$DIMLFAC
 40
1.0
  9
$DIMTOFL
 70
     0
  9
$DIMTVP
 40
0.0
  9
$DIMTIX
 70
     0
  9
$DIMSOXD
 70
     0
  9
$DIMSAH
 70
     0
  9
$DIMBLK1
  1

  9
$DIMBLK2
  1

  9
$DIMSTYLE
  2
Standard
  9
$DIMCLRD
 70
     0
  9
$DIMCLRE
 70
     0
  9
$DIMCLRT
 70
     0
  9
$DIMTFAC
 40
1.0
  9
$DIMGAP
 40
0.09
  9
$DIMJUST
 70
     0
  9
$DIMSD1
 70
     0
  9
$DIMSD2
 70
     0
  9
$DIMTOLJ
 70
     1
  9
$DIMTZIN
 70
     0
  9
$DIMALTZ
 70
     0
  9
$DIMALTTZ
 70
     0
  9
$DIMUPT
 70
     0
  9
$DIMDEC
 70
     4
  9
$DIMTDEC
 70
     4
  9
$DIMALTU
 70
     2
  9
$DIMALTTD
 70
     2
  9
$DIMTXSTY
  7
Standard
  9
$DIMAUNIT
 70
     0
  9
$DIMADEC
 70
     0
  9
$DIMALTRND
 40
0.0
  9
$DIMAZIN
 70
     0
  9
$DIMDSEP
 70
     0
  9
$DIMATFIT
 70
     3
  9
$DIMFRAC
 70
     0
  9
$DIMLDRBLK
  1

  9
$DIMLUNIT
 70
     2
  9
$DIMLWD
 70
     0
  9
$DIMLWE
 70
     0
  9
$DIMTMOVE
 70
     0
  9
$LUNITS
 70
     2
  9
$LUPREC
 70
     4
  9
$SKETCHINC
 40
0.1
  9
$FILLETRAD
 40
0.0
  9
$AUNITS
 70
     0
  9
$AUPREC
 70
     0
  9
$MENU
  1
acad
  9
$ELEVATION
 40
0.0
  9
$PELEVATION
 40
0.0
  9
$THICKNESS
 40
0.0
  9
$LIMCHECK
 70
     0
  9
$CHAMFERA
 40
0.0
  9
$CHAMFERB
 40
0.0
  9
$CHAMFERC
 40
0.0
  9
$CHAMFERD
 40
0.0
  9
$SKPOLY
 70
     0
  9
$TDCREATE
 40
2455558.628488542
  9
$TDUCREATE
 40
2455558.586821875
  9
$TDUPDATE
 40
2455631.715890845
  9
$TDUUPDATE
 40
2455631.674224179
  9
$TDINDWG
 40
0.0013273843
  9
$TDUSRTIMER
 40
0.0013273843
  9
$USRTIMER
 70
     1
  9
$ANGBASE
 50
0.0
  9
$ANGDIR
 70
     0
  9
$PDMODE
 70
     0
  9
$PDSIZE
 40
0.0
  9
$PLINEWID
 40
0.0
  9
$SPLFRAME
 70
     0
  9
$SPLINETYPE
 70
     6
  9
$SPLINESEGS
 70
     8
  9
$HANDSEED
  5
4D7
  9
$SURFTAB1
 70
     6
  9
$SURFTAB2
 70
     6
  9
$SURFTYPE
 70
     6
  9
$SURFU
 70
     6
  9
$SURFV
 70
     6
  9
$UCSBASE
  2

  9
$UCSNAME
  2

  9
$UCSORG
 10
0.0
 20
0.0
 30
0.0
  9
$UCSXDIR
 10
1.0
 20
0.0
 30
0.0
  9
$UCSYDIR
 10
0.0
 20
1.0
 30
0.0
  9
$UCSORTHOREF
  2

  9
$UCSORTHOVIEW
 70
     0
  9
$UCSORGTOP
 10
0.0
 20
0.0
 30
0.0
  9
$UCSORGBOTTOM
 10
0.0
 20
0.0
 30
0.0
  9
$UCSORGLEFT
 10
0.0
 20
0.0
 30
0.0
  9
$UCSORGRIGHT
 10
0.0
 20
0.0
 30
0.0
  9
$UCSORGFRONT
 10
0.0
 20
0.0
 30
0.0
  9
$UCSORGBACK
 10
0.0
 20
0.0
 30
0.0
  9
$PUCSBASE
  2

  9
$PUCSNAME
  2

  9
$PUCSORG
 10
0.0
 20
0.0
 30
0.0
  9
$PUCSXDIR
 10
1.0
 20
0.0
 30
0.0
  9
$PUCSYDIR
 10
0.0
 20
1.0
 30
0.0
  9
$PUCSORTHOREF
  2

  9
$PUCSORTHOVIEW
 70
     0
  9
$PUCSORGTOP
 10
0.0
 20
0.0
 30
0.0
  9
$PUCSORGBOTTOM
 10
0.0
 20
0.0
 30
0.0
  9
$PUCSORGLEFT
 10
0.0
 20
0.0
 30
0.0
  9
$PUCSORGRIGHT
 10
0.0
 20
0.0
 30
0.0
  9
$PUCSORGFRONT
 10
0.0
 20
0.0
 30
0.0
  9
$PUCSORGBACK
 10
0.0
 20
0.0
 30
0.0
  9
$USERI1
 70
     0
  9
$USERI2
 70
     0
  9
$USERI3
 70
     0
  9
$USERI4
 70
     0
  9
$USERI5
 70
     0
  9
$USERR1
 40
0.0
  9
$USERR2
 40
0.0
  9
$USERR3
 40
0.0
  9
$USERR4
 40
0.0
  9
$USERR5
 40
0.0
  9
$WORLDVIEW
 70
     1
  9
$SHADEDGE
 70
     3
  9
$SHADEDIF
 70
    70
  9
$TILEMODE
 70
     1
  9
$MAXACTVP
 70
    16
  9
$PINSBASE
 10
0.0
 20
0.0
 30
0.0
  9
$PLIMCHECK
 70
     0
  9
$PEXTMIN
 10
1.000000000000000E+20
 20
1.000000000000000E+20
 30
1.000000000000000E+20
  9
$PEXTMAX
 10
-1.000000000000000E+20
 20
-1.000000000000000E+20
 30
-1.000000000000000E+20
  9
$PLIMMIN
 10
0.0
 20
0.0
  9
$PLIMMAX
 10
12.0
 20
9.0
  9
$UNITMODE
 70
     0
  9
$VISRETAIN
 70
     0
  9
$PLINEGEN
 70
     1
  9
$PSLTSCALE
 70
     0
  9
$TREEDEPTH
 70
  3020
  9
$CMLSTYLE
  2
Standard
  9
$CMLJUST
 70
     0
  9
$CMLSCALE
 40
1.0
  9
$PROXYGRAPHICS
 70
     0
  9
$MEASUREMENT
 70
     0
  9
$CELWEIGHT
370
     0
  9
$ENDCAPS
280
     0
  9
$JOINSTYLE
280
     0
  9
$LWDISPLAY
290
     0
  9
$INSUNITS
 70
     0
  9
$HYPERLINKBASE
  1

  9
$STYLESHEET
  1

  9
$XEDIT
290
     1
  9
$CEPSNTYPE
380
     0
  9
$PSTYLEMODE
290
     1
  9
$FINGERPRINTGUID
  2

  9
$VERSIONGUID
  2
{B58AAE22-9DB5-45B4-B304-27E52065A642}
  9
$EXTNAMES
290
     1
  9
$PSVPSCALE
 40
0.0
  9
$OLESTARTUP
290
     0
  0
ENDSEC
  0
SECTION
  2
CLASSES
  0
CLASS
  1
LWPOLYLINE
  2
AcDbPolyline
  3
ObjectDBX Classes
 90
    32768
280
     0
281
     1
  0
CLASS
  1
IMAGE
  2
AcDbRasterImage
  3
ISM
 90
    34943
280
     0
281
     1
  0
CLASS
  1
OLE2FRAME
  2
AcDbOle2Frame
  3
ObjectDBX Classes
 90
    32768
280
     0
281
     1
  0
CLASS
  1
HATCH
  2
AcDbHatch
  3
ObjectDBX Classes
 90
        0
280
     0
281
     1
  0
CLASS
  1
DICTIONARYVAR
  2
AcDbDictionaryVar
  3
ObjectDBX Classes
 90
        0
280
     0
281
     0
  0
CLASS
  1
RASTERVARIABLES
  2
AcDbRasterVariables
  3
ISM
 90
    32768
280
     0
281
     0
  0
CLASS
  1
IMAGEDEF
  2
AcDbRasterImageDef
  3
ISM
 90
    32768
280
     0
281
     0
  0
CLASS
  1
IMAGEDEF_REACTOR
  2
AcDbRasterImageDefReactor
  3
ISM
 90
    32769
280
     0
281
     0
  0
CLASS
  1
IDBUFFER
  2
AcDbIdBuffer
  3
ObjectDBX Classes
 90
    32768
280
     0
281
     0
  0
CLASS
  1
SPATIAL_FILTER
  2
AcDbSpatialFilter
  3
ObjectDBX Classes
 90
    32768
280
     0
281
     0
  0
CLASS
  1
XRECORD
  2
AcDbXrecord
  3
ObjectDBX Classes
 90
        0
280
     0
281
     0
  0
CLASS
  1
SORTENTSTABLE
  2
AcDbSortentsTable
  3
ObjectDBX Classes
 90
    32768
280
     0
281
     0
  0
CLASS
  1
LAYER_INDEX
  2
AcDbLayerIndex
  3
ObjectDBX Classes
 90
    32768
280
     0
281
     0
  0
CLASS
  1
SPATIAL_INDEX
  2
AcDbSpatialIndex
  3
ObjectDBX Classes
 90
    32768
280
     0
281
     0
  0
CLASS
  1
OBJECT_PTR
  2
CAseDLPNTableRecord
  3
ASE-LPNTableRecord
 90
    32769
280
     0
281
     0
  0
CLASS
  1
LAYOUT
  2
AcDbLayout
  3
ObjectDBX Classes
 90
        0
280
     0
281
     0
  0
CLASS
  1
PLOTSETTINGS
  2
AcDbPlotSettings
  3
ObjectDBX Classes
 90
        0
280
     0
281
     0
  0
CLASS
  1
ACDBDICTIONARYWDFLT
  2
AcDbDictionaryWithDefault
  3
ObjectDBX Classes
 90
        0
280
     0
281
     0
  0
CLASS
  1
ACDBPLACEHOLDER
  2
AcDbPlaceHolder
  3
ObjectDBX Classes
 90
        0
280
     0
281
     0
  0
CLASS
  1
VBA_PROJECT
  2
AcDbVbaProject
  3
acad
 90
    32768
280
     0
281
     0
  0
CLASS
  1
WIPEOUT
  2
AcDbWipeout
  3
"WipeOut|Product Desc: Object Enabler for WipeOut entity                        |Company: Autodesk, Inc.                        |WEB Address: www.autodesk.com"
 90
    34943
280
     0
281
     1
  0
CLASS
  1
WIPEOUTVARIABLES
  2
AcDbWipeoutVariables
  3
"WipeOut|Product Desc:     WipeOut Dbx Application|Company:          Autodesk, Inc.|WEB Address:      www.autodesk.com"
 90
        0
280
     0
281
     0
  0
CLASS
  1
RTEXT
  2
RText
  3
RText|AutoCAD Express Tool|expresstools@autodesk.com
 90
    35839
280
     0
281
     1
  0
CLASS
  1
ARCALIGNEDTEXT
  2
AcDbArcAlignedText
  3
ATEXT|AutoCAD Express Tool|expresstools@autodesk.com
 90
    32768
280
     0
281
     1
  0
CLASS
  1
MATERIAL
  2
AcDbMaterial
  3
ObjectDBX Classes
 90
     1153
280
     0
281
     0
  0
CLASS
  1
VISUALSTYLE
  2
AcDbVisualStyle
  3
ObjectDBX Classes
 90
     4095
280
     0
281
     0
  0
CLASS
  1
SCALE
  2
AcDbScale
  3
ObjectDBX Classes
 90
     1153
280
     0
281
     0
  0
CLASS
  1
TABLESTYLE
  2
AcDbTableStyle
  3
ObjectDBX Classes
 90
     4095
280
     0
281
     0
  0
CLASS
  1
MLEADERSTYLE
  2
AcDbMLeaderStyle
  3
ACDB_MLEADERSTYLE_CLASS
 90
     4095
280
     0
281
     0
  0
CLASS
  1
ACDBQSCATEGORY
  2
AcQsCategory
  3
categories
 90
     1024
280
     0
281
     0
  0
CLASS
  1
CELLSTYLEMAP
  2
AcDbCellStyleMap
  3
ObjectDBX Classes
 90
     1152
280
     0
281
     0
  0
ENDSEC
  0
SECTION
  2
TABLES
  0
TABLE
  2
VPORT
  5
7
102
{ACAD_XDICTIONARY
360
429
102
}
330
0
100
AcDbSymbolTable
 70
     1
  0
VPORT
  5
15
330
7
100
AcDbSymbolTableRecord
100
AcDbViewportTableRecord
  2
*ACTIVE
 70
     0
 10
0.0
 20
0.0
 11
1.0
 21
1.0
 12
-10.02437757399259
 22
54.01071225142885
 13
0.0
 23
0.0
 14
1.0
 24
1.0
 15
0.0
 25
0.0
 16
0.0
 26
0.0
 36
1.0
 17
0.0
 27
0.0
 37
0.0
 40
126.0329671942169
 41
1.58
 42
50.0
 43
0.0
 44
0.0
 50
0.0
 51
0.0
 71
     0
 72
   100
 73
     1
 74
     1
 75
     0
 76
     0
 77
     0
 78
     0
281
     0
 65
     0
110
0.0
120
0.0
130
0.0
111
1.0
121
0.0
131
0.0
112
0.0
122
1.0
132
0.0
 79
     0
146
0.0
  0
ENDTAB
  0
TABLE
  2
LTYPE
  5
4
330
0
100
AcDbSymbolTable
 70
     9
  0
LTYPE
  5
11
330
4
100
AcDbSymbolTableRecord
100
AcDbLinetypeTableRecord
  2
ByBlock
 70
     0
  3

 72
    65
 73
     0
 40
0.0
  0
LTYPE
  5
12
330
4
100
AcDbSymbolTableRecord
100
AcDbLinetypeTableRecord
  2
ByLayer
 70
     0
  3

 72
    65
 73
     0
 40
0.0
  0
LTYPE
  5
13
330
4
100
AcDbSymbolTableRecord
100
AcDbLinetypeTableRecord
  2
CONTINUOUS
 70
     0
  3
Solid line
 72
    65
 73
     0
 40
0.0
  0
LTYPE
  5
28
330
4
100
AcDbSymbolTableRecord
100
AcDbLinetypeTableRecord
  2
HIDDEN2
 70
     0
  3
_ _ _ _ _ _ _ _ _ _ _ _ _ _ _ _ _ _ _ _ _ _ _ _
 72
    65
 73
     2
 40
0.1875
 49
0.125
 74
     0
 49
-0.0625
 74
     0
  0
LTYPE
  5
29
330
4
100
AcDbSymbolTableRecord
100
AcDbLinetypeTableRecord
  2
CENTER2
 70
     0
  3
___ _ ___ _ ___ _ ___ _ ___ _ ___ _ ___ _ ___ _
 72
    65
 73
     4
 40
1.125
 49
0.75
 74
     0
 49
-0.125
 74
     0
 49
0.125
 74
     0
 49
-0.125
 74
     0
  0
LTYPE
  5
2A
330
4
100
AcDbSymbolTableRecord
100
AcDbLinetypeTableRecord
  2
PHANTOM2
 70
     0
  3
___ _ _ ___ _ _ ___ _ _ ___ _ _ ___ _ _ ___ _ _
 72
    65
 73
     6
 40
1.25
 49
0.625
 74
     0
 49
-0.125
 74
     0
 49
0.125
 74
     0
 49
-0.125
 74
     0
 49
0.125
 74
     0
 49
-0.125
 74
     0
  0
LTYPE
  5
2B
330
4
100
AcDbSymbolTableRecord
100
AcDbLinetypeTableRecord
  2
DOT2
 70
     0
  3
...............................................
 72
    65
 73
     2
 40
0.125
 49
0.0
 74
     0
 49
-0.125
 74
     0
  0
LTYPE
  5
3DF
330
4
100
AcDbSymbolTableRecord
100
AcDbLinetypeTableRecord
  2
ASSI
 70
     0
  3
-.-.-.-.-.-.-.-.-.-.-.-.-.-.-.-.-.-.-.-.-.-.-.-
 72
    65
 73
     4
 40
16.0
 49
10.0
 74
     0
 49
-2.0
 74
     0
 49
2.0
 74
     0
 49
-2.0
 74
     0
  0
LTYPE
  5
3E0
330
4
100
AcDbSymbolTableRecord
100
AcDbLinetypeTableRecord
  2
INGOMBRI
 70
     0
  3
--..--..--..--..--..--..--..--..--..--..--..--
 72
    65
 73
     6
 40
20.0
 49
10.0
 74
     0
 49
-2.0
 74
     0
 49
2.0
 74
     0
 49
-2.0
 74
     0
 49
2.0
 74
     0
 49
-2.0
 74
     0
  0
LTYPE
  5
3E1
330
4
100
AcDbSymbolTableRecord
100
AcDbLinetypeTableRecord
  2
TRATTEGGIO
 70
     0
  3
- - - - - - - - - - - - - - - - - - - - - -
 72
    65
 73
     2
 40
5.5
 49
4.0
 74
     0
 49
-1.5
 74
     0
  0
LTYPE
  5
3E2
330
4
100
AcDbSymbolTableRecord
100
AcDbLinetypeTableRecord
  2
PUNTO
 70
     0
  3
Punto . . . . . . . . . . . . . . . . . . . . .
 72
    65
 73
     2
 40
6.349999999999999
 49
0.0
 74
     0
 49
-6.349999999999999
 74
     0
  0
ENDTAB
  0
TABLE
  2
LAYER
  5
2
330
0
100
AcDbSymbolTable
 70
    16
  0
LAYER
  5
14
102
{ACAD_XDICTIONARY
360
3FE
102
}
330
2
100
AcDbSymbolTableRecord
100
AcDbLayerTableRecord
  2
0
 70
     0
 62
     7
  6
CONTINUOUS
370
    -3
390
1D
  0
LAYER
  5
2D
102
{ACAD_XDICTIONARY
360
400
102
}
330
2
100
AcDbSymbolTableRecord
100
AcDbLayerTableRecord
  2
1
 70
     0
 62
     7
  6
CONTINUOUS
370
    -3
390
1D
  0
LAYER
  5
2F
102
{ACAD_XDICTIONARY
360
402
102
}
330
2
100
AcDbSymbolTableRecord
100
AcDbLayerTableRecord
  2
11
 70
     0
 62
     7
  6
CONTINUOUS
370
    -3
390
1D
  0
LAYER
  5
31
102
{ACAD_XDICTIONARY
360
404
102
}
330
2
100
AcDbSymbolTableRecord
100
AcDbLayerTableRecord
  2
14
 70
     0
 62
     7
  6
CONTINUOUS
370
    -3
390
1D
  0
LAYER
  5
33
102
{ACAD_XDICTIONARY
360
406
102
}
330
2
100
AcDbSymbolTableRecord
100
AcDbLayerTableRecord
  2
2
 70
     0
 62
     7
  6
CONTINUOUS
370
    -3
390
1D
  0
LAYER
  5
35
102
{ACAD_XDICTIONARY
360
408
102
}
330
2
100
AcDbSymbolTableRecord
100
AcDbLayerTableRecord
  2
7
 70
     0
 62
     7
  6
CONTINUOUS
370
    -3
390
1D
  0
LAYER
  5
37
102
{ACAD_XDICTIONARY
360
40A
102
}
330
2
100
AcDbSymbolTableRecord
100
AcDbLayerTableRecord
  2
AM_0
 70
     0
 62
     7
  6
CONTINUOUS
370
    -3
390
1D
  0
LAYER
  5
39
102
{ACAD_XDICTIONARY
360
40C
102
}
330
2
100
AcDbSymbolTableRecord
100
AcDbLayerTableRecord
  2
AM_1
 70
     0
 62
     7
  6
CONTINUOUS
370
    -3
390
1D
  0
LAYER
  5
3B
102
{ACAD_XDICTIONARY
360
40E
102
}
330
2
100
AcDbSymbolTableRecord
100
AcDbLayerTableRecord
  2
ASSE
 70
     0
 62
     7
  6
CONTINUOUS
370
    -3
390
1D
  0
LAYER
  5
3D
102
{ACAD_XDICTIONARY
360
410
102
}
330
2
100
AcDbSymbolTableRecord
100
AcDbLayerTableRecord
  2
CONTORNO
 70
     0
 62
     7
  6
CONTINUOUS
370
    -3
390
1D
  0
LAYER
  5
3F
102
{ACAD_XDICTIONARY
360
412
102
}
330
2
100
AcDbSymbolTableRecord
100
AcDbLayerTableRecord
  2
DEFAULT
 70
     0
 62
     7
  6
CONTINUOUS
370
    -3
390
1D
  0
LAYER
  5
41
102
{ACAD_XDICTIONARY
360
414
102
}
330
2
100
AcDbSymbolTableRecord
100
AcDbLayerTableRecord
  2
PREDEFINITO
 70
     0
 62
     7
  6
CONTINUOUS
370
    -3
390
1D
  0
LAYER
  5
43
102
{ACAD_XDICTIONARY
360
416
102
}
330
2
100
AcDbSymbolTableRecord
100
AcDbLayerTableRecord
  2
PROFILATI-IN-ALLUMINIO
 70
     0
 62
     7
  6
CONTINUOUS
370
    -3
390
1D
  0
LAYER
  5
45
102
{ACAD_XDICTIONARY
360
418
102
}
330
2
100
AcDbSymbolTableRecord
100
AcDbLayerTableRecord
  2
TESTI
 70
     0
 62
     7
  6
CONTINUOUS
370
    -3
390
1D
  0
LAYER
  5
26B
330
2
100
AcDbSymbolTableRecord
100
AcDbLayerTableRecord
  2
Defpoints
 70
     0
 62
     7
  6
CONTINUOUS
290
     0
370
    -3
390
1D
  0
LAYER
  5
3D7
102
{ACAD_XDICTIONARY
360
41A
102
}
330
2
100
AcDbSymbolTableRecord
100
AcDbLayerTableRecord
  2
P-0000
 70
     0
 62
     7
  6
CONTINUOUS
370
    -3
390
1D
1001
AcAecLayerStandard
1000

1000
TOP
  0
ENDTAB
  0
TABLE
  2
STYLE
  5
3
330
0
100
AcDbSymbolTable
 70
    10
  0
STYLE
  5
17
330
3
100
AcDbSymbolTableRecord
100
AcDbTextStyleTableRecord
  2
Standard
 70
     0
 40
0.0
 41
1.0
 50
0.0
 71
     0
 42
0.2
  3
txt
  4

  0
STYLE
  5
58
330
3
100
AcDbSymbolTableRecord
100
AcDbTextStyleTableRecord
  2
seansi_ttf
 70
     0
 40
0.0
 41
1.0
 50
0.0
 71
     0
 42
0.2
  3
STENCIL.TTF
  4

1001
ACAD
1000
Stencil
1071
        2
  0
STYLE
  5
5A
330
3
100
AcDbSymbolTableRecord
100
AcDbTextStyleTableRecord
  2
arial_ttf
 70
     0
 40
0.0
 41
1.0
 50
0.0
 71
     0
 42
0.2
  3
arial.ttf
  4

1001
ACAD
1000
Arial
1071
        2
  0
STYLE
  5
68
330
3
100
AcDbSymbolTableRecord
100
AcDbTextStyleTableRecord
  2
seiso_ttfB
 70
     0
 40
0.0
 41
1.0
 50
0.0
 71
     0
 42
0.2
  3

  4

1001
ACAD
1000
Solid Edge ISO
1071
 33554434
  0
STYLE
  5
A1
330
3
100
AcDbSymbolTableRecord
100
AcDbTextStyleTableRecord
  2
seiso_ttf
 70
     0
 40
0.0
 41
1.0
 50
0.0
 71
     0
 42
0.2
  3

  4

1001
ACAD
1000
Solid Edge ISO
1071
        2
  0
STYLE
  5
E2
330
3
100
AcDbSymbolTableRecord
100
AcDbTextStyleTableRecord
  2
semeci1_ttf
 70
     0
 40
0.0
 41
1.0
 50
0.0
 71
     0
 42
0.2
  3

  4

1001
ACAD
1000
Solid Edge ISO1 Symbols
1071
        2
  0
STYLE
  5
3E3
330
3
100
AcDbSymbolTableRecord
100
AcDbTextStyleTableRecord
  2
ROMANS
 70
     0
 40
0.0
 41
0.8
 50
0.0
 71
     0
 42
3.0
  3
ROMANS.shx
  4

  0
STYLE
  5
3E4
330
3
100
AcDbSymbolTableRecord
100
AcDbTextStyleTableRecord
  2

 70
     1
 40
0.0
 41
1.0
 50
0.0
 71
     0
 42
0.2
  3
ltypeshp.shx
  4

  0
STYLE
  5
3E5
330
3
100
AcDbSymbolTableRecord
100
AcDbTextStyleTableRecord
  2
Stile_Quota
 70
     0
 40
0.0
 41
1.0
 50
0.0
 71
     0
 42
3.0
  3
BOD_I.TTF
  4

1001
ACAD
1000
Bodoni MT
1071
 16777234
  0
STYLE
  5
3E6
330
3
100
AcDbSymbolTableRecord
100
AcDbTextStyleTableRecord
  2
Stile_Quota_FISSO
 70
     0
 40
20.0
 41
1.0
 50
0.0
 71
     0
 42
3.0
  3
BOD_I.TTF
  4

1001
ACAD
1000
Bodoni MT
1071
 16777234
  0
ENDTAB
  0
TABLE
  2
VIEW
  5
5
330
0
100
AcDbSymbolTable
 70
     0
  0
ENDTAB
  0
TABLE
  2
UCS
  5
6
330
0
100
AcDbSymbolTable
 70
     0
  0
ENDTAB
  0
TABLE
  2
APPID
  5
8
330
0
100
AcDbSymbolTable
 70
    11
  0
APPID
  5
16
330
8
100
AcDbSymbolTableRecord
100
AcDbRegAppTableRecord
  2
ACAD
 70
     0
  0
APPID
  5
3D8
330
8
100
AcDbSymbolTableRecord
100
AcDbRegAppTableRecord
  2
AcAecLayerStandard
 70
     0
  0
APPID
  5
3DE
330
8
100
AcDbSymbolTableRecord
100
AcDbRegAppTableRecord
  2
TOP
 70
     0
  0
APPID
  5
3EA
330
8
100
AcDbSymbolTableRecord
100
AcDbRegAppTableRecord
  2
ACAD_MLEADERVER
 70
     0
  0
APPID
  5
3EB
330
8
100
AcDbSymbolTableRecord
100
AcDbRegAppTableRecord
  2
ACAD_DSTYLE_DIMJAG
 70
     0
  0
APPID
  5
3EC
330
8
100
AcDbSymbolTableRecord
100
AcDbRegAppTableRecord
  2
ACAD_DSTYLE_DIMTALN
 70
     0
  0
APPID
  5
3ED
330
8
100
AcDbSymbolTableRecord
100
AcDbRegAppTableRecord
  2
AcadAnnoPO
 70
     0
  0
APPID
  5
3EE
330
8
100
AcDbSymbolTableRecord
100
AcDbRegAppTableRecord
  2
ACAD_EXEMPT_FROM_CAD_STANDARDS
 70
     0
  0
APPID
  5
3EF
330
8
100
AcDbSymbolTableRecord
100
AcDbRegAppTableRecord
  2
ACAD_PSEXT
 70
     0
  0
APPID
  5
3F0
330
8
100
AcDbSymbolTableRecord
100
AcDbRegAppTableRecord
  2
ACAD_DSTYLE_DIMBREAK
 70
     0
  0
APPID
  5
421
330
8
100
AcDbSymbolTableRecord
100
AcDbRegAppTableRecord
  2
DCO15
 70
     0
  0
ENDTAB
  0
TABLE
  2
DIMSTYLE
  5
9
330
0
100
AcDbSymbolTable
 70
     5
100
AcDbDimStyleTable
 71
     0
  0
DIMSTYLE
105
18
330
9
100
AcDbSymbolTableRecord
100
AcDbDimStyleTableRecord
  2
Standard
 70
     0
289
     0
340
17
  0
DIMSTYLE
105
A2
330
9
100
AcDbSymbolTableRecord
100
AcDbDimStyleTableRecord
  2
ISO
 70
     0
 41
3.0
 42
0.0
 44
1.5
 73
     0
 74
     0
 77
     1
 78
     8
140
3.0
141
1.5
147
1.5
172
     1
173
     1
176
   136
177
   136
178
   136
271
     2
272
     2
278
    44
284
     8
340
A1
343
A0
344
A0
  0
DIMSTYLE
105
3E7
330
9
100
AcDbSymbolTableRecord
100
AcDbDimStyleTableRecord
  2
ACADTOP
 70
     0
 41
2.0
 42
1.0
 43
10.0
 44
1.5
 73
     0
 74
     0
 77
     1
 78
     8
 79
     2
140
2.0
141
2.0
146
0.6
147
1.0
172
     1
176
     2
177
     2
178
     1
179
     1
271
     2
272
     2
284
     8
289
     0
340
3E5
1001
ACAD_DSTYLE_DIMJAG
1070
   388
1040
1.5
1001
ACAD_DSTYLE_DIMTALN
1070
   392
1070
     0
  0
DIMSTYLE
105
3E8
330
9
100
AcDbSymbolTableRecord
100
AcDbDimStyleTableRecord
  2
DIERRE_LUNG-ALT
 70
     0
 41
3.0
 42
1.0
 43
10.0
 44
1.5
 73
     0
 74
     0
 75
     1
 76
     1
 78
     8
 79
     2
140
20.0
141
2.0
146
0.6
147
1.0
172
     1
176
     3
177
     3
178
    30
179
     1
271
     1
272
     1
281
     1
282
     1
284
     8
340
3E6
1001
ACAD_DSTYLE_DIMBREAK
1070
   391
1040
3.75
1001
ACAD_DSTYLE_DIMJAG
1070
   388
1040
1.5
1001
ACAD_DSTYLE_DIMTALN
1070
   392
1070
     0
  0
DIMSTYLE
105
3E9
330
9
100
AcDbSymbolTableRecord
100
AcDbDimStyleTableRecord
  2
DIERRE_LARG
 70
     0
 41
3.0
 42
1.0
 43
10.0
 44
1.5
 73
     0
 74
     0
 75
     1
 76
     1
 78
     8
 79
     2
140
20.0
141
2.0
146
0.6
147
1.0
172
     1
176
     4
177
     4
178
     4
179
     1
271
     1
272
     1
281
     1
282
     1
284
     8
340
3E6
1001
ACAD_DSTYLE_DIMBREAK
1070
   391
1040
3.75
1001
ACAD_DSTYLE_DIMJAG
1070
   388
1040
1.5
1001
ACAD_DSTYLE_DIMTALN
1070
   392
1070
     0
  0
ENDTAB
  0
TABLE
  2
BLOCK_RECORD
  5
1
330
0
100
AcDbSymbolTable
 70
    41
  0
BLOCK_RECORD
  5
A
330
1
100
AcDbSymbolTableRecord
100
AcDbBlockTableRecord
  2
*MODEL_SPACE
340
20
  0
BLOCK_RECORD
  5
B
330
1
100
AcDbSymbolTableRecord
100
AcDbBlockTableRecord
  2
*PAPER_SPACE
340
21
  0
BLOCK_RECORD
  5
A0
330
1
100
AcDbSymbolTableRecord
100
AcDbBlockTableRecord
  2
_SE_FILLED
340
0
102
{BLKREFS
331
321
331
322
331
32C
331
32D
331
337
331
338
331
340
331
341
331
349
331
34A
331
354
331
355
331
35D
331
35E
331
368
331
369
331
371
331
372
331
37A
331
37B
331
383
331
384
331
38D
331
38E
331
393
331
394
331
39B
331
39C
331
3A4
331
3A5
331
3AD
331
3AE
331
3B8
331
3B9
331
3C1
331
3C2
331
3CA
331
3CB
102
}
  0
BLOCK_RECORD
  5
A3
330
1
100
AcDbSymbolTableRecord
100
AcDbBlockTableRecord
  2
SE0
340
0
102
{BLKREFS
331
115
102
}
  0
BLOCK_RECORD
  5
A6
330
1
100
AcDbSymbolTableRecord
100
AcDbBlockTableRecord
  2
DMBLK1678
340
0
  0
BLOCK_RECORD
  5
A8
330
1
100
AcDbSymbolTableRecord
100
AcDbBlockTableRecord
  2
SE1
340
0
  0
BLOCK_RECORD
  5
AB
330
1
100
AcDbSymbolTableRecord
100
AcDbBlockTableRecord
  2
DMBLK1679
340
0
  0
BLOCK_RECORD
  5
AD
330
1
100
AcDbSymbolTableRecord
100
AcDbBlockTableRecord
  2
SE2
340
0
  0
BLOCK_RECORD
  5
B0
330
1
100
AcDbSymbolTableRecord
100
AcDbBlockTableRecord
  2
DMBLK1680
340
0
  0
BLOCK_RECORD
  5
B2
330
1
100
AcDbSymbolTableRecord
100
AcDbBlockTableRecord
  2
SE3
340
0
  0
BLOCK_RECORD
  5
B5
330
1
100
AcDbSymbolTableRecord
100
AcDbBlockTableRecord
  2
DMBLK1681
340
0
  0
BLOCK_RECORD
  5
B7
330
1
100
AcDbSymbolTableRecord
100
AcDbBlockTableRecord
  2
SE4
340
0
  0
BLOCK_RECORD
  5
BA
330
1
100
AcDbSymbolTableRecord
100
AcDbBlockTableRecord
  2
DMBLK1682
340
0
  0
BLOCK_RECORD
  5
BC
330
1
100
AcDbSymbolTableRecord
100
AcDbBlockTableRecord
  2
SE5
340
0
  0
BLOCK_RECORD
  5
BF
330
1
100
AcDbSymbolTableRecord
100
AcDbBlockTableRecord
  2
DMBLK1683
340
0
  0
BLOCK_RECORD
  5
C1
330
1
100
AcDbSymbolTableRecord
100
AcDbBlockTableRecord
  2
SE6
340
0
  0
BLOCK_RECORD
  5
C4
330
1
100
AcDbSymbolTableRecord
100
AcDbBlockTableRecord
  2
DMBLK1684
340
0
  0
BLOCK_RECORD
  5
C6
330
1
100
AcDbSymbolTableRecord
100
AcDbBlockTableRecord
  2
SE7
340
0
  0
BLOCK_RECORD
  5
C9
330
1
100
AcDbSymbolTableRecord
100
AcDbBlockTableRecord
  2
DMBLK1685
340
0
  0
BLOCK_RECORD
  5
CB
330
1
100
AcDbSymbolTableRecord
100
AcDbBlockTableRecord
  2
SE8
340
0
  0
BLOCK_RECORD
  5
CE
330
1
100
AcDbSymbolTableRecord
100
AcDbBlockTableRecord
  2
DMBLK1686
340
0
  0
BLOCK_RECORD
  5
D0
330
1
100
AcDbSymbolTableRecord
100
AcDbBlockTableRecord
  2
SE9
340
0
  0
BLOCK_RECORD
  5
D3
330
1
100
AcDbSymbolTableRecord
100
AcDbBlockTableRecord
  2
DMBLK1687
340
0
  0
BLOCK_RECORD
  5
D5
330
1
100
AcDbSymbolTableRecord
100
AcDbBlockTableRecord
  2
SE10
340
0
  0
BLOCK_RECORD
  5
D8
330
1
100
AcDbSymbolTableRecord
100
AcDbBlockTableRecord
  2
DMBLK1688
340
0
  0
BLOCK_RECORD
  5
DA
330
1
100
AcDbSymbolTableRecord
100
AcDbBlockTableRecord
  2
SE11
340
0
  0
BLOCK_RECORD
  5
DD
330
1
100
AcDbSymbolTableRecord
100
AcDbBlockTableRecord
  2
DMBLK1689
340
0
  0
BLOCK_RECORD
  5
DF
330
1
100
AcDbSymbolTableRecord
100
AcDbBlockTableRecord
  2
SE12
340
0
  0
BLOCK_RECORD
  5
E3
330
1
100
AcDbSymbolTableRecord
100
AcDbBlockTableRecord
  2
DMBLK1690
340
0
  0
BLOCK_RECORD
  5
E5
330
1
100
AcDbSymbolTableRecord
100
AcDbBlockTableRecord
  2
SE13
340
0
  0
BLOCK_RECORD
  5
E8
330
1
100
AcDbSymbolTableRecord
100
AcDbBlockTableRecord
  2
DMBLK1691
340
0
  0
BLOCK_RECORD
  5
EA
330
1
100
AcDbSymbolTableRecord
100
AcDbBlockTableRecord
  2
SE14
340
0
  0
BLOCK_RECORD
  5
ED
330
1
100
AcDbSymbolTableRecord
100
AcDbBlockTableRecord
  2
DMBLK1692
340
0
  0
BLOCK_RECORD
  5
EF
330
1
100
AcDbSymbolTableRecord
100
AcDbBlockTableRecord
  2
SE15
340
0
  0
BLOCK_RECORD
  5
F2
330
1
100
AcDbSymbolTableRecord
100
AcDbBlockTableRecord
  2
DMBLK1693
340
0
  0
BLOCK_RECORD
  5
F4
330
1
100
AcDbSymbolTableRecord
100
AcDbBlockTableRecord
  2
SE16
340
0
  0
BLOCK_RECORD
  5
F7
330
1
100
AcDbSymbolTableRecord
100
AcDbBlockTableRecord
  2
DMBLK1694
340
0
  0
BLOCK_RECORD
  5
F9
330
1
100
AcDbSymbolTableRecord
100
AcDbBlockTableRecord
  2
SE17
340
0
  0
BLOCK_RECORD
  5
FC
330
1
100
AcDbSymbolTableRecord
100
AcDbBlockTableRecord
  2
DMBLK1695
340
0
  0
BLOCK_RECORD
  5
FE
330
1
100
AcDbSymbolTableRecord
100
AcDbBlockTableRecord
  2
SE18
340
0
  0
BLOCK_RECORD
  5
101
330
1
100
AcDbSymbolTableRecord
100
AcDbBlockTableRecord
  2
DMBLK1696
340
0
  0
BLOCK_RECORD
  5
103
330
1
100
AcDbSymbolTableRecord
100
AcDbBlockTableRecord
  2
SE19
340
0
  0
BLOCK_RECORD
  5
106
330
1
100
AcDbSymbolTableRecord
100
AcDbBlockTableRecord
  2
DMBLK1697
340
0
  0
ENDTAB
  0
ENDSEC
  0
SECTION
  2
BLOCKS
  0
BLOCK
  5
D
330
A
100
AcDbEntity
  8
0
100
AcDbBlockBegin
  2
*MODEL_SPACE
 70
     0
 10
0.0
 20
0.0
 30
0.0
  3
*MODEL_SPACE
  1

  0
ENDBLK
  5
E
330
A
100
AcDbEntity
  8
0
100
AcDbBlockEnd
  0
BLOCK
  5
F
330
B
100
AcDbEntity
 67
     1
  8
0
100
AcDbBlockBegin
  2
*PAPER_SPACE
 70
     0
 10
0.0
 20
0.0
 30
0.0
  3
*PAPER_SPACE
  1

  0
ENDBLK
  5
10
330
B
100
AcDbEntity
 67
     1
  8
0
100
AcDbBlockEnd
  0
BLOCK
  5
108
330
A0
100
AcDbEntity
  8
DEFAULT
  6
Continuous
 62
   136
370
     0
100
AcDbBlockBegin
  2
_SE_FILLED
 70
     0
 10
0.0
 20
0.0
 30
0.0
  3
_SE_FILLED
  1

  0
SOLID
  5
109
330
A0
100
AcDbEntity
  8
DEFAULT
  6
Continuous
 62
   136
370
     0
100
AcDbTrace
 10
0.0
 20
0.0
 30
0.0
 11
-1.0
 21
-0.1665
 31
0.0
 12
-1.0
 22
0.1665
 32
0.0
 13
0.0
 23
0.0
 33
0.0
  0
LINE
  5
10A
330
A0
100
AcDbEntity
  8
DEFAULT
  6
Continuous
 62
   136
370
     0
100
AcDbLine
 10
0.0
 20
0.0
 30
0.0
 11
-1.0
 21
0.0
 31
0.0
  0
ENDBLK
  5
10B
330
A0
100
AcDbEntity
  8
DEFAULT
  6
Continuous
 62
   136
370
     0
100
AcDbBlockEnd
  0
BLOCK
  5
10C
330
A3
100
AcDbEntity
  8
DEFAULT
 62
     1
 48
0.0
370
     0
100
AcDbBlockBegin
  2
SE0
 70
     0
 10
0.0
 20
0.0
 30
0.0
  3
SE0
  1

  0
HATCH
  5
10D
330
A3
100
AcDbEntity
  8
DEFAULT
  6
Continuous
 62
   136
100
AcDbHatch
 10
0.0
 20
0.0
 30
0.0
210
0.0
220
0.0
230
1.0
  2
SOLID
 70
     1
 71
     0
 91
        1
 92
        1
 93
        3
 72
     1
 10
86.3936843626873
 20
211.5745299865388
 11
83.39368433661027
 21
211.0745299821926
 72
     1
 10
83.39368433661027
 20
211.0745299821926
 11
86.3936843626873
 21
210.5745299778464
 72
     1
 10
86.3936843626873
 20
210.5745299778464
 11
86.3936843626873
 21
211.5745299865388
 97
        0
 75
     0
 76
     1
 98
        1
 10
0.0
 20
0.0
  0
HATCH
  5
10E
330
A3
100
AcDbEntity
  8
DEFAULT
  6
Continuous
 62
   136
100
AcDbHatch
 10
0.0
 20
0.0
 30
0.0
210
0.0
220
0.0
230
1.0
  2
SOLID
 70
     1
 71
     0
 91
        1
 92
        1
 93
        3
 72
     1
 10
120.3936043105332
 20
211.5745299865388
 11
123.3936043366102
 21
211.0745299821926
 72
     1
 10
123.3936043366102
 20
211.0745299821926
 11
120.3936043105332
 21
210.5745299778464
 72
     1
 10
120.3936043105332
 20
210.5745299778464
 11
120.3936043105332
 21
211.5745299865388
 97
        0
 75
     0
 76
     1
 98
        1
 10
0.0
 20
0.0
  0
LINE
  5
10F
330
A3
100
AcDbEntity
  8
DEFAULT
  6
Continuous
 62
   136
370
     0
100
AcDbLine
 10
83.39368433661027
 20
205.3686881652308
 30
0.0
 11
83.39368433661027
 21
212.5745299952311
 31
0.0
  0
LINE
  5
110
330
A3
100
AcDbEntity
  8
DEFAULT
  6
Continuous
 62
   136
370
     0
100
AcDbLine
 10
123.3936043366102
 20
205.3686881652308
 30
0.0
 11
123.3936043366102
 21
212.5745299952311
 31
0.0
  0
LINE
  5
111
330
A3
100
AcDbEntity
  8
DEFAULT
  6
Continuous
 62
   136
370
     0
100
AcDbLine
 10
83.39368433661027
 20
211.0745299821926
 30
0.0
 11
123.3936052114443
 21
211.0745299821926
 31
0.0
  0
TEXT
  5
112
330
A3
100
AcDbEntity
  8
DEFAULT
  6
Continuous
 62
   136
370
     0
100
AcDbText
 10
101.6209175013
 20
211.8245299821926
 30
0.0
 40
3.0
  1
40
  7
seiso_ttf
 11
101.6209175013
 21
214.8245299821926
 31
0.0
100
AcDbText
 73
     3
  0
ENDBLK
  5
23A
330
A3
100
AcDbEntity
  8
0
370
     0
100
AcDbBlockEnd
  0
BLOCK
  5
23B
330
A6
100
AcDbEntity
  8
0
370
     0
100
AcDbBlockBegin
  2
DMBLK1678
 70
     0
 10
0.0
 20
0.0
 30
0.0
  3
DMBLK1678
  1

  0
INSERT
  5
115
330
A6
100
AcDbEntity
  8
DEFAULT
 62
     0
 48
0.0
370
     0
100
AcDbBlockReference
  2
SE0
 10
0.0
 20
0.0
 30
0.0
  0
ENDBLK
  5
116
330
A6
100
AcDbEntity
  8
DEFAULT
 62
     0
 48
0.0
370
     0
100
AcDbBlockEnd
  0
BLOCK
  5
117
330
A8
100
AcDbEntity
  8
DEFAULT
 62
     1
 48
0.0
370
     0
100
AcDbBlockBegin
  2
SE1
 70
     0
 10
0.0
 20
0.0
 30
0.0
  3
SE1
  1

  0
HATCH
  5
118
330
A8
100
AcDbEntity
  8
DEFAULT
  6
Continuous
 62
   136
100
AcDbHatch
 10
0.0
 20
0.0
 30
0.0
210
0.0
220
0.0
230
1.0
  2
SOLID
 70
     1
 71
     0
 91
        1
 92
        1
 93
        3
 72
     1
 10
65.61467965413394
 20
202.3686881391538
 11
66.11467965848011
 21
205.3686881652308
 72
     1
 10
66.11467965848011
 20
205.3686881652308
 11
66.61467966282629
 21
202.3686881391538
 72
     1
 10
66.61467966282629
 20
202.3686881391538
 11
65.61467965413394
 21
202.3686881391538
 97
        0
 75
     0
 76
     1
 98
        1
 10
0.0
 20
0.0
  0
HATCH
  5
119
330
A8
100
AcDbEntity
  8
DEFAULT
  6
Continuous
 62
   136
100
AcDbHatch
 10
0.0
 20
0.0
 30
0.0
210
0.0
220
0.0
230
1.0
  2
SOLID
 70
     1
 71
     0
 91
        1
 92
        1
 93
        3
 72
     1
 10
65.61467965413394
 20
196.3687121913078
 11
66.11467965848011
 21
193.3687121652308
 72
     1
 10
66.11467965848011
 20
193.3687121652308
 11
66.61467966282629
 21
196.3687121913078
 72
     1
 10
66.61467966282629
 20
196.3687121913078
 11
65.61467965413394
 21
196.3687121913078
 97
        0
 75
     0
 76
     1
 98
        1
 10
0.0
 20
0.0
  0
LINE
  5
11A
330
A8
100
AcDbEntity
  8
DEFAULT
  6
Continuous
 62
   136
370
     0
100
AcDbLine
 10
83.39368433661027
 20
205.3686881652308
 30
0.0
 11
64.61467964544159
 21
205.3686881652308
 31
0.0
  0
LINE
  5
11B
330
A8
100
AcDbEntity
  8
DEFAULT
  6
Continuous
 62
   136
370
     0
100
AcDbLine
 10
83.39368433661027
 20
193.3687121652308
 30
0.0
 11
64.61467964544159
 21
193.3687121652308
 31
0.0
  0
LINE
  5
11C
330
A8
100
AcDbEntity
  8
DEFAULT
  6
Continuous
 62
   136
370
     0
100
AcDbLine
 10
66.11467965848011
 20
205.3686881652308
 30
0.0
 11
66.11467965848011
 21
193.3687122753097
 31
0.0
  0
TEXT
  5
11D
330
A8
100
AcDbEntity
  8
DEFAULT
  6
Continuous
 62
   136
370
     0
100
AcDbText
 10
65.36467965848011
 20
197.8346093111793
 30
0.0
 40
3.0
  1
12
 50
90.0
  7
seiso_ttf
 11
62.36467965848011
 21
197.8346093111793
 31
0.0
100
AcDbText
 73
     3
  0
ENDBLK
  5
23C
330
A8
100
AcDbEntity
  8
0
370
     0
100
AcDbBlockEnd
  0
BLOCK
  5
23D
330
AB
100
AcDbEntity
  8
0
370
     0
100
AcDbBlockBegin
  2
DMBLK1679
 70
     0
 10
0.0
 20
0.0
 30
0.0
  3
DMBLK1679
  1

  0
LINE
  5
31E
330
AB
100
AcDbEntity
  8
DEFAULT
  6
Continuous
 62
   136
370
    -2
100
AcDbLine
 10
83.39368433661027
 20
205.3686881652308
 30
0.0
 11
64.61467965848014
 21
205.3686881652308
 31
0.0
  0
LINE
  5
31F
330
AB
100
AcDbEntity
  8
DEFAULT
  6
Continuous
 62
   136
370
    -2
100
AcDbLine
 10
83.39368433661027
 20
193.3687121652308
 30
0.0
 11
64.61467965848014
 21
193.3687121652308
 31
0.0
  0
LINE
  5
320
330
AB
100
AcDbEntity
  8
DEFAULT
  6
Continuous
 62
   136
370
    -2
100
AcDbLine
 10
66.11467965848014
 20
202.3686881652309
 30
0.0
 11
66.11467965848014
 21
196.3687121652308
 31
0.0
  0
INSERT
  5
321
330
AB
100
AcDbEntity
  8
DEFAULT
  6
Continuous
 62
   136
370
    -2
100
AcDbBlockReference
  2
_SE_FILLED
 10
66.11467965848014
 20
205.3686881652308
 30
0.0
 41
3.0
 42
3.0
 43
3.0
 50
90.0
  0
INSERT
  5
322
330
AB
100
AcDbEntity
  8
DEFAULT
  6
Continuous
 62
   136
370
    -2
100
AcDbBlockReference
  2
_SE_FILLED
 10
66.11467965848014
 20
193.3687121652308
 30
0.0
 41
3.0
 42
3.0
 43
3.0
 50
270.0
  0
MTEXT
  5
323
330
AB
100
AcDbEntity
  8
DEFAULT
  6
Continuous
 62
   136
370
     0
100
AcDbMText
 10
63.11467965848011
 20
199.3687002202702
 30
0.0
 40
3.0
 41
0.0
 71
     5
 72
     1
  1
\A1;\A1;12
  7
seiso_ttf
 11
0.0000000000000001
 21
1.0
 31
0.0
 73
     1
 44
1.0
1001
ACAD
1000
MTEXTBEGIN
1070
    73
1070
     1
1070
    44
1040
1.0
1070
    74
1070
     0
1000
MTEXTEND
  0
POINT
  5
324
330
AB
100
AcDbEntity
  8
Defpoints
  6
Continuous
 62
     0
370
     0
100
AcDbPoint
 10
83.39368433661027
 20
205.3686881652308
 30
0.0
  0
POINT
  5
325
330
AB
100
AcDbEntity
  8
Defpoints
  6
Continuous
 62
     0
370
     0
100
AcDbPoint
 10
83.39368433661027
 20
193.3687121652308
 30
0.0
  0
POINT
  5
326
330
AB
100
AcDbEntity
  8
Defpoints
  6
Continuous
 62
     0
370
     0
100
AcDbPoint
 10
66.11467965848014
 20
193.3687121652308
 30
0.0
  0
ENDBLK
  5
121
330
AB
100
AcDbEntity
  8
DEFAULT
 62
     0
 48
0.0
370
     0
100
AcDbBlockEnd
  0
BLOCK
  5
122
330
AD
100
AcDbEntity
  8
DEFAULT
 62
     1
 48
0.0
370
     0
100
AcDbBlockBegin
  2
SE2
 70
     0
 10
0.0
 20
0.0
 30
0.0
  3
SE2
  1

  0
HATCH
  5
123
330
AD
100
AcDbEntity
  8
DEFAULT
  6
Continuous
 62
   136
100
AcDbHatch
 10
0.0
 20
0.0
 30
0.0
210
0.0
220
0.0
230
1.0
  2
SOLID
 70
     1
 71
     0
 91
        1
 92
        1
 93
        3
 72
     1
 10
72.34007847775282
 20
190.3687121391538
 11
72.840078482099
 21
193.3687121652308
 72
     1
 10
72.840078482099
 20
193.3687121652308
 11
73.34007848644517
 21
190.3687121391538
 72
     1
 10
73.34007848644517
 20
190.3687121391538
 11
72.34007847775282
 21
190.3687121391538
 97
        0
 75
     0
 76
     1
 98
        1
 10
0.0
 20
0.0
  0
HATCH
  5
124
330
AD
100
AcDbEntity
  8
DEFAULT
  6
Continuous
 62
   136
100
AcDbHatch
 10
0.0
 20
0.0
 30
0.0
210
0.0
220
0.0
230
1.0
  2
SOLID
 70
     1
 71
     0
 91
        1
 92
        1
 93
        3
 72
     1
 10
72.34007847775282
 20
200.8687031913079
 11
72.840078482099
 21
197.8687031652308
 72
     1
 10
72.840078482099
 20
197.8687031652308
 11
73.34007848644517
 21
200.8687031913079
 72
     1
 10
73.34007848644517
 20
200.8687031913079
 11
72.34007847775282
 21
200.8687031913079
 97
        0
 75
     0
 76
     1
 98
        1
 10
0.0
 20
0.0
  0
LINE
  5
125
330
AD
100
AcDbEntity
  8
DEFAULT
  6
Continuous
 62
   136
370
     0
100
AcDbLine
 10
83.39368433661027
 20
193.3687121652308
 30
0.0
 11
71.34007846906048
 21
193.3687121652308
 31
0.0
  0
LINE
  5
126
330
AD
100
AcDbEntity
  8
DEFAULT
  6
Continuous
 62
   136
370
     0
100
AcDbLine
 10
88.14367483661026
 20
197.8687031652308
 30
0.0
 11
71.34007846906048
 21
197.8687031652308
 31
0.0
  0
LINE
  5
127
330
AD
100
AcDbEntity
  8
DEFAULT
  6
Continuous
 62
   136
370
     0
100
AcDbLine
 10
72.840078482099
 20
186.2942443274203
 30
0.0
 11
72.840078482099
 21
203.868702710444
 31
0.0
  0
TEXT
  5
128
330
AD
100
AcDbEntity
  8
DEFAULT
  6
Continuous
 62
   136
370
     0
100
AcDbText
 10
72.090078482099
 20
187.3442441763852
 30
0.0
 40
3.0
  1
4,5
 50
90.0
  7
seiso_ttf
 11
69.090078482099
 21
187.3442441763852
 31
0.0
100
AcDbText
 73
     3
  0
ENDBLK
  5
23E
330
AD
100
AcDbEntity
  8
0
370
     0
100
AcDbBlockEnd
  0
BLOCK
  5
23F
330
B0
100
AcDbEntity
  8
0
370
     0
100
AcDbBlockBegin
  2
DMBLK1680
 70
     0
 10
0.0
 20
0.0
 30
0.0
  3
DMBLK1680
  1

  0
LINE
  5
327
330
B0
100
AcDbEntity
  8
DEFAULT
  6
Continuous
 62
   136
370
    -2
100
AcDbLine
 10
83.39368433661027
 20
193.3687121652308
 30
0.0
 11
71.34007848209903
 21
193.3687121652308
 31
0.0
  0
LINE
  5
328
330
B0
100
AcDbEntity
  8
DEFAULT
  6
Continuous
 62
   136
370
    -2
100
AcDbLine
 10
88.14367483661026
 20
197.8687031652308
 30
0.0
 11
71.34007848209903
 21
197.8687031652308
 31
0.0
  0
LINE
  5
329
330
B0
100
AcDbEntity
  8
DEFAULT
  6
Continuous
 62
   136
370
    -2
100
AcDbLine
 10
72.84007848209903
 20
200.8687031652308
 30
0.0
 11
72.84007848209903
 21
203.8687031652308
 31
0.0
  0
LINE
  5
32A
330
B0
100
AcDbEntity
  8
DEFAULT
  6
Continuous
 62
   136
370
    -2
100
AcDbLine
 10
72.84007848209903
 20
190.3687121652308
 30
0.0
 11
72.84007848209903
 21
178.0829978795165
 31
0.0
  0
LINE
  5
32B
330
B0
100
AcDbEntity
  8
DEFAULT
  6
Continuous
 62
   136
370
    -2
100
AcDbLine
 10
72.84007848209903
 20
197.8687031652308
 30
0.0
 11
72.84007848209903
 21
193.3687121652308
 31
0.0
  0
INSERT
  5
32C
330
B0
100
AcDbEntity
  8
DEFAULT
  6
Continuous
 62
   136
370
    -2
100
AcDbBlockReference
  2
_SE_FILLED
 10
72.84007848209903
 20
197.8687031652308
 30
0.0
 41
3.0
 42
3.0
 43
3.0
 50
270.0
  0
INSERT
  5
32D
330
B0
100
AcDbEntity
  8
DEFAULT
  6
Continuous
 62
   136
370
    -2
100
AcDbBlockReference
  2
_SE_FILLED
 10
72.84007848209903
 20
193.3687121652308
 30
0.0
 41
3.0
 42
3.0
 43
3.0
 50
90.0
  0
MTEXT
  5
32E
330
B0
100
AcDbEntity
  8
DEFAULT
  6
Continuous
 62
   136
370
     0
100
AcDbMText
 10
69.55436419638471
 20
182.7258550223737
 30
0.0
 40
3.0
 41
0.0
 71
     5
 72
     1
  1
\A1;\A1;4,5
  7
seiso_ttf
 11
0.0000000000000001
 21
1.0
 31
0.0
 73
     1
 44
1.0
1001
ACAD
1000
MTEXTBEGIN
1070
    73
1070
     1
1070
    44
1040
1.0
1070
    74
1070
     0
1000
MTEXTEND
  0
POINT
  5
32F
330
B0
100
AcDbEntity
  8
Defpoints
  6
Continuous
 62
     0
370
     0
100
AcDbPoint
 10
83.39368433661027
 20
193.3687121652308
 30
0.0
  0
POINT
  5
330
330
B0
100
AcDbEntity
  8
Defpoints
  6
Continuous
 62
     0
370
     0
100
AcDbPoint
 10
88.14367483661026
 20
197.8687031652308
 30
0.0
  0
POINT
  5
331
330
B0
100
AcDbEntity
  8
Defpoints
  6
Continuous
 62
     0
370
     0
100
AcDbPoint
 10
72.84007848209903
 20
197.8687031652308
 30
0.0
  0
ENDBLK
  5
12C
330
B0
100
AcDbEntity
  8
DEFAULT
 62
     0
 48
0.0
370
     0
100
AcDbBlockEnd
  0
BLOCK
  5
12D
330
B2
100
AcDbEntity
  8
DEFAULT
 62
     1
 48
0.0
370
     0
100
AcDbBlockBegin
  2
SE3
 70
     0
 10
0.0
 20
0.0
 30
0.0
  3
SE3
  1

  0
HATCH
  5
12E
330
B2
100
AcDbEntity
  8
DEFAULT
  6
Continuous
 62
   136
100
AcDbHatch
 10
0.0
 20
0.0
 30
0.0
210
0.0
220
0.0
230
1.0
  2
SOLID
 70
     1
 71
     0
 91
        1
 92
        1
 93
        3
 72
     1
 10
72.34007890937675
 20
194.8687031391538
 11
72.84007891372294
 21
197.8687031652308
 72
     1
 10
72.84007891372294
 20
197.8687031652308
 11
73.34007891806911
 21
194.8687031391538
 72
     1
 10
73.34007891806911
 20
194.8687031391538
 11
72.34007890937675
 21
194.8687031391538
 97
        0
 75
     0
 76
     1
 98
        1
 10
0.0
 20
0.0
  0
HATCH
  5
12F
330
B2
100
AcDbEntity
  8
DEFAULT
  6
Continuous
 62
   136
100
AcDbHatch
 10
0.0
 20
0.0
 30
0.0
210
0.0
220
0.0
230
1.0
  2
SOLID
 70
     1
 71
     0
 91
        1
 92
        1
 93
        3
 72
     1
 10
72.34007890937675
 20
208.3686881913079
 11
72.84007891372294
 21
205.3686881652308
 72
     1
 10
72.84007891372294
 20
205.3686881652308
 11
73.34007891806911
 21
208.3686881913079
 72
     1
 10
73.34007891806911
 20
208.3686881913079
 11
72.34007890937675
 21
208.3686881913079
 97
        0
 75
     0
 76
     1
 98
        1
 10
0.0
 20
0.0
  0
LINE
  5
130
330
B2
100
AcDbEntity
  8
DEFAULT
  6
Continuous
 62
   136
370
     0
100
AcDbLine
 10
88.14367483661026
 20
197.8687031652308
 30
0.0
 11
71.34007890068442
 21
197.8687031652308
 31
0.0
  0
LINE
  5
131
330
B2
100
AcDbEntity
  8
DEFAULT
  6
Continuous
 62
   136
370
     0
100
AcDbLine
 10
83.39368433661027
 20
205.3686881652308
 30
0.0
 11
71.34007890068442
 21
205.3686881652308
 31
0.0
  0
LINE
  5
132
330
B2
100
AcDbEntity
  8
DEFAULT
  6
Continuous
 62
   136
370
     0
100
AcDbLine
 10
72.84007891372294
 20
191.8687031130767
 30
0.0
 11
72.84007891372294
 21
211.368688614247
 31
0.0
  0
TEXT
  5
133
330
B2
100
AcDbEntity
  8
DEFAULT
  6
Continuous
 62
   136
370
     0
100
AcDbText
 10
72.09007891372293
 20
199.5391501762858
 30
0.0
 40
3.0
  1
7,5
 50
90.0
  7
seiso_ttf
 11
69.09007891372294
 21
199.5391501762858
 31
0.0
100
AcDbText
 73
     3
  0
ENDBLK
  5
240
330
B2
100
AcDbEntity
  8
0
370
     0
100
AcDbBlockEnd
  0
BLOCK
  5
241
330
B5
100
AcDbEntity
  8
0
370
     0
100
AcDbBlockBegin
  2
DMBLK1681
 70
     0
 10
0.0
 20
0.0
 30
0.0
  3
DMBLK1681
  1

  0
LINE
  5
332
330
B5
100
AcDbEntity
  8
DEFAULT
  6
Continuous
 62
   136
370
    -2
100
AcDbLine
 10
88.14367483661026
 20
197.8687031652308
 30
0.0
 11
71.34007891372296
 21
197.8687031652308
 31
0.0
  0
LINE
  5
333
330
B5
100
AcDbEntity
  8
DEFAULT
  6
Continuous
 62
   136
370
    -2
100
AcDbLine
 10
83.39368433661027
 20
205.3686881652308
 30
0.0
 11
71.34007891372296
 21
205.3686881652308
 31
0.0
  0
LINE
  5
334
330
B5
100
AcDbEntity
  8
DEFAULT
  6
Continuous
 62
   136
370
    -2
100
AcDbLine
 10
72.84007891372296
 20
194.8687031652308
 30
0.0
 11
72.84007891372296
 21
191.8687031652308
 31
0.0
  0
LINE
  5
335
330
B5
100
AcDbEntity
  8
DEFAULT
  6
Continuous
 62
   136
370
    -2
100
AcDbLine
 10
72.84007891372296
 20
208.3686881652309
 30
0.0
 11
72.84007891372296
 21
211.3686881652308
 31
0.0
  0
LINE
  5
336
330
B5
100
AcDbEntity
  8
DEFAULT
  6
Continuous
 62
   136
370
    -2
100
AcDbLine
 10
72.84007891372296
 20
197.8687031652308
 30
0.0
 11
72.84007891372296
 21
205.3686881652308
 31
0.0
  0
INSERT
  5
337
330
B5
100
AcDbEntity
  8
DEFAULT
  6
Continuous
 62
   136
370
    -2
100
AcDbBlockReference
  2
_SE_FILLED
 10
72.84007891372296
 20
197.8687031652308
 30
0.0
 41
3.0
 42
3.0
 43
3.0
 50
90.0
  0
INSERT
  5
338
330
B5
100
AcDbEntity
  8
DEFAULT
  6
Continuous
 62
   136
370
    -2
100
AcDbBlockReference
  2
_SE_FILLED
 10
72.84007891372296
 20
205.3686881652308
 30
0.0
 41
3.0
 42
3.0
 43
3.0
 50
270.0
  0
MTEXT
  5
339
330
B5
100
AcDbEntity
  8
DEFAULT
  6
Continuous
 62
   136
370
     0
100
AcDbMText
 10
69.55436462800864
 20
201.6186956652309
 30
0.0
 40
3.0
 41
0.0
 71
     5
 72
     1
  1
\A1;\A1;7,5
  7
seiso_ttf
 11
0.0000000000000001
 21
1.0
 31
0.0
 73
     1
 44
1.0
1001
ACAD
1000
MTEXTBEGIN
1070
    73
1070
     1
1070
    44
1040
1.0
1070
    74
1070
     0
1000
MTEXTEND
  0
POINT
  5
33A
330
B5
100
AcDbEntity
  8
Defpoints
  6
Continuous
 62
     0
370
     0
100
AcDbPoint
 10
88.14367483661026
 20
197.8687031652308
 30
0.0
  0
POINT
  5
33B
330
B5
100
AcDbEntity
  8
Defpoints
  6
Continuous
 62
     0
370
     0
100
AcDbPoint
 10
83.39368433661027
 20
205.3686881652308
 30
0.0
  0
POINT
  5
33C
330
B5
100
AcDbEntity
  8
Defpoints
  6
Continuous
 62
     0
370
     0
100
AcDbPoint
 10
72.84007891372296
 20
205.3686881652308
 30
0.0
  0
ENDBLK
  5
137
330
B5
100
AcDbEntity
  8
DEFAULT
 62
     0
 48
0.0
370
     0
100
AcDbBlockEnd
  0
BLOCK
  5
138
330
B7
100
AcDbEntity
  8
DEFAULT
 62
     1
 48
0.0
370
     0
100
AcDbBlockBegin
  2
SE4
 70
     0
 10
0.0
 20
0.0
 30
0.0
  3
SE4
  1

  0
HATCH
  5
139
330
B7
100
AcDbEntity
  8
DEFAULT
  6
Continuous
 62
   136
100
AcDbHatch
 10
0.0
 20
0.0
 30
0.0
210
0.0
220
0.0
230
1.0
  2
SOLID
 70
     1
 71
     0
 91
        1
 92
        1
 93
        3
 72
     1
 10
71.25533617711953
 20
125.3587728089756
 11
71.7553361814657
 21
122.3587727828986
 72
     1
 10
71.7553361814657
 20
122.3587727828986
 11
72.25533618581188
 21
125.3587728089756
 72
     1
 10
72.25533618581188
 20
125.3587728089756
 11
71.25533617711953
 21
125.3587728089756
 97
        0
 75
     0
 76
     1
 98
        1
 10
0.0
 20
0.0
  0
HATCH
  5
13A
330
B7
100
AcDbEntity
  8
DEFAULT
  6
Continuous
 62
   136
100
AcDbHatch
 10
0.0
 20
0.0
 30
0.0
210
0.0
220
0.0
230
1.0
  2
SOLID
 70
     1
 71
     0
 91
        1
 92
        1
 93
        3
 72
     1
 10
71.25533617711953
 20
159.3586927568216
 11
71.7553361814657
 21
162.3586927828986
 72
     1
 10
71.7553361814657
 20
162.3586927828986
 11
72.25533618581188
 21
159.3586927568216
 72
     1
 10
72.25533618581188
 20
159.3586927568216
 11
71.25533617711953
 21
159.3586927568216
 97
        0
 75
     0
 76
     1
 98
        1
 10
0.0
 20
0.0
  0
LINE
  5
13B
330
B7
100
AcDbEntity
  8
DEFAULT
  6
Continuous
 62
   136
370
     0
100
AcDbLine
 10
83.45509930813703
 20
122.3587727828986
 30
0.0
 11
70.25533616842719
 21
122.3587727828986
 31
0.0
  0
LINE
  5
13C
330
B7
100
AcDbEntity
  8
DEFAULT
  6
Continuous
 62
   136
370
     0
100
AcDbLine
 10
83.45509930813703
 20
162.3586927828986
 30
0.0
 11
70.25533616842719
 21
162.3586927828986
 31
0.0
  0
LINE
  5
13D
330
B7
100
AcDbEntity
  8
DEFAULT
  6
Continuous
 62
   136
370
     0
100
AcDbLine
 10
71.7553361814657
 20
122.3587727828986
 30
0.0
 11
71.7553361814657
 21
162.3586936577326
 31
0.0
  0
TEXT
  5
13E
330
B7
100
AcDbEntity
  8
DEFAULT
  6
Continuous
 62
   136
370
     0
100
AcDbText
 10
71.0053361814657
 20
140.5860059475883
 30
0.0
 40
3.0
  1
40
 50
90.0
  7
seiso_ttf
 11
68.0053361814657
 21
140.5860059475883
 31
0.0
100
AcDbText
 73
     3
  0
ENDBLK
  5
242
330
B7
100
AcDbEntity
  8
0
370
     0
100
AcDbBlockEnd
  0
BLOCK
  5
243
330
BA
100
AcDbEntity
  8
0
370
     0
100
AcDbBlockBegin
  2
DMBLK1682
 70
     0
 10
0.0
 20
0.0
 30
0.0
  3
DMBLK1682
  1

  0
LINE
  5
33D
330
BA
100
AcDbEntity
  8
DEFAULT
  6
Continuous
 62
   136
370
    -2
100
AcDbLine
 10
83.45509930813703
 20
122.3587727828986
 30
0.0
 11
70.25533618146572
 21
122.3587727828986
 31
0.0
  0
LINE
  5
33E
330
BA
100
AcDbEntity
  8
DEFAULT
  6
Continuous
 62
   136
370
    -2
100
AcDbLine
 10
83.45509930813703
 20
162.3586927828986
 30
0.0
 11
70.25533618146574
 21
162.3586927828986
 31
0.0
  0
LINE
  5
33F
330
BA
100
AcDbEntity
  8
DEFAULT
  6
Continuous
 62
   136
370
    -2
100
AcDbLine
 10
71.75533618146572
 20
125.3587727828986
 30
0.0
 11
71.75533618146572
 21
159.3586927828986
 31
0.0
  0
INSERT
  5
340
330
BA
100
AcDbEntity
  8
DEFAULT
  6
Continuous
 62
   136
370
    -2
100
AcDbBlockReference
  2
_SE_FILLED
 10
71.75533618146572
 20
122.3587727828986
 30
0.0
 41
3.0
 42
3.0
 43
3.0
 50
270.0
  0
INSERT
  5
341
330
BA
100
AcDbEntity
  8
DEFAULT
  6
Continuous
 62
   136
370
    -2
100
AcDbBlockReference
  2
_SE_FILLED
 10
71.75533618146573
 20
162.3586927828986
 30
0.0
 41
3.0
 42
3.0
 43
3.0
 50
90.0
  0
MTEXT
  5
342
330
BA
100
AcDbEntity
  8
DEFAULT
  6
Continuous
 62
   136
370
     0
100
AcDbMText
 10
68.75533618146571
 20
142.3587332203156
 30
0.0
 40
3.0
 41
0.0
 71
     5
 72
     1
  1
\A1;\A1;40
  7
seiso_ttf
 11
0.0000000000000001
 21
1.0
 31
0.0
 73
     1
 44
1.0
1001
ACAD
1000
MTEXTBEGIN
1070
    73
1070
     1
1070
    44
1040
1.0
1070
    74
1070
     0
1000
MTEXTEND
  0
POINT
  5
343
330
BA
100
AcDbEntity
  8
Defpoints
  6
Continuous
 62
     0
370
     0
100
AcDbPoint
 10
83.45509930813703
 20
122.3587727828986
 30
0.0
  0
POINT
  5
344
330
BA
100
AcDbEntity
  8
Defpoints
  6
Continuous
 62
     0
370
     0
100
AcDbPoint
 10
83.45509930813703
 20
162.3586927828986
 30
0.0
  0
POINT
  5
345
330
BA
100
AcDbEntity
  8
Defpoints
  6
Continuous
 62
     0
370
     0
100
AcDbPoint
 10
71.75533618146573
 20
162.3586927828986
 30
0.0
  0
ENDBLK
  5
142
330
BA
100
AcDbEntity
  8
DEFAULT
 62
     0
 48
0.0
370
     0
100
AcDbBlockEnd
  0
BLOCK
  5
143
330
BC
100
AcDbEntity
  8
DEFAULT
 62
     1
 48
0.0
370
     0
100
AcDbBlockBegin
  2
SE5
 70
     0
 10
0.0
 20
0.0
 30
0.0
  3
SE5
  1

  0
HATCH
  5
144
330
BC
100
AcDbEntity
  8
DEFAULT
  6
Continuous
 62
   136
100
AcDbHatch
 10
0.0
 20
0.0
 30
0.0
210
0.0
220
0.0
230
1.0
  2
SOLID
 70
     1
 71
     0
 91
        1
 92
        1
 93
        3
 72
     1
 10
71.25533623360806
 20
119.3587727568216
 11
71.75533623795423
 21
122.3587727828986
 72
     1
 10
71.75533623795423
 20
122.3587727828986
 11
72.25533624230042
 21
119.3587727568216
 72
     1
 10
72.25533624230042
 20
119.3587727568216
 11
71.25533623360806
 21
119.3587727568216
 97
        0
 75
     0
 76
     1
 98
        1
 10
0.0
 20
0.0
  0
HATCH
  5
145
330
BC
100
AcDbEntity
  8
DEFAULT
  6
Continuous
 62
   136
100
AcDbHatch
 10
0.0
 20
0.0
 30
0.0
210
0.0
220
0.0
230
1.0
  2
SOLID
 70
     1
 71
     0
 91
        1
 92
        1
 93
        3
 72
     1
 10
71.25533623360806
 20
85.35885280897565
 11
71.75533623795423
 21
82.35885278289861
 72
     1
 10
71.75533623795423
 20
82.35885278289861
 11
72.25533624230042
 21
85.35885280897565
 72
     1
 10
72.25533624230042
 20
85.35885280897565
 11
71.25533623360806
 21
85.35885280897565
 97
        0
 75
     0
 76
     1
 98
        1
 10
0.0
 20
0.0
  0
LINE
  5
146
330
BC
100
AcDbEntity
  8
DEFAULT
  6
Continuous
 62
   136
370
     0
100
AcDbLine
 10
123.455019308137
 20
122.3587727828986
 30
0.0
 11
70.25533622491572
 21
122.3587727828986
 31
0.0
  0
LINE
  5
147
330
BC
100
AcDbEntity
  8
DEFAULT
  6
Continuous
 62
   136
370
     0
100
AcDbLine
 10
123.455019308137
 20
82.35885278289861
 30
0.0
 11
70.25533622491572
 21
82.35885278289861
 31
0.0
  0
LINE
  5
148
330
BC
100
AcDbEntity
  8
DEFAULT
  6
Continuous
 62
   136
370
     0
100
AcDbLine
 10
71.75533623795423
 20
122.3587727828986
 30
0.0
 11
71.75533623795423
 21
82.35885190806454
 31
0.0
  0
TEXT
  5
149
330
BC
100
AcDbEntity
  8
DEFAULT
  6
Continuous
 62
   136
370
     0
100
AcDbText
 10
71.00533623795424
 20
100.5860850727543
 30
0.0
 40
3.0
  1
40
 50
90.0
  7
seiso_ttf
 11
68.00533623795423
 21
100.5860850727543
 31
0.0
100
AcDbText
 73
     3
  0
ENDBLK
  5
244
330
BC
100
AcDbEntity
  8
0
370
     0
100
AcDbBlockEnd
  0
BLOCK
  5
245
330
BF
100
AcDbEntity
  8
0
370
     0
100
AcDbBlockBegin
  2
DMBLK1683
 70
     0
 10
0.0
 20
0.0
 30
0.0
  3
DMBLK1683
  1

  0
LINE
  5
346
330
BF
100
AcDbEntity
  8
DEFAULT
  6
Continuous
 62
   136
370
    -2
100
AcDbLine
 10
123.455019308137
 20
122.3587727828986
 30
0.0
 11
70.25533623795427
 21
122.3587727828986
 31
0.0
  0
LINE
  5
347
330
BF
100
AcDbEntity
  8
DEFAULT
  6
Continuous
 62
   136
370
    -2
100
AcDbLine
 10
123.455019308137
 20
82.35885278289861
 30
0.0
 11
70.25533623795425
 21
82.35885278289863
 31
0.0
  0
LINE
  5
348
330
BF
100
AcDbEntity
  8
DEFAULT
  6
Continuous
 62
   136
370
    -2
100
AcDbLine
 10
71.75533623795427
 20
119.3587727828986
 30
0.0
 11
71.75533623795425
 21
85.35885278289864
 31
0.0
  0
INSERT
  5
349
330
BF
100
AcDbEntity
  8
DEFAULT
  6
Continuous
 62
   136
370
    -2
100
AcDbBlockReference
  2
_SE_FILLED
 10
71.75533623795427
 20
122.3587727828986
 30
0.0
 41
3.0
 42
3.0
 43
3.0
 50
90.0
  0
INSERT
  5
34A
330
BF
100
AcDbEntity
  8
DEFAULT
  6
Continuous
 62
   136
370
    -2
100
AcDbBlockReference
  2
_SE_FILLED
 10
71.75533623795425
 20
82.35885278289863
 30
0.0
 41
3.0
 42
3.0
 43
3.0
 50
270.0
  0
MTEXT
  5
34B
330
BF
100
AcDbEntity
  8
DEFAULT
  6
Continuous
 62
   136
370
     0
100
AcDbMText
 10
68.75533623795424
 20
102.3588123454816
 30
0.0
 40
3.0
 41
0.0
 71
     5
 72
     1
  1
\A1;\A1;40
  7
seiso_ttf
 11
0.0000000000000001
 21
1.0
 31
0.0
 73
     1
 44
1.0
1001
ACAD
1000
MTEXTBEGIN
1070
    73
1070
     1
1070
    44
1040
1.0
1070
    74
1070
     0
1000
MTEXTEND
  0
POINT
  5
34C
330
BF
100
AcDbEntity
  8
Defpoints
  6
Continuous
 62
     0
370
     0
100
AcDbPoint
 10
123.455019308137
 20
122.3587727828986
 30
0.0
  0
POINT
  5
34D
330
BF
100
AcDbEntity
  8
Defpoints
  6
Continuous
 62
     0
370
     0
100
AcDbPoint
 10
123.455019308137
 20
82.35885278289861
 30
0.0
  0
POINT
  5
34E
330
BF
100
AcDbEntity
  8
Defpoints
  6
Continuous
 62
     0
370
     0
100
AcDbPoint
 10
71.75533623795425
 20
82.35885278289863
 30
0.0
  0
ENDBLK
  5
14D
330
BF
100
AcDbEntity
  8
DEFAULT
 62
     0
 48
0.0
370
     0
100
AcDbBlockEnd
  0
BLOCK
  5
14E
330
C1
100
AcDbEntity
  8
DEFAULT
 62
     1
 48
0.0
370
     0
100
AcDbBlockBegin
  2
SE6
 70
     0
 10
0.0
 20
0.0
 30
0.0
  3
SE6
  1

  0
HATCH
  5
14F
330
C1
100
AcDbEntity
  8
DEFAULT
  6
Continuous
 62
   136
100
AcDbHatch
 10
0.0
 20
0.0
 30
0.0
210
0.0
220
0.0
230
1.0
  2
SOLID
 70
     1
 71
     0
 91
        1
 92
        1
 93
        3
 72
     1
 10
79.71632237225167
 20
165.3586928089756
 11
80.21632237659785
 21
162.3586927828986
 72
     1
 10
80.21632237659785
 20
162.3586927828986
 11
80.71632238094402
 21
165.3586928089756
 72
     1
 10
80.71632238094402
 20
165.3586928089756
 11
79.71632237225167
 21
165.3586928089756
 97
        0
 75
     0
 76
     1
 98
        1
 10
0.0
 20
0.0
  0
HATCH
  5
150
330
C1
100
AcDbEntity
  8
DEFAULT
  6
Continuous
 62
   136
100
AcDbHatch
 10
0.0
 20
0.0
 30
0.0
210
0.0
220
0.0
230
1.0
  2
SOLID
 70
     1
 71
     0
 91
        1
 92
        1
 93
        3
 72
     1
 10
79.71632237225167
 20
151.8587077568215
 11
80.21632237659785
 21
154.8587077828986
 72
     1
 10
80.21632237659785
 20
154.8587077828986
 11
80.71632238094402
 21
151.8587077568215
 72
     1
 10
80.71632238094402
 20
151.8587077568215
 11
79.71632237225167
 21
151.8587077568215
 97
        0
 75
     0
 76
     1
 98
        1
 10
0.0
 20
0.0
  0
LINE
  5
151
330
C1
100
AcDbEntity
  8
DEFAULT
  6
Continuous
 62
   136
370
     0
100
AcDbLine
 10
83.45509930813703
 20
162.3586927828986
 30
0.0
 11
78.71632236355933
 21
162.3586927828986
 31
0.0
  0
LINE
  5
152
330
C1
100
AcDbEntity
  8
DEFAULT
  6
Continuous
 62
   136
370
     0
100
AcDbLine
 10
84.14625792581704
 20
154.8587077828986
 30
0.0
 11
78.71632236355933
 21
154.8587077828986
 31
0.0
  0
LINE
  5
153
330
C1
100
AcDbEntity
  8
DEFAULT
  6
Continuous
 62
   136
370
     0
100
AcDbLine
 10
80.21632237659785
 20
168.3586928350527
 30
0.0
 11
80.21632237659785
 21
148.8587073338825
 31
0.0
  0
TEXT
  5
154
330
C1
100
AcDbEntity
  8
DEFAULT
  6
Continuous
 62
   136
370
     0
100
AcDbText
 10
79.46632237659784
 20
156.5291548627528
 30
0.0
 40
3.0
  1
7,5
 50
90.0
  7
seiso_ttf
 11
76.46632237659784
 21
156.5291548627528
 31
0.0
100
AcDbText
 73
     3
  0
ENDBLK
  5
246
330
C1
100
AcDbEntity
  8
0
370
     0
100
AcDbBlockEnd
  0
BLOCK
  5
247
330
C4
100
AcDbEntity
  8
0
370
     0
100
AcDbBlockBegin
  2
DMBLK1684
 70
     0
 10
0.0
 20
0.0
 30
0.0
  3
DMBLK1684
  1

  0
LINE
  5
34F
330
C4
100
AcDbEntity
  8
DEFAULT
  6
Continuous
 62
   136
370
    -2
100
AcDbLine
 10
83.45509930813703
 20
162.3586927828986
 30
0.0
 11
78.71632237659787
 21
162.3586927828986
 31
0.0
  0
LINE
  5
350
330
C4
100
AcDbEntity
  8
DEFAULT
  6
Continuous
 62
   136
370
    -2
100
AcDbLine
 10
84.14625792581704
 20
154.8587077828986
 30
0.0
 11
78.71632237659786
 21
154.8587077828986
 31
0.0
  0
LINE
  5
351
330
C4
100
AcDbEntity
  8
DEFAULT
  6
Continuous
 62
   136
370
    -2
100
AcDbLine
 10
80.21632237659787
 20
165.3586927828986
 30
0.0
 11
80.21632237659787
 21
168.3586927828986
 31
0.0
  0
LINE
  5
352
330
C4
100
AcDbEntity
  8
DEFAULT
  6
Continuous
 62
   136
370
    -2
100
AcDbLine
 10
80.21632237659785
 20
151.8587077828986
 30
0.0
 11
80.21632237659785
 21
148.8587077828986
 31
0.0
  0
LINE
  5
353
330
C4
100
AcDbEntity
  8
DEFAULT
  6
Continuous
 62
   136
370
    -2
100
AcDbLine
 10
80.21632237659787
 20
162.3586927828986
 30
0.0
 11
80.21632237659785
 21
154.8587077828986
 31
0.0
  0
INSERT
  5
354
330
C4
100
AcDbEntity
  8
DEFAULT
  6
Continuous
 62
   136
370
    -2
100
AcDbBlockReference
  2
_SE_FILLED
 10
80.21632237659787
 20
162.3586927828986
 30
0.0
 41
3.0
 42
3.0
 43
3.0
 50
270.0
  0
INSERT
  5
355
330
C4
100
AcDbEntity
  8
DEFAULT
  6
Continuous
 62
   136
370
    -2
100
AcDbBlockReference
  2
_SE_FILLED
 10
80.21632237659785
 20
154.8587077828986
 30
0.0
 41
3.0
 42
3.0
 43
3.0
 50
90.0
  0
MTEXT
  5
356
330
C4
100
AcDbEntity
  8
DEFAULT
  6
Continuous
 62
   136
370
     0
100
AcDbMText
 10
76.93060809088355
 20
158.6087002828986
 30
0.0
 40
3.0
 41
0.0
 71
     5
 72
     1
  1
\A1;\A1;7,5
  7
seiso_ttf
 11
0.0000000000000001
 21
1.0
 31
0.0
 73
     1
 44
1.0
1001
ACAD
1000
MTEXTBEGIN
1070
    73
1070
     1
1070
    44
1040
1.0
1070
    74
1070
     0
1000
MTEXTEND
  0
POINT
  5
357
330
C4
100
AcDbEntity
  8
Defpoints
  6
Continuous
 62
     0
370
     0
100
AcDbPoint
 10
83.45509930813703
 20
162.3586927828986
 30
0.0
  0
POINT
  5
358
330
C4
100
AcDbEntity
  8
Defpoints
  6
Continuous
 62
     0
370
     0
100
AcDbPoint
 10
84.14625792581704
 20
154.8587077828986
 30
0.0
  0
POINT
  5
359
330
C4
100
AcDbEntity
  8
Defpoints
  6
Continuous
 62
     0
370
     0
100
AcDbPoint
 10
80.21632237659785
 20
154.8587077828986
 30
0.0
  0
ENDBLK
  5
158
330
C4
100
AcDbEntity
  8
DEFAULT
 62
     0
 48
0.0
370
     0
100
AcDbBlockEnd
  0
BLOCK
  5
159
330
C6
100
AcDbEntity
  8
DEFAULT
 62
     1
 48
0.0
370
     0
100
AcDbBlockBegin
  2
SE7
 70
     0
 10
0.0
 20
0.0
 30
0.0
  3
SE7
  1

  0
HATCH
  5
15A
330
C6
100
AcDbEntity
  8
DEFAULT
  6
Continuous
 62
   136
100
AcDbHatch
 10
0.0
 20
0.0
 30
0.0
210
0.0
220
0.0
230
1.0
  2
SOLID
 70
     1
 71
     0
 91
        1
 92
        1
 93
        3
 72
     1
 10
79.71632252575324
 20
151.8587077568215
 11
80.21632253009942
 21
154.8587077828986
 72
     1
 10
80.21632253009942
 20
154.8587077828986
 11
80.7163225344456
 21
151.8587077568215
 72
     1
 10
80.7163225344456
 20
151.8587077568215
 11
79.71632252575324
 21
151.8587077568215
 97
        0
 75
     0
 76
     1
 98
        1
 10
0.0
 20
0.0
  0
HATCH
  5
15B
330
C6
100
AcDbEntity
  8
DEFAULT
  6
Continuous
 62
   136
100
AcDbHatch
 10
0.0
 20
0.0
 30
0.0
210
0.0
220
0.0
230
1.0
  2
SOLID
 70
     1
 71
     0
 91
        1
 92
        1
 93
        3
 72
     1
 10
79.71632252575324
 20
132.8587578089756
 11
80.21632253009942
 21
129.8587577828986
 72
     1
 10
80.21632253009942
 20
129.8587577828986
 11
80.7163225344456
 21
132.8587578089756
 72
     1
 10
80.7163225344456
 20
132.8587578089756
 11
79.71632252575324
 21
132.8587578089756
 97
        0
 75
     0
 76
     1
 98
        1
 10
0.0
 20
0.0
  0
LINE
  5
15C
330
C6
100
AcDbEntity
  8
DEFAULT
  6
Continuous
 62
   136
370
     0
100
AcDbLine
 10
84.14625792581704
 20
154.8587077828986
 30
0.0
 11
78.7163225170609
 21
154.8587077828986
 31
0.0
  0
LINE
  5
15D
330
C6
100
AcDbEntity
  8
DEFAULT
  6
Continuous
 62
   136
370
     0
100
AcDbLine
 10
83.60383001067503
 20
129.8587577828986
 30
0.0
 11
78.7163225170609
 21
129.8587577828986
 31
0.0
  0
LINE
  5
15E
330
C6
100
AcDbEntity
  8
DEFAULT
  6
Continuous
 62
   136
370
     0
100
AcDbLine
 10
80.21632253009942
 20
154.8587077828986
 30
0.0
 11
80.21632253009942
 21
129.8587577017886
 31
0.0
  0
TEXT
  5
15F
330
C6
100
AcDbEntity
  8
DEFAULT
  6
Continuous
 62
   136
370
     0
100
AcDbText
 10
79.46632253009942
 20
140.5860054696163
 30
0.0
 40
3.0
  1
25
 50
90.0
  7
seiso_ttf
 11
76.46632253009942
 21
140.5860054696163
 31
0.0
100
AcDbText
 73
     3
  0
ENDBLK
  5
248
330
C6
100
AcDbEntity
  8
0
370
     0
100
AcDbBlockEnd
  0
BLOCK
  5
249
330
C9
100
AcDbEntity
  8
0
370
     0
100
AcDbBlockBegin
  2
DMBLK1685
 70
     0
 10
0.0
 20
0.0
 30
0.0
  3
DMBLK1685
  1

  0
LINE
  5
35A
330
C9
100
AcDbEntity
  8
DEFAULT
  6
Continuous
 62
   136
370
    -2
100
AcDbLine
 10
84.14625792581704
 20
154.8587077828986
 30
0.0
 11
78.71632253009943
 21
154.8587077828986
 31
0.0
  0
LINE
  5
35B
330
C9
100
AcDbEntity
  8
DEFAULT
  6
Continuous
 62
   136
370
    -2
100
AcDbLine
 10
83.60383001067503
 20
129.8587577828986
 30
0.0
 11
78.71632253009943
 21
129.8587577828986
 31
0.0
  0
LINE
  5
35C
330
C9
100
AcDbEntity
  8
DEFAULT
  6
Continuous
 62
   136
370
    -2
100
AcDbLine
 10
80.21632253009943
 20
151.8587077828986
 30
0.0
 11
80.21632253009943
 21
132.8587577828986
 31
0.0
  0
INSERT
  5
35D
330
C9
100
AcDbEntity
  8
DEFAULT
  6
Continuous
 62
   136
370
    -2
100
AcDbBlockReference
  2
_SE_FILLED
 10
80.21632253009943
 20
154.8587077828986
 30
0.0
 41
3.0
 42
3.0
 43
3.0
 50
90.0
  0
INSERT
  5
35E
330
C9
100
AcDbEntity
  8
DEFAULT
  6
Continuous
 62
   136
370
    -2
100
AcDbBlockReference
  2
_SE_FILLED
 10
80.21632253009943
 20
129.8587577828986
 30
0.0
 41
3.0
 42
3.0
 43
3.0
 50
270.0
  0
MTEXT
  5
35F
330
C9
100
AcDbEntity
  8
DEFAULT
  6
Continuous
 62
   136
370
     0
100
AcDbMText
 10
77.21632253009942
 20
142.3587327423436
 30
0.0
 40
3.0
 41
0.0
 71
     5
 72
     1
  1
\A1;\A1;25
  7
seiso_ttf
 11
0.0000000000000001
 21
1.0
 31
0.0
 73
     1
 44
1.0
1001
ACAD
1000
MTEXTBEGIN
1070
    73
1070
     1
1070
    44
1040
1.0
1070
    74
1070
     0
1000
MTEXTEND
  0
POINT
  5
360
330
C9
100
AcDbEntity
  8
Defpoints
  6
Continuous
 62
     0
370
     0
100
AcDbPoint
 10
84.14625792581704
 20
154.8587077828986
 30
0.0
  0
POINT
  5
361
330
C9
100
AcDbEntity
  8
Defpoints
  6
Continuous
 62
     0
370
     0
100
AcDbPoint
 10
83.60383001067503
 20
129.8587577828986
 30
0.0
  0
POINT
  5
362
330
C9
100
AcDbEntity
  8
Defpoints
  6
Continuous
 62
     0
370
     0
100
AcDbPoint
 10
80.21632253009943
 20
129.8587577828986
 30
0.0
  0
ENDBLK
  5
163
330
C9
100
AcDbEntity
  8
DEFAULT
 62
     0
 48
0.0
370
     0
100
AcDbBlockEnd
  0
BLOCK
  5
164
330
CB
100
AcDbEntity
  8
DEFAULT
 62
     1
 48
0.0
370
     0
100
AcDbBlockBegin
  2
SE8
 70
     0
 10
0.0
 20
0.0
 30
0.0
  3
SE8
  1

  0
HATCH
  5
165
330
CB
100
AcDbEntity
  8
DEFAULT
  6
Continuous
 62
   136
100
AcDbHatch
 10
0.0
 20
0.0
 30
0.0
210
0.0
220
0.0
230
1.0
  2
SOLID
 70
     1
 71
     0
 91
        1
 92
        1
 93
        3
 72
     1
 10
79.71632225660745
 20
132.8587578089756
 11
80.21632226095363
 21
129.8587577828986
 72
     1
 10
80.21632226095363
 20
129.8587577828986
 11
80.71632226529981
 21
132.8587578089756
 72
     1
 10
80.71632226529981
 20
132.8587578089756
 11
79.71632225660745
 21
132.8587578089756
 97
        0
 75
     0
 76
     1
 98
        1
 10
0.0
 20
0.0
  0
HATCH
  5
166
330
CB
100
AcDbEntity
  8
DEFAULT
  6
Continuous
 62
   136
100
AcDbHatch
 10
0.0
 20
0.0
 30
0.0
210
0.0
220
0.0
230
1.0
  2
SOLID
 70
     1
 71
     0
 91
        1
 92
        1
 93
        3
 72
     1
 10
79.71632225660745
 20
119.3587727568216
 11
80.21632226095363
 21
122.3587727828986
 72
     1
 10
80.21632226095363
 20
122.3587727828986
 11
80.71632226529981
 21
119.3587727568216
 72
     1
 10
80.71632226529981
 20
119.3587727568216
 11
79.71632225660745
 21
119.3587727568216
 97
        0
 75
     0
 76
     1
 98
        1
 10
0.0
 20
0.0
  0
LINE
  5
167
330
CB
100
AcDbEntity
  8
DEFAULT
  6
Continuous
 62
   136
370
     0
100
AcDbLine
 10
83.60383001067503
 20
129.8587577828986
 30
0.0
 11
78.71632224791511
 21
129.8587577828986
 31
0.0
  0
LINE
  5
168
330
CB
100
AcDbEntity
  8
DEFAULT
  6
Continuous
 62
   136
370
     0
100
AcDbLine
 10
83.45509930813703
 20
122.3587727828986
 30
0.0
 11
78.71632224791511
 21
122.3587727828986
 31
0.0
  0
LINE
  5
169
330
CB
100
AcDbEntity
  8
DEFAULT
  6
Continuous
 62
   136
370
     0
100
AcDbLine
 10
80.21632226095363
 20
135.8587578350527
 30
0.0
 11
80.21632226095363
 21
116.3587723338825
 31
0.0
  0
TEXT
  5
16A
330
CB
100
AcDbEntity
  8
DEFAULT
  6
Continuous
 62
   136
370
     0
100
AcDbText
 10
79.46632226095362
 20
124.0292198627527
 30
0.0
 40
3.0
  1
7,5
 50
90.0
  7
seiso_ttf
 11
76.46632226095362
 21
124.0292198627527
 31
0.0
100
AcDbText
 73
     3
  0
ENDBLK
  5
24A
330
CB
100
AcDbEntity
  8
0
370
     0
100
AcDbBlockEnd
  0
BLOCK
  5
24B
330
CE
100
AcDbEntity
  8
0
370
     0
100
AcDbBlockBegin
  2
DMBLK1686
 70
     0
 10
0.0
 20
0.0
 30
0.0
  3
DMBLK1686
  1

  0
LINE
  5
363
330
CE
100
AcDbEntity
  8
DEFAULT
  6
Continuous
 62
   136
370
    -2
100
AcDbLine
 10
83.60383001067503
 20
129.8587577828986
 30
0.0
 11
78.71632226095364
 21
129.8587577828986
 31
0.0
  0
LINE
  5
364
330
CE
100
AcDbEntity
  8
DEFAULT
  6
Continuous
 62
   136
370
    -2
100
AcDbLine
 10
83.45509930813703
 20
122.3587727828986
 30
0.0
 11
78.71632226095364
 21
122.3587727828986
 31
0.0
  0
LINE
  5
365
330
CE
100
AcDbEntity
  8
DEFAULT
  6
Continuous
 62
   136
370
    -2
100
AcDbLine
 10
80.21632226095364
 20
132.8587577828986
 30
0.0
 11
80.21632226095364
 21
135.8587577828986
 31
0.0
  0
LINE
  5
366
330
CE
100
AcDbEntity
  8
DEFAULT
  6
Continuous
 62
   136
370
    -2
100
AcDbLine
 10
80.21632226095364
 20
119.3587727828986
 30
0.0
 11
80.21632226095364
 21
116.3587727828986
 31
0.0
  0
LINE
  5
367
330
CE
100
AcDbEntity
  8
DEFAULT
  6
Continuous
 62
   136
370
    -2
100
AcDbLine
 10
80.21632226095364
 20
129.8587577828986
 30
0.0
 11
80.21632226095364
 21
122.3587727828986
 31
0.0
  0
INSERT
  5
368
330
CE
100
AcDbEntity
  8
DEFAULT
  6
Continuous
 62
   136
370
    -2
100
AcDbBlockReference
  2
_SE_FILLED
 10
80.21632226095364
 20
129.8587577828986
 30
0.0
 41
3.0
 42
3.0
 43
3.0
 50
270.0
  0
INSERT
  5
369
330
CE
100
AcDbEntity
  8
DEFAULT
  6
Continuous
 62
   136
370
    -2
100
AcDbBlockReference
  2
_SE_FILLED
 10
80.21632226095364
 20
122.3587727828986
 30
0.0
 41
3.0
 42
3.0
 43
3.0
 50
90.0
  0
MTEXT
  5
36A
330
CE
100
AcDbEntity
  8
DEFAULT
  6
Continuous
 62
   136
370
     0
100
AcDbMText
 10
76.93060797523934
 20
126.1087652828986
 30
0.0
 40
3.0
 41
0.0
 71
     5
 72
     1
  1
\A1;\A1;7,5
  7
seiso_ttf
 11
0.0000000000000001
 21
1.0
 31
0.0
 73
     1
 44
1.0
1001
ACAD
1000
MTEXTBEGIN
1070
    73
1070
     1
1070
    44
1040
1.0
1070
    74
1070
     0
1000
MTEXTEND
  0
POINT
  5
36B
330
CE
100
AcDbEntity
  8
Defpoints
  6
Continuous
 62
     0
370
     0
100
AcDbPoint
 10
83.60383001067503
 20
129.8587577828986
 30
0.0
  0
POINT
  5
36C
330
CE
100
AcDbEntity
  8
Defpoints
  6
Continuous
 62
     0
370
     0
100
AcDbPoint
 10
83.45509930813703
 20
122.3587727828986
 30
0.0
  0
POINT
  5
36D
330
CE
100
AcDbEntity
  8
Defpoints
  6
Continuous
 62
     0
370
     0
100
AcDbPoint
 10
80.21632226095364
 20
122.3587727828986
 30
0.0
  0
ENDBLK
  5
16E
330
CE
100
AcDbEntity
  8
DEFAULT
 62
     0
 48
0.0
370
     0
100
AcDbBlockEnd
  0
BLOCK
  5
16F
330
D0
100
AcDbEntity
  8
DEFAULT
 62
     1
 48
0.0
370
     0
100
AcDbBlockBegin
  2
SE9
 70
     0
 10
0.0
 20
0.0
 30
0.0
  3
SE9
  1

  0
HATCH
  5
170
330
D0
100
AcDbEntity
  8
DEFAULT
  6
Continuous
 62
   136
100
AcDbHatch
 10
0.0
 20
0.0
 30
0.0
210
0.0
220
0.0
230
1.0
  2
SOLID
 70
     1
 71
     0
 91
        1
 92
        1
 93
        3
 72
     1
 10
86.45509933421406
 20
166.2323238306044
 11
83.45509930813703
 21
165.7323238262582
 72
     1
 10
83.45509930813703
 20
165.7323238262582
 11
86.45509933421406
 21
165.2323238219121
 72
     1
 10
86.45509933421406
 20
165.2323238219121
 11
86.45509933421406
 21
166.2323238306044
 97
        0
 75
     0
 76
     1
 98
        1
 10
0.0
 20
0.0
  0
HATCH
  5
171
330
D0
100
AcDbEntity
  8
DEFAULT
  6
Continuous
 62
   136
100
AcDbHatch
 10
0.0
 20
0.0
 30
0.0
210
0.0
220
0.0
230
1.0
  2
SOLID
 70
     1
 71
     0
 91
        1
 92
        1
 93
        3
 72
     1
 10
90.45507928206001
 20
166.2323238306044
 11
93.45507930813704
 21
165.7323238262582
 72
     1
 10
93.45507930813704
 20
165.7323238262582
 11
90.45507928206001
 21
165.2323238219121
 72
     1
 10
90.45507928206001
 20
165.2323238219121
 11
90.45507928206001
 21
166.2323238306044
 97
        0
 75
     0
 76
     1
 98
        1
 10
0.0
 20
0.0
  0
LINE
  5
172
330
D0
100
AcDbEntity
  8
DEFAULT
  6
Continuous
 62
   136
370
     0
100
AcDbLine
 10
83.45509930813703
 20
162.3586927828986
 30
0.0
 11
83.45509930813703
 21
167.2323238392967
 31
0.0
  0
LINE
  5
173
330
D0
100
AcDbEntity
  8
DEFAULT
  6
Continuous
 62
   136
370
     0
100
AcDbLine
 10
93.45507930813704
 20
161.2931429140026
 30
0.0
 11
93.45507930813704
 21
167.2323238392967
 31
0.0
  0
LINE
  5
174
330
D0
100
AcDbEntity
  8
DEFAULT
  6
Continuous
 62
   136
370
     0
100
AcDbLine
 10
83.45509930813703
 20
165.7323238262582
 30
0.0
 11
93.45507952684554
 21
165.7323238262582
 31
0.0
  0
TEXT
  5
175
330
D0
100
AcDbEntity
  8
DEFAULT
  6
Continuous
 62
   136
370
     0
100
AcDbText
 10
86.95508941749128
 20
166.4823238262582
 30
0.0
 40
3.0
  1
10
  7
seiso_ttf
 11
86.95508941749128
 21
169.4823238262582
 31
0.0
100
AcDbText
 73
     3
  0
ENDBLK
  5
24C
330
D0
100
AcDbEntity
  8
0
370
     0
100
AcDbBlockEnd
  0
BLOCK
  5
24D
330
D3
100
AcDbEntity
  8
0
370
     0
100
AcDbBlockBegin
  2
DMBLK1687
 70
     0
 10
0.0
 20
0.0
 30
0.0
  3
DMBLK1687
  1

  0
LINE
  5
36E
330
D3
100
AcDbEntity
  8
DEFAULT
  6
Continuous
 62
   136
370
    -2
100
AcDbLine
 10
83.45509930813703
 20
162.3586927828986
 30
0.0
 11
83.45509930813703
 21
167.2323238262582
 31
0.0
  0
LINE
  5
36F
330
D3
100
AcDbEntity
  8
DEFAULT
  6
Continuous
 62
   136
370
    -2
100
AcDbLine
 10
93.45507930813704
 20
161.2931429140026
 30
0.0
 11
93.45507930813704
 21
167.2323238262582
 31
0.0
  0
LINE
  5
370
330
D3
100
AcDbEntity
  8
DEFAULT
  6
Continuous
 62
   136
370
    -2
100
AcDbLine
 10
86.45509930813702
 20
165.7323238262582
 30
0.0
 11
90.45507930813704
 21
165.7323238262582
 31
0.0
  0
INSERT
  5
371
330
D3
100
AcDbEntity
  8
DEFAULT
  6
Continuous
 62
   136
370
    -2
100
AcDbBlockReference
  2
_SE_FILLED
 10
83.45509930813703
 20
165.7323238262582
 30
0.0
 41
3.0
 42
3.0
 43
3.0
 50
180.0
  0
INSERT
  5
372
330
D3
100
AcDbEntity
  8
DEFAULT
  6
Continuous
 62
   136
370
    -2
100
AcDbBlockReference
  2
_SE_FILLED
 10
93.45507930813704
 20
165.7323238262582
 30
0.0
 41
3.0
 42
3.0
 43
3.0
  0
MTEXT
  5
373
330
D3
100
AcDbEntity
  8
DEFAULT
  6
Continuous
 62
   136
370
     0
100
AcDbMText
 10
88.45508941749129
 20
168.7323238262582
 30
0.0
 40
3.0
 41
0.0
 71
     5
 72
     1
  1
\A1;\A1;10
  7
seiso_ttf
 73
     1
 44
1.0
1001
ACAD
1000
MTEXTBEGIN
1070
    73
1070
     1
1070
    44
1040
1.0
1070
    74
1070
     0
1000
MTEXTEND
  0
POINT
  5
374
330
D3
100
AcDbEntity
  8
Defpoints
  6
Continuous
 62
     0
370
     0
100
AcDbPoint
 10
83.45509930813703
 20
162.3586927828986
 30
0.0
  0
POINT
  5
375
330
D3
100
AcDbEntity
  8
Defpoints
  6
Continuous
 62
     0
370
     0
100
AcDbPoint
 10
93.45507930813704
 20
161.2931429140026
 30
0.0
  0
POINT
  5
376
330
D3
100
AcDbEntity
  8
Defpoints
  6
Continuous
 62
     0
370
     0
100
AcDbPoint
 10
93.45507930813704
 20
165.7323238262582
 30
0.0
  0
ENDBLK
  5
179
330
D3
100
AcDbEntity
  8
DEFAULT
 62
     0
 48
0.0
370
     0
100
AcDbBlockEnd
  0
BLOCK
  5
17A
330
D5
100
AcDbEntity
  8
DEFAULT
 62
     1
 48
0.0
370
     0
100
AcDbBlockBegin
  2
SE10
 70
     0
 10
0.0
 20
0.0
 30
0.0
  3
SE10
  1

  0
HATCH
  5
17B
330
D5
100
AcDbEntity
  8
DEFAULT
  6
Continuous
 62
   136
100
AcDbHatch
 10
0.0
 20
0.0
 30
0.0
210
0.0
220
0.0
230
1.0
  2
SOLID
 70
     1
 71
     0
 91
        1
 92
        1
 93
        3
 72
     1
 10
96.45507933421407
 20
166.232323635221
 11
93.45507930813704
 21
165.7323236308748
 72
     1
 10
93.45507930813704
 20
165.7323236308748
 11
96.45507933421407
 21
165.2323236265286
 72
     1
 10
96.45507933421407
 20
165.2323236265286
 11
96.45507933421407
 21
166.232323635221
 97
        0
 75
     0
 76
     1
 98
        1
 10
0.0
 20
0.0
  0
HATCH
  5
17C
330
D5
100
AcDbEntity
  8
DEFAULT
  6
Continuous
 62
   136
100
AcDbHatch
 10
0.0
 20
0.0
 30
0.0
210
0.0
220
0.0
230
1.0
  2
SOLID
 70
     1
 71
     0
 91
        1
 92
        1
 93
        3
 72
     1
 10
105.45504928206
 20
166.232323635221
 11
108.455049308137
 21
165.7323236308748
 72
     1
 10
108.455049308137
 20
165.7323236308748
 11
105.45504928206
 21
165.2323236265286
 72
     1
 10
105.45504928206
 20
165.2323236265286
 11
105.45504928206
 21
166.232323635221
 97
        0
 75
     0
 76
     1
 98
        1
 10
0.0
 20
0.0
  0
LINE
  5
17D
330
D5
100
AcDbEntity
  8
DEFAULT
  6
Continuous
 62
   136
370
     0
100
AcDbLine
 10
93.45507930813704
 20
161.2931429140026
 30
0.0
 11
93.45507930813704
 21
167.2323236439133
 31
0.0
  0
LINE
  5
17E
330
D5
100
AcDbEntity
  8
DEFAULT
  6
Continuous
 62
   136
370
     0
100
AcDbLine
 10
108.455049308137
 20
162.3586927828986
 30
0.0
 11
108.455049308137
 21
167.2323236439133
 31
0.0
  0
LINE
  5
17F
330
D5
100
AcDbEntity
  8
DEFAULT
  6
Continuous
 62
   136
370
     0
100
AcDbLine
 10
93.45507930813704
 20
165.7323236308748
 30
0.0
 11
108.4550491705385
 21
165.7323236308748
 31
0.0
  0
TEXT
  5
180
330
D5
100
AcDbEntity
  8
DEFAULT
  6
Continuous
 62
   136
370
     0
100
AcDbText
 10
99.48915514842868
 20
166.4823236308748
 30
0.0
 40
3.0
  1
15
  7
seiso_ttf
 11
99.48915514842868
 21
169.4823236308748
 31
0.0
100
AcDbText
 73
     3
  0
ENDBLK
  5
24E
330
D5
100
AcDbEntity
  8
0
370
     0
100
AcDbBlockEnd
  0
BLOCK
  5
24F
330
D8
100
AcDbEntity
  8
0
370
     0
100
AcDbBlockBegin
  2
DMBLK1688
 70
     0
 10
0.0
 20
0.0
 30
0.0
  3
DMBLK1688
  1

  0
LINE
  5
377
330
D8
100
AcDbEntity
  8
DEFAULT
  6
Continuous
 62
   136
370
    -2
100
AcDbLine
 10
93.45507930813704
 20
161.2931429140026
 30
0.0
 11
93.45507930813704
 21
167.2323236308748
 31
0.0
  0
LINE
  5
378
330
D8
100
AcDbEntity
  8
DEFAULT
  6
Continuous
 62
   136
370
    -2
100
AcDbLine
 10
108.455049308137
 20
162.3586927828986
 30
0.0
 11
108.455049308137
 21
167.2323236308748
 31
0.0
  0
LINE
  5
379
330
D8
100
AcDbEntity
  8
DEFAULT
  6
Continuous
 62
   136
370
    -2
100
AcDbLine
 10
96.45507930813705
 20
165.7323236308748
 30
0.0
 11
105.455049308137
 21
165.7323236308748
 31
0.0
  0
INSERT
  5
37A
330
D8
100
AcDbEntity
  8
DEFAULT
  6
Continuous
 62
   136
370
    -2
100
AcDbBlockReference
  2
_SE_FILLED
 10
93.45507930813704
 20
165.7323236308748
 30
0.0
 41
3.0
 42
3.0
 43
3.0
 50
180.0
  0
INSERT
  5
37B
330
D8
100
AcDbEntity
  8
DEFAULT
  6
Continuous
 62
   136
370
    -2
100
AcDbBlockReference
  2
_SE_FILLED
 10
108.455049308137
 20
165.7323236308748
 30
0.0
 41
3.0
 42
3.0
 43
3.0
  0
MTEXT
  5
37C
330
D8
100
AcDbEntity
  8
DEFAULT
  6
Continuous
 62
   136
370
     0
100
AcDbMText
 10
100.9550642393378
 20
168.7323236308748
 30
0.0
 40
3.0
 41
0.0
 71
     5
 72
     1
  1
\A1;\A1;15
  7
seiso_ttf
 73
     1
 44
1.0
1001
ACAD
1000
MTEXTBEGIN
1070
    73
1070
     1
1070
    44
1040
1.0
1070
    74
1070
     0
1000
MTEXTEND
  0
POINT
  5
37D
330
D8
100
AcDbEntity
  8
Defpoints
  6
Continuous
 62
     0
370
     0
100
AcDbPoint
 10
93.45507930813704
 20
161.2931429140026
 30
0.0
  0
POINT
  5
37E
330
D8
100
AcDbEntity
  8
Defpoints
  6
Continuous
 62
     0
370
     0
100
AcDbPoint
 10
108.455049308137
 20
162.3586927828986
 30
0.0
  0
POINT
  5
37F
330
D8
100
AcDbEntity
  8
Defpoints
  6
Continuous
 62
     0
370
     0
100
AcDbPoint
 10
108.455049308137
 20
165.7323236308748
 30
0.0
  0
ENDBLK
  5
184
330
D8
100
AcDbEntity
  8
DEFAULT
 62
     0
 48
0.0
370
     0
100
AcDbBlockEnd
  0
BLOCK
  5
185
330
DA
100
AcDbEntity
  8
DEFAULT
 62
     1
 48
0.0
370
     0
100
AcDbBlockBegin
  2
SE11
 70
     0
 10
0.0
 20
0.0
 30
0.0
  3
SE11
  1

  0
HATCH
  5
186
330
DA
100
AcDbEntity
  8
DEFAULT
  6
Continuous
 62
   136
100
AcDbHatch
 10
0.0
 20
0.0
 30
0.0
210
0.0
220
0.0
230
1.0
  2
SOLID
 70
     1
 71
     0
 91
        1
 92
        1
 93
        3
 72
     1
 10
86.45509933421406
 20
172.3068774190096
 11
83.45509930813703
 21
171.8068774146635
 72
     1
 10
83.45509930813703
 20
171.8068774146635
 11
86.45509933421406
 21
171.3068774103173
 72
     1
 10
86.45509933421406
 20
171.3068774103173
 11
86.45509933421406
 21
172.3068774190096
 97
        0
 75
     0
 76
     1
 98
        1
 10
0.0
 20
0.0
  0
HATCH
  5
187
330
DA
100
AcDbEntity
  8
DEFAULT
  6
Continuous
 62
   136
100
AcDbHatch
 10
0.0
 20
0.0
 30
0.0
210
0.0
220
0.0
230
1.0
  2
SOLID
 70
     1
 71
     0
 91
        1
 92
        1
 93
        3
 72
     1
 10
105.45504928206
 20
172.3068774190096
 11
108.455049308137
 21
171.8068774146635
 72
     1
 10
108.455049308137
 20
171.8068774146635
 11
105.45504928206
 21
171.3068774103173
 72
     1
 10
105.45504928206
 20
171.3068774103173
 11
105.45504928206
 21
172.3068774190096
 97
        0
 75
     0
 76
     1
 98
        1
 10
0.0
 20
0.0
  0
LINE
  5
188
330
DA
100
AcDbEntity
  8
DEFAULT
  6
Continuous
 62
   136
370
     0
100
AcDbLine
 10
83.45509930813703
 20
162.3586927828986
 30
0.0
 11
83.45509930813703
 21
173.306877427702
 31
0.0
  0
LINE
  5
189
330
DA
100
AcDbEntity
  8
DEFAULT
  6
Continuous
 62
   136
370
     0
100
AcDbLine
 10
108.455049308137
 20
162.3586927828986
 30
0.0
 11
108.455049308137
 21
173.306877427702
 31
0.0
  0
LINE
  5
18A
330
DA
100
AcDbEntity
  8
DEFAULT
  6
Continuous
 62
   136
370
     0
100
AcDbLine
 10
83.45509930813703
 20
171.8068774146635
 30
0.0
 11
108.455049389247
 21
171.8068774146635
 31
0.0
  0
TEXT
  5
18B
330
DA
100
AcDbEntity
  8
DEFAULT
  6
Continuous
 62
   136
370
     0
100
AcDbText
 10
94.18234707596473
 20
172.5568774146635
 30
0.0
 40
3.0
  1
25
  7
seiso_ttf
 11
94.18234707596473
 21
175.5568774146635
 31
0.0
100
AcDbText
 73
     3
  0
ENDBLK
  5
250
330
DA
100
AcDbEntity
  8
0
370
     0
100
AcDbBlockEnd
  0
BLOCK
  5
251
330
DD
100
AcDbEntity
  8
0
370
     0
100
AcDbBlockBegin
  2
DMBLK1689
 70
     0
 10
0.0
 20
0.0
 30
0.0
  3
DMBLK1689
  1

  0
LINE
  5
380
330
DD
100
AcDbEntity
  8
DEFAULT
  6
Continuous
 62
   136
370
    -2
100
AcDbLine
 10
83.45509930813703
 20
162.3586927828986
 30
0.0
 11
83.45509930813703
 21
173.3068774146635
 31
0.0
  0
LINE
  5
381
330
DD
100
AcDbEntity
  8
DEFAULT
  6
Continuous
 62
   136
370
    -2
100
AcDbLine
 10
108.455049308137
 20
162.3586927828986
 30
0.0
 11
108.455049308137
 21
173.3068774146635
 31
0.0
  0
LINE
  5
382
330
DD
100
AcDbEntity
  8
DEFAULT
  6
Continuous
 62
   136
370
    -2
100
AcDbLine
 10
86.45509930813702
 20
171.8068774146635
 30
0.0
 11
105.455049308137
 21
171.8068774146635
 31
0.0
  0
INSERT
  5
383
330
DD
100
AcDbEntity
  8
DEFAULT
  6
Continuous
 62
   136
370
    -2
100
AcDbBlockReference
  2
_SE_FILLED
 10
83.45509930813703
 20
171.8068774146635
 30
0.0
 41
3.0
 42
3.0
 43
3.0
 50
180.0
  0
INSERT
  5
384
330
DD
100
AcDbEntity
  8
DEFAULT
  6
Continuous
 62
   136
370
    -2
100
AcDbBlockReference
  2
_SE_FILLED
 10
108.455049308137
 20
171.8068774146635
 30
0.0
 41
3.0
 42
3.0
 43
3.0
  0
MTEXT
  5
385
330
DD
100
AcDbEntity
  8
DEFAULT
  6
Continuous
 62
   136
370
     0
100
AcDbMText
 10
95.95507434869203
 20
174.8068774146635
 30
0.0
 40
3.0
 41
0.0
 71
     5
 72
     1
  1
\A1;\A1;25
  7
seiso_ttf
 73
     1
 44
1.0
1001
ACAD
1000
MTEXTBEGIN
1070
    73
1070
     1
1070
    44
1040
1.0
1070
    74
1070
     0
1000
MTEXTEND
  0
POINT
  5
386
330
DD
100
AcDbEntity
  8
Defpoints
  6
Continuous
 62
     0
370
     0
100
AcDbPoint
 10
83.45509930813703
 20
162.3586927828986
 30
0.0
  0
POINT
  5
387
330
DD
100
AcDbEntity
  8
Defpoints
  6
Continuous
 62
     0
370
     0
100
AcDbPoint
 10
108.455049308137
 20
162.3586927828986
 30
0.0
  0
POINT
  5
388
330
DD
100
AcDbEntity
  8
Defpoints
  6
Continuous
 62
     0
370
     0
100
AcDbPoint
 10
108.455049308137
 20
171.8068774146635
 30
0.0
  0
ENDBLK
  5
18F
330
DD
100
AcDbEntity
  8
DEFAULT
 62
     0
 48
0.0
370
     0
100
AcDbBlockEnd
  0
BLOCK
  5
190
330
DF
100
AcDbEntity
  8
DEFAULT
 62
     1
 48
0.0
370
     0
100
AcDbBlockBegin
  2
SE12
 70
     0
 10
0.0
 20
0.0
 30
0.0
  3
SE12
  1

  0
LINE
  5
191
330
DF
100
AcDbEntity
  8
DEFAULT
  6
Continuous
 62
   136
370
     0
100
AcDbLine
 10
84.47423255455039
 20
157.0738313242578
 30
0.0
 11
96.6105079327737
 21
154.0804221243976
 31
0.0
  0
LINE
  5
192
330
DF
100
AcDbEntity
  8
DEFAULT
  6
Continuous
 62
   136
370
     0
100
AcDbLine
 10
96.61050783996079
 20
154.0804221472899
 30
0.0
 11
128.0993495126812
 21
146.3137074495338
 31
0.0
  0
HATCH
  5
193
330
DF
100
AcDbEntity
  8
DEFAULT
  6
Continuous
 62
   136
100
AcDbHatch
 10
0.0
 20
0.0
 30
0.0
210
0.0
220
0.0
230
1.0
  2
SOLID
 70
     1
 71
     0
 91
        1
 92
        1
 93
        3
 72
     1
 10
87.50667815757772
 20
156.8408638898628
 11
90.29965077631329
 21
155.6369934185072
 72
     1
 10
90.29965077631329
 20
155.6369934185072
 11
87.26720517328597
 21
155.8699608529023
 72
     1
 10
87.26720517328597
 20
155.8699608529023
 11
87.50667815757772
 21
156.8408638898628
 97
        0
 75
     0
 76
     1
 98
        1
 10
0.0
 20
0.0
  0
HATCH
  5
194
330
DF
100
AcDbEntity
  8
DEFAULT
  6
Continuous
 62
   136
100
AcDbHatch
 10
0.0
 20
0.0
 30
0.0
210
0.0
220
0.0
230
1.0
  2
SOLID
 70
     1
 71
     0
 91
        1
 92
        1
 93
        3
 72
     1
 10
99.64295344298811
 20
153.8474547128948
 11
96.61050783996081
 21
154.0804221472899
 72
     1
 10
96.61050783996079
 20
154.0804221472899
 11
99.40348045869635
 21
152.8765516759344
 72
     1
 10
99.40348045869637
 20
152.8765516759344
 11
99.64295344298811
 21
153.8474547128948
 97
        0
 75
     0
 76
     1
 98
        1
 10
0.0
 20
0.0
  0
TEXT
  5
195
330
DF
100
AcDbEntity
  8
DEFAULT
  6
Continuous
 62
   136
370
     0
100
AcDbText
 10
118.2965962985226
 20
149.5040307414317
 30
0.0
 40
3.0
  1
O
 50
346.1445625563363
  7
semeci1_ttf
 11
119.0150152451531
 21
152.4167398269949
 31
0.0
100
AcDbText
 73
     3
  0
TEXT
  5
196
330
DF
100
AcDbEntity
  8
DEFAULT
  6
Continuous
 62
   136
370
     0
100
AcDbText
 10
123.2876314302911
 20
148.2729932101748
 30
0.0
 40
3.0
  1
6,5
 50
346.1445625563363
  7
seiso_ttf
 11
124.0060503769216
 21
151.185702295738
 31
0.0
100
AcDbText
 73
     3
  0
ENDBLK
  5
252
330
DF
100
AcDbEntity
  8
0
370
     0
100
AcDbBlockEnd
  0
BLOCK
  5
253
330
E3
100
AcDbEntity
  8
0
370
     0
100
AcDbBlockBegin
  2
DMBLK1690
 70
     0
 10
0.0
 20
0.0
 30
0.0
  3
DMBLK1690
  1

  0
LINE
  5
389
330
E3
100
AcDbEntity
  8
DEFAULT
  6
Continuous
 62
   136
370
    -2
100
AcDbLine
 10
87.38694169075015
 20
156.3554123651378
 30
0.0
 11
84.47423260518696
 21
157.0738313117683
 31
0.0
  0
LINE
  5
38A
330
E3
100
AcDbEntity
  8
DEFAULT
  6
Continuous
 62
   136
370
    -2
100
AcDbLine
 10
99.52321692552398
 20
153.3620032006593
 30
0.0
 11
102.4359260110871
 21
152.6435842540288
 31
0.0
  0
MTEXT
  5
38B
102
{ACAD_XDICTIONARY
360
4B7
102
}
330
E3
100
AcDbEntity
  8
DEFAULT
  6
Continuous
 62
   136
370
     0
100
AcDbMText
 10
117.0975433819178
 20
149.0273001013615
 30
0.0
 40
3.0
 41
0.0
 71
     5
 72
     1
  1
\A1;\A1;\U+22056,5
  7
seiso_ttf
 73
     1
 44
1.0
1001
ACAD
1000
MTEXTBEGIN
1070
    73
1070
     1
1070
    44
1040
1.0
1070
    74
1070
     0
1000
MTEXTEND
  0
LINE
  5
38C
330
E3
100
AcDbEntity
  8
DEFAULT
  6
Continuous
 62
   136
370
    -2
100
AcDbLine
 10
90.29965077631331
 20
155.6369934185072
 30
0.0
 11
96.61050783996081
 21
154.0804221472899
 31
0.0
  0
INSERT
  5
38D
330
E3
100
AcDbEntity
  8
DEFAULT
  6
Continuous
 62
   136
370
    -2
100
AcDbBlockReference
  2
_SE_FILLED
 10
90.29965077631331
 20
155.6369934185072
 30
0.0
 41
3.0
 42
3.0
 43
3.0
 50
346.1445625563364
  0
INSERT
  5
38E
330
E3
100
AcDbEntity
  8
DEFAULT
  6
Continuous
 62
   136
370
    -2
100
AcDbBlockReference
  2
_SE_FILLED
 10
96.61050783996081
 20
154.0804221472899
 30
0.0
 41
3.0
 42
3.0
 43
3.0
 50
166.1445625563364
  0
POINT
  5
38F
330
E3
100
AcDbEntity
  8
Defpoints
  6
Continuous
 62
     0
370
     0
100
AcDbPoint
 10
96.61050783996081
 20
154.0804221472899
 30
0.0
  0
POINT
  5
390
330
E3
100
AcDbEntity
  8
Defpoints
  6
Continuous
 62
     0
370
     0
100
AcDbPoint
 10
90.29965077631331
 20
155.6369934185072
 30
0.0
  0
ENDBLK
  5
19A
330
E3
100
AcDbEntity
  8
DEFAULT
 62
     0
 48
0.0
370
     0
100
AcDbBlockEnd
  0
BLOCK
  5
19B
330
E5
100
AcDbEntity
  8
DEFAULT
 62
     1
 48
0.0
370
     0
100
AcDbBlockBegin
  2
SE13
 70
     0
 10
0.0
 20
0.0
 30
0.0
  3
SE13
  1

  0
LINE
  5
19C
330
E5
100
AcDbEntity
  8
DEFAULT
  6
Continuous
 62
   136
370
     0
100
AcDbLine
 10
88.30622946012246
 20
153.8331664659783
 30
0.0
 11
98.60392951837866
 21
155.8842491719668
 31
0.0
  0
LINE
  5
19D
330
E5
100
AcDbEntity
  8
DEFAULT
  6
Continuous
 62
   136
370
     0
100
AcDbLine
 10
98.60392915615161
 20
155.8842490998189
 30
0.0
 11
125.4424557371154
 21
161.2299124433819
 31
0.0
  0
HATCH
  5
19E
330
E5
100
AcDbEntity
  8
DEFAULT
  6
Continuous
 62
   136
100
AcDbHatch
 10
0.0
 20
0.0
 30
0.0
210
0.0
220
0.0
230
1.0
  2
SOLID
 70
     1
 71
     0
 91
        1
 92
        1
 93
        3
 72
     1
 10
91.15076448545787
 20
154.9095588899801
 11
88.30622946012246
 21
153.8331664659783
 72
     1
 10
88.30622946012246
 20
153.8331664659783
 11
91.34610608106195
 21
153.9288236156009
 72
     1
 10
91.34610608106195
 20
153.9288236156009
 11
91.15076448545787
 21
154.9095588899801
 97
        0
 75
     0
 76
     1
 98
        1
 10
0.0
 20
0.0
  0
HATCH
  5
19F
330
E5
100
AcDbEntity
  8
DEFAULT
  6
Continuous
 62
   136
100
AcDbHatch
 10
0.0
 20
0.0
 30
0.0
210
0.0
220
0.0
230
1.0
  2
SOLID
 70
     1
 71
     0
 91
        1
 92
        1
 93
        3
 72
     1
 10
95.56405253521214
 20
155.7885919501962
 11
98.60392915615163
 21
155.8842490998189
 72
     1
 10
98.60392915615161
 20
155.8842490998189
 11
95.75939413081622
 21
154.8078566758171
 72
     1
 10
95.75939413081622
 20
154.8078566758171
 11
95.56405253521214
 21
155.7885919501962
 97
        0
 75
     0
 76
     1
 98
        1
 10
0.0
 20
0.0
  0
TEXT
  5
1A0
330
E5
100
AcDbEntity
  8
DEFAULT
  6
Continuous
 62
   136
370
     0
100
AcDbText
 10
114.075737806605
 20
159.7306364927551
 30
0.0
 40
3.0
  1
O
 50
11.26467924335977
  7
semeci1_ttf
 11
113.4897130248867
 21
162.6728422903178
 31
0.0
100
AcDbText
 73
     3
  0
TEXT
  5
1A1
330
E5
100
AcDbEntity
  8
DEFAULT
  6
Continuous
 62
   136
370
     0
100
AcDbText
 10
119.1173166492409
 20
160.7348117082409
 30
0.0
 40
3.0
  1
10,5
 50
11.26467924335977
  7
seiso_ttf
 11
118.5312918675226
 21
163.6770175058037
 31
0.0
100
AcDbText
 73
     3
  0
ENDBLK
  5
254
330
E5
100
AcDbEntity
  8
0
370
     0
100
AcDbBlockEnd
  0
BLOCK
  5
255
330
E8
100
AcDbEntity
  8
0
370
     0
100
AcDbBlockBegin
  2
DMBLK1691
 70
     0
 10
0.0
 20
0.0
 30
0.0
  3
DMBLK1691
  1

  0
LINE
  5
391
330
E8
100
AcDbEntity
  8
DEFAULT
  6
Continuous
 62
   136
370
    -2
100
AcDbLine
 10
91.24843525768525
 20
154.4191912476966
 30
0.0
 11
95.66172335858883
 21
155.2982243181005
 31
0.0
  0
MTEXT
  5
392
102
{ACAD_XDICTIONARY
360
4B9
102
}
330
E8
100
AcDbEntity
  8
DEFAULT
  6
Continuous
 62
   136
370
     0
100
AcDbMText
 10
113.1924719728876
 20
158.7899763697629
 30
0.0
 40
3.0
 41
0.0
 71
     5
 72
     1
  1
\A1;\A1;\U+220510,5
  7
seiso_ttf
 73
     1
 44
1.0
1001
ACAD
1000
MTEXTBEGIN
1070
    73
1070
     1
1070
    44
1040
1.0
1070
    74
1070
     0
1000
MTEXTEND
  0
INSERT
  5
393
330
E8
100
AcDbEntity
  8
DEFAULT
  6
Continuous
 62
   136
370
    -2
100
AcDbBlockReference
  2
_SE_FILLED
 10
88.30622946012248
 20
153.8331664659783
 30
0.0
 41
3.0
 42
3.0
 43
3.0
 50
191.2646792433598
  0
INSERT
  5
394
330
E8
100
AcDbEntity
  8
DEFAULT
  6
Continuous
 62
   136
370
    -2
100
AcDbBlockReference
  2
_SE_FILLED
 10
98.60392915615161
 20
155.8842490998189
 30
0.0
 41
3.0
 42
3.0
 43
3.0
 50
11.26467924335977
  0
POINT
  5
395
330
E8
100
AcDbEntity
  8
Defpoints
  6
Continuous
 62
     0
370
     0
100
AcDbPoint
 10
98.60392915615161
 20
155.8842490998189
 30
0.0
  0
POINT
  5
396
330
E8
100
AcDbEntity
  8
Defpoints
  6
Continuous
 62
     0
370
     0
100
AcDbPoint
 10
88.30622946012248
 20
153.8331664659783
 30
0.0
  0
ENDBLK
  5
1A5
330
E8
100
AcDbEntity
  8
DEFAULT
 62
     0
 48
0.0
370
     0
100
AcDbBlockEnd
  0
BLOCK
  5
1A6
330
EA
100
AcDbEntity
  8
DEFAULT
 62
     1
 48
0.0
370
     0
100
AcDbBlockBegin
  2
SE14
 70
     0
 10
0.0
 20
0.0
 30
0.0
  3
SE14
  1

  0
LINE
  5
1A7
330
EA
100
AcDbEntity
  8
DEFAULT
  6
Continuous
 62
   136
370
     0
100
AcDbLine
 10
98.51349618321213
 20
207.5194070052454
 30
0.0
 11
105.1915912625943
 21
196.3658121694233
 31
0.0
  0
LINE
  5
1A8
330
EA
100
AcDbEntity
  8
DEFAULT
  6
Continuous
 62
   136
370
     0
100
AcDbLine
 10
105.1915913753171
 20
196.3658119811563
 30
0.0
 11
114.2045537255875
 21
181.312577618591
 31
0.0
  0
HATCH
  5
1A9
330
EA
100
AcDbEntity
  8
DEFAULT
  6
Continuous
 62
   136
100
AcDbHatch
 10
0.0
 20
0.0
 30
0.0
210
0.0
220
0.0
230
1.0
  2
SOLID
 70
     1
 71
     0
 91
        1
 92
        1
 93
        3
 72
     1
 10
100.4835816285527
 20
205.2023477701663
 11
101.5956972979034
 21
202.3715883493053
 72
     1
 10
101.5956972979034
 20
202.3715883493053
 11
99.62561185256276
 21
204.6886475843844
 72
     1
 10
99.62561185256275
 20
204.6886475843844
 11
100.4835816285527
 21
205.2023477701663
 97
        0
 75
     0
 76
     1
 98
        1
 10
0.0
 20
0.0
  0
HATCH
  5
1AA
330
EA
100
AcDbEntity
  8
DEFAULT
  6
Continuous
 62
   136
100
AcDbHatch
 10
0.0
 20
0.0
 30
0.0
210
0.0
220
0.0
230
1.0
  2
SOLID
 70
     1
 71
     0
 91
        1
 92
        1
 93
        3
 72
     1
 10
107.1616768206578
 20
194.0487527460772
 11
105.1915913753171
 21
196.3658119811563
 72
     1
 10
105.1915913753171
 20
196.3658119811563
 11
106.3037070446678
 21
193.5350525602953
 72
     1
 10
106.3037070446678
 20
193.5350525602953
 11
107.1616768206578
 21
194.0487527460772
 97
        0
 75
     0
 76
     1
 98
        1
 10
0.0
 20
0.0
  0
TEXT
  5
1AB
330
EA
100
AcDbEntity
  8
DEFAULT
  6
Continuous
 62
   136
370
     0
100
AcDbText
 10
110.687212655892
 20
188.647152221541
 30
0.0
 40
3.0
  1
O
 50
300.9106128108724
  7
semeci1_ttf
 11
113.2611219614887
 21
190.1882527654908
 31
0.0
100
AcDbText
 73
     3
  0
TEXT
  5
1AC
330
EA
100
AcDbEntity
  8
DEFAULT
  6
Continuous
 62
   136
370
     0
100
AcDbText
 10
113.327945640372
 20
184.2366630882827
 30
0.0
 40
3.0
  1
7
 50
300.9106128108724
  7
seiso_ttf
 11
115.9018549459688
 21
185.7777636322325
 31
0.0
100
AcDbText
 73
     3
  0
ENDBLK
  5
256
330
EA
100
AcDbEntity
  8
0
370
     0
100
AcDbBlockEnd
  0
BLOCK
  5
257
330
ED
100
AcDbEntity
  8
0
370
     0
100
AcDbBlockBegin
  2
DMBLK1692
 70
     0
 10
0.0
 20
0.0
 30
0.0
  3
DMBLK1692
  1

  0
LINE
  5
397
330
ED
100
AcDbEntity
  8
DEFAULT
  6
Continuous
 62
   136
370
    -2
100
AcDbLine
 10
100.0545967539535
 20
204.9454976549021
 30
0.0
 11
98.51349621000371
 21
207.5194069604988
 31
0.0
  0
LINE
  5
398
330
ED
100
AcDbEntity
  8
DEFAULT
  6
Continuous
 62
   136
370
    -2
100
AcDbLine
 10
106.732691919267
 20
193.7919026755596
 30
0.0
 11
108.2737924632169
 21
191.2179933699628
 31
0.0
  0
MTEXT
  5
399
102
{ACAD_XDICTIONARY
360
4BB
102
}
330
ED
100
AcDbEntity
  8
DEFAULT
  6
Continuous
 62
   136
370
     0
100
AcDbMText
 10
109.5043501391103
 20
189.1627453425124
 30
0.0
 40
3.0
 41
0.0
 71
     5
 72
     1
  1
\A1;\A1;\U+22057
  7
seiso_ttf
 73
     1
 44
1.0
1001
ACAD
1000
MTEXTBEGIN
1070
    73
1070
     1
1070
    44
1040
1.0
1070
    74
1070
     0
1000
MTEXTEND
  0
LINE
  5
39A
330
ED
100
AcDbEntity
  8
DEFAULT
  6
Continuous
 62
   136
370
    -2
100
AcDbLine
 10
101.5956972979034
 20
202.3715883493053
 30
0.0
 11
105.1915913753172
 21
196.3658119811563
 31
0.0
  0
INSERT
  5
39B
330
ED
100
AcDbEntity
  8
DEFAULT
  6
Continuous
 62
   136
370
    -2
100
AcDbBlockReference
  2
_SE_FILLED
 10
101.5956972979034
 20
202.3715883493053
 30
0.0
 41
3.0
 42
3.0
 43
3.0
 50
300.9106128108724
  0
INSERT
  5
39C
330
ED
100
AcDbEntity
  8
DEFAULT
  6
Continuous
 62
   136
370
    -2
100
AcDbBlockReference
  2
_SE_FILLED
 10
105.1915913753172
 20
196.3658119811563
 30
0.0
 41
3.0
 42
3.0
 43
3.0
 50
120.9106128108724
  0
POINT
  5
39D
330
ED
100
AcDbEntity
  8
Defpoints
  6
Continuous
 62
     0
370
     0
100
AcDbPoint
 10
105.1915913753172
 20
196.3658119811563
 30
0.0
  0
POINT
  5
39E
330
ED
100
AcDbEntity
  8
Defpoints
  6
Continuous
 62
     0
370
     0
100
AcDbPoint
 10
101.5956972979034
 20
202.3715883493053
 30
0.0
  0
ENDBLK
  5
1B0
330
ED
100
AcDbEntity
  8
DEFAULT
 62
     0
 48
0.0
370
     0
100
AcDbBlockEnd
  0
BLOCK
  5
1B1
330
EF
100
AcDbEntity
  8
DEFAULT
 62
     1
 48
0.0
370
     0
100
AcDbBlockBegin
  2
SE15
 70
     0
 10
0.0
 20
0.0
 30
0.0
  3
SE15
  1

  0
HATCH
  5
1B2
330
EF
100
AcDbEntity
  8
DEFAULT
  6
Continuous
 62
   136
100
AcDbHatch
 10
0.0
 20
0.0
 30
0.0
210
0.0
220
0.0
230
1.0
  2
SOLID
 70
     1
 71
     0
 91
        1
 92
        1
 93
        3
 72
     1
 10
79.71632359289339
 20
125.3587728089756
 11
80.21632359723957
 21
122.3587727828986
 72
     1
 10
80.21632359723957
 20
122.3587727828986
 11
80.71632360158574
 21
125.3587728089756
 72
     1
 10
80.71632360158574
 20
125.3587728089756
 11
79.71632359289339
 21
125.3587728089756
 97
        0
 75
     0
 76
     1
 98
        1
 10
0.0
 20
0.0
  0
HATCH
  5
1B3
330
EF
100
AcDbEntity
  8
DEFAULT
  6
Continuous
 62
   136
100
AcDbHatch
 10
0.0
 20
0.0
 30
0.0
210
0.0
220
0.0
230
1.0
  2
SOLID
 70
     1
 71
     0
 91
        1
 92
        1
 93
        3
 72
     1
 10
79.71632359289339
 20
111.8587877568216
 11
80.21632359723957
 21
114.8587877828986
 72
     1
 10
80.21632359723957
 20
114.8587877828986
 11
80.71632360158574
 21
111.8587877568216
 72
     1
 10
80.71632360158574
 20
111.8587877568216
 11
79.71632359289339
 21
111.8587877568216
 97
        0
 75
     0
 76
     1
 98
        1
 10
0.0
 20
0.0
  0
LINE
  5
1B4
330
EF
100
AcDbEntity
  8
DEFAULT
  6
Continuous
 62
   136
370
     0
100
AcDbLine
 10
123.455019308137
 20
122.3587727828986
 30
0.0
 11
78.71632358420105
 21
122.3587727828986
 31
0.0
  0
LINE
  5
1B5
330
EF
100
AcDbEntity
  8
DEFAULT
  6
Continuous
 62
   136
370
     0
100
AcDbLine
 10
123.306288605599
 20
114.8587877828986
 30
0.0
 11
78.71632358420106
 21
114.8587877828986
 31
0.0
  0
LINE
  5
1B6
330
EF
100
AcDbEntity
  8
DEFAULT
  6
Continuous
 62
   136
370
     0
100
AcDbLine
 10
80.21632359723957
 20
128.3587728350526
 30
0.0
 11
80.21632359723957
 21
108.8587873338825
 31
0.0
  0
TEXT
  5
1B7
330
EF
100
AcDbEntity
  8
DEFAULT
  6
Continuous
 62
   136
370
     0
100
AcDbText
 10
79.46632359723956
 20
116.3580370516112
 30
0.0
 40
3.0
  1
7,5
 50
90.0
  7
seiso_ttf
 11
76.46632359723956
 21
116.3580370516112
 31
0.0
100
AcDbText
 73
     3
  0
ENDBLK
  5
258
330
EF
100
AcDbEntity
  8
0
370
     0
100
AcDbBlockEnd
  0
BLOCK
  5
259
330
F2
100
AcDbEntity
  8
0
370
     0
100
AcDbBlockBegin
  2
DMBLK1693
 70
     0
 10
0.0
 20
0.0
 30
0.0
  3
DMBLK1693
  1

  0
LINE
  5
39F
330
F2
100
AcDbEntity
  8
DEFAULT
  6
Continuous
 62
   136
370
    -2
100
AcDbLine
 10
123.455019308137
 20
122.3587727828986
 30
0.0
 11
78.71632359723958
 21
122.3587727828986
 31
0.0
  0
LINE
  5
3A0
330
F2
100
AcDbEntity
  8
DEFAULT
  6
Continuous
 62
   136
370
    -2
100
AcDbLine
 10
123.306288605599
 20
114.8587877828986
 30
0.0
 11
78.71632359723958
 21
114.8587877828986
 31
0.0
  0
LINE
  5
3A1
330
F2
100
AcDbEntity
  8
DEFAULT
  6
Continuous
 62
   136
370
    -2
100
AcDbLine
 10
80.21632359723957
 20
125.3587727828986
 30
0.0
 11
80.21632359723957
 21
128.3587727828986
 31
0.0
  0
LINE
  5
3A2
330
F2
100
AcDbEntity
  8
DEFAULT
  6
Continuous
 62
   136
370
    -2
100
AcDbLine
 10
80.21632359723957
 20
111.8587877828986
 30
0.0
 11
80.21632359723957
 21
108.8587877828986
 31
0.0
  0
LINE
  5
3A3
330
F2
100
AcDbEntity
  8
DEFAULT
  6
Continuous
 62
   136
370
    -2
100
AcDbLine
 10
80.21632359723957
 20
122.3587727828986
 30
0.0
 11
80.21632359723957
 21
114.8587877828986
 31
0.0
  0
INSERT
  5
3A4
330
F2
100
AcDbEntity
  8
DEFAULT
  6
Continuous
 62
   136
370
    -2
100
AcDbBlockReference
  2
_SE_FILLED
 10
80.21632359723957
 20
122.3587727828986
 30
0.0
 41
3.0
 42
3.0
 43
3.0
 50
270.0
  0
INSERT
  5
3A5
330
F2
100
AcDbEntity
  8
DEFAULT
  6
Continuous
 62
   136
370
    -2
100
AcDbBlockReference
  2
_SE_FILLED
 10
80.21632359723957
 20
114.8587877828986
 30
0.0
 41
3.0
 42
3.0
 43
3.0
 50
90.0
  0
MTEXT
  5
3A6
330
F2
100
AcDbEntity
  8
DEFAULT
  6
Continuous
 62
   136
370
     0
100
AcDbMText
 10
76.93060931152527
 20
118.6087802828986
 30
0.0
 40
3.0
 41
0.0
 71
     5
 72
     1
  1
\A1;\A1;7,5
  7
seiso_ttf
 11
0.0000000000000001
 21
1.0
 31
0.0
 73
     1
 44
1.0
1001
ACAD
1000
MTEXTBEGIN
1070
    73
1070
     1
1070
    44
1040
1.0
1070
    74
1070
     0
1000
MTEXTEND
  0
POINT
  5
3A7
330
F2
100
AcDbEntity
  8
Defpoints
  6
Continuous
 62
     0
370
     0
100
AcDbPoint
 10
123.455019308137
 20
122.3587727828986
 30
0.0
  0
POINT
  5
3A8
330
F2
100
AcDbEntity
  8
Defpoints
  6
Continuous
 62
     0
370
     0
100
AcDbPoint
 10
123.306288605599
 20
114.8587877828986
 30
0.0
  0
POINT
  5
3A9
330
F2
100
AcDbEntity
  8
Defpoints
  6
Continuous
 62
     0
370
     0
100
AcDbPoint
 10
80.21632359723957
 20
114.8587877828986
 30
0.0
  0
ENDBLK
  5
1BB
330
F2
100
AcDbEntity
  8
DEFAULT
 62
     0
 48
0.0
370
     0
100
AcDbBlockEnd
  0
BLOCK
  5
1BC
330
F4
100
AcDbEntity
  8
DEFAULT
 62
     1
 48
0.0
370
     0
100
AcDbBlockBegin
  2
SE16
 70
     0
 10
0.0
 20
0.0
 30
0.0
  3
SE16
  1

  0
HATCH
  5
1BD
330
F4
100
AcDbEntity
  8
DEFAULT
  6
Continuous
 62
   136
100
AcDbHatch
 10
0.0
 20
0.0
 30
0.0
210
0.0
220
0.0
230
1.0
  2
SOLID
 70
     1
 71
     0
 91
        1
 92
        1
 93
        3
 72
     1
 10
79.71632510552151
 20
111.8587877568216
 11
80.21632510986767
 21
114.8587877828986
 72
     1
 10
80.21632510986767
 20
114.8587877828986
 11
80.71632511421386
 21
111.8587877568216
 72
     1
 10
80.71632511421386
 20
111.8587877568216
 11
79.71632510552151
 21
111.8587877568216
 97
        0
 75
     0
 76
     1
 98
        1
 10
0.0
 20
0.0
  0
HATCH
  5
1BE
330
F4
100
AcDbEntity
  8
DEFAULT
  6
Continuous
 62
   136
100
AcDbHatch
 10
0.0
 20
0.0
 30
0.0
210
0.0
220
0.0
230
1.0
  2
SOLID
 70
     1
 71
     0
 91
        1
 92
        1
 93
        3
 72
     1
 10
79.71632510552151
 20
92.85883780897565
 11
80.21632510986767
 21
89.85883778289862
 72
     1
 10
80.21632510986767
 20
89.85883778289862
 11
80.71632511421386
 21
92.85883780897565
 72
     1
 10
80.71632511421386
 20
92.85883780897565
 11
79.71632510552151
 21
92.85883780897565
 97
        0
 75
     0
 76
     1
 98
        1
 10
0.0
 20
0.0
  0
LINE
  5
1BF
330
F4
100
AcDbEntity
  8
DEFAULT
  6
Continuous
 62
   136
370
     0
100
AcDbLine
 10
123.306288605599
 20
114.8587877828986
 30
0.0
 11
78.71632509682917
 21
114.8587877828986
 31
0.0
  0
LINE
  5
1C0
330
F4
100
AcDbEntity
  8
DEFAULT
  6
Continuous
 62
   136
370
     0
100
AcDbLine
 10
122.763860690457
 20
89.85883778289862
 30
0.0
 11
78.71632509682915
 21
89.85883778289862
 31
0.0
  0
LINE
  5
1C1
330
F4
100
AcDbEntity
  8
DEFAULT
  6
Continuous
 62
   136
370
     0
100
AcDbLine
 10
80.21632510986767
 20
114.8587877828986
 30
0.0
 11
80.21632510986767
 21
89.85883770178864
 31
0.0
  0
TEXT
  5
1C2
330
F4
100
AcDbEntity
  8
DEFAULT
  6
Continuous
 62
   136
370
     0
100
AcDbText
 10
79.46632510986766
 20
100.5860854696163
 30
0.0
 40
3.0
  1
25
 50
90.0
  7
seiso_ttf
 11
76.46632510986766
 21
100.5860854696163
 31
0.0
100
AcDbText
 73
     3
  0
ENDBLK
  5
25A
330
F4
100
AcDbEntity
  8
0
370
     0
100
AcDbBlockEnd
  0
BLOCK
  5
25B
330
F7
100
AcDbEntity
  8
0
370
     0
100
AcDbBlockBegin
  2
DMBLK1694
 70
     0
 10
0.0
 20
0.0
 30
0.0
  3
DMBLK1694
  1

  0
LINE
  5
3AA
330
F7
100
AcDbEntity
  8
DEFAULT
  6
Continuous
 62
   136
370
    -2
100
AcDbLine
 10
123.306288605599
 20
114.8587877828986
 30
0.0
 11
78.71632510986771
 21
114.8587877828986
 31
0.0
  0
LINE
  5
3AB
330
F7
100
AcDbEntity
  8
DEFAULT
  6
Continuous
 62
   136
370
    -2
100
AcDbLine
 10
122.763860690457
 20
89.85883778289862
 30
0.0
 11
78.7163251098677
 21
89.85883778289863
 31
0.0
  0
LINE
  5
3AC
330
F7
100
AcDbEntity
  8
DEFAULT
  6
Continuous
 62
   136
370
    -2
100
AcDbLine
 10
80.21632510986771
 20
111.8587877828986
 30
0.0
 11
80.21632510986769
 21
92.85883778289862
 31
0.0
  0
INSERT
  5
3AD
330
F7
100
AcDbEntity
  8
DEFAULT
  6
Continuous
 62
   136
370
    -2
100
AcDbBlockReference
  2
_SE_FILLED
 10
80.21632510986771
 20
114.8587877828986
 30
0.0
 41
3.0
 42
3.0
 43
3.0
 50
90.0
  0
INSERT
  5
3AE
330
F7
100
AcDbEntity
  8
DEFAULT
  6
Continuous
 62
   136
370
    -2
100
AcDbBlockReference
  2
_SE_FILLED
 10
80.21632510986769
 20
89.85883778289863
 30
0.0
 41
3.0
 42
3.0
 43
3.0
 50
270.0
  0
MTEXT
  5
3AF
330
F7
100
AcDbEntity
  8
DEFAULT
  6
Continuous
 62
   136
370
     0
100
AcDbMText
 10
77.21632510986768
 20
102.3588127423436
 30
0.0
 40
3.0
 41
0.0
 71
     5
 72
     1
  1
\A1;\A1;25
  7
seiso_ttf
 11
0.0000000000000001
 21
1.0
 31
0.0
 73
     1
 44
1.0
1001
ACAD
1000
MTEXTBEGIN
1070
    73
1070
     1
1070
    44
1040
1.0
1070
    74
1070
     0
1000
MTEXTEND
  0
POINT
  5
3B0
330
F7
100
AcDbEntity
  8
Defpoints
  6
Continuous
 62
     0
370
     0
100
AcDbPoint
 10
123.306288605599
 20
114.8587877828986
 30
0.0
  0
POINT
  5
3B1
330
F7
100
AcDbEntity
  8
Defpoints
  6
Continuous
 62
     0
370
     0
100
AcDbPoint
 10
122.763860690457
 20
89.85883778289862
 30
0.0
  0
POINT
  5
3B2
330
F7
100
AcDbEntity
  8
Defpoints
  6
Continuous
 62
     0
370
     0
100
AcDbPoint
 10
80.21632510986769
 20
89.85883778289863
 30
0.0
  0
ENDBLK
  5
1C6
330
F7
100
AcDbEntity
  8
DEFAULT
 62
     0
 48
0.0
370
     0
100
AcDbBlockEnd
  0
BLOCK
  5
1C7
330
F9
100
AcDbEntity
  8
DEFAULT
 62
     1
 48
0.0
370
     0
100
AcDbBlockBegin
  2
SE17
 70
     0
 10
0.0
 20
0.0
 30
0.0
  3
SE17
  1

  0
HATCH
  5
1C8
330
F9
100
AcDbEntity
  8
DEFAULT
  6
Continuous
 62
   136
100
AcDbHatch
 10
0.0
 20
0.0
 30
0.0
210
0.0
220
0.0
230
1.0
  2
SOLID
 70
     1
 71
     0
 91
        1
 92
        1
 93
        3
 72
     1
 10
79.71632180957737
 20
92.85883780897565
 11
80.21632181392353
 21
89.85883778289862
 72
     1
 10
80.21632181392353
 20
89.85883778289862
 11
80.71632181826972
 21
92.85883780897565
 72
     1
 10
80.71632181826972
 20
92.85883780897565
 11
79.71632180957737
 21
92.85883780897565
 97
        0
 75
     0
 76
     1
 98
        1
 10
0.0
 20
0.0
  0
HATCH
  5
1C9
330
F9
100
AcDbEntity
  8
DEFAULT
  6
Continuous
 62
   136
100
AcDbHatch
 10
0.0
 20
0.0
 30
0.0
210
0.0
220
0.0
230
1.0
  2
SOLID
 70
     1
 71
     0
 91
        1
 92
        1
 93
        3
 72
     1
 10
79.71632180957737
 20
79.35885275682157
 11
80.21632181392353
 21
82.35885278289861
 72
     1
 10
80.21632181392353
 20
82.35885278289861
 11
80.71632181826972
 21
79.35885275682157
 72
     1
 10
80.71632181826972
 20
79.35885275682157
 11
79.71632180957737
 21
79.35885275682157
 97
        0
 75
     0
 76
     1
 98
        1
 10
0.0
 20
0.0
  0
LINE
  5
1CA
330
F9
100
AcDbEntity
  8
DEFAULT
  6
Continuous
 62
   136
370
     0
100
AcDbLine
 10
122.763860690457
 20
89.85883778289862
 30
0.0
 11
78.71632180088503
 21
89.85883778289862
 31
0.0
  0
LINE
  5
1CB
330
F9
100
AcDbEntity
  8
DEFAULT
  6
Continuous
 62
   136
370
     0
100
AcDbLine
 10
123.455019308137
 20
82.35885278289861
 30
0.0
 11
78.71632180088503
 21
82.35885278289861
 31
0.0
  0
LINE
  5
1CC
330
F9
100
AcDbEntity
  8
DEFAULT
  6
Continuous
 62
   136
370
     0
100
AcDbLine
 10
80.21632181392353
 20
95.85883783505268
 30
0.0
 11
80.21632181392353
 21
76.35885233388252
 31
0.0
  0
TEXT
  5
1CD
330
F9
100
AcDbEntity
  8
DEFAULT
  6
Continuous
 62
   136
370
     0
100
AcDbText
 10
79.46632181392354
 20
84.0292998627528
 30
0.0
 40
3.0
  1
7,5
 50
90.0
  7
seiso_ttf
 11
76.46632181392354
 21
84.0292998627528
 31
0.0
100
AcDbText
 73
     3
  0
ENDBLK
  5
25C
330
F9
100
AcDbEntity
  8
0
370
     0
100
AcDbBlockEnd
  0
BLOCK
  5
25D
330
FC
100
AcDbEntity
  8
0
370
     0
100
AcDbBlockBegin
  2
DMBLK1695
 70
     0
 10
0.0
 20
0.0
 30
0.0
  3
DMBLK1695
  1

  0
LINE
  5
3B3
330
FC
100
AcDbEntity
  8
DEFAULT
  6
Continuous
 62
   136
370
    -2
100
AcDbLine
 10
122.763860690457
 20
89.85883778289862
 30
0.0
 11
78.71632181392356
 21
89.85883778289863
 31
0.0
  0
LINE
  5
3B4
330
FC
100
AcDbEntity
  8
DEFAULT
  6
Continuous
 62
   136
370
    -2
100
AcDbLine
 10
123.455019308137
 20
82.35885278289861
 30
0.0
 11
78.71632181392356
 21
82.35885278289861
 31
0.0
  0
LINE
  5
3B5
330
FC
100
AcDbEntity
  8
DEFAULT
  6
Continuous
 62
   136
370
    -2
100
AcDbLine
 10
80.21632181392355
 20
92.85883778289862
 30
0.0
 11
80.21632181392355
 21
95.85883778289863
 31
0.0
  0
LINE
  5
3B6
330
FC
100
AcDbEntity
  8
DEFAULT
  6
Continuous
 62
   136
370
    -2
100
AcDbLine
 10
80.21632181392355
 20
79.35885278289863
 30
0.0
 11
80.21632181392355
 21
76.35885278289862
 31
0.0
  0
LINE
  5
3B7
330
FC
100
AcDbEntity
  8
DEFAULT
  6
Continuous
 62
   136
370
    -2
100
AcDbLine
 10
80.21632181392355
 20
89.85883778289863
 30
0.0
 11
80.21632181392355
 21
82.35885278289861
 31
0.0
  0
INSERT
  5
3B8
330
FC
100
AcDbEntity
  8
DEFAULT
  6
Continuous
 62
   136
370
    -2
100
AcDbBlockReference
  2
_SE_FILLED
 10
80.21632181392355
 20
89.85883778289863
 30
0.0
 41
3.0
 42
3.0
 43
3.0
 50
270.0
  0
INSERT
  5
3B9
330
FC
100
AcDbEntity
  8
DEFAULT
  6
Continuous
 62
   136
370
    -2
100
AcDbBlockReference
  2
_SE_FILLED
 10
80.21632181392355
 20
82.35885278289861
 30
0.0
 41
3.0
 42
3.0
 43
3.0
 50
90.0
  0
MTEXT
  5
3BA
330
FC
100
AcDbEntity
  8
DEFAULT
  6
Continuous
 62
   136
370
     0
100
AcDbMText
 10
76.93060752820925
 20
86.10884528289863
 30
0.0
 40
3.0
 41
0.0
 71
     5
 72
     1
  1
\A1;\A1;7,5
  7
seiso_ttf
 11
0.0000000000000001
 21
1.0
 31
0.0
 73
     1
 44
1.0
1001
ACAD
1000
MTEXTBEGIN
1070
    73
1070
     1
1070
    44
1040
1.0
1070
    74
1070
     0
1000
MTEXTEND
  0
POINT
  5
3BB
330
FC
100
AcDbEntity
  8
Defpoints
  6
Continuous
 62
     0
370
     0
100
AcDbPoint
 10
122.763860690457
 20
89.85883778289862
 30
0.0
  0
POINT
  5
3BC
330
FC
100
AcDbEntity
  8
Defpoints
  6
Continuous
 62
     0
370
     0
100
AcDbPoint
 10
123.455019308137
 20
82.35885278289861
 30
0.0
  0
POINT
  5
3BD
330
FC
100
AcDbEntity
  8
Defpoints
  6
Continuous
 62
     0
370
     0
100
AcDbPoint
 10
80.21632181392355
 20
82.35885278289861
 30
0.0
  0
ENDBLK
  5
1D1
330
FC
100
AcDbEntity
  8
DEFAULT
 62
     0
 48
0.0
370
     0
100
AcDbBlockEnd
  0
BLOCK
  5
1D2
330
FE
100
AcDbEntity
  8
DEFAULT
 62
     1
 48
0.0
370
     0
100
AcDbBlockBegin
  2
SE18
 70
     0
 10
0.0
 20
0.0
 30
0.0
  3
SE18
  1

  0
HATCH
  5
1D3
330
FE
100
AcDbEntity
  8
DEFAULT
  6
Continuous
 62
   136
100
AcDbHatch
 10
0.0
 20
0.0
 30
0.0
210
0.0
220
0.0
230
1.0
  2
SOLID
 70
     1
 71
     0
 91
        1
 92
        1
 93
        3
 72
     1
 10
86.45509933421406
 20
177.2966895696072
 11
83.45509930813703
 21
176.796689565261
 72
     1
 10
83.45509930813703
 20
176.796689565261
 11
86.45509933421406
 21
176.2966895609149
 72
     1
 10
86.45509933421406
 20
176.2966895609149
 11
86.45509933421406
 21
177.2966895696072
 97
        0
 75
     0
 76
     1
 98
        1
 10
0.0
 20
0.0
  0
HATCH
  5
1D4
330
FE
100
AcDbEntity
  8
DEFAULT
  6
Continuous
 62
   136
100
AcDbHatch
 10
0.0
 20
0.0
 30
0.0
210
0.0
220
0.0
230
1.0
  2
SOLID
 70
     1
 71
     0
 91
        1
 92
        1
 93
        3
 72
     1
 10
120.45501928206
 20
177.2966895696072
 11
123.455019308137
 21
176.796689565261
 72
     1
 10
123.455019308137
 20
176.796689565261
 11
120.45501928206
 21
176.2966895609149
 72
     1
 10
120.45501928206
 20
176.2966895609149
 11
120.45501928206
 21
177.2966895696072
 97
        0
 75
     0
 76
     1
 98
        1
 10
0.0
 20
0.0
  0
LINE
  5
1D5
330
FE
100
AcDbEntity
  8
DEFAULT
  6
Continuous
 62
   136
370
     0
100
AcDbLine
 10
83.45509930813703
 20
162.3586927828986
 30
0.0
 11
83.45509930813703
 21
178.2966895782996
 31
0.0
  0
LINE
  5
1D6
330
FE
100
AcDbEntity
  8
DEFAULT
  6
Continuous
 62
   136
370
     0
100
AcDbLine
 10
123.455019308137
 20
122.3587727828986
 30
0.0
 11
123.455019308137
 21
178.2966895782996
 31
0.0
  0
LINE
  5
1D7
330
FE
100
AcDbEntity
  8
DEFAULT
  6
Continuous
 62
   136
370
     0
100
AcDbLine
 10
83.45509930813703
 20
176.796689565261
 30
0.0
 11
123.455020182971
 21
176.796689565261
 31
0.0
  0
TEXT
  5
1D8
330
FE
100
AcDbEntity
  8
DEFAULT
  6
Continuous
 62
   136
370
     0
100
AcDbText
 10
101.6823324728267
 20
177.546689565261
 30
0.0
 40
3.0
  1
40
  7
seiso_ttf
 11
101.6823324728267
 21
180.546689565261
 31
0.0
100
AcDbText
 73
     3
  0
ENDBLK
  5
25E
330
FE
100
AcDbEntity
  8
0
370
     0
100
AcDbBlockEnd
  0
BLOCK
  5
25F
330
101
100
AcDbEntity
  8
0
370
     0
100
AcDbBlockBegin
  2
DMBLK1696
 70
     0
 10
0.0
 20
0.0
 30
0.0
  3
DMBLK1696
  1

  0
LINE
  5
3BE
330
101
100
AcDbEntity
  8
DEFAULT
  6
Continuous
 62
   136
370
    -2
100
AcDbLine
 10
83.45509930813703
 20
162.3586927828986
 30
0.0
 11
83.45509930813703
 21
178.296689565261
 31
0.0
  0
LINE
  5
3BF
330
101
100
AcDbEntity
  8
DEFAULT
  6
Continuous
 62
   136
370
    -2
100
AcDbLine
 10
123.455019308137
 20
122.3587727828986
 30
0.0
 11
123.455019308137
 21
178.296689565261
 31
0.0
  0
LINE
  5
3C0
330
101
100
AcDbEntity
  8
DEFAULT
  6
Continuous
 62
   136
370
    -2
100
AcDbLine
 10
86.45509930813702
 20
176.796689565261
 30
0.0
 11
120.455019308137
 21
176.796689565261
 31
0.0
  0
INSERT
  5
3C1
330
101
100
AcDbEntity
  8
DEFAULT
  6
Continuous
 62
   136
370
    -2
100
AcDbBlockReference
  2
_SE_FILLED
 10
83.45509930813703
 20
176.796689565261
 30
0.0
 41
3.0
 42
3.0
 43
3.0
 50
180.0
  0
INSERT
  5
3C2
330
101
100
AcDbEntity
  8
DEFAULT
  6
Continuous
 62
   136
370
    -2
100
AcDbBlockReference
  2
_SE_FILLED
 10
123.455019308137
 20
176.796689565261
 30
0.0
 41
3.0
 42
3.0
 43
3.0
  0
MTEXT
  5
3C3
330
101
100
AcDbEntity
  8
DEFAULT
  6
Continuous
 62
   136
370
     0
100
AcDbMText
 10
103.455059745554
 20
179.796689565261
 30
0.0
 40
3.0
 41
0.0
 71
     5
 72
     1
  1
\A1;\A1;40
  7
seiso_ttf
 73
     1
 44
1.0
1001
ACAD
1000
MTEXTBEGIN
1070
    73
1070
     1
1070
    44
1040
1.0
1070
    74
1070
     0
1000
MTEXTEND
  0
POINT
  5
3C4
330
101
100
AcDbEntity
  8
Defpoints
  6
Continuous
 62
     0
370
     0
100
AcDbPoint
 10
83.45509930813703
 20
162.3586927828986
 30
0.0
  0
POINT
  5
3C5
330
101
100
AcDbEntity
  8
Defpoints
  6
Continuous
 62
     0
370
     0
100
AcDbPoint
 10
123.455019308137
 20
122.3587727828986
 30
0.0
  0
POINT
  5
3C6
330
101
100
AcDbEntity
  8
Defpoints
  6
Continuous
 62
     0
370
     0
100
AcDbPoint
 10
123.455019308137
 20
176.796689565261
 30
0.0
  0
ENDBLK
  5
1DC
330
101
100
AcDbEntity
  8
DEFAULT
 62
     0
 48
0.0
370
     0
100
AcDbBlockEnd
  0
BLOCK
  5
1DD
330
103
100
AcDbEntity
  8
DEFAULT
 62
     1
 48
0.0
370
     0
100
AcDbBlockBegin
  2
SE19
 70
     0
 10
0.0
 20
0.0
 30
0.0
  3
SE19
  1

  0
HATCH
  5
1DE
330
103
100
AcDbEntity
  8
DEFAULT
  6
Continuous
 62
   136
100
AcDbHatch
 10
0.0
 20
0.0
 30
0.0
210
0.0
220
0.0
230
1.0
  2
SOLID
 70
     1
 71
     0
 91
        1
 92
        1
 93
        3
 72
     1
 10
61.05876307613544
 20
159.3586927568216
 11
61.55876308048161
 21
162.3586927828986
 72
     1
 10
61.55876308048161
 20
162.3586927828986
 11
62.05876308482778
 21
159.3586927568216
 72
     1
 10
62.05876308482778
 20
159.3586927568216
 11
61.05876307613544
 21
159.3586927568216
 97
        0
 75
     0
 76
     1
 98
        1
 10
0.0
 20
0.0
  0
HATCH
  5
1DF
330
103
100
AcDbEntity
  8
DEFAULT
  6
Continuous
 62
   136
100
AcDbHatch
 10
0.0
 20
0.0
 30
0.0
210
0.0
220
0.0
230
1.0
  2
SOLID
 70
     1
 71
     0
 91
        1
 92
        1
 93
        3
 72
     1
 10
61.05876307613544
 20
85.35885280897565
 11
61.55876308048161
 21
82.35885278289861
 72
     1
 10
61.55876308048161
 20
82.35885278289861
 11
62.05876308482778
 21
85.35885280897565
 72
     1
 10
62.05876308482778
 20
85.35885280897565
 11
61.05876307613544
 21
85.35885280897565
 97
        0
 75
     0
 76
     1
 98
        1
 10
0.0
 20
0.0
  0
LINE
  5
1E0
330
103
100
AcDbEntity
  8
DEFAULT
  6
Continuous
 62
   136
370
     0
100
AcDbLine
 10
83.45509930813703
 20
162.3586927828986
 30
0.0
 11
60.05876306744309
 21
162.3586927828986
 31
0.0
  0
LINE
  5
1E1
330
103
100
AcDbEntity
  8
DEFAULT
  6
Continuous
 62
   136
370
     0
100
AcDbLine
 10
98.45506930813705
 20
82.35885278289861
 30
0.0
 11
60.0587630674431
 21
82.35885278289861
 31
0.0
  0
LINE
  5
1E2
330
103
100
AcDbEntity
  8
DEFAULT
  6
Continuous
 62
   136
370
     0
100
AcDbLine
 10
61.55876308048161
 20
162.3586927828986
 30
0.0
 11
61.55876308048161
 21
82.35885103323052
 31
0.0
  0
TEXT
  5
1E3
330
103
100
AcDbEntity
  8
DEFAULT
  6
Continuous
 62
   136
370
     0
100
AcDbText
 10
60.80876308048161
 20
120.5178628171555
 30
0.0
 40
3.0
  1
80
 50
90.0
  7
seiso_ttf
 11
57.80876308048161
 21
120.5178628171555
 31
0.0
100
AcDbText
 73
     3
  0
ENDBLK
  5
260
330
103
100
AcDbEntity
  8
0
370
     0
100
AcDbBlockEnd
  0
BLOCK
  5
261
330
106
100
AcDbEntity
  8
0
370
     0
100
AcDbBlockBegin
  2
DMBLK1697
 70
     0
 10
0.0
 20
0.0
 30
0.0
  3
DMBLK1697
  1

  0
LINE
  5
3C7
330
106
100
AcDbEntity
  8
DEFAULT
  6
Continuous
 62
   136
370
    -2
100
AcDbLine
 10
83.45509930813703
 20
162.3586927828986
 30
0.0
 11
60.05876308048164
 21
162.3586927828986
 31
0.0
  0
LINE
  5
3C8
330
106
100
AcDbEntity
  8
DEFAULT
  6
Continuous
 62
   136
370
    -2
100
AcDbLine
 10
98.45506930813705
 20
82.35885278289861
 30
0.0
 11
60.05876308048162
 21
82.35885278289861
 31
0.0
  0
LINE
  5
3C9
330
106
100
AcDbEntity
  8
DEFAULT
  6
Continuous
 62
   136
370
    -2
100
AcDbLine
 10
61.55876308048163
 20
159.3586927828986
 30
0.0
 11
61.55876308048163
 21
85.35885278289862
 31
0.0
  0
INSERT
  5
3CA
330
106
100
AcDbEntity
  8
DEFAULT
  6
Continuous
 62
   136
370
    -2
100
AcDbBlockReference
  2
_SE_FILLED
 10
61.55876308048163
 20
162.3586927828986
 30
0.0
 41
3.0
 42
3.0
 43
3.0
 50
90.0
  0
INSERT
  5
3CB
330
106
100
AcDbEntity
  8
DEFAULT
  6
Continuous
 62
   136
370
    -2
100
AcDbBlockReference
  2
_SE_FILLED
 10
61.55876308048163
 20
82.35885278289861
 30
0.0
 41
3.0
 42
3.0
 43
3.0
 50
270.0
  0
MTEXT
  5
3CC
330
106
100
AcDbEntity
  8
DEFAULT
  6
Continuous
 62
   136
370
     0
100
AcDbMText
 10
58.55876308048161
 20
122.3587719080645
 30
0.0
 40
3.0
 41
0.0
 71
     5
 72
     1
  1
\A1;\A1;80
  7
seiso_ttf
 11
0.0000000000000001
 21
1.0
 31
0.0
 73
     1
 44
1.0
1001
ACAD
1000
MTEXTBEGIN
1070
    73
1070
     1
1070
    44
1040
1.0
1070
    74
1070
     0
1000
MTEXTEND
  0
POINT
  5
3CD
330
106
100
AcDbEntity
  8
Defpoints
  6
Continuous
 62
     0
370
     0
100
AcDbPoint
 10
83.45509930813703
 20
162.3586927828986
 30
0.0
  0
POINT
  5
3CE
330
106
100
AcDbEntity
  8
Defpoints
  6
Continuous
 62
     0
370
     0
100
AcDbPoint
 10
98.45506930813705
 20
82.35885278289861
 30
0.0
  0
POINT
  5
3CF
330
106
100
AcDbEntity
  8
Defpoints
  6
Continuous
 62
     0
370
     0
100
AcDbPoint
 10
61.55876308048163
 20
82.35885278289861
 30
0.0
  0
ENDBLK
  5
1E7
330
106
100
AcDbEntity
  8
DEFAULT
 62
     0
 48
0.0
370
     0
100
AcDbBlockEnd
  0
ENDSEC
  0
SECTION
  2
ENTITIES
  0
LINE
  5
6A
330
A
100
AcDbEntity
  8
ASSE
  6
CENTER2
 62
     7
370
     0
100
AcDbLine
 10
-9.999979999999979
 20
-8.499983
 30
0.0
 11
-9.999979999999979
 21
73.49985299999999
 31
0.0
  0
LINE
  5
6B
330
A
100
AcDbEntity
  8
ASSE
  6
Continuous
 62
     7
370
     0
100
AcDbLine
 10
-19.99995999999997
 20
33.11008577969602
 30
0.0
 11
-19.99995999999997
 21
71.43430513110399
 31
0.0
  0
CIRCLE
  5
6C
330
A
100
AcDbEntity
  8
0
  6
Continuous
 62
     7
370
     0
100
AcDbCircle
 10
-19.99995999999997
 20
64.99986999999997
 30
0.0
 40
3.2499935
  0
LINE
  5
6D
330
A
100
AcDbEntity
  8
0
  6
Continuous
 62
     7
370
     0
100
AcDbLine
 10
-6.271742456489974
 20
72.49985500000001
 30
0.0
 11
-6.271742456489974
 21
32.49993500000001
 31
0.0
  0
LINE
  5
6E
330
A
100
AcDbEntity
  8
0
  6
Continuous
 62
     7
370
     0
100
AcDbLine
 10
-11.49997699999999
 20
72.49985500000001
 30
0.0
 11
-11.49997699999999
 21
32.49993500000001
 31
0.0
  0
LINE
  5
6F
330
A
100
AcDbEntity
  8
0
  6
Continuous
 62
     7
370
     0
100
AcDbLine
 10
-4.999989999999982
 20
32.49993499999999
 30
0.0
 11
-4.999989999999982
 21
72.49985499999998
 31
0.0
  0
LINE
  5
70
330
A
100
AcDbEntity
  8
0
  6
Continuous
 62
     7
370
     0
100
AcDbLine
 10
-29.99994
 20
32.49993499999999
 30
0.0
 11
-29.99994
 21
72.49985499999998
 31
0.0
  0
CIRCLE
  5
71
330
A
100
AcDbEntity
  8
0
  6
Continuous
 62
     7
370
     0
100
AcDbCircle
 10
-19.99995999999997
 20
64.99986999999997
 30
0.0
 40
5.249989499999999
  0
LINE
  5
72
330
A
100
AcDbEntity
  8
ASSE
  6
Continuous
 62
     7
370
     0
100
AcDbLine
 10
9.308821382320033
 20
0.0
 30
0.0
 11
-5.989876020224002
 21
0.0
 31
0.0
  0
LINE
  5
73
330
A
100
AcDbEntity
  8
ASSE
  6
Continuous
 62
     7
370
     0
100
AcDbLine
 10
9.851249297462018
 20
24.99995000000001
 30
0.0
 11
-6.635570728831979
 21
24.99995000000001
 31
0.0
  0
LINE
  5
74
330
A
100
AcDbEntity
  8
0
  6
Continuous
 62
     7
370
     0
100
AcDbLine
 10
-29.99994
 20
32.49993499999999
 30
0.0
 11
9.999980000000007
 21
32.49993499999999
 31
0.0
  0
LINE
  5
75
330
A
100
AcDbEntity
  8
0
  6
Continuous
 62
     7
370
     0
100
AcDbLine
 10
9.999980000000022
 20
-7.499985000000009
 30
0.0
 11
-14.99996999999997
 21
-7.499985000000009
 31
0.0
  0
LINE
  5
76
330
A
100
AcDbEntity
  8
ASSE
  6
Continuous
 62
     7
370
     0
100
AcDbLine
 10
0.0
 20
31.88978422030397
 30
0.0
 11
0.0
 21
-6.434435131104038
 31
0.0
  0
CIRCLE
  5
77
330
A
100
AcDbEntity
  8
0
  6
Continuous
 62
     7
370
     0
100
AcDbCircle
 10
0.0
 20
0.0
 30
0.0
 40
5.249989499999999
  0
LINE
  5
78
330
A
100
AcDbEntity
  8
0
  6
Continuous
 62
     7
370
     0
100
AcDbLine
 10
-14.99996999999999
 20
32.49993499999999
 30
0.0
 11
-14.99996999999999
 21
-7.499984999999995
 31
0.0
  0
LINE
  5
79
330
A
100
AcDbEntity
  8
0
  6
Continuous
 62
     7
370
     0
100
AcDbLine
 10
-8.499982999999986
 20
-7.499985000000009
 30
0.0
 11
-8.499982999999986
 21
32.49993500000001
 31
0.0
  0
LINE
  5
7A
330
A
100
AcDbEntity
  8
0
  6
Continuous
 62
     7
370
     0
100
AcDbLine
 10
-13.72821754351
 20
-7.499985000000009
 30
0.0
 11
-13.72821754351
 21
32.49993500000001
 31
0.0
  0
LINE
  5
7B
330
A
100
AcDbEntity
  8
ASSE
  6
Continuous
 62
     7
370
     0
100
AcDbLine
 10
-29.85120929746198
 20
39.99991999999999
 30
0.0
 11
-13.36438927116798
 21
39.99991999999999
 31
0.0
  0
CIRCLE
  5
7C
330
A
100
AcDbEntity
  8
0
  6
Continuous
 62
     7
370
     0
100
AcDbCircle
 10
-19.99995999999997
 20
39.99991999999999
 30
0.0
 40
5.249989499999999
  0
CIRCLE
  5
7D
330
A
100
AcDbEntity
  8
0
  6
Continuous
 62
     7
370
     0
100
AcDbCircle
 10
-19.99995999999997
 20
39.99991999999999
 30
0.0
 40
3.2499935
  0
CIRCLE
  5
7E
330
A
100
AcDbEntity
  8
0
  6
Continuous
 62
     7
370
     0
100
AcDbCircle
 10
0.0
 20
24.99995000000001
 30
0.0
 40
5.249989499999999
  0
CIRCLE
  5
7F
330
A
100
AcDbEntity
  8
0
  6
Continuous
 62
     7
370
     0
100
AcDbCircle
 10
0.0
 20
0.0
 30
0.0
 40
3.2499935
  0
CIRCLE
  5
80
330
A
100
AcDbEntity
  8
0
  6
Continuous
 62
     7
370
     0
100
AcDbCircle
 10
0.0
 20
24.99995000000001
 30
0.0
 40
3.2499935
  0
LINE
  5
81
330
A
100
AcDbEntity
  8
0
  6
Continuous
 62
     7
370
     0
100
AcDbLine
 10
9.999980000000022
 20
32.49993499999999
 30
0.0
 11
9.999980000000022
 21
-7.499984999999995
 31
0.0
  0
LINE
  5
82
330
A
100
AcDbEntity
  8
0
  6
Continuous
 62
     7
370
     0
100
AcDbLine
 10
9.938565028473234
 20
115.5098503823322
 30
0.0
 11
-10.06139497152676
 21
115.5098503823322
 31
0.0
  0
LINE
  5
83
330
A
100
AcDbEntity
  8
0
  6
Continuous
 62
     7
370
     0
100
AcDbLine
 10
-8.561397971526773
 20
103.5098743823322
 30
0.0
 11
9.938565028473234
 21
103.5098743823322
 31
0.0
  0
LINE
  5
84
330
A
100
AcDbEntity
  8
7
  6
Continuous
 62
     7
370
     0
100
AcDbLine
 10
-10.06139497152674
 20
104.2093339834102
 30
0.0
 11
-13.97410914608271
 21
106.0338633343442
 31
0.0
  0
ARC
  5
85
330
A
100
AcDbEntity
  8
7
  6
Continuous
 62
     7
370
     0
100
AcDbCircle
 10
-8.961397171526741
 20
109.5098623823322
 30
0.0
 40
6.0999878
100
AcDbArc
 50
103.0269790000003
 51
214.7388679999996
  0
LINE
  5
86
330
A
100
AcDbEntity
  8
ASSE
  6
Continuous
 62
     7
370
     0
100
AcDbLine
 10
-15.82055445318475
 20
109.5098623823322
 30
0.0
 11
-2.60758387917879
 21
109.5098623823322
 31
0.0
  0
LINE
  5
87
330
A
100
AcDbEntity
  8
0
  6
Continuous
 62
     7
370
     0
100
AcDbLine
 10
-30.06135497152675
 20
115.5098503823322
 30
0.0
 11
-11.16139277152678
 21
115.5098503823322
 31
0.0
  0
LINE
  5
88
330
A
100
AcDbEntity
  8
0
  6
Continuous
 62
     7
370
     0
100
AcDbLine
 10
-30.06135497152675
 20
103.5098743823322
 30
0.0
 11
-11.56139197152674
 21
103.5098743823322
 31
0.0
  0
LINE
  5
89
330
A
100
AcDbEntity
  8
0
  6
Continuous
 62
     7
370
     0
100
AcDbLine
 10
-29.99994
 20
72.49985500000001
 30
0.0
 11
-4.999989999999982
 21
72.49985500000001
 31
0.0
  0
LINE
  5
8A
330
A
100
AcDbEntity
  8
ASSE
  6
Continuous
 62
     7
370
     0
100
AcDbLine
 10
-20.06137497152676
 20
102.5098763823322
 30
0.0
 11
-20.06137497152676
 21
116.5098483823322
 31
0.0
  0
LINE
  5
8B
330
A
100
AcDbEntity
  8
7
  6
Continuous
 62
     7
370
     0
100
AcDbLine
 10
-25.31136447152676
 20
108.0098653823322
 30
0.0
 11
-14.81138547152674
 21
108.0098653823322
 31
0.0
  0
LINE
  5
8C
330
A
100
AcDbEntity
  8
ASSE
  6
Continuous
 62
     7
370
     0
100
AcDbLine
 10
-29.30878138231998
 20
64.99986999999997
 30
0.0
 11
-14.01008397977597
 21
64.99986999999997
 31
0.0
  0
LINE
  5
8D
330
A
100
AcDbEntity
  8
0
  6
Continuous
 62
     7
370
     0
100
AcDbLine
 10
-30.06135497152675
 20
115.5098503823322
 30
0.0
 11
-30.06135497152675
 21
103.5098743823322
 31
0.0
  0
LINE
  5
8E
330
A
100
AcDbEntity
  8
7
  6
Continuous
 62
     7
370
     0
100
AcDbLine
 10
-25.31136447152676
 20
103.5098743823322
 30
0.0
 11
-25.31136447152676
 21
108.0098653823322
 31
0.0
  0
LINE
  5
8F
330
A
100
AcDbEntity
  8
7
  6
Continuous
 62
     7
370
     0
100
AcDbLine
 10
-23.31136847152675
 20
108.0098653823322
 30
0.0
 11
-23.31136847152675
 21
115.5098503823322
 31
0.0
  0
LINE
  5
90
330
A
100
AcDbEntity
  8
7
  6
Continuous
 62
     7
370
     0
100
AcDbLine
 10
-16.81138147152677
 20
108.0098653823322
 30
0.0
 11
-16.81138147152677
 21
115.5098503823322
 31
0.0
  0
LINE
  5
91
330
A
100
AcDbEntity
  8
7
  6
Continuous
 62
     7
370
     0
100
AcDbLine
 10
-14.81138547152676
 20
103.5098743823322
 30
0.0
 11
-14.81138547152676
 21
108.0098653823322
 31
0.0
  0
LINE
  5
92
330
A
100
AcDbEntity
  8
ASSE
  6
Continuous
 62
     7
370
     0
100
AcDbLine
 10
-10.06139497152674
 20
116.5098483823322
 30
0.0
 11
-10.06139497152674
 21
102.5098763823322
 31
0.0
  0
LINE
  5
93
330
A
100
AcDbEntity
  8
ASSE
  6
Continuous
 62
     7
370
     0
100
AcDbLine
 10
-0.0614149715267587
 20
116.5098483823322
 30
0.0
 11
-0.0614149715267587
 21
102.5098763823322
 31
0.0
  0
ARC
  5
94
330
A
100
AcDbEntity
  8
0
  6
Continuous
 62
     7
370
     0
100
AcDbCircle
 10
-11.16139277152678
 20
109.5098623823322
 30
0.0
 40
5.999987999999999
100
AcDbArc
 50
323.5820099999996
 51
90.0
  0
LINE
  5
95
330
A
100
AcDbEntity
  8
7
  6
Continuous
 62
     7
370
     0
100
AcDbLine
 10
-5.311404471526742
 20
107.5098663823322
 30
0.0
 11
5.188574528473253
 21
107.5098663823322
 31
0.0
  0
LINE
  5
96
330
A
100
AcDbEntity
  8
0
  6
Continuous
 62
     7
370
     0
100
AcDbLine
 10
-8.561397971526773
 20
103.5098743823322
 30
0.0
 11
-10.06139497152678
 21
104.2093339834102
 31
0.0
  0
LINE
  5
97
330
A
100
AcDbEntity
  8
0
  6
Continuous
 62
     7
370
     0
100
AcDbLine
 10
-11.56139197152674
 20
103.5098743823322
 30
0.0
 11
-6.333157428016733
 21
105.9478395063922
 31
0.0
  0
CIRCLE
  5
98
330
A
100
AcDbEntity
  8
0
  6
Continuous
 62
     7
370
     0
100
AcDbCircle
 10
-10.06139497152674
 20
109.5098623823322
 30
0.0
 40
2.999993999999999
  0
CIRCLE
  5
99
330
A
100
AcDbEntity
  8
0
  6
Continuous
 62
     7
370
     0
100
AcDbCircle
 10
-10.06139497152674
 20
109.5098623823322
 30
0.0
 40
3.499992999999999
  0
ARC
  5
9A
330
A
100
AcDbEntity
  8
0
  6
Continuous
 62
     7
370
     0
100
AcDbCircle
 10
-8.961397171526741
 20
109.5098623823322
 30
0.0
 40
6.0999878
100
AcDbArc
 50
100.3888579999994
 51
103.0269790000003
  0
LINE
  5
9B
330
A
100
AcDbEntity
  8
7
  6
Continuous
 62
     7
370
     0
100
AcDbLine
 10
-5.311404471526742
 20
103.5098743823322
 30
0.0
 11
-5.311404471526742
 21
107.5098663823322
 31
0.0
  0
LINE
  5
9C
330
A
100
AcDbEntity
  8
7
  6
Continuous
 62
     7
370
     0
100
AcDbLine
 10
-3.311408471526746
 20
107.5098663823322
 30
0.0
 11
-3.311408471526746
 21
115.5098503823322
 31
0.0
  0
LINE
  5
9D
330
A
100
AcDbEntity
  8
7
  6
Continuous
 62
     7
370
     0
100
AcDbLine
 10
5.188574528473239
 20
103.5098743823322
 30
0.0
 11
5.188574528473239
 21
107.5098663823322
 31
0.0
  0
LINE
  5
9E
330
A
100
AcDbEntity
  8
7
  6
Continuous
 62
     7
370
     0
100
AcDbLine
 10
3.188578528473243
 20
107.5098663823322
 30
0.0
 11
3.188578528473243
 21
115.5098503823322
 31
0.0
  0
LINE
  5
9F
330
A
100
AcDbEntity
  8
0
  6
Continuous
 62
     7
370
     0
100
AcDbLine
 10
9.938565028473234
 20
115.5098503823322
 30
0.0
 11
9.938565028473234
 21
103.5098743823322
 31
0.0
  0
ENDSEC
  0
SECTION
  2
OBJECTS
  0
DICTIONARY
  5
19
330
0
100
AcDbDictionary
281
     1
  3
ACAD_COLOR
350
217
  3
ACAD_GROUP
350
1A
  3
ACAD_LAYOUT
350
1E
  3
ACAD_MATERIAL
350
1EA
  3
ACAD_MLEADERSTYLE
350
268
  3
ACAD_MLINESTYLE
350
1B
  3
ACAD_PLOTSETTINGS
350
22
  3
ACAD_PLOTSTYLENAME
350
1F
  3
ACAD_SCALELIST
350
218
  3
ACAD_TABLESTYLE
350
262
  3
ACAD_VISUALSTYLE
350
203
  3
ACAD_WIPEOUT_VARS
350
23
  3
ACDB_RECOMPOSE_DATA
350
487
  3
AcDbVariableDictionary
350
1E8
  3
AEC_PROPERTY_SET_DEFS
350
3FD
  3
ASE_INDEX_DICTIONARY
350
420
  3
DWGPROPS
350
488
  3
qs_topprt_diz
350
3D5
  3
QSCATDICT
350
3D2
  3
QsPallStyleDict
350
3D4
  3
QsTop499
350
41C
  3
TopSpotLight
350
3DC
  0
DICTIONARY
  5
429
330
7
100
AcDbDictionary
280
     1
281
     1
  0
DICTIONARY
  5
3FE
330
14
100
AcDbDictionary
280
     1
281
     1
  3
ADSK_XREC_LAYER_RECONCILED
360
3FF
  0
DICTIONARY
  5
400
330
2D
100
AcDbDictionary
280
     1
281
     1
  3
ADSK_XREC_LAYER_RECONCILED
360
401
  0
DICTIONARY
  5
402
330
2F
100
AcDbDictionary
280
     1
281
     1
  3
ADSK_XREC_LAYER_RECONCILED
360
403
  0
DICTIONARY
  5
404
330
31
100
AcDbDictionary
280
     1
281
     1
  3
ADSK_XREC_LAYER_RECONCILED
360
405
  0
DICTIONARY
  5
406
330
33
100
AcDbDictionary
280
     1
281
     1
  3
ADSK_XREC_LAYER_RECONCILED
360
407
  0
DICTIONARY
  5
408
330
35
100
AcDbDictionary
280
     1
281
     1
  3
ADSK_XREC_LAYER_RECONCILED
360
409
  0
DICTIONARY
  5
40A
330
37
100
AcDbDictionary
280
     1
281
     1
  3
ADSK_XREC_LAYER_RECONCILED
360
40B
  0
DICTIONARY
  5
40C
330
39
100
AcDbDictionary
280
     1
281
     1
  3
ADSK_XREC_LAYER_RECONCILED
360
40D
  0
DICTIONARY
  5
40E
330
3B
100
AcDbDictionary
280
     1
281
     1
  3
ADSK_XREC_LAYER_RECONCILED
360
40F
  0
DICTIONARY
  5
410
330
3D
100
AcDbDictionary
280
     1
281
     1
  3
ADSK_XREC_LAYER_RECONCILED
360
411
  0
DICTIONARY
  5
412
330
3F
100
AcDbDictionary
280
     1
281
     1
  3
ADSK_XREC_LAYER_RECONCILED
360
413
  0
DICTIONARY
  5
414
330
41
100
AcDbDictionary
280
     1
281
     1
  3
ADSK_XREC_LAYER_RECONCILED
360
415
  0
DICTIONARY
  5
416
330
43
100
AcDbDictionary
280
     1
281
     1
  3
ADSK_XREC_LAYER_RECONCILED
360
417
  0
DICTIONARY
  5
418
330
45
100
AcDbDictionary
280
     1
281
     1
  3
ADSK_XREC_LAYER_RECONCILED
360
419
  0
DICTIONARY
  5
41A
330
3D7
100
AcDbDictionary
280
     1
281
     1
  3
ADSK_XREC_LAYER_RECONCILED
360
41B
  0
DICTIONARY
  5
4B7
330
38B
100
AcDbDictionary
280
     1
281
     1
  3
ACAD_MTEXT_RT
360
4B8
  0
DICTIONARY
  5
4B9
330
392
100
AcDbDictionary
280
     1
281
     1
  3
ACAD_MTEXT_RT
360
4BA
  0
DICTIONARY
  5
4BB
330
399
100
AcDbDictionary
280
     1
281
     1
  3
ACAD_MTEXT_RT
360
4BC
  0
DICTIONARY
  5
217
102
{ACAD_REACTORS
330
19
102
}
330
19
100
AcDbDictionary
281
     1
  0
DICTIONARY
  5
1A
102
{ACAD_REACTORS
330
19
102
}
330
19
100
AcDbDictionary
281
     1
  0
DICTIONARY
  5
1E
102
{ACAD_REACTORS
330
19
102
}
330
19
100
AcDbDictionary
281
     1
  3
Layout1
350
21
  3
Model
350
20
  0
DICTIONARY
  5
1EA
102
{ACAD_REACTORS
330
19
102
}
330
19
100
AcDbDictionary
281
     1
  3
ByBlock
350
1F3
  3
ByLayer
350
1EB
  3
Global
350
1FB
  0
DICTIONARY
  5
268
102
{ACAD_REACTORS
330
19
102
}
330
19
100
AcDbDictionary
281
     1
  3
Standard
350
269
  0
DICTIONARY
  5
1B
102
{ACAD_REACTORS
330
19
102
}
330
19
100
AcDbDictionary
281
     1
  3
Standard
350
1C
  0
DICTIONARY
  5
22
102
{ACAD_REACTORS
330
19
102
}
330
19
100
AcDbDictionary
281
     1
  3
Kyocera_1010 OR
350
3F1
  3
Kyocera_1010 VER
350
3F2
  3
Olivetti_200 A3
350
3F3
  3
Olivetti_200 A4
350
3F4
  3
PLOTTER
350
3F5
  0
ACDBDICTIONARYWDFLT
  5
1F
102
{ACAD_REACTORS
330
19
102
}
330
19
100
AcDbDictionary
281
     1
  3
Normal
350
1D
100
AcDbDictionaryWithDefault
340
1D
  0
DICTIONARY
  5
218
102
{ACAD_REACTORS
330
19
102
}
330
19
100
AcDbDictionary
281
     1
  3
A0
350
219
  3
A1
350
21A
  3
A2
350
21B
  3
A3
350
21C
  3
A4
350
21D
  3
A5
350
21E
  3
A6
350
21F
  3
A7
350
220
  3
A8
350
221
  3
A9
350
222
  3
B0
350
223
  3
B1
350
224
  3
B2
350
225
  3
B3
350
226
  3
B4
350
227
  3
B5
350
228
  3
B6
350
229
  3
B7
350
22A
  3
B8
350
22B
  3
B9
350
22C
  3
C0
350
22D
  3
C1
350
22E
  3
C2
350
22F
  3
C3
350
230
  3
C4
350
231
  3
C5
350
232
  3
C6
350
233
  3
C7
350
234
  3
C8
350
235
  3
C9
350
236
  3
D0
350
237
  3
D1
350
238
  3
D2
350
239
  0
DICTIONARY
  5
262
102
{ACAD_REACTORS
330
19
102
}
330
19
100
AcDbDictionary
281
     1
  3
QSTABFORI
350
3F6
  3
QSTABREGION
350
3F8
  3
Standard
350
263
  0
DICTIONARY
  5
203
102
{ACAD_REACTORS
330
19
102
}
330
19
100
AcDbDictionary
281
     1
  3
2dWireframe
350
209
  3
3D Hidden
350
20B
  3
3dWireframe
350
20A
  3
Basic
350
208
  3
Brighten
350
20F
  3
ColorChange
350
213
  3
Conceptual
350
20C
  3
Dim
350
20E
  3
EdgeColorOff
350
216
  3
Facepattern
350
212
  3
Flat
350
204
  3
FlatWithEdges
350
205
  3
Gouraud
350
206
  3
GouraudWithEdges
350
207
  3
Hidden
350
474
  3
JitterOff
350
214
  3
Linepattern
350
211
  3
OverhangOff
350
215
  3
Realistic
350
20D
  3
Shaded
350
479
  3
Shaded with edges
350
478
  3
Shades of Gray
350
475
  3
Sketchy
350
476
  3
Thicken
350
210
  3
Wireframe
350
473
  3
X-Ray
350
477
  0
WIPEOUTVARIABLES
  5
23
330
19
100
AcDbWipeoutVariables
 70
     1
  0
XRECORD
  5
487
102
{ACAD_REACTORS
330
19
102
}
330
19
100
AcDbXrecord
280
     1
 90
        1
330
263
330
3F6
330
3F8
  0
DICTIONARY
  5
1E8
330
19
100
AcDbDictionary
281
     0
  3
CANNOSCALE
350
46E
  3
CMLEADERSTYLE
350
46C
  3
CTABLESTYLE
350
46B
  3
DIMASSOC
350
1E9
  3
DRAWORDERCTL
350
46D
  3
INDEXCTL
350
470
  3
SORTENTS
350
46F
  3
XCLIPFRAME
350
483
  0
DICTIONARY
  5
3FD
102
{ACAD_REACTORS
330
19
102
}
330
19
100
AcDbDictionary
281
     1
  0
DICTIONARY
  5
420
102
{ACAD_REACTORS
330
19
102
}
330
19
100
AcDbDictionary
281
     1
  3
ASEBlockHierarchyIndexRecord
350
422
1001
DCO15
1040
1706868010.188
  0
XRECORD
  5
488
102
{ACAD_REACTORS
330
19
102
}
330
19
100
AcDbXrecord
280
     1
  1
DWGPROPS COOKIE
  2

  3

  4

  6

  7

  8
mpistoia
  9

300
=
301
=
302
=
303
=
304
=
305
=
306
=
307
=
308
=
309
=
 40
0.0013266666666667
 41
2455558.628488542
 42
2455631.715890845
  1

 90
        0
  0
DICTIONARY
  5
3D5
102
{ACAD_REACTORS
330
19
102
}
330
19
100
AcDbDictionary
281
     1
  3
UCNT
350
3D6
  0
DICTIONARY
  5
3D2
102
{ACAD_REACTORS
330
19
102
}
330
19
100
AcDbDictionary
281
     1
  3
DEFAULT
350
3D3
  0
DICTIONARY
  5
3D4
102
{ACAD_REACTORS
330
19
102
}
330
19
100
AcDbDictionary
281
     1
  0
DICTIONARY
  5
41C
102
{ACAD_REACTORS
330
19
102
}
330
19
100
AcDbDictionary
281
     1
  3
TOP
350
41E
  3
X6827
350
41D
  0
DICTIONARY
  5
3DC
102
{ACAD_REACTORS
330
19
102
}
330
19
100
AcDbDictionary
281
     1
  3
colors
350
3DD
  0
XRECORD
  5
3FF
102
{ACAD_REACTORS
330
3FE
102
}
330
3FE
100
AcDbXrecord
280
     1
290
     1
  0
XRECORD
  5
401
102
{ACAD_REACTORS
330
400
102
}
330
400
100
AcDbXrecord
280
     1
290
     1
  0
XRECORD
  5
403
102
{ACAD_REACTORS
330
402
102
}
330
402
100
AcDbXrecord
280
     1
290
     1
  0
XRECORD
  5
405
102
{ACAD_REACTORS
330
404
102
}
330
404
100
AcDbXrecord
280
     1
290
     1
  0
XRECORD
  5
407
102
{ACAD_REACTORS
330
406
102
}
330
406
100
AcDbXrecord
280
     1
290
     1
  0
XRECORD
  5
409
102
{ACAD_REACTORS
330
408
102
}
330
408
100
AcDbXrecord
280
     1
290
     1
  0
XRECORD
  5
40B
102
{ACAD_REACTORS
330
40A
102
}
330
40A
100
AcDbXrecord
280
     1
290
     1
  0
XRECORD
  5
40D
102
{ACAD_REACTORS
330
40C
102
}
330
40C
100
AcDbXrecord
280
     1
290
     1
  0
XRECORD
  5
40F
102
{ACAD_REACTORS
330
40E
102
}
330
40E
100
AcDbXrecord
280
     1
290
     1
  0
XRECORD
  5
411
102
{ACAD_REACTORS
330
410
102
}
330
410
100
AcDbXrecord
280
     1
290
     1
  0
XRECORD
  5
413
102
{ACAD_REACTORS
330
412
102
}
330
412
100
AcDbXrecord
280
     1
290
     1
  0
XRECORD
  5
415
102
{ACAD_REACTORS
330
414
102
}
330
414
100
AcDbXrecord
280
     1
290
     1
  0
XRECORD
  5
417
102
{ACAD_REACTORS
330
416
102
}
330
416
100
AcDbXrecord
280
     1
290
     1
  0
XRECORD
  5
419
102
{ACAD_REACTORS
330
418
102
}
330
418
100
AcDbXrecord
280
     1
290
     1
  0
XRECORD
  5
41B
102
{ACAD_REACTORS
330
41A
102
}
330
41A
100
AcDbXrecord
280
     1
290
     1
  0
XRECORD
  5
4B8
102
{ACAD_REACTORS
330
4B7
102
}
330
4B7
100
AcDbXrecord
280
     1
 40
9704.0
  1
\A1;\A1;\U+22056,5
  0
XRECORD
  5
4BA
102
{ACAD_REACTORS
330
4B9
102
}
330
4B9
100
AcDbXrecord
280
     1
 40
10537.0
  1
\A1;\A1;\U+220510,5
  0
XRECORD
  5
4BC
102
{ACAD_REACTORS
330
4BB
102
}
330
4BB
100
AcDbXrecord
280
     1
 40
8018.0
  1
\A1;\A1;\U+22057
  0
LAYOUT
  5
21
102
{ACAD_XDICTIONARY
360
48B
102
}
102
{ACAD_REACTORS
330
1E
102
}
330
1E
100
AcDbPlotSettings
  1

  2

  4

  6

 40
0.0
 41
0.0
 42
0.0
 43
0.0
 44
0.0
 45
0.0
 46
0.0
 47
0.0
 48
0.0
 49
0.0
140
0.0
141
0.0
142
1.0
143
1.0
 70
     0
 72
     0
 73
     0
 74
     0
  7

 75
     0
147
1.0
148
0.0
149
0.0
100
AcDbLayout
  1
Layout1
 70
     0
 71
     1
 10
0.0
 20
0.0
 11
12.0
 21
9.0
 12
0.0
 22
0.0
 32
0.0
 14
1.000000000000000E+20
 24
1.000000000000000E+20
 34
1.000000000000000E+20
 15
-1.000000000000000E+20
 25
-1.000000000000000E+20
 35
-1.000000000000000E+20
146
0.0
 13
0.0
 23
0.0
 33
0.0
 16
1.0
 26
0.0
 36
0.0
 17
0.0
 27
1.0
 37
0.0
 76
     0
330
B
  0
LAYOUT
  5
20
102
{ACAD_XDICTIONARY
360
489
102
}
102
{ACAD_REACTORS
330
1E
102
}
330
1E
100
AcDbPlotSettings
  1

  2

  4

  6

 40
0.0
 41
0.0
 42
0.0
 43
0.0
 44
0.0
 45
0.0
 46
0.0
 47
0.0
 48
0.0
 49
0.0
140
0.0
141
0.0
142
1.0
143
1.0
 70
  1024
 72
     0
 73
     0
 74
     0
  7

 75
     0
147
1.0
148
0.0
149
0.0
100
AcDbLayout
  1
Model
 70
     0
 71
     0
 10
0.0
 20
0.0
 11
0.0
 21
0.0
 12
0.0
 22
0.0
 32
0.0
 14
0.0
 24
0.0
 34
0.0
 15
0.0
 25
0.0
 35
0.0
146
0.0
 13
0.0
 23
0.0
 33
0.0
 16
0.0
 26
0.0
 36
0.0
 17
0.0
 27
0.0
 37
0.0
 76
     0
330
A
331
15
  0
MATERIAL
  5
1F3
102
{ACAD_XDICTIONARY
360
1F4
102
}
102
{ACAD_REACTORS
330
1EA
102
}
330
1EA
100
AcDbMaterial
  1
ByBlock
 72
     0
 43
0.0208333333333333
 43
0.0
 43
0.0
 43
0.0
 43
0.0
 43
0.0208333333333333
 43
0.0
 43
0.0
 43
0.0
 43
0.0
 43
1.0
 43
0.0
 43
0.0
 43
0.0
 43
0.0
 43
1.0
 77
     0
 47
0.0208333333333333
 47
0.0
 47
0.0
 47
0.0
 47
0.0
 47
0.0208333333333333
 47
0.0
 47
0.0
 47
0.0
 47
0.0
 47
1.0
 47
0.0
 47
0.0
 47
0.0
 47
0.0
 47
1.0
171
     0
 49
0.0208333333333333
 49
0.0
 49
0.0
 49
0.0
 49
0.0
 49
0.0208333333333333
 49
0.0
 49
0.0
 49
0.0
 49
0.0
 49
1.0
 49
0.0
 49
0.0
 49
0.0
 49
0.0
 49
1.0
175
     0
142
0.0208333333333333
142
0.0
142
0.0
142
0.0
142
0.0
142
0.0208333333333333
142
0.0
142
0.0
142
0.0
142
0.0
142
1.0
142
0.0
142
0.0
142
0.0
142
0.0
142
1.0
179
     0
144
0.0208333333333333
144
0.0
144
0.0
144
0.0
144
0.0
144
0.0208333333333333
144
0.0
144
0.0
144
0.0
144
0.0
144
1.0
144
0.0
144
0.0
144
0.0
144
0.0
144
1.0
147
0.0208333333333333
147
0.0
147
0.0
147
0.0
147
0.0
147
0.0208333333333333
147
0.0
147
0.0
147
0.0
147
0.0
147
1.0
147
0.0
147
0.0
147
0.0
147
0.0
147
1.0
  0
MATERIAL
  5
1EB
102
{ACAD_XDICTIONARY
360
1EC
102
}
102
{ACAD_REACTORS
330
1EA
102
}
330
1EA
100
AcDbMaterial
  1
ByLayer
 72
     0
 43
0.0208333333333333
 43
0.0
 43
0.0
 43
0.0
 43
0.0
 43
0.0208333333333333
 43
0.0
 43
0.0
 43
0.0
 43
0.0
 43
1.0
 43
0.0
 43
0.0
 43
0.0
 43
0.0
 43
1.0
 77
     0
 47
0.0208333333333333
 47
0.0
 47
0.0
 47
0.0
 47
0.0
 47
0.0208333333333333
 47
0.0
 47
0.0
 47
0.0
 47
0.0
 47
1.0
 47
0.0
 47
0.0
 47
0.0
 47
0.0
 47
1.0
171
     0
 49
0.0208333333333333
 49
0.0
 49
0.0
 49
0.0
 49
0.0
 49
0.0208333333333333
 49
0.0
 49
0.0
 49
0.0
 49
0.0
 49
1.0
 49
0.0
 49
0.0
 49
0.0
 49
0.0
 49
1.0
175
     0
142
0.0208333333333333
142
0.0
142
0.0
142
0.0
142
0.0
142
0.0208333333333333
142
0.0
142
0.0
142
0.0
142
0.0
142
1.0
142
0.0
142
0.0
142
0.0
142
0.0
142
1.0
179
     0
144
0.0208333333333333
144
0.0
144
0.0
144
0.0
144
0.0
144
0.0208333333333333
144
0.0
144
0.0
144
0.0
144
0.0
144
1.0
144
0.0
144
0.0
144
0.0
144
0.0
144
1.0
147
0.0208333333333333
147
0.0
147
0.0
147
0.0
147
0.0
147
0.0208333333333333
147
0.0
147
0.0
147
0.0
147
0.0
147
1.0
147
0.0
147
0.0
147
0.0
147
0.0
147
1.0
  0
MATERIAL
  5
1FB
102
{ACAD_XDICTIONARY
360
1FC
102
}
102
{ACAD_REACTORS
330
1EA
102
}
330
1EA
100
AcDbMaterial
  1
Global
 72
     0
 43
0.0208333333333333
 43
0.0
 43
0.0
 43
0.0
 43
0.0
 43
0.0208333333333333
 43
0.0
 43
0.0
 43
0.0
 43
0.0
 43
1.0
 43
0.0
 43
0.0
 43
0.0
 43
0.0
 43
1.0
 77
     0
 47
0.0208333333333333
 47
0.0
 47
0.0
 47
0.0
 47
0.0
 47
0.0208333333333333
 47
0.0
 47
0.0
 47
0.0
 47
0.0
 47
1.0
 47
0.0
 47
0.0
 47
0.0
 47
0.0
 47
1.0
171
     0
 49
0.0208333333333333
 49
0.0
 49
0.0
 49
0.0
 49
0.0
 49
0.0208333333333333
 49
0.0
 49
0.0
 49
0.0
 49
0.0
 49
1.0
 49
0.0
 49
0.0
 49
0.0
 49
0.0
 49
1.0
175
     0
142
0.0208333333333333
142
0.0
142
0.0
142
0.0
142
0.0
142
0.0208333333333333
142
0.0
142
0.0
142
0.0
142
0.0
142
1.0
142
0.0
142
0.0
142
0.0
142
0.0
142
1.0
179
     0
144
0.0208333333333333
144
0.0
144
0.0
144
0.0
144
0.0
144
0.0208333333333333
144
0.0
144
0.0
144
0.0
144
0.0
144
1.0
144
0.0
144
0.0
144
0.0
144
0.0
144
1.0
147
0.0208333333333333
147
0.0
147
0.0
147
0.0
147
0.0
147
0.0208333333333333
147
0.0
147
0.0
147
0.0
147
0.0
147
1.0
147
0.0
147
0.0
147
0.0
147
0.0
147
1.0
  0
MLEADERSTYLE
  5
269
102
{ACAD_REACTORS
330
268
102
}
330
268
100
AcDbMLeaderStyle
170
     2
171
     1
172
     0
 90
        2
 40
0.0
 41
0.0
173
     1
 91
-1056964608
340
11
 92
       -2
290
     1
 42
0.09
291
     1
 43
0.36
  3
Standard
 44
0.18
300

342
17
174
     1
178
     6
175
     1
176
     0
 93
-1056964608
 45
0.18
292
     0
297
     0
 46
0.18
 94
-1056964608
 47
1.0
 49
1.0
140
1.0
293
     1
141
0.0
294
     1
177
     0
142
1.0
295
     0
296
     0
143
0.125
1001
ACAD_MLEADERVER
1070
     2
  0
MLINESTYLE
  5
1C
102
{ACAD_REACTORS
330
1B
102
}
330
1B
100
AcDbMlineStyle
  2
STANDARD
 70
     0
  3

 62
     0
 51
90.0
 52
90.0
 71
     2
 49
0.5
 62
   256
  6
BYLAYER
 49
-0.5
 62
   256
  6
BYLAYER
  0
PLOTSETTINGS
  5
3F1
102
{ACAD_XDICTIONARY
360
4BD
102
}
102
{ACAD_REACTORS
330
22
102
}
330
22
100
AcDbPlotSettings
  1
Kyocera_1010 OR
  2
Kyocera_1010.pc3
  4
A4
  6

 40
4.984749794006347
 41
5.154074668884277
 42
5.111740112304687
 43
4.9847412109375
 44
210.0156707763672
 45
297.0106506347656
 46
0.0
 47
109.7870247470818
 48
0.0
 49
0.0
140
0.0
141
0.0
142
1.0
143
0.6770771918566143
 70
 11956
 72
     1
 73
     1
 74
     1
  7
DIERRE BN.ctb
 75
     0
147
1.476936473458659
148
-222.4649060220283
149
-239.0808115236937
1001
ACAD_PSEXT
1000
Kyocera_1010.pc3
1000
Kyocera Mita FS-1010 KX
1000
\\PC5
1000

1070
     0
  0
PLOTSETTINGS
  5
3F2
102
{ACAD_XDICTIONARY
360
4BF
102
}
102
{ACAD_REACTORS
330
22
102
}
330
22
100
AcDbPlotSettings
  1
Kyocera_1010 VER
  2
Kyocera_1010.pc3
  4
A4
  6

 40
4.984749794006347
 41
5.154074668884277
 42
5.111740112304687
 43
4.9847412109375
 44
210.0156707763672
 45
297.0106506347656
 46
51.67548120477697
 47
0.0
 48
0.0
 49
0.0
140
0.0
141
0.0
142
1.0
143
0.4718508448115938
 70
 11956
 72
     1
 73
     0
 74
     1
  7
DIERRE BN.ctb
 75
     0
147
2.119313785268927
148
-222.4649060220283
149
-239.0808115236937
1001
ACAD_PSEXT
1000
Kyocera_1010.pc3
1000
Kyocera Mita FS-1010 KX
1000
\\PC5
1000

1070
     0
  0
PLOTSETTINGS
  5
3F3
102
{ACAD_XDICTIONARY
360
4C1
102
}
102
{ACAD_REACTORS
330
22
102
}
330
22
100
AcDbPlotSettings
  1
Olivetti_200 A3
  2
Olivetti_200.pc3
  4
A3
  6

 40
4.984749794006347
 41
5.111746788024902
 42
5.154083251953125
 43
4.9847412109375
 44
297.0106506347656
 45
419.9889831542968
 46
0.0
 47
156.6621412366913
 48
0.0
 49
0.0
140
0.0
141
0.0
142
1.0
143
0.4718508730467012
 70
 11956
 72
     1
 73
     1
 74
     1
  7
DIERRE BN.ctb
 75
     0
147
2.119313658451206
148
-222.4649060220283
149
-239.0808115236937
1001
ACAD_PSEXT
1000
Olivetti_200.pc3
1000
Olivetti d-Copia 200MF KX
1000
IP_192.168.1.151
1000

1070
     0
  0
PLOTSETTINGS
  5
3F4
102
{ACAD_XDICTIONARY
360
4C3
102
}
102
{ACAD_REACTORS
330
22
102
}
330
22
100
AcDbPlotSettings
  1
Olivetti_200 A4
  2
Olivetti_200.pc3
  4
A4
  6

 40
4.984749794006347
 41
5.154074668884277
 42
5.111740112304687
 43
4.9847412109375
 44
210.0156707763672
 45
297.0106506347656
 46
51.67548120477697
 47
0.0
 48
0.0
 49
0.0
140
0.0
141
0.0
142
1.0
143
0.4718508448115938
 70
 11956
 72
     1
 73
     0
 74
     1
  7
DIERRE BN.ctb
 75
     0
147
2.119313785268927
148
-222.4649060220283
149
-239.0808115236937
1001
ACAD_PSEXT
1000
Olivetti_200.pc3
1000
Olivetti d-Copia 200MF KX
1000
IP_192.168.1.151
1000

1070
     0
  0
PLOTSETTINGS
  5
3F5
102
{ACAD_XDICTIONARY
360
4C5
102
}
102
{ACAD_REACTORS
330
22
102
}
330
22
100
AcDbPlotSettings
  1
PLOTTER
  2
PLOTTER.pc3
  4
User622
  6

 40
0.0
 41
0.0
 42
0.0
 43
0.0
 44
841.0
 45
1189.0
 46
0.0
 47
0.0
 48
0.0
 49
0.0
140
0.0
141
0.0
142
1.0
143
1.0
 70
 11936
 72
     1
 73
     0
 74
     1
  7
DIERRE BN.ctb
 75
     0
147
2.194137304425714
148
-222.4649060220283
149
-239.0808115236937
1001
ACAD_PSEXT
1000
PLOTTER.pc3
1000
HP DesignJet 430 (E/A0) by HP
1000
\\SERVER2003
1000

1070
     0
  0
ACDBPLACEHOLDER
  5
1D
102
{ACAD_REACTORS
330
1F
102
}
330
1F
  0
SCALE
  5
219
102
{ACAD_REACTORS
330
218
102
}
330
218
100
AcDbScale
 70
     0
300
1:1
140
1.0
141
1.0
290
     1
  0
SCALE
  5
21A
102
{ACAD_REACTORS
330
218
102
}
330
218
100
AcDbScale
 70
     0
300
1:2
140
1.0
141
2.0
290
     0
  0
SCALE
  5
21B
102
{ACAD_REACTORS
330
218
102
}
330
218
100
AcDbScale
 70
     0
300
1:4
140
1.0
141
4.0
290
     0
  0
SCALE
  5
21C
102
{ACAD_REACTORS
330
218
102
}
330
218
100
AcDbScale
 70
     0
300
1:5
140
1.0
141
5.0
290
     0
  0
SCALE
  5
21D
102
{ACAD_REACTORS
330
218
102
}
330
218
100
AcDbScale
 70
     0
300
1:8
140
1.0
141
8.0
290
     0
  0
SCALE
  5
21E
102
{ACAD_REACTORS
330
218
102
}
330
218
100
AcDbScale
 70
     0
300
1:10
140
1.0
141
10.0
290
     0
  0
SCALE
  5
21F
102
{ACAD_REACTORS
330
218
102
}
330
218
100
AcDbScale
 70
     0
300
1:16
140
1.0
141
16.0
290
     0
  0
SCALE
  5
220
102
{ACAD_REACTORS
330
218
102
}
330
218
100
AcDbScale
 70
     0
300
1:20
140
1.0
141
20.0
290
     0
  0
SCALE
  5
221
102
{ACAD_REACTORS
330
218
102
}
330
218
100
AcDbScale
 70
     0
300
1:30
140
1.0
141
30.0
290
     0
  0
SCALE
  5
222
102
{ACAD_REACTORS
330
218
102
}
330
218
100
AcDbScale
 70
     0
300
1:40
140
1.0
141
40.0
290
     0
  0
SCALE
  5
223
102
{ACAD_REACTORS
330
218
102
}
330
218
100
AcDbScale
 70
     0
300
1:50
140
1.0
141
50.0
290
     0
  0
SCALE
  5
224
102
{ACAD_REACTORS
330
218
102
}
330
218
100
AcDbScale
 70
     0
300
1:100
140
1.0
141
100.0
290
     0
  0
SCALE
  5
225
102
{ACAD_REACTORS
330
218
102
}
330
218
100
AcDbScale
 70
     0
300
2:1
140
2.0
141
1.0
290
     0
  0
SCALE
  5
226
102
{ACAD_REACTORS
330
218
102
}
330
218
100
AcDbScale
 70
     0
300
4:1
140
4.0
141
1.0
290
     0
  0
SCALE
  5
227
102
{ACAD_REACTORS
330
218
102
}
330
218
100
AcDbScale
 70
     0
300
8:1
140
8.0
141
1.0
290
     0
  0
SCALE
  5
228
102
{ACAD_REACTORS
330
218
102
}
330
218
100
AcDbScale
 70
     0
300
10:1
140
10.0
141
1.0
290
     0
  0
SCALE
  5
229
102
{ACAD_REACTORS
330
218
102
}
330
218
100
AcDbScale
 70
     0
300
100:1
140
100.0
141
1.0
290
     0
  0
SCALE
  5
22A
102
{ACAD_REACTORS
330
218
102
}
330
218
100
AcDbScale
 70
     0
300
1/128" = 1'-0"
140
0.0078125
141
12.0
290
     0
  0
SCALE
  5
22B
102
{ACAD_REACTORS
330
218
102
}
330
218
100
AcDbScale
 70
     0
300
1/64" = 1'-0"
140
0.015625
141
12.0
290
     0
  0
SCALE
  5
22C
102
{ACAD_REACTORS
330
218
102
}
330
218
100
AcDbScale
 70
     0
300
1/32" = 1'-0"
140
0.03125
141
12.0
290
     0
  0
SCALE
  5
22D
102
{ACAD_REACTORS
330
218
102
}
330
218
100
AcDbScale
 70
     0
300
1/16" = 1'-0"
140
0.0625
141
12.0
290
     0
  0
SCALE
  5
22E
102
{ACAD_REACTORS
330
218
102
}
330
218
100
AcDbScale
 70
     0
300
3/32" = 1'-0"
140
0.09375
141
12.0
290
     0
  0
SCALE
  5
22F
102
{ACAD_REACTORS
330
218
102
}
330
218
100
AcDbScale
 70
     0
300
1/8" = 1'-0"
140
0.125
141
12.0
290
     0
  0
SCALE
  5
230
102
{ACAD_REACTORS
330
218
102
}
330
218
100
AcDbScale
 70
     0
300
3/16" = 1'-0"
140
0.1875
141
12.0
290
     0
  0
SCALE
  5
231
102
{ACAD_REACTORS
330
218
102
}
330
218
100
AcDbScale
 70
     0
300
1/4" = 1'-0"
140
0.25
141
12.0
290
     0
  0
SCALE
  5
232
102
{ACAD_REACTORS
330
218
102
}
330
218
100
AcDbScale
 70
     0
300
3/8" = 1'-0"
140
0.375
141
12.0
290
     0
  0
SCALE
  5
233
102
{ACAD_REACTORS
330
218
102
}
330
218
100
AcDbScale
 70
     0
300
1/2" = 1'-0"
140
0.5
141
12.0
290
     0
  0
SCALE
  5
234
102
{ACAD_REACTORS
330
218
102
}
330
218
100
AcDbScale
 70
     0
300
3/4" = 1'-0"
140
0.75
141
12.0
290
     0
  0
SCALE
  5
235
102
{ACAD_REACTORS
330
218
102
}
330
218
100
AcDbScale
 70
     0
300
1" = 1'-0"
140
1.0
141
12.0
290
     0
  0
SCALE
  5
236
102
{ACAD_REACTORS
330
218
102
}
330
218
100
AcDbScale
 70
     0
300
1-1/2" = 1'-0"
140
1.5
141
12.0
290
     0
  0
SCALE
  5
237
102
{ACAD_REACTORS
330
218
102
}
330
218
100
AcDbScale
 70
     0
300
3" = 1'-0"
140
3.0
141
12.0
290
     0
  0
SCALE
  5
238
102
{ACAD_REACTORS
330
218
102
}
330
218
100
AcDbScale
 70
     0
300
6" = 1'-0"
140
6.0
141
12.0
290
     0
  0
SCALE
  5
239
102
{ACAD_REACTORS
330
218
102
}
330
218
100
AcDbScale
 70
     0
300
1'-0" = 1'-0"
140
12.0
141
12.0
290
     0
  0
TABLESTYLE
  5
3F6
102
{ACAD_XDICTIONARY
360
3F7
102
}
102
{ACAD_REACTORS
330
262
102
}
330
262
100
AcDbTableStyle
  3
Standard
 70
     1
 71
     0
 40
1.5
 41
1.5
280
     1
281
     0
  7
ROMANS
140
3.0
170
     5
 62
     7
 63
     7
283
     0
274
    -2
284
     1
 64
     0
275
    -2
285
     1
 65
     0
276
    -2
286
     1
 66
     0
277
    -2
287
     1
 67
     0
278
    -2
288
     1
 68
     0
279
    -2
289
     1
 69
     0
  7
ROMANS
140
6.0
170
     5
 62
     1
 63
     7
283
     0
274
    -2
284
     1
 64
     0
275
    -2
285
     1
 65
     0
276
    -2
286
     1
 66
     0
277
    -2
287
     1
 67
     0
278
    -2
288
     1
 68
     0
279
    -2
289
     1
 69
     0
  7
ROMANS
140
3.5
170
     5
 62
     3
 63
     7
283
     0
274
    -2
284
     1
 64
     0
275
    -2
285
     1
 65
     0
276
    -2
286
     1
 66
     0
277
    -2
287
     1
 67
     0
278
    -2
288
     1
 68
     0
279
    -2
289
     1
 69
     0
  0
TABLESTYLE
  5
3F8
102
{ACAD_XDICTIONARY
360
3F9
102
}
102
{ACAD_REACTORS
330
262
102
}
330
262
100
AcDbTableStyle
  3
Standard
 70
     0
 71
     0
 40
1.5
 41
1.5
280
     0
281
     0
  7
ROMANS
140
4.5
170
     5
 62
     7
 63
     7
283
     0
274
    -2
284
     1
 64
     0
275
    -2
285
     1
 65
     0
276
    -2
286
     1
 66
     0
277
    -2
287
     1
 67
     0
278
    -2
288
     1
 68
     0
279
    -2
289
     1
 69
     0
  7
ROMANS
140
6.0
170
     5
 62
     1
 63
     7
283
     0
274
    -2
284
     1
 64
     0
275
    -2
285
     1
 65
     0
276
    -2
286
     1
 66
     0
277
    -2
287
     1
 67
     0
278
    -2
288
     1
 68
     0
279
    -2
289
     1
 69
     0
  7
ROMANS
140
5.0
170
     5
 62
     3
 63
     7
283
     0
274
    -2
284
     1
 64
     0
275
    -2
285
     1
 65
     0
276
    -2
286
     1
 66
     0
277
    -2
287
     1
 67
     0
278
    -2
288
     1
 68
     0
279
    -2
289
     1
 69
     0
  0
TABLESTYLE
  5
263
102
{ACAD_XDICTIONARY
360
423
102
}
102
{ACAD_REACTORS
330
262
102
}
330
262
100
AcDbTableStyle
  3
Standard
 70
     0
 71
     0
 40
0.06
 41
0.06
280
     0
281
     0
  7
Standard
140
0.18
170
     2
 62
     0
 63
     7
283
     0
274
    -2
284
     1
 64
     0
275
    -2
285
     1
 65
     0
276
    -2
286
     1
 66
     0
277
    -2
287
     1
 67
     0
278
    -2
288
     1
 68
     0
279
    -2
289
     1
 69
     0
  7
Standard
140
0.25
170
     5
 62
     0
 63
     7
283
     0
274
    -2
284
     1
 64
     0
275
    -2
285
     1
 65
     0
276
    -2
286
     1
 66
     0
277
    -2
287
     1
 67
     0
278
    -2
288
     1
 68
     0
279
    -2
289
     1
 69
     0
  7
Standard
140
0.18
170
     5
 62
     0
 63
     7
283
     0
274
    -2
284
     1
 64
     0
275
    -2
285
     1
 65
     0
276
    -2
286
     1
 66
     0
277
    -2
287
     1
 67
     0
278
    -2
288
     1
 68
     0
279
    -2
289
     1
 69
     0
  0
VISUALSTYLE
  5
209
102
{ACAD_XDICTIONARY
360
49A
102
}
102
{ACAD_REACTORS
330
203
102
}
330
203
100
AcDbVisualStyle
  2
2dWireframe
 70
     4
 71
     0
 72
     2
 73
     0
 90
        0
 40
-0.6
 41
-30.0
 62
     5
 63
     7
 74
     1
 91
        4
 64
     7
 65
   257
 75
     1
175
     1
 42
1.0
 92
        0
 66
   257
 43
1.0
 76
     1
 77
     6
 78
     2
 67
     7
 79
     5
170
     0
171
     0
290
     0
174
     0
 93
        1
 44
0.0
173
     0
291
     0
 45
0.0
1001
ACAD
1000
AcDbSavedByObjectVersion
1070
     0
  0
VISUALSTYLE
  5
20B
102
{ACAD_XDICTIONARY
360
49E
102
}
102
{ACAD_REACTORS
330
203
102
}
330
203
100
AcDbVisualStyle
  2
3D Hidden
 70
     6
 71
     1
 72
     2
 73
     2
 90
        0
 40
-0.6
 41
-30.0
 62
     5
 63
     7
 74
     2
 91
        2
 64
     7
 65
   257
 75
     2
175
     1
 42
179.0
 92
        0
 66
   257
 43
1.0
 76
     1
 77
     6
 78
     2
 67
     7
 79
     3
170
     0
171
     0
290
     0
174
     0
 93
        1
 44
0.0
173
     0
291
     0
 45
0.0
1001
ACAD
1000
AcDbSavedByObjectVersion
1070
     0
  0
VISUALSTYLE
  5
20A
102
{ACAD_XDICTIONARY
360
49C
102
}
102
{ACAD_REACTORS
330
203
102
}
330
203
100
AcDbVisualStyle
  2
3dWireframe
 70
     5
 71
     0
 72
     2
 73
     0
 90
        0
 40
-0.6
 41
-30.0
 62
     5
 63
     7
 74
     1
 91
        4
 64
     7
 65
   257
 75
     1
175
     1
 42
1.0
 92
        0
 66
   257
 43
1.0
 76
     1
 77
     6
 78
     2
 67
     7
 79
     5
170
     0
171
     0
290
     0
174
     0
 93
        1
 44
0.0
173
     0
291
     0
 45
0.0
1001
ACAD
1000
AcDbSavedByObjectVersion
1070
     0
  0
VISUALSTYLE
  5
208
102
{ACAD_XDICTIONARY
360
498
102
}
102
{ACAD_REACTORS
330
203
102
}
330
203
100
AcDbVisualStyle
  2
Basic
 70
     7
 71
     1
 72
     0
 73
     1
 90
        0
 40
-0.6
 41
-30.0
 62
     5
 63
     7
 74
     0
 91
        4
 64
     7
 65
   257
 75
     1
175
     1
 42
1.0
 92
        8
 66
     7
 43
1.0
 76
     1
 77
     6
 78
     2
 67
     7
 79
     5
170
     0
171
     0
290
     0
174
     0
 93
        1
 44
0.0
173
     0
291
     1
 45
0.0
1001
ACAD
1000
AcDbSavedByObjectVersion
1070
     0
  0
VISUALSTYLE
  5
20F
102
{ACAD_XDICTIONARY
360
4A6
102
}
102
{ACAD_REACTORS
330
203
102
}
330
203
100
AcDbVisualStyle
  2
Brighten
 70
    12
 71
     2
 72
     2
 73
     0
 90
        0
 40
-0.6
 41
-30.0
 62
     5
 63
     7
 74
     1
 91
        4
 64
     7
 65
   257
 75
     1
175
     1
 42
1.0
 92
        8
 66
     7
 43
1.0
 76
     1
 77
     6
 78
     2
 67
     7
 79
     5
170
     0
171
     0
290
     0
174
     0
 93
        1
 44
50.0
173
     0
291
     1
 45
0.0
1001
ACAD
1000
AcDbSavedByObjectVersion
1070
     0
  0
VISUALSTYLE
  5
213
102
{ACAD_XDICTIONARY
360
4AE
102
}
102
{ACAD_REACTORS
330
203
102
}
330
203
100
AcDbVisualStyle
  2
ColorChange
 70
    16
 71
     2
 72
     2
 73
     3
 90
        0
 40
-0.6
 41
-30.0
 62
     5
 63
     8
 74
     1
 91
        4
 64
     7
 65
   257
 75
     1
175
     1
 42
1.0
 92
        8
 66
     8
 43
1.0
 76
     1
 77
     6
 78
     2
 67
     7
 79
     5
170
     0
171
     0
290
     0
174
     0
 93
        1
 44
0.0
173
     0
291
     1
 45
0.0
1001
ACAD
1000
AcDbSavedByObjectVersion
1070
     0
  0
VISUALSTYLE
  5
20C
102
{ACAD_XDICTIONARY
360
4A0
102
}
102
{ACAD_REACTORS
330
203
102
}
330
203
100
AcDbVisualStyle
  2
Conceptual
 70
     9
 71
     3
 72
     2
 73
     0
 90
        0
 40
-0.6
 41
-30.0
 62
     5
 63
     7
 74
     2
 91
        2
 64
     7
 65
   257
 75
     1
175
     1
 42
179.0
 92
        8
 66
     7
 43
1.0
 76
     1
 77
     6
 78
     2
 67
     7
 79
     3
170
     0
171
     0
290
     0
174
     0
 93
        1
 44
0.0
173
     0
291
     0
 45
0.0
1001
ACAD
1000
AcDbSavedByObjectVersion
1070
     0
  0
VISUALSTYLE
  5
20E
102
{ACAD_XDICTIONARY
360
4A4
102
}
102
{ACAD_REACTORS
330
203
102
}
330
203
100
AcDbVisualStyle
  2
Dim
 70
    11
 71
     2
 72
     2
 73
     0
 90
        0
 40
-0.6
 41
-30.0
 62
     5
 63
     7
 74
     1
 91
        4
 64
     7
 65
   257
 75
     1
175
     1
 42
1.0
 92
        8
 66
     7
 43
1.0
 76
     1
 77
     6
 78
     2
 67
     7
 79
     5
170
     0
171
     0
290
     0
174
     0
 93
        1
 44
-50.0
173
     0
291
     1
 45
0.0
1001
ACAD
1000
AcDbSavedByObjectVersion
1070
     0
  0
VISUALSTYLE
  5
216
102
{ACAD_XDICTIONARY
360
4B4
102
}
102
{ACAD_REACTORS
330
203
102
}
330
203
100
AcDbVisualStyle
  2
EdgeColorOff
 70
    22
 71
     2
 72
     2
 73
     0
 90
        0
 40
-0.6
 41
-30.0
 62
     5
 63
     7
 74
     1
 91
        4
 64
     7
 65
   257
 75
     1
175
     1
 42
1.0
 92
        8
 66
     7
 43
1.0
 76
     1
 77
     6
 78
     2
 67
     7
 79
     5
170
     0
171
     0
290
     0
174
     0
 93
        1
 44
0.0
173
     0
291
     1
 45
0.0
1001
ACAD
1000
AcDbSavedByObjectVersion
1070
     0
  0
VISUALSTYLE
  5
212
102
{ACAD_XDICTIONARY
360
4AC
102
}
102
{ACAD_REACTORS
330
203
102
}
330
203
100
AcDbVisualStyle
  2
Facepattern
 70
    15
 71
     2
 72
     2
 73
     0
 90
        0
 40
-0.6
 41
-30.0
 62
     5
 63
     7
 74
     1
 91
        4
 64
     7
 65
   257
 75
     1
175
     1
 42
1.0
 92
        8
 66
     7
 43
1.0
 76
     1
 77
     6
 78
     2
 67
     7
 79
     5
170
     0
171
     0
290
     0
174
     0
 93
        1
 44
0.0
173
     0
291
     1
 45
0.0
1001
ACAD
1000
AcDbSavedByObjectVersion
1070
     0
  0
VISUALSTYLE
  5
204
102
{ACAD_XDICTIONARY
360
490
102
}
102
{ACAD_REACTORS
330
203
102
}
330
203
100
AcDbVisualStyle
  2
Flat
 70
     0
 71
     2
 72
     1
 73
     1
 90
        2
 40
-0.6
 41
30.0
 62
     5
 63
     7
 74
     0
 91
        4
 64
     7
 65
   257
 75
     1
175
     1
 42
1.0
 92
        8
 66
     7
 43
1.0
 76
     1
 77
     6
 78
     2
 67
     7
 79
     5
170
     0
171
     0
290
     0
174
     0
 93
       13
 44
0.0
173
     0
291
     1
 45
0.0
1001
ACAD
1000
AcDbSavedByObjectVersion
1070
     0
  0
VISUALSTYLE
  5
205
102
{ACAD_XDICTIONARY
360
492
102
}
102
{ACAD_REACTORS
330
203
102
}
330
203
100
AcDbVisualStyle
  2
FlatWithEdges
 70
     1
 71
     2
 72
     1
 73
     1
 90
        2
 40
-0.6
 41
30.0
 62
     5
 63
     7
 74
     1
 91
        4
 64
     7
 65
   257
 75
     1
175
     1
 42
1.0
 92
        0
 66
   257
 43
1.0
 76
     1
 77
     6
 78
     2
 67
     7
 79
     5
170
     0
171
     0
290
     0
174
     0
 93
       13
 44
0.0
173
     0
291
     1
 45
0.0
1001
ACAD
1000
AcDbSavedByObjectVersion
1070
     0
  0
VISUALSTYLE
  5
206
102
{ACAD_XDICTIONARY
360
494
102
}
102
{ACAD_REACTORS
330
203
102
}
330
203
100
AcDbVisualStyle
  2
Gouraud
 70
     2
 71
     2
 72
     2
 73
     1
 90
        2
 40
-0.6
 41
30.0
 62
     5
 63
     7
 74
     0
 91
        4
 64
     7
 65
   257
 75
     1
175
     1
 42
1.0
 92
        0
 66
     7
 43
1.0
 76
     1
 77
     6
 78
     2
 67
     7
 79
     5
170
     0
171
     0
290
     0
174
     0
 93
       13
 44
0.0
173
     0
291
     1
 45
0.0
1001
ACAD
1000
AcDbSavedByObjectVersion
1070
     0
  0
VISUALSTYLE
  5
207
102
{ACAD_XDICTIONARY
360
496
102
}
102
{ACAD_REACTORS
330
203
102
}
330
203
100
AcDbVisualStyle
  2
GouraudWithEdges
 70
     3
 71
     2
 72
     2
 73
     1
 90
        2
 40
-0.6
 41
30.0
 62
     5
 63
     7
 74
     1
 91
        4
 64
     7
 65
   257
 75
     1
175
     1
 42
1.0
 92
        0
 66
   257
 43
1.0
 76
     1
 77
     6
 78
     2
 67
     7
 79
     5
170
     0
171
     0
290
     0
174
     0
 93
       13
 44
0.0
173
     0
291
     1
 45
0.0
1001
ACAD
1000
AcDbSavedByObjectVersion
1070
     0
  0
VISUALSTYLE
  5
474
102
{ACAD_XDICTIONARY
360
4CB
102
}
102
{ACAD_REACTORS
330
203
102
}
330
203
100
AcDbVisualStyle
  2
Hidden
 70
     6
 71
     1
 72
     2
 73
     2
 90
        0
 40
-0.6
 41
-30.0
 62
     5
 63
     7
 74
     2
 91
        2
 64
     7
 65
   257
 75
     2
175
     1
 42
40.0
 92
        0
 66
   257
 43
1.0
 76
     1
 77
     6
 78
     2
 67
     7
 79
     3
170
     0
171
     0
290
     0
174
     0
 93
        1
 44
0.0
173
     0
291
     0
 45
0.0
1001
ACAD
1000
AcDbSavedByObjectVersion
1070
     0
  0
VISUALSTYLE
  5
214
102
{ACAD_XDICTIONARY
360
4B0
102
}
102
{ACAD_REACTORS
330
203
102
}
330
203
100
AcDbVisualStyle
  2
JitterOff
 70
    20
 71
     2
 72
     2
 73
     0
 90
        0
 40
-0.6
 41
-30.0
 62
     5
 63
     7
 74
     1
 91
        4
 64
     7
 65
   257
 75
     1
175
     1
 42
1.0
 92
       10
 66
     7
 43
1.0
 76
     1
 77
     6
 78
     2
 67
     7
 79
     5
170
     0
171
     0
290
     0
174
     0
 93
        1
 44
0.0
173
     0
291
     1
 45
0.0
1001
ACAD
1000
AcDbSavedByObjectVersion
1070
     0
  0
VISUALSTYLE
  5
211
102
{ACAD_XDICTIONARY
360
4AA
102
}
102
{ACAD_REACTORS
330
203
102
}
330
203
100
AcDbVisualStyle
  2
Linepattern
 70
    14
 71
     2
 72
     2
 73
     0
 90
        0
 40
-0.6
 41
-30.0
 62
     5
 63
     7
 74
     1
 91
        4
 64
     7
 65
   257
 75
     7
175
     7
 42
1.0
 92
        8
 66
     7
 43
1.0
 76
     1
 77
     6
 78
     2
 67
     7
 79
     5
170
     0
171
     0
290
     0
174
     0
 93
        1
 44
0.0
173
     0
291
     1
 45
0.0
1001
ACAD
1000
AcDbSavedByObjectVersion
1070
     0
  0
VISUALSTYLE
  5
215
102
{ACAD_XDICTIONARY
360
4B2
102
}
102
{ACAD_REACTORS
330
203
102
}
330
203
100
AcDbVisualStyle
  2
OverhangOff
 70
    21
 71
     2
 72
     2
 73
     0
 90
        0
 40
-0.6
 41
-30.0
 62
     5
 63
     7
 74
     1
 91
        4
 64
     7
 65
   257
 75
     1
175
     1
 42
1.0
 92
        9
 66
     7
 43
1.0
 76
     1
 77
     6
 78
     2
 67
     7
 79
     5
170
     0
171
     0
290
     0
174
     0
 93
        1
 44
0.0
173
     0
291
     1
 45
0.0
1001
ACAD
1000
AcDbSavedByObjectVersion
1070
     0
  0
VISUALSTYLE
  5
20D
102
{ACAD_XDICTIONARY
360
4A2
102
}
102
{ACAD_REACTORS
330
203
102
}
330
203
100
AcDbVisualStyle
  2
Realistic
 70
     8
 71
     2
 72
     2
 73
     0
 90
        0
 40
-0.6
 41
-30.0
 62
     5
 63
     7
 74
     1
 91
        0
 64
     7
 65
   257
 75
     1
175
     1
 42
1.0
 92
        8
 66
     8
 43
1.0
 76
     1
 77
     6
 78
     2
 67
     7
 79
     5
170
     0
171
     0
290
     0
174
     0
 93
       13
 44
0.0
173
     0
291
     0
 45
0.0
1001
ACAD
1000
AcDbSavedByObjectVersion
1070
     0
  0
VISUALSTYLE
  5
479
102
{ACAD_XDICTIONARY
360
4D5
102
}
102
{ACAD_REACTORS
330
203
102
}
330
203
100
AcDbVisualStyle
  2
Shaded
 70
    27
 71
     2
 72
     2
 73
     1
 90
        2
 40
-0.6
 41
30.0
 62
     5
 63
     7
 74
     0
 91
        4
 64
     7
 65
   257
 75
     1
175
     1
 42
1.0
 92
        8
 66
   257
 43
1.0
 76
     1
 77
     6
 78
     2
 67
     8
 79
     3
170
     0
171
     0
290
     0
174
     0
 93
        5
 44
0.0
173
     0
291
     0
 45
0.0
1001
ACAD
1000
AcDbSavedByObjectVersion
1070
     0
  0
VISUALSTYLE
  5
478
102
{ACAD_XDICTIONARY
360
4D3
102
}
102
{ACAD_REACTORS
330
203
102
}
330
203
100
AcDbVisualStyle
  2
Shaded with edges
 70
    26
 71
     2
 72
     2
 73
     1
 90
        2
 40
-0.6
 41
30.0
 62
     5
 63
     7
 74
     1
 91
       10
 64
     7
 65
   257
 75
     2
175
     1
 42
1.0
 92
        8
 66
   257
 43
1.0
 76
     1
 77
     6
 78
     2
 67
     7
 79
     3
170
     0
171
     0
290
     0
174
     0
 93
        5
 44
0.0
173
     0
291
     0
 45
0.0
1001
ACAD
1000
AcDbSavedByObjectVersion
1070
     0
  0
VISUALSTYLE
  5
475
102
{ACAD_XDICTIONARY
360
4CD
102
}
102
{ACAD_REACTORS
330
203
102
}
330
203
100
AcDbVisualStyle
  2
Shades of Gray
 70
    23
 71
     2
 72
     2
 73
     3
 90
        0
 40
-0.6
 41
-30.0
 62
     5
 63
     7
 74
     2
 91
        2
 64
     7
 65
     7
 75
     1
175
     1
 42
40.0
 92
        8
 66
     7
 43
1.0
 76
     1
 77
     6
 78
     2
 67
     7
 79
     3
170
     0
171
     0
290
     0
174
     0
 93
        1
 44
0.0
173
     0
291
     0
 45
0.0
1001
ACAD
1000
AcDbSavedByObjectVersion
1070
     0
  0
VISUALSTYLE
  5
476
102
{ACAD_XDICTIONARY
360
4CF
102
}
102
{ACAD_REACTORS
330
203
102
}
330
203
100
AcDbVisualStyle
  2
Sketchy
 70
    24
 71
     1
 72
     2
 73
     2
 90
        0
 40
-0.6
 41
-30.0
 62
     5
 63
     7
 74
     2
 91
        2
 64
     7
 65
     7
 75
     1
175
     1
 42
40.0
 92
       11
 66
     7
 43
1.0
 76
     1
 77
     6
 78
     2
 67
     7
 79
     6
170
     0
171
     0
290
     0
174
     0
 93
        1
 44
0.0
173
     0
291
     0
 45
0.0
1001
ACAD
1000
AcDbSavedByObjectVersion
1070
     0
  0
VISUALSTYLE
  5
210
102
{ACAD_XDICTIONARY
360
4A8
102
}
102
{ACAD_REACTORS
330
203
102
}
330
203
100
AcDbVisualStyle
  2
Thicken
 70
    13
 71
     2
 72
     2
 73
     0
 90
        0
 40
-0.6
 41
-30.0
 62
     5
 63
     7
 74
     1
 91
        4
 64
     7
 65
   257
 75
     1
175
     1
 42
1.0
 92
       12
 66
     7
 43
1.0
 76
     1
 77
     6
 78
     2
 67
     7
 79
     5
170
     0
171
     0
290
     0
174
     0
 93
        1
 44
0.0
173
     0
291
     1
 45
0.0
1001
ACAD
1000
AcDbSavedByObjectVersion
1070
     0
  0
VISUALSTYLE
  5
473
102
{ACAD_XDICTIONARY
360
4C9
102
}
102
{ACAD_REACTORS
330
203
102
}
330
203
100
AcDbVisualStyle
  2
Wireframe
 70
     5
 71
     0
 72
     2
 73
     0
 90
        0
 40
-0.6
 41
-30.0
 62
     5
 63
     7
 74
     1
 91
        4
 64
     7
 65
   257
 75
     1
175
     1
 42
1.0
 92
        0
 66
   257
 43
1.0
 76
     1
 77
     6
 78
     2
 67
     7
 79
     3
170
     0
171
     0
290
     0
174
     0
 93
        1
 44
0.0
173
     0
291
     0
 45
0.0
1001
ACAD
1000
AcDbSavedByObjectVersion
1070
     0
  0
VISUALSTYLE
  5
477
102
{ACAD_XDICTIONARY
360
4D1
102
}
102
{ACAD_REACTORS
330
203
102
}
330
203
100
AcDbVisualStyle
  2
X-Ray
 70
    25
 71
     2
 72
     2
 73
     1
 90
        1
 40
0.5
 41
-30.0
 62
     5
 63
     7
 74
     1
 91
        0
 64
     7
 65
   257
 75
     1
175
     1
 42
1.0
 92
        8
 66
     7
 43
1.0
 76
     1
 77
     6
 78
     2
 67
     7
 79
     3
170
     0
171
     0
290
     0
174
     0
 93
       13
 44
0.0
173
     0
291
     0
 45
0.0
1001
ACAD
1000
AcDbSavedByObjectVersion
1070
     0
  0
DICTIONARYVAR
  5
46E
102
{ACAD_REACTORS
330
1E8
102
}
330
1E8
100
DictionaryVariables
280
     0
  1
1:1
  0
DICTIONARYVAR
  5
46C
102
{ACAD_REACTORS
330
1E8
102
}
330
1E8
100
DictionaryVariables
280
     0
  1
STANDARD
  0
DICTIONARYVAR
  5
46B
102
{ACAD_REACTORS
330
1E8
102
}
330
1E8
100
DictionaryVariables
280
     0
  1
STANDARD
  0
DICTIONARYVAR
  5
1E9
330
1E8
100
DictionaryVariables
280
     0
  1
2
  0
DICTIONARYVAR
  5
46D
102
{ACAD_REACTORS
330
1E8
102
}
330
1E8
100
DictionaryVariables
280
     0
  1
0
  0
DICTIONARYVAR
  5
470
102
{ACAD_REACTORS
330
1E8
102
}
330
1E8
100
DictionaryVariables
280
     0
  1
0
  0
DICTIONARYVAR
  5
46F
102
{ACAD_REACTORS
330
1E8
102
}
330
1E8
100
DictionaryVariables
280
     0
  1
127
  0
DICTIONARYVAR
  5
483
102
{ACAD_REACTORS
330
1E8
102
}
330
1E8
100
DictionaryVariables
280
     0
  1
2
  0
XRECORD
  5
422
102
{ACAD_REACTORS
330
420
102
}
330
420
100
AcDbXrecord
280
     1
330
115
330
321
330
322
330
32C
330
32D
330
337
330
338
330
340
330
341
330
349
330
34A
330
354
330
355
330
35D
330
35E
330
368
330
369
330
371
330
372
330
37A
330
37B
330
383
330
384
330
38D
330
38E
330
393
330
394
330
39B
330
39C
330
3A4
330
3A5
330
3AD
330
3AE
330
3B8
330
3B9
330
3C1
330
3C2
330
3CA
330
3CB
  0
XRECORD
  5
3D6
102
{ACAD_REACTORS
330
3D5
102
}
330
3D5
100
AcDbXrecord
280
     1
 91
        1
  0
ACAD_PROXY_OBJECT
  5
3D3
102
{ACAD_REACTORS
330
3D2
102
}
330
3D2
100
AcDbProxyObject
 90
      499
 91
      529
 95
   983063
 70
     0
 93
       88
310
4050844454641554C5400E00
 94
        0
1001
ACAD
1000
AcRTDxfName
1000
ACDBQSCATEGORY
  0
XRECORD
  5
41E
102
{ACAD_REACTORS
330
41C
102
}
330
41C
100
AcDbXrecord
280
     1
  9
X6827
  0
XRECORD
  5
41D
102
{ACAD_REACTORS
330
41C
102
}
330
41C
100
AcDbXrecord
280
     1
  2
TOP
  3
P-0000
280
     1
310
6465736372697A696F6E6500544F5000444154410032372F31322F313000554D004E520052455600300044495345474E41544F5245004D2E43617075616E6F005343414C4100313A310000
 10
0.0
 20
0.0
 30
0.0
  0
XRECORD
  5
3DD
102
{ACAD_REACTORS
330
3DC
102
}
330
3DC
100
AcDbXrecord
280
     1
 90
      202
 91
      144
  0
DICTIONARY
  5
48B
330
21
100
AcDbDictionary
280
     1
281
     1
  3
ACAD_XREC_ROUNDTRIP
360
48C
  0
DICTIONARY
  5
489
330
20
100
AcDbDictionary
280
     1
281
     1
  3
ACAD_XREC_ROUNDTRIP
360
48A
  0
DICTIONARY
  5
1F4
330
1F3
100
AcDbDictionary
280
     1
281
     1
  3
ACAD_XREC_ROUNDTRIP
360
48E
  3
BUMPTILE
360
1F6
  3
DIFFUSETILE
360
1F5
  3
OPACITYTILE
360
1F9
  3
REFLECTIONTILE
360
1F8
  3
REFRACTIONTILE
360
1FA
  3
SPECULARTILE
360
1F7
  0
DICTIONARY
  5
1EC
330
1EB
100
AcDbDictionary
280
     1
281
     1
  3
ACAD_XREC_ROUNDTRIP
360
48D
  3
BUMPTILE
360
1EE
  3
DIFFUSETILE
360
1ED
  3
OPACITYTILE
360
1F1
  3
REFLECTIONTILE
360
1F0
  3
REFRACTIONTILE
360
1F2
  3
SPECULARTILE
360
1EF
  0
DICTIONARY
  5
1FC
330
1FB
100
AcDbDictionary
280
     1
281
     1
  3
ACAD_XREC_ROUNDTRIP
360
48F
  3
BUMPTILE
360
1FE
  3
DIFFUSETILE
360
1FD
  3
OPACITYTILE
360
201
  3
REFLECTIONTILE
360
200
  3
REFRACTIONTILE
360
202
  3
SPECULARTILE
360
1FF
  0
DICTIONARY
  5
4BD
330
3F1
100
AcDbDictionary
280
     1
281
     1
  3
ACAD_XREC_ROUNDTRIP
360
4BE
  0
DICTIONARY
  5
4BF
330
3F2
100
AcDbDictionary
280
     1
281
     1
  3
ACAD_XREC_ROUNDTRIP
360
4C0
  0
DICTIONARY
  5
4C1
330
3F3
100
AcDbDictionary
280
     1
281
     1
  3
ACAD_XREC_ROUNDTRIP
360
4C2
  0
DICTIONARY
  5
4C3
330
3F4
100
AcDbDictionary
280
     1
281
     1
  3
ACAD_XREC_ROUNDTRIP
360
4C4
  0
DICTIONARY
  5
4C5
330
3F5
100
AcDbDictionary
280
     1
281
     1
  3
ACAD_XREC_ROUNDTRIP
360
4C6
  0
DICTIONARY
  5
3F7
330
3F6
100
AcDbDictionary
280
     1
281
     1
  3
ACAD_ROUNDTRIP_2008_TABLESTYLE_CELLSTYLEMAP
360
485
  3
ACAD_XREC_ROUNDTRIP
360
4C7
  0
DICTIONARY
  5
3F9
330
3F8
100
AcDbDictionary
280
     1
281
     1
  3
ACAD_ROUNDTRIP_2008_TABLESTYLE_CELLSTYLEMAP
360
486
  3
ACAD_XREC_ROUNDTRIP
360
4C8
  0
DICTIONARY
  5
423
330
263
100
AcDbDictionary
280
     1
281
     1
  3
ACAD_ROUNDTRIP_2008_TABLESTYLE_CELLSTYLEMAP
360
484
  3
ACAD_XREC_ROUNDTRIP
360
4B6
  0
DICTIONARY
  5
49A
330
209
100
AcDbDictionary
280
     1
281
     1
  3
ACAD_XREC_ROUNDTRIP
360
49B
  0
DICTIONARY
  5
49E
330
20B
100
AcDbDictionary
280
     1
281
     1
  3
ACAD_XREC_ROUNDTRIP
360
49F
  0
DICTIONARY
  5
49C
330
20A
100
AcDbDictionary
280
     1
281
     1
  3
ACAD_XREC_ROUNDTRIP
360
49D
  0
DICTIONARY
  5
498
330
208
100
AcDbDictionary
280
     1
281
     1
  3
ACAD_XREC_ROUNDTRIP
360
499
  0
DICTIONARY
  5
4A6
330
20F
100
AcDbDictionary
280
     1
281
     1
  3
ACAD_XREC_ROUNDTRIP
360
4A7
  0
DICTIONARY
  5
4AE
330
213
100
AcDbDictionary
280
     1
281
     1
  3
ACAD_XREC_ROUNDTRIP
360
4AF
  0
DICTIONARY
  5
4A0
330
20C
100
AcDbDictionary
280
     1
281
     1
  3
ACAD_XREC_ROUNDTRIP
360
4A1
  0
DICTIONARY
  5
4A4
330
20E
100
AcDbDictionary
280
     1
281
     1
  3
ACAD_XREC_ROUNDTRIP
360
4A5
  0
DICTIONARY
  5
4B4
330
216
100
AcDbDictionary
280
     1
281
     1
  3
ACAD_XREC_ROUNDTRIP
360
4B5
  0
DICTIONARY
  5
4AC
330
212
100
AcDbDictionary
280
     1
281
     1
  3
ACAD_XREC_ROUNDTRIP
360
4AD
  0
DICTIONARY
  5
490
330
204
100
AcDbDictionary
280
     1
281
     1
  3
ACAD_XREC_ROUNDTRIP
360
491
  0
DICTIONARY
  5
492
330
205
100
AcDbDictionary
280
     1
281
     1
  3
ACAD_XREC_ROUNDTRIP
360
493
  0
DICTIONARY
  5
494
330
206
100
AcDbDictionary
280
     1
281
     1
  3
ACAD_XREC_ROUNDTRIP
360
495
  0
DICTIONARY
  5
496
330
207
100
AcDbDictionary
280
     1
281
     1
  3
ACAD_XREC_ROUNDTRIP
360
497
  0
DICTIONARY
  5
4CB
330
474
100
AcDbDictionary
280
     1
281
     1
  3
ACAD_XREC_ROUNDTRIP
360
4CC
  0
DICTIONARY
  5
4B0
330
214
100
AcDbDictionary
280
     1
281
     1
  3
ACAD_XREC_ROUNDTRIP
360
4B1
  0
DICTIONARY
  5
4AA
330
211
100
AcDbDictionary
280
     1
281
     1
  3
ACAD_XREC_ROUNDTRIP
360
4AB
  0
DICTIONARY
  5
4B2
330
215
100
AcDbDictionary
280
     1
281
     1
  3
ACAD_XREC_ROUNDTRIP
360
4B3
  0
DICTIONARY
  5
4A2
330
20D
100
AcDbDictionary
280
     1
281
     1
  3
ACAD_XREC_ROUNDTRIP
360
4A3
  0
DICTIONARY
  5
4D5
330
479
100
AcDbDictionary
280
     1
281
     1
  3
ACAD_XREC_ROUNDTRIP
360
4D6
  0
DICTIONARY
  5
4D3
330
478
100
AcDbDictionary
280
     1
281
     1
  3
ACAD_XREC_ROUNDTRIP
360
4D4
  0
DICTIONARY
  5
4CD
330
475
100
AcDbDictionary
280
     1
281
     1
  3
ACAD_XREC_ROUNDTRIP
360
4CE
  0
DICTIONARY
  5
4CF
330
476
100
AcDbDictionary
280
     1
281
     1
  3
ACAD_XREC_ROUNDTRIP
360
4D0
  0
DICTIONARY
  5
4A8
330
210
100
AcDbDictionary
280
     1
281
     1
  3
ACAD_XREC_ROUNDTRIP
360
4A9
  0
DICTIONARY
  5
4C9
330
473
100
AcDbDictionary
280
     1
281
     1
  3
ACAD_XREC_ROUNDTRIP
360
4CA
  0
DICTIONARY
  5
4D1
330
477
100
AcDbDictionary
280
     1
281
     1
  3
ACAD_XREC_ROUNDTRIP
360
4D2
  0
XRECORD
  5
48C
102
{ACAD_REACTORS
330
48B
102
}
330
48B
100
AcDbXrecord
280
     1
102
SHADEPLOT
 70
     0
102
SHADEPLOTRESLEVEL
 70
     2
102
SHADEPLOTCUSTOMDPI
 70
   300
  0
XRECORD
  5
48A
102
{ACAD_REACTORS
330
489
102
}
330
489
100
AcDbXrecord
280
     1
102
SHADEPLOT
 70
     0
102
SHADEPLOTRESLEVEL
 70
     2
102
SHADEPLOTCUSTOMDPI
 70
   300
  0
XRECORD
  5
48E
102
{ACAD_REACTORS
330
1F4
102
}
330
1F4
100
AcDbXrecord
280
     1
102
MATERIAL
148
0.0
149
0.0
149
0.0
 93
        0
 94
      127
282
     0
 72
     0
 77
     0
171
     0
175
     0
179
     0
273
     0
  0
XRECORD
  5
1F6
102
{ACAD_REACTORS
330
1F4
102
}
330
1F4
100
AcDbXrecord
280
     1
270
     1
271
     1
  0
XRECORD
  5
1F5
102
{ACAD_REACTORS
330
1F4
102
}
330
1F4
100
AcDbXrecord
280
     1
270
     1
271
     1
  0
XRECORD
  5
1F9
102
{ACAD_REACTORS
330
1F4
102
}
330
1F4
100
AcDbXrecord
280
     1
270
     1
271
     1
  0
XRECORD
  5
1F8
102
{ACAD_REACTORS
330
1F4
102
}
330
1F4
100
AcDbXrecord
280
     1
270
     1
271
     1
  0
XRECORD
  5
1FA
102
{ACAD_REACTORS
330
1F4
102
}
330
1F4
100
AcDbXrecord
280
     1
270
     1
271
     1
  0
XRECORD
  5
1F7
102
{ACAD_REACTORS
330
1F4
102
}
330
1F4
100
AcDbXrecord
280
     1
270
     1
271
     1
  0
XRECORD
  5
48D
102
{ACAD_REACTORS
330
1EC
102
}
330
1EC
100
AcDbXrecord
280
     1
102
MATERIAL
148
0.0
149
0.0
149
0.0
 93
        0
 94
      127
282
     0
 72
     0
 77
     0
171
     0
175
     0
179
     0
273
     0
  0
XRECORD
  5
1EE
102
{ACAD_REACTORS
330
1EC
102
}
330
1EC
100
AcDbXrecord
280
     1
270
     1
271
     1
  0
XRECORD
  5
1ED
102
{ACAD_REACTORS
330
1EC
102
}
330
1EC
100
AcDbXrecord
280
     1
270
     1
271
     1
  0
XRECORD
  5
1F1
102
{ACAD_REACTORS
330
1EC
102
}
330
1EC
100
AcDbXrecord
280
     1
270
     1
271
     1
  0
XRECORD
  5
1F0
102
{ACAD_REACTORS
330
1EC
102
}
330
1EC
100
AcDbXrecord
280
     1
270
     1
271
     1
  0
XRECORD
  5
1F2
102
{ACAD_REACTORS
330
1EC
102
}
330
1EC
100
AcDbXrecord
280
     1
270
     1
271
     1
  0
XRECORD
  5
1EF
102
{ACAD_REACTORS
330
1EC
102
}
330
1EC
100
AcDbXrecord
280
     1
270
     1
271
     1
  0
XRECORD
  5
48F
102
{ACAD_REACTORS
330
1FC
102
}
330
1FC
100
AcDbXrecord
280
     1
102
MATERIAL
148
0.0
149
0.0
149
0.0
 93
        0
 94
      127
282
     0
 72
     0
 77
     0
171
     0
175
     0
179
     0
273
     0
  0
XRECORD
  5
1FE
102
{ACAD_REACTORS
330
1FC
102
}
330
1FC
100
AcDbXrecord
280
     1
270
     1
271
     1
  0
XRECORD
  5
1FD
102
{ACAD_REACTORS
330
1FC
102
}
330
1FC
100
AcDbXrecord
280
     1
270
     1
271
     1
  0
XRECORD
  5
201
102
{ACAD_REACTORS
330
1FC
102
}
330
1FC
100
AcDbXrecord
280
     1
270
     1
271
     1
  0
XRECORD
  5
200
102
{ACAD_REACTORS
330
1FC
102
}
330
1FC
100
AcDbXrecord
280
     1
270
     1
271
     1
  0
XRECORD
  5
202
102
{ACAD_REACTORS
330
1FC
102
}
330
1FC
100
AcDbXrecord
280
     1
270
     1
271
     1
  0
XRECORD
  5
1FF
102
{ACAD_REACTORS
330
1FC
102
}
330
1FC
100
AcDbXrecord
280
     1
270
     1
271
     1
  0
XRECORD
  5
4BE
102
{ACAD_REACTORS
330
4BD
102
}
330
4BD
100
AcDbXrecord
280
     1
102
SHADEPLOT
 70
     0
102
SHADEPLOTRESLEVEL
 70
     2
102
SHADEPLOTCUSTOMDPI
 70
   300
  0
XRECORD
  5
4C0
102
{ACAD_REACTORS
330
4BF
102
}
330
4BF
100
AcDbXrecord
280
     1
102
SHADEPLOT
 70
     0
102
SHADEPLOTRESLEVEL
 70
     2
102
SHADEPLOTCUSTOMDPI
 70
   300
  0
XRECORD
  5
4C2
102
{ACAD_REACTORS
330
4C1
102
}
330
4C1
100
AcDbXrecord
280
     1
102
SHADEPLOT
 70
     0
102
SHADEPLOTRESLEVEL
 70
     2
102
SHADEPLOTCUSTOMDPI
 70
   300
  0
XRECORD
  5
4C4
102
{ACAD_REACTORS
330
4C3
102
}
330
4C3
100
AcDbXrecord
280
     1
102
SHADEPLOT
 70
     0
102
SHADEPLOTRESLEVEL
 70
     2
102
SHADEPLOTCUSTOMDPI
 70
   300
  0
XRECORD
  5
4C6
102
{ACAD_REACTORS
330
4C5
102
}
330
4C5
100
AcDbXrecord
280
     1
102
SHADEPLOT
 70
     0
102
SHADEPLOTRESLEVEL
 70
     2
102
SHADEPLOTCUSTOMDPI
 70
   300
  0
CELLSTYLEMAP
  5
485
102
{ACAD_REACTORS
330
3F7
102
}
330
3F7
100
AcDbCellStyleMap
 90
        3
300
CELLSTYLE
  1
TABLEFORMAT_BEGIN
 90
        5
170
     1
 91
        0
 92
    32768
 62
   257
 93
        1
300
CONTENTFORMAT
  1
CONTENTFORMAT_BEGIN
 90
        0
 91
        0
 92
      512
 93
        0
300

 40
0.0
140
1.0
 94
        5
 62
     1
340
3E3
144
6.0
309
CONTENTFORMAT_END
171
     1
301
MARGIN
  1
CELLMARGIN_BEGIN
 40
1.5
 40
1.5
 40
1.5
 40
1.5
 40
0.18
 40
0.18
309
CELLMARGIN_END
 94
        6
 95
        1
302
GRIDFORMAT
  1
GRIDFORMAT_BEGIN
 90
        0
 91
        1
 62
     0
 92
       -2
340
0
 93
        0
 40
0.045
309
GRIDFORMAT_END
 95
        2
302
GRIDFORMAT
  1
GRIDFORMAT_BEGIN
 90
        0
 91
        1
 62
     0
 92
       -2
340
0
 93
        0
 40
0.045
309
GRIDFORMAT_END
 95
        4
302
GRIDFORMAT
  1
GRIDFORMAT_BEGIN
 90
        0
 91
        1
 62
     0
 92
       -2
340
0
 93
        0
 40
0.045
309
GRIDFORMAT_END
 95
        8
302
GRIDFORMAT
  1
GRIDFORMAT_BEGIN
 90
        0
 91
        1
 62
     0
 92
       -2
340
0
 93
        0
 40
0.045
309
GRIDFORMAT_END
 95
       16
302
GRIDFORMAT
  1
GRIDFORMAT_BEGIN
 90
        0
 91
        1
 62
     0
 92
       -2
340
0
 93
        0
 40
0.045
309
GRIDFORMAT_END
 95
       32
302
GRIDFORMAT
  1
GRIDFORMAT_BEGIN
 90
        0
 91
        1
 62
     0
 92
       -2
340
0
 93
        0
 40
0.045
309
GRIDFORMAT_END
309
TABLEFORMAT_END
  1
CELLSTYLE_BEGIN
 90
        1
 91
        1
300
_TITLE
309
CELLSTYLE_END
300
CELLSTYLE
  1
TABLEFORMAT_BEGIN
 90
        5
170
     1
 91
        0
 92
        0
 62
   257
 93
        1
300
CONTENTFORMAT
  1
CONTENTFORMAT_BEGIN
 90
        0
 91
        0
 92
      512
 93
        0
300

 40
0.0
140
1.0
 94
        5
 62
     3
340
3E3
144
3.5
309
CONTENTFORMAT_END
171
     1
301
MARGIN
  1
CELLMARGIN_BEGIN
 40
1.5
 40
1.5
 40
1.5
 40
1.5
 40
0.18
 40
0.18
309
CELLMARGIN_END
 94
        6
 95
        1
302
GRIDFORMAT
  1
GRIDFORMAT_BEGIN
 90
        0
 91
        1
 62
     0
 92
       -2
340
0
 93
        0
 40
0.045
309
GRIDFORMAT_END
 95
        2
302
GRIDFORMAT
  1
GRIDFORMAT_BEGIN
 90
        0
 91
        1
 62
     0
 92
       -2
340
0
 93
        0
 40
0.045
309
GRIDFORMAT_END
 95
        4
302
GRIDFORMAT
  1
GRIDFORMAT_BEGIN
 90
        0
 91
        1
 62
     0
 92
       -2
340
0
 93
        0
 40
0.045
309
GRIDFORMAT_END
 95
        8
302
GRIDFORMAT
  1
GRIDFORMAT_BEGIN
 90
        0
 91
        1
 62
     0
 92
       -2
340
0
 93
        0
 40
0.045
309
GRIDFORMAT_END
 95
       16
302
GRIDFORMAT
  1
GRIDFORMAT_BEGIN
 90
        0
 91
        1
 62
     0
 92
       -2
340
0
 93
        0
 40
0.045
309
GRIDFORMAT_END
 95
       32
302
GRIDFORMAT
  1
GRIDFORMAT_BEGIN
 90
        0
 91
        1
 62
     0
 92
       -2
340
0
 93
        0
 40
0.045
309
GRIDFORMAT_END
309
TABLEFORMAT_END
  1
CELLSTYLE_BEGIN
 90
        2
 91
        1
300
_HEADER
309
CELLSTYLE_END
300
CELLSTYLE
  1
TABLEFORMAT_BEGIN
 90
        5
170
     1
 91
        0
 92
        0
 62
   257
 93
        1
300
CONTENTFORMAT
  1
CONTENTFORMAT_BEGIN
 90
        0
 91
        0
 92
      512
 93
        0
300

 40
0.0
140
1.0
 94
        5
 62
     7
340
3E3
144
3.0
309
CONTENTFORMAT_END
171
     1
301
MARGIN
  1
CELLMARGIN_BEGIN
 40
1.5
 40
1.5
 40
1.5
 40
1.5
 40
0.18
 40
0.18
309
CELLMARGIN_END
 94
        6
 95
        1
302
GRIDFORMAT
  1
GRIDFORMAT_BEGIN
 90
        0
 91
        1
 62
     0
 92
       -2
340
0
 93
        0
 40
0.045
309
GRIDFORMAT_END
 95
        2
302
GRIDFORMAT
  1
GRIDFORMAT_BEGIN
 90
        0
 91
        1
 62
     0
 92
       -2
340
0
 93
        0
 40
0.045
309
GRIDFORMAT_END
 95
        4
302
GRIDFORMAT
  1
GRIDFORMAT_BEGIN
 90
        0
 91
        1
 62
     0
 92
       -2
340
0
 93
        0
 40
0.045
309
GRIDFORMAT_END
 95
        8
302
GRIDFORMAT
  1
GRIDFORMAT_BEGIN
 90
        0
 91
        1
 62
     0
 92
       -2
340
0
 93
        0
 40
0.045
309
GRIDFORMAT_END
 95
       16
302
GRIDFORMAT
  1
GRIDFORMAT_BEGIN
 90
        0
 91
        1
 62
     0
 92
       -2
340
0
 93
        0
 40
0.045
309
GRIDFORMAT_END
 95
       32
302
GRIDFORMAT
  1
GRIDFORMAT_BEGIN
 90
        0
 91
        1
 62
     0
 92
       -2
340
0
 93
        0
 40
0.045
309
GRIDFORMAT_END
309
TABLEFORMAT_END
  1
CELLSTYLE_BEGIN
 90
        3
 91
        2
300
_DATA
309
CELLSTYLE_END
  0
XRECORD
  5
4C7
102
{ACAD_REACTORS
330
3F7
102
}
330
3F7
100
AcDbXrecord
280
     1
102
ACAD_ROUNDTRIP_PRE2007_TABLESTYLE
 90
      512
 91
        0
  1

 92
      512
 93
        0
  2

 94
      512
 95
        0
  3

  0
CELLSTYLEMAP
  5
486
102
{ACAD_REACTORS
330
3F9
102
}
330
3F9
100
AcDbCellStyleMap
 90
        3
300
CELLSTYLE
  1
TABLEFORMAT_BEGIN
 90
        5
170
     1
 91
        0
 92
    32768
 62
   257
 93
        1
300
CONTENTFORMAT
  1
CONTENTFORMAT_BEGIN
 90
        0
 91
        0
 92
      512
 93
        0
300

 40
0.0
140
1.0
 94
        5
 62
     1
340
3E3
144
6.0
309
CONTENTFORMAT_END
171
     1
301
MARGIN
  1
CELLMARGIN_BEGIN
 40
1.5
 40
1.5
 40
1.5
 40
1.5
 40
0.18
 40
0.18
309
CELLMARGIN_END
 94
        6
 95
        1
302
GRIDFORMAT
  1
GRIDFORMAT_BEGIN
 90
        0
 91
        1
 62
     0
 92
       -2
340
0
 93
        0
 40
0.045
309
GRIDFORMAT_END
 95
        2
302
GRIDFORMAT
  1
GRIDFORMAT_BEGIN
 90
        0
 91
        1
 62
     0
 92
       -2
340
0
 93
        0
 40
0.045
309
GRIDFORMAT_END
 95
        4
302
GRIDFORMAT
  1
GRIDFORMAT_BEGIN
 90
        0
 91
        1
 62
     0
 92
       -2
340
0
 93
        0
 40
0.045
309
GRIDFORMAT_END
 95
        8
302
GRIDFORMAT
  1
GRIDFORMAT_BEGIN
 90
        0
 91
        1
 62
     0
 92
       -2
340
0
 93
        0
 40
0.045
309
GRIDFORMAT_END
 95
       16
302
GRIDFORMAT
  1
GRIDFORMAT_BEGIN
 90
        0
 91
        1
 62
     0
 92
       -2
340
0
 93
        0
 40
0.045
309
GRIDFORMAT_END
 95
       32
302
GRIDFORMAT
  1
GRIDFORMAT_BEGIN
 90
        0
 91
        1
 62
     0
 92
       -2
340
0
 93
        0
 40
0.045
309
GRIDFORMAT_END
309
TABLEFORMAT_END
  1
CELLSTYLE_BEGIN
 90
        1
 91
        1
300
_TITLE
309
CELLSTYLE_END
300
CELLSTYLE
  1
TABLEFORMAT_BEGIN
 90
        5
170
     1
 91
        0
 92
        0
 62
   257
 93
        1
300
CONTENTFORMAT
  1
CONTENTFORMAT_BEGIN
 90
        0
 91
        0
 92
      512
 93
        0
300

 40
0.0
140
1.0
 94
        5
 62
     3
340
3E3
144
5.0
309
CONTENTFORMAT_END
171
     1
301
MARGIN
  1
CELLMARGIN_BEGIN
 40
1.5
 40
1.5
 40
1.5
 40
1.5
 40
0.18
 40
0.18
309
CELLMARGIN_END
 94
        6
 95
        1
302
GRIDFORMAT
  1
GRIDFORMAT_BEGIN
 90
        0
 91
        1
 62
     0
 92
       -2
340
0
 93
        0
 40
0.045
309
GRIDFORMAT_END
 95
        2
302
GRIDFORMAT
  1
GRIDFORMAT_BEGIN
 90
        0
 91
        1
 62
     0
 92
       -2
340
0
 93
        0
 40
0.045
309
GRIDFORMAT_END
 95
        4
302
GRIDFORMAT
  1
GRIDFORMAT_BEGIN
 90
        0
 91
        1
 62
     0
 92
       -2
340
0
 93
        0
 40
0.045
309
GRIDFORMAT_END
 95
        8
302
GRIDFORMAT
  1
GRIDFORMAT_BEGIN
 90
        0
 91
        1
 62
     0
 92
       -2
340
0
 93
        0
 40
0.045
309
GRIDFORMAT_END
 95
       16
302
GRIDFORMAT
  1
GRIDFORMAT_BEGIN
 90
        0
 91
        1
 62
     0
 92
       -2
340
0
 93
        0
 40
0.045
309
GRIDFORMAT_END
 95
       32
302
GRIDFORMAT
  1
GRIDFORMAT_BEGIN
 90
        0
 91
        1
 62
     0
 92
       -2
340
0
 93
        0
 40
0.045
309
GRIDFORMAT_END
309
TABLEFORMAT_END
  1
CELLSTYLE_BEGIN
 90
        2
 91
        1
300
_HEADER
309
CELLSTYLE_END
300
CELLSTYLE
  1
TABLEFORMAT_BEGIN
 90
        5
170
     1
 91
        0
 92
        0
 62
   257
 93
        1
300
CONTENTFORMAT
  1
CONTENTFORMAT_BEGIN
 90
        0
 91
        0
 92
      512
 93
        0
300

 40
0.0
140
1.0
 94
        5
 62
     7
340
3E3
144
4.5
309
CONTENTFORMAT_END
171
     1
301
MARGIN
  1
CELLMARGIN_BEGIN
 40
1.5
 40
1.5
 40
1.5
 40
1.5
 40
0.18
 40
0.18
309
CELLMARGIN_END
 94
        6
 95
        1
302
GRIDFORMAT
  1
GRIDFORMAT_BEGIN
 90
        0
 91
        1
 62
     0
 92
       -2
340
0
 93
        0
 40
0.045
309
GRIDFORMAT_END
 95
        2
302
GRIDFORMAT
  1
GRIDFORMAT_BEGIN
 90
        0
 91
        1
 62
     0
 92
       -2
340
0
 93
        0
 40
0.045
309
GRIDFORMAT_END
 95
        4
302
GRIDFORMAT
  1
GRIDFORMAT_BEGIN
 90
        0
 91
        1
 62
     0
 92
       -2
340
0
 93
        0
 40
0.045
309
GRIDFORMAT_END
 95
        8
302
GRIDFORMAT
  1
GRIDFORMAT_BEGIN
 90
        0
 91
        1
 62
     0
 92
       -2
340
0
 93
        0
 40
0.045
309
GRIDFORMAT_END
 95
       16
302
GRIDFORMAT
  1
GRIDFORMAT_BEGIN
 90
        0
 91
        1
 62
     0
 92
       -2
340
0
 93
        0
 40
0.045
309
GRIDFORMAT_END
 95
       32
302
GRIDFORMAT
  1
GRIDFORMAT_BEGIN
 90
        0
 91
        1
 62
     0
 92
       -2
340
0
 93
        0
 40
0.045
309
GRIDFORMAT_END
309
TABLEFORMAT_END
  1
CELLSTYLE_BEGIN
 90
        3
 91
        2
300
_DATA
309
CELLSTYLE_END
  0
XRECORD
  5
4C8
102
{ACAD_REACTORS
330
3F9
102
}
330
3F9
100
AcDbXrecord
280
     1
102
ACAD_ROUNDTRIP_PRE2007_TABLESTYLE
 90
      512
 91
        0
  1

 92
      512
 93
        0
  2

 94
      512
 95
        0
  3

  0
CELLSTYLEMAP
  5
484
102
{ACAD_REACTORS
330
423
102
}
330
423
100
AcDbCellStyleMap
 90
        3
300
CELLSTYLE
  1
TABLEFORMAT_BEGIN
 90
        5
170
     1
 91
        0
 92
    32768
 62
   257
 93
        1
300
CONTENTFORMAT
  1
CONTENTFORMAT_BEGIN
 90
        0
 91
        0
 92
      512
 93
        0
300

 40
0.0
140
1.0
 94
        5
 62
     0
340
17
144
0.25
309
CONTENTFORMAT_END
171
     0
 94
        0
309
TABLEFORMAT_END
  1
CELLSTYLE_BEGIN
 90
        1
 91
        1
300
_TITLE
309
CELLSTYLE_END
300
CELLSTYLE
  1
TABLEFORMAT_BEGIN
 90
        5
170
     1
 91
        0
 92
        0
 62
   257
 93
        1
300
CONTENTFORMAT
  1
CONTENTFORMAT_BEGIN
 90
        0
 91
        0
 92
      512
 93
        0
300

 40
0.0
140
1.0
 94
        5
 62
     0
340
17
144
0.18
309
CONTENTFORMAT_END
171
     0
 94
        0
309
TABLEFORMAT_END
  1
CELLSTYLE_BEGIN
 90
        2
 91
        1
300
_HEADER
309
CELLSTYLE_END
300
CELLSTYLE
  1
TABLEFORMAT_BEGIN
 90
        5
170
     1
 91
        0
 92
        0
 62
   257
 93
        1
300
CONTENTFORMAT
  1
CONTENTFORMAT_BEGIN
 90
        0
 91
        0
 92
      512
 93
        0
300

 40
0.0
140
1.0
 94
        2
 62
     0
340
17
144
0.18
309
CONTENTFORMAT_END
171
     0
 94
        0
309
TABLEFORMAT_END
  1
CELLSTYLE_BEGIN
 90
        3
 91
        2
300
_DATA
309
CELLSTYLE_END
  0
XRECORD
  5
4B6
102
{ACAD_REACTORS
330
423
102
}
330
423
100
AcDbXrecord
280
     1
102
ACAD_ROUNDTRIP_PRE2007_TABLESTYLE
 90
      512
 91
        0
  1

 92
      512
 93
        0
  2

 94
      512
 95
        0
  3

  0
XRECORD
  5
49B
102
{ACAD_REACTORS
330
49A
102
}
330
49A
100
AcDbXrecord
280
     1
102
RTVSPropertyOp0
 70
     1
102
RTVSPropertyOp1
 70
     1
102
RTVSPropertyOp2
 70
     1
102
RTVSPropertyOp3
 70
     1
102
RTVSPropertyOp4
 70
     1
102
RTVSPropertyOp5
 70
     1
102
RTVSPropertyOp6
 70
     1
102
RTVSPropertyOp7
 70
     1
102
RTVSPropertyOp8
 70
     1
102
RTVSPropertyOp9
 70
     1
102
RTVSPropertyOp10
 70
     1
102
RTVSPropertyOp11
 70
     1
102
RTVSPropertyOp12
 70
     1
102
RTVSPropertyOp13
 70
     1
102
RTVSPropertyOp14
 70
     1
102
RTVSPropertyOp15
 70
     1
102
RTVSPropertyOp16
 70
     1
102
RTVSPropertyOp17
 70
     1
102
RTVSPropertyOp18
 70
     1
102
RTVSPropertyOp19
 70
     1
102
RTVSPropertyOp20
 70
     1
102
RTVSPropertyOp21
 70
     1
102
RTVSPropertyOp22
 70
     1
102
RTVSPropertyOp23
 70
     1
102
RTVSPropertyOp24
 70
     1
102
RTVSPropertyOp25
 70
     1
102
RTVSPropertyOp26
 70
     1
102
RTVSPropertyOp27
 70
     1
102
RTVSPropertyOp28
 70
     1
102
RTVSPropertyOp29
 70
     1
102
RTVSPropertyOp30
 70
     1
102
RTVSPropertyOp31
 70
     1
102
RTVSPropertyOp32
 70
     1
  0
XRECORD
  5
49F
102
{ACAD_REACTORS
330
49E
102
}
330
49E
100
AcDbXrecord
280
     1
102
RTVSPropertyOp0
 70
     1
102
RTVSPropertyOp1
 70
     1
102
RTVSPropertyOp2
 70
     1
102
RTVSPropertyOp3
 70
     1
102
RTVSPropertyOp4
 70
     1
102
RTVSPropertyOp5
 70
     1
102
RTVSPropertyOp6
 70
     1
102
RTVSPropertyOp7
 70
     1
102
RTVSPropertyOp8
 70
     1
102
RTVSPropertyOp9
 70
     1
102
RTVSPropertyOp10
 70
     1
102
RTVSPropertyOp11
 70
     1
102
RTVSPropertyOp12
 70
     1
102
RTVSPropertyOp13
 70
     1
102
RTVSPropertyOp14
 70
     1
102
RTVSPropertyOp15
 70
     1
102
RTVSPropertyOp16
 70
     1
102
RTVSPropertyOp17
 70
     1
102
RTVSPropertyOp18
 70
     1
102
RTVSPropertyOp19
 70
     1
102
RTVSPropertyOp20
 70
     1
102
RTVSPropertyOp21
 70
     1
102
RTVSPropertyOp22
 70
     1
102
RTVSPropertyOp23
 70
     1
102
RTVSPropertyOp24
 70
     1
102
RTVSPropertyOp25
 70
     1
102
RTVSPropertyOp26
 70
     1
102
RTVSPropertyOp27
 70
     1
102
RTVSPropertyOp28
 70
     1
102
RTVSPropertyOp29
 70
     1
102
RTVSPropertyOp30
 70
     1
102
RTVSPropertyOp31
 70
     1
102
RTVSPropertyOp32
 70
     1
  0
XRECORD
  5
49D
102
{ACAD_REACTORS
330
49C
102
}
330
49C
100
AcDbXrecord
280
     1
102
RTVSPropertyOp0
 70
     1
102
RTVSPropertyOp1
 70
     1
102
RTVSPropertyOp2
 70
     1
102
RTVSPropertyOp3
 70
     1
102
RTVSPropertyOp4
 70
     1
102
RTVSPropertyOp5
 70
     1
102
RTVSPropertyOp6
 70
     1
102
RTVSPropertyOp7
 70
     1
102
RTVSPropertyOp8
 70
     1
102
RTVSPropertyOp9
 70
     1
102
RTVSPropertyOp10
 70
     1
102
RTVSPropertyOp11
 70
     1
102
RTVSPropertyOp12
 70
     1
102
RTVSPropertyOp13
 70
     1
102
RTVSPropertyOp14
 70
     1
102
RTVSPropertyOp15
 70
     1
102
RTVSPropertyOp16
 70
     1
102
RTVSPropertyOp17
 70
     1
102
RTVSPropertyOp18
 70
     1
102
RTVSPropertyOp19
 70
     1
102
RTVSPropertyOp20
 70
     1
102
RTVSPropertyOp21
 70
     1
102
RTVSPropertyOp22
 70
     1
102
RTVSPropertyOp23
 70
     1
102
RTVSPropertyOp24
 70
     1
102
RTVSPropertyOp25
 70
     1
102
RTVSPropertyOp26
 70
     1
102
RTVSPropertyOp27
 70
     1
102
RTVSPropertyOp28
 70
     1
102
RTVSPropertyOp29
 70
     1
102
RTVSPropertyOp30
 70
     1
102
RTVSPropertyOp31
 70
     1
102
RTVSPropertyOp32
 70
     1
  0
XRECORD
  5
499
102
{ACAD_REACTORS
330
498
102
}
330
498
100
AcDbXrecord
280
     1
102
RTVSPropertyOp0
 70
     1
102
RTVSPropertyOp1
 70
     1
102
RTVSPropertyOp2
 70
     1
102
RTVSPropertyOp3
 70
     1
102
RTVSPropertyOp4
 70
     1
102
RTVSPropertyOp5
 70
     1
102
RTVSPropertyOp6
 70
     1
102
RTVSPropertyOp7
 70
     1
102
RTVSPropertyOp8
 70
     1
102
RTVSPropertyOp9
 70
     1
102
RTVSPropertyOp10
 70
     1
102
RTVSPropertyOp11
 70
     1
102
RTVSPropertyOp12
 70
     1
102
RTVSPropertyOp13
 70
     1
102
RTVSPropertyOp14
 70
     1
102
RTVSPropertyOp15
 70
     1
102
RTVSPropertyOp16
 70
     1
102
RTVSPropertyOp17
 70
     1
102
RTVSPropertyOp18
 70
     1
102
RTVSPropertyOp19
 70
     1
102
RTVSPropertyOp20
 70
     1
102
RTVSPropertyOp21
 70
     1
102
RTVSPropertyOp22
 70
     1
102
RTVSPropertyOp23
 70
     1
102
RTVSPropertyOp24
 70
     1
102
RTVSPropertyOp25
 70
     1
102
RTVSPropertyOp26
 70
     1
102
RTVSPropertyOp27
 70
     1
102
RTVSPropertyOp28
 70
     1
102
RTVSPropertyOp29
 70
     1
102
RTVSPropertyOp30
 70
     1
102
RTVSPropertyOp31
 70
     1
102
RTVSPropertyOp32
 70
     1
  0
XRECORD
  5
4A7
102
{ACAD_REACTORS
330
4A6
102
}
330
4A6
100
AcDbXrecord
280
     1
102
RTVSPropertyOp0
 70
     1
102
RTVSPropertyOp1
 70
     1
102
RTVSPropertyOp2
 70
     1
102
RTVSPropertyOp3
 70
     1
102
RTVSPropertyOp4
 70
     1
102
RTVSPropertyOp5
 70
     1
102
RTVSPropertyOp6
 70
     1
102
RTVSPropertyOp7
 70
     1
102
RTVSPropertyOp8
 70
     1
102
RTVSPropertyOp9
 70
     1
102
RTVSPropertyOp10
 70
     1
102
RTVSPropertyOp11
 70
     1
102
RTVSPropertyOp12
 70
     1
102
RTVSPropertyOp13
 70
     1
102
RTVSPropertyOp14
 70
     1
102
RTVSPropertyOp15
 70
     1
102
RTVSPropertyOp16
 70
     1
102
RTVSPropertyOp17
 70
     1
102
RTVSPropertyOp18
 70
     1
102
RTVSPropertyOp19
 70
     1
102
RTVSPropertyOp20
 70
     1
102
RTVSPropertyOp21
 70
     1
102
RTVSPropertyOp22
 70
     1
102
RTVSPropertyOp23
 70
     1
102
RTVSPropertyOp24
 70
     1
102
RTVSPropertyOp25
 70
     1
102
RTVSPropertyOp26
 70
     1
102
RTVSPropertyOp27
 70
     1
102
RTVSPropertyOp28
 70
     1
102
RTVSPropertyOp29
 70
     1
102
RTVSPropertyOp30
 70
     1
102
RTVSPropertyOp31
 70
     1
102
RTVSPropertyOp32
 70
     1
  0
XRECORD
  5
4AF
102
{ACAD_REACTORS
330
4AE
102
}
330
4AE
100
AcDbXrecord
280
     1
102
RTVSPropertyOp0
 70
     1
102
RTVSPropertyOp1
 70
     1
102
RTVSPropertyOp2
 70
     1
102
RTVSPropertyOp3
 70
     1
102
RTVSPropertyOp4
 70
     1
102
RTVSPropertyOp5
 70
     1
102
RTVSPropertyOp6
 70
     1
102
RTVSPropertyOp7
 70
     1
102
RTVSPropertyOp8
 70
     1
102
RTVSPropertyOp9
 70
     1
102
RTVSPropertyOp10
 70
     1
102
RTVSPropertyOp11
 70
     1
102
RTVSPropertyOp12
 70
     1
102
RTVSPropertyOp13
 70
     1
102
RTVSPropertyOp14
 70
     1
102
RTVSPropertyOp15
 70
     1
102
RTVSPropertyOp16
 70
     1
102
RTVSPropertyOp17
 70
     1
102
RTVSPropertyOp18
 70
     1
102
RTVSPropertyOp19
 70
     1
102
RTVSPropertyOp20
 70
     1
102
RTVSPropertyOp21
 70
     1
102
RTVSPropertyOp22
 70
     1
102
RTVSPropertyOp23
 70
     1
102
RTVSPropertyOp24
 70
     1
102
RTVSPropertyOp25
 70
     1
102
RTVSPropertyOp26
 70
     1
102
RTVSPropertyOp27
 70
     1
102
RTVSPropertyOp28
 70
     1
102
RTVSPropertyOp29
 70
     1
102
RTVSPropertyOp30
 70
     1
102
RTVSPropertyOp31
 70
     1
102
RTVSPropertyOp32
 70
     1
  0
XRECORD
  5
4A1
102
{ACAD_REACTORS
330
4A0
102
}
330
4A0
100
AcDbXrecord
280
     1
102
RTVSPropertyOp0
 70
     1
102
RTVSPropertyOp1
 70
     1
102
RTVSPropertyOp2
 70
     1
102
RTVSPropertyOp3
 70
     1
102
RTVSPropertyOp4
 70
     1
102
RTVSPropertyOp5
 70
     1
102
RTVSPropertyOp6
 70
     1
102
RTVSPropertyOp7
 70
     1
102
RTVSPropertyOp8
 70
     1
102
RTVSPropertyOp9
 70
     1
102
RTVSPropertyOp10
 70
     1
102
RTVSPropertyOp11
 70
     1
102
RTVSPropertyOp12
 70
     1
102
RTVSPropertyOp13
 70
     1
102
RTVSPropertyOp14
 70
     1
102
RTVSPropertyOp15
 70
     1
102
RTVSPropertyOp16
 70
     1
102
RTVSPropertyOp17
 70
     1
102
RTVSPropertyOp18
 70
     1
102
RTVSPropertyOp19
 70
     1
102
RTVSPropertyOp20
 70
     1
102
RTVSPropertyOp21
 70
     1
102
RTVSPropertyOp22
 70
     1
102
RTVSPropertyOp23
 70
     1
102
RTVSPropertyOp24
 70
     1
102
RTVSPropertyOp25
 70
     1
102
RTVSPropertyOp26
 70
     1
102
RTVSPropertyOp27
 70
     1
102
RTVSPropertyOp28
 70
     1
102
RTVSPropertyOp29
 70
     1
102
RTVSPropertyOp30
 70
     1
102
RTVSPropertyOp31
 70
     1
102
RTVSPropertyOp32
 70
     1
  0
XRECORD
  5
4A5
102
{ACAD_REACTORS
330
4A4
102
}
330
4A4
100
AcDbXrecord
280
     1
102
RTVSPropertyOp0
 70
     1
102
RTVSPropertyOp1
 70
     1
102
RTVSPropertyOp2
 70
     1
102
RTVSPropertyOp3
 70
     1
102
RTVSPropertyOp4
 70
     1
102
RTVSPropertyOp5
 70
     1
102
RTVSPropertyOp6
 70
     1
102
RTVSPropertyOp7
 70
     1
102
RTVSPropertyOp8
 70
     1
102
RTVSPropertyOp9
 70
     1
102
RTVSPropertyOp10
 70
     1
102
RTVSPropertyOp11
 70
     1
102
RTVSPropertyOp12
 70
     1
102
RTVSPropertyOp13
 70
     1
102
RTVSPropertyOp14
 70
     1
102
RTVSPropertyOp15
 70
     1
102
RTVSPropertyOp16
 70
     1
102
RTVSPropertyOp17
 70
     1
102
RTVSPropertyOp18
 70
     1
102
RTVSPropertyOp19
 70
     1
102
RTVSPropertyOp20
 70
     1
102
RTVSPropertyOp21
 70
     1
102
RTVSPropertyOp22
 70
     1
102
RTVSPropertyOp23
 70
     1
102
RTVSPropertyOp24
 70
     1
102
RTVSPropertyOp25
 70
     1
102
RTVSPropertyOp26
 70
     1
102
RTVSPropertyOp27
 70
     1
102
RTVSPropertyOp28
 70
     1
102
RTVSPropertyOp29
 70
     1
102
RTVSPropertyOp30
 70
     1
102
RTVSPropertyOp31
 70
     1
102
RTVSPropertyOp32
 70
     1
  0
XRECORD
  5
4B5
102
{ACAD_REACTORS
330
4B4
102
}
330
4B4
100
AcDbXrecord
280
     1
102
RTVSPropertyOp0
 70
     0
102
RTVSPropertyOp1
 70
     0
102
RTVSPropertyOp2
 70
     0
102
RTVSPropertyOp3
 70
     0
102
RTVSPropertyOp4
 70
     0
102
RTVSPropertyOp5
 70
     0
102
RTVSPropertyOp6
 70
     0
102
RTVSPropertyOp7
 70
     0
102
RTVSPropertyOp8
 70
     0
102
RTVSPropertyOp9
 70
     0
102
RTVSPropertyOp10
 70
     0
102
RTVSPropertyOp11
 70
     0
102
RTVSPropertyOp12
 70
     0
102
RTVSPropertyOp13
 70
     0
102
RTVSPropertyOp14
 70
     2
102
RTVSPropertyOp15
 70
     0
102
RTVSPropertyOp16
 70
     0
102
RTVSPropertyOp17
 70
     0
102
RTVSPropertyOp18
 70
     0
102
RTVSPropertyOp19
 70
     0
102
RTVSPropertyOp20
 70
     0
102
RTVSPropertyOp21
 70
     0
102
RTVSPropertyOp22
 70
     0
102
RTVSPropertyOp23
 70
     0
102
RTVSPropertyOp24
 70
     0
102
RTVSPropertyOp25
 70
     0
102
RTVSPropertyOp26
 70
     0
102
RTVSPropertyOp27
 70
     0
102
RTVSPropertyOp28
 70
     1
102
RTVSPropertyOp29
 70
     1
102
RTVSPropertyOp30
 70
     1
102
RTVSPropertyOp31
 70
     1
102
RTVSPropertyOp32
 70
     1
  0
XRECORD
  5
4AD
102
{ACAD_REACTORS
330
4AC
102
}
330
4AC
100
AcDbXrecord
280
     1
102
RTVSPropertyOp0
 70
     1
102
RTVSPropertyOp1
 70
     1
102
RTVSPropertyOp2
 70
     1
102
RTVSPropertyOp3
 70
     1
102
RTVSPropertyOp4
 70
     1
102
RTVSPropertyOp5
 70
     1
102
RTVSPropertyOp6
 70
     1
102
RTVSPropertyOp7
 70
     1
102
RTVSPropertyOp8
 70
     1
102
RTVSPropertyOp9
 70
     1
102
RTVSPropertyOp10
 70
     1
102
RTVSPropertyOp11
 70
     1
102
RTVSPropertyOp12
 70
     1
102
RTVSPropertyOp13
 70
     1
102
RTVSPropertyOp14
 70
     1
102
RTVSPropertyOp15
 70
     1
102
RTVSPropertyOp16
 70
     1
102
RTVSPropertyOp17
 70
     1
102
RTVSPropertyOp18
 70
     1
102
RTVSPropertyOp19
 70
     1
102
RTVSPropertyOp20
 70
     1
102
RTVSPropertyOp21
 70
     1
102
RTVSPropertyOp22
 70
     1
102
RTVSPropertyOp23
 70
     1
102
RTVSPropertyOp24
 70
     1
102
RTVSPropertyOp25
 70
     1
102
RTVSPropertyOp26
 70
     1
102
RTVSPropertyOp27
 70
     1
102
RTVSPropertyOp28
 70
     1
102
RTVSPropertyOp29
 70
     1
102
RTVSPropertyOp30
 70
     1
102
RTVSPropertyOp31
 70
     1
102
RTVSPropertyOp32
 70
     1
  0
XRECORD
  5
491
102
{ACAD_REACTORS
330
490
102
}
330
490
100
AcDbXrecord
280
     1
102
RTVSPropertyOp0
 70
     1
102
RTVSPropertyOp1
 70
     1
102
RTVSPropertyOp2
 70
     1
102
RTVSPropertyOp3
 70
     1
102
RTVSPropertyOp4
 70
     1
102
RTVSPropertyOp5
 70
     1
102
RTVSPropertyOp6
 70
     1
102
RTVSPropertyOp7
 70
     1
102
RTVSPropertyOp8
 70
     1
102
RTVSPropertyOp9
 70
     1
102
RTVSPropertyOp10
 70
     1
102
RTVSPropertyOp11
 70
     1
102
RTVSPropertyOp12
 70
     1
102
RTVSPropertyOp13
 70
     1
102
RTVSPropertyOp14
 70
     1
102
RTVSPropertyOp15
 70
     1
102
RTVSPropertyOp16
 70
     1
102
RTVSPropertyOp17
 70
     1
102
RTVSPropertyOp18
 70
     1
102
RTVSPropertyOp19
 70
     1
102
RTVSPropertyOp20
 70
     1
102
RTVSPropertyOp21
 70
     1
102
RTVSPropertyOp22
 70
     1
102
RTVSPropertyOp23
 70
     1
102
RTVSPropertyOp24
 70
     1
102
RTVSPropertyOp25
 70
     1
102
RTVSPropertyOp26
 70
     1
102
RTVSPropertyOp27
 70
     1
102
RTVSPropertyOp28
 70
     1
102
RTVSPropertyOp29
 70
     1
102
RTVSPropertyOp30
 70
     1
102
RTVSPropertyOp31
 70
     1
102
RTVSPropertyOp32
 70
     1
  0
XRECORD
  5
493
102
{ACAD_REACTORS
330
492
102
}
330
492
100
AcDbXrecord
280
     1
102
RTVSPropertyOp0
 70
     1
102
RTVSPropertyOp1
 70
     1
102
RTVSPropertyOp2
 70
     1
102
RTVSPropertyOp3
 70
     1
102
RTVSPropertyOp4
 70
     1
102
RTVSPropertyOp5
 70
     1
102
RTVSPropertyOp6
 70
     1
102
RTVSPropertyOp7
 70
     1
102
RTVSPropertyOp8
 70
     1
102
RTVSPropertyOp9
 70
     1
102
RTVSPropertyOp10
 70
     1
102
RTVSPropertyOp11
 70
     1
102
RTVSPropertyOp12
 70
     1
102
RTVSPropertyOp13
 70
     1
102
RTVSPropertyOp14
 70
     1
102
RTVSPropertyOp15
 70
     1
102
RTVSPropertyOp16
 70
     1
102
RTVSPropertyOp17
 70
     1
102
RTVSPropertyOp18
 70
     1
102
RTVSPropertyOp19
 70
     1
102
RTVSPropertyOp20
 70
     1
102
RTVSPropertyOp21
 70
     1
102
RTVSPropertyOp22
 70
     1
102
RTVSPropertyOp23
 70
     1
102
RTVSPropertyOp24
 70
     1
102
RTVSPropertyOp25
 70
     1
102
RTVSPropertyOp26
 70
     1
102
RTVSPropertyOp27
 70
     1
102
RTVSPropertyOp28
 70
     1
102
RTVSPropertyOp29
 70
     1
102
RTVSPropertyOp30
 70
     1
102
RTVSPropertyOp31
 70
     1
102
RTVSPropertyOp32
 70
     1
  0
XRECORD
  5
495
102
{ACAD_REACTORS
330
494
102
}
330
494
100
AcDbXrecord
280
     1
102
RTVSPropertyOp0
 70
     1
102
RTVSPropertyOp1
 70
     1
102
RTVSPropertyOp2
 70
     1
102
RTVSPropertyOp3
 70
     1
102
RTVSPropertyOp4
 70
     1
102
RTVSPropertyOp5
 70
     1
102
RTVSPropertyOp6
 70
     1
102
RTVSPropertyOp7
 70
     1
102
RTVSPropertyOp8
 70
     1
102
RTVSPropertyOp9
 70
     1
102
RTVSPropertyOp10
 70
     1
102
RTVSPropertyOp11
 70
     1
102
RTVSPropertyOp12
 70
     1
102
RTVSPropertyOp13
 70
     1
102
RTVSPropertyOp14
 70
     1
102
RTVSPropertyOp15
 70
     1
102
RTVSPropertyOp16
 70
     1
102
RTVSPropertyOp17
 70
     1
102
RTVSPropertyOp18
 70
     1
102
RTVSPropertyOp19
 70
     1
102
RTVSPropertyOp20
 70
     1
102
RTVSPropertyOp21
 70
     1
102
RTVSPropertyOp22
 70
     1
102
RTVSPropertyOp23
 70
     1
102
RTVSPropertyOp24
 70
     1
102
RTVSPropertyOp25
 70
     1
102
RTVSPropertyOp26
 70
     1
102
RTVSPropertyOp27
 70
     1
102
RTVSPropertyOp28
 70
     1
102
RTVSPropertyOp29
 70
     1
102
RTVSPropertyOp30
 70
     1
102
RTVSPropertyOp31
 70
     1
102
RTVSPropertyOp32
 70
     1
  0
XRECORD
  5
497
102
{ACAD_REACTORS
330
496
102
}
330
496
100
AcDbXrecord
280
     1
102
RTVSPropertyOp0
 70
     1
102
RTVSPropertyOp1
 70
     1
102
RTVSPropertyOp2
 70
     1
102
RTVSPropertyOp3
 70
     1
102
RTVSPropertyOp4
 70
     1
102
RTVSPropertyOp5
 70
     1
102
RTVSPropertyOp6
 70
     1
102
RTVSPropertyOp7
 70
     1
102
RTVSPropertyOp8
 70
     1
102
RTVSPropertyOp9
 70
     1
102
RTVSPropertyOp10
 70
     1
102
RTVSPropertyOp11
 70
     1
102
RTVSPropertyOp12
 70
     1
102
RTVSPropertyOp13
 70
     1
102
RTVSPropertyOp14
 70
     1
102
RTVSPropertyOp15
 70
     1
102
RTVSPropertyOp16
 70
     1
102
RTVSPropertyOp17
 70
     1
102
RTVSPropertyOp18
 70
     1
102
RTVSPropertyOp19
 70
     1
102
RTVSPropertyOp20
 70
     1
102
RTVSPropertyOp21
 70
     1
102
RTVSPropertyOp22
 70
     1
102
RTVSPropertyOp23
 70
     1
102
RTVSPropertyOp24
 70
     1
102
RTVSPropertyOp25
 70
     1
102
RTVSPropertyOp26
 70
     1
102
RTVSPropertyOp27
 70
     1
102
RTVSPropertyOp28
 70
     1
102
RTVSPropertyOp29
 70
     1
102
RTVSPropertyOp30
 70
     1
102
RTVSPropertyOp31
 70
     1
102
RTVSPropertyOp32
 70
     1
  0
XRECORD
  5
4CC
102
{ACAD_REACTORS
330
4CB
102
}
330
4CB
100
AcDbXrecord
280
     1
102
RTVSPropertyOp0
 70
     1
102
RTVSPropertyOp1
 70
     1
102
RTVSPropertyOp2
 70
     1
102
RTVSPropertyOp3
 70
     1
102
RTVSPropertyOp4
 70
     1
102
RTVSPropertyOp5
 70
     1
102
RTVSPropertyOp6
 70
     1
102
RTVSPropertyOp7
 70
     1
102
RTVSPropertyOp8
 70
     1
102
RTVSPropertyOp9
 70
     1
102
RTVSPropertyOp10
 70
     1
102
RTVSPropertyOp11
 70
     1
102
RTVSPropertyOp12
 70
     1
102
RTVSPropertyOp13
 70
     1
102
RTVSPropertyOp14
 70
     1
102
RTVSPropertyOp15
 70
     1
102
RTVSPropertyOp16
 70
     1
102
RTVSPropertyOp17
 70
     1
102
RTVSPropertyOp18
 70
     1
102
RTVSPropertyOp19
 70
     1
102
RTVSPropertyOp20
 70
     1
102
RTVSPropertyOp21
 70
     1
102
RTVSPropertyOp22
 70
     1
102
RTVSPropertyOp23
 70
     1
102
RTVSPropertyOp24
 70
     1
102
RTVSPropertyOp25
 70
     1
102
RTVSPropertyOp26
 70
     1
102
RTVSPropertyOp27
 70
     1
102
RTVSPropertyOp28
 70
     1
102
RTVSPropertyOp29
 70
     1
102
RTVSPropertyOp30
 70
     1
102
RTVSPropertyOp31
 70
     1
102
RTVSPropertyOp32
 70
     1
  0
XRECORD
  5
4B1
102
{ACAD_REACTORS
330
4B0
102
}
330
4B0
100
AcDbXrecord
280
     1
102
RTVSPropertyOp0
 70
     0
102
RTVSPropertyOp1
 70
     0
102
RTVSPropertyOp2
 70
     0
102
RTVSPropertyOp3
 70
     0
102
RTVSPropertyOp4
 70
     0
102
RTVSPropertyOp5
 70
     0
102
RTVSPropertyOp6
 70
     0
102
RTVSPropertyOp7
 70
     0
102
RTVSPropertyOp8
 70
     0
102
RTVSPropertyOp9
 70
     0
102
RTVSPropertyOp10
 70
     0
102
RTVSPropertyOp11
 70
     0
102
RTVSPropertyOp12
 70
     0
102
RTVSPropertyOp13
 70
     0
102
RTVSPropertyOp14
 70
     2
102
RTVSPropertyOp15
 70
     0
102
RTVSPropertyOp16
 70
     0
102
RTVSPropertyOp17
 70
     0
102
RTVSPropertyOp18
 70
     0
102
RTVSPropertyOp19
 70
     0
102
RTVSPropertyOp20
 70
     0
102
RTVSPropertyOp21
 70
     0
102
RTVSPropertyOp22
 70
     0
102
RTVSPropertyOp23
 70
     0
102
RTVSPropertyOp24
 70
     0
102
RTVSPropertyOp25
 70
     0
102
RTVSPropertyOp26
 70
     0
102
RTVSPropertyOp27
 70
     0
102
RTVSPropertyOp28
 70
     1
102
RTVSPropertyOp29
 70
     1
102
RTVSPropertyOp30
 70
     1
102
RTVSPropertyOp31
 70
     1
102
RTVSPropertyOp32
 70
     1
  0
XRECORD
  5
4AB
102
{ACAD_REACTORS
330
4AA
102
}
330
4AA
100
AcDbXrecord
280
     1
102
RTVSPropertyOp0
 70
     1
102
RTVSPropertyOp1
 70
     1
102
RTVSPropertyOp2
 70
     1
102
RTVSPropertyOp3
 70
     1
102
RTVSPropertyOp4
 70
     1
102
RTVSPropertyOp5
 70
     1
102
RTVSPropertyOp6
 70
     1
102
RTVSPropertyOp7
 70
     1
102
RTVSPropertyOp8
 70
     1
102
RTVSPropertyOp9
 70
     1
102
RTVSPropertyOp10
 70
     1
102
RTVSPropertyOp11
 70
     1
102
RTVSPropertyOp12
 70
     1
102
RTVSPropertyOp13
 70
     1
102
RTVSPropertyOp14
 70
     1
102
RTVSPropertyOp15
 70
     1
102
RTVSPropertyOp16
 70
     1
102
RTVSPropertyOp17
 70
     1
102
RTVSPropertyOp18
 70
     1
102
RTVSPropertyOp19
 70
     1
102
RTVSPropertyOp20
 70
     1
102
RTVSPropertyOp21
 70
     1
102
RTVSPropertyOp22
 70
     1
102
RTVSPropertyOp23
 70
     1
102
RTVSPropertyOp24
 70
     1
102
RTVSPropertyOp25
 70
     1
102
RTVSPropertyOp26
 70
     1
102
RTVSPropertyOp27
 70
     1
102
RTVSPropertyOp28
 70
     1
102
RTVSPropertyOp29
 70
     1
102
RTVSPropertyOp30
 70
     1
102
RTVSPropertyOp31
 70
     1
102
RTVSPropertyOp32
 70
     1
  0
XRECORD
  5
4B3
102
{ACAD_REACTORS
330
4B2
102
}
330
4B2
100
AcDbXrecord
280
     1
102
RTVSPropertyOp0
 70
     0
102
RTVSPropertyOp1
 70
     0
102
RTVSPropertyOp2
 70
     0
102
RTVSPropertyOp3
 70
     0
102
RTVSPropertyOp4
 70
     0
102
RTVSPropertyOp5
 70
     0
102
RTVSPropertyOp6
 70
     0
102
RTVSPropertyOp7
 70
     0
102
RTVSPropertyOp8
 70
     0
102
RTVSPropertyOp9
 70
     0
102
RTVSPropertyOp10
 70
     0
102
RTVSPropertyOp11
 70
     0
102
RTVSPropertyOp12
 70
     0
102
RTVSPropertyOp13
 70
     0
102
RTVSPropertyOp14
 70
     2
102
RTVSPropertyOp15
 70
     0
102
RTVSPropertyOp16
 70
     0
102
RTVSPropertyOp17
 70
     0
102
RTVSPropertyOp18
 70
     0
102
RTVSPropertyOp19
 70
     0
102
RTVSPropertyOp20
 70
     0
102
RTVSPropertyOp21
 70
     0
102
RTVSPropertyOp22
 70
     0
102
RTVSPropertyOp23
 70
     0
102
RTVSPropertyOp24
 70
     0
102
RTVSPropertyOp25
 70
     0
102
RTVSPropertyOp26
 70
     0
102
RTVSPropertyOp27
 70
     0
102
RTVSPropertyOp28
 70
     1
102
RTVSPropertyOp29
 70
     1
102
RTVSPropertyOp30
 70
     1
102
RTVSPropertyOp31
 70
     1
102
RTVSPropertyOp32
 70
     1
  0
XRECORD
  5
4A3
102
{ACAD_REACTORS
330
4A2
102
}
330
4A2
100
AcDbXrecord
280
     1
102
RTVSPropertyOp0
 70
     1
102
RTVSPropertyOp1
 70
     1
102
RTVSPropertyOp2
 70
     1
102
RTVSPropertyOp3
 70
     1
102
RTVSPropertyOp4
 70
     1
102
RTVSPropertyOp5
 70
     1
102
RTVSPropertyOp6
 70
     1
102
RTVSPropertyOp7
 70
     1
102
RTVSPropertyOp8
 70
     1
102
RTVSPropertyOp9
 70
     1
102
RTVSPropertyOp10
 70
     1
102
RTVSPropertyOp11
 70
     1
102
RTVSPropertyOp12
 70
     1
102
RTVSPropertyOp13
 70
     1
102
RTVSPropertyOp14
 70
     1
102
RTVSPropertyOp15
 70
     1
102
RTVSPropertyOp16
 70
     1
102
RTVSPropertyOp17
 70
     1
102
RTVSPropertyOp18
 70
     1
102
RTVSPropertyOp19
 70
     1
102
RTVSPropertyOp20
 70
     1
102
RTVSPropertyOp21
 70
     1
102
RTVSPropertyOp22
 70
     1
102
RTVSPropertyOp23
 70
     1
102
RTVSPropertyOp24
 70
     1
102
RTVSPropertyOp25
 70
     1
102
RTVSPropertyOp26
 70
     1
102
RTVSPropertyOp27
 70
     1
102
RTVSPropertyOp28
 70
     1
102
RTVSPropertyOp29
 70
     1
102
RTVSPropertyOp30
 70
     1
102
RTVSPropertyOp31
 70
     1
102
RTVSPropertyOp32
 70
     1
  0
XRECORD
  5
4D6
102
{ACAD_REACTORS
330
4D5
102
}
330
4D5
100
AcDbXrecord
280
     1
102
RTVSPropertyOp0
 70
     1
102
RTVSPropertyOp1
 70
     1
102
RTVSPropertyOp2
 70
     1
102
RTVSPropertyOp3
 70
     1
102
RTVSPropertyOp4
 70
     1
102
RTVSPropertyOp5
 70
     1
102
RTVSPropertyOp6
 70
     1
102
RTVSPropertyOp7
 70
     1
102
RTVSPropertyOp8
 70
     1
102
RTVSPropertyOp9
 70
     1
102
RTVSPropertyOp10
 70
     1
102
RTVSPropertyOp11
 70
     1
102
RTVSPropertyOp12
 70
     1
102
RTVSPropertyOp13
 70
     1
102
RTVSPropertyOp14
 70
     1
102
RTVSPropertyOp15
 70
     1
102
RTVSPropertyOp16
 70
     1
102
RTVSPropertyOp17
 70
     1
102
RTVSPropertyOp18
 70
     1
102
RTVSPropertyOp19
 70
     1
102
RTVSPropertyOp20
 70
     1
102
RTVSPropertyOp21
 70
     1
102
RTVSPropertyOp22
 70
     1
102
RTVSPropertyOp23
 70
     1
102
RTVSPropertyOp24
 70
     1
102
RTVSPropertyOp25
 70
     1
102
RTVSPropertyOp26
 70
     1
102
RTVSPropertyOp27
 70
     1
102
RTVSPropertyOp28
 70
     1
102
RTVSPropertyOp29
 70
     1
102
RTVSPropertyOp30
 70
     1
102
RTVSPropertyOp31
 70
     1
102
RTVSPropertyOp32
 70
     1
  0
XRECORD
  5
4D4
102
{ACAD_REACTORS
330
4D3
102
}
330
4D3
100
AcDbXrecord
280
     1
102
RTVSPropertyOp0
 70
     1
102
RTVSPropertyOp1
 70
     1
102
RTVSPropertyOp2
 70
     1
102
RTVSPropertyOp3
 70
     1
102
RTVSPropertyOp4
 70
     1
102
RTVSPropertyOp5
 70
     1
102
RTVSPropertyOp6
 70
     1
102
RTVSPropertyOp7
 70
     1
102
RTVSPropertyOp8
 70
     1
102
RTVSPropertyOp9
 70
     1
102
RTVSPropertyOp10
 70
     1
102
RTVSPropertyOp11
 70
     1
102
RTVSPropertyOp12
 70
     1
102
RTVSPropertyOp13
 70
     1
102
RTVSPropertyOp14
 70
     1
102
RTVSPropertyOp15
 70
     1
102
RTVSPropertyOp16
 70
     1
102
RTVSPropertyOp17
 70
     1
102
RTVSPropertyOp18
 70
     1
102
RTVSPropertyOp19
 70
     1
102
RTVSPropertyOp20
 70
     1
102
RTVSPropertyOp21
 70
     1
102
RTVSPropertyOp22
 70
     1
102
RTVSPropertyOp23
 70
     1
102
RTVSPropertyOp24
 70
     1
102
RTVSPropertyOp25
 70
     1
102
RTVSPropertyOp26
 70
     1
102
RTVSPropertyOp27
 70
     1
102
RTVSPropertyOp28
 70
     1
102
RTVSPropertyOp29
 70
     1
102
RTVSPropertyOp30
 70
     1
102
RTVSPropertyOp31
 70
     1
102
RTVSPropertyOp32
 70
     1
  0
XRECORD
  5
4CE
102
{ACAD_REACTORS
330
4CD
102
}
330
4CD
100
AcDbXrecord
280
     1
102
RTVSPropertyOp0
 70
     1
102
RTVSPropertyOp1
 70
     1
102
RTVSPropertyOp2
 70
     1
102
RTVSPropertyOp3
 70
     1
102
RTVSPropertyOp4
 70
     1
102
RTVSPropertyOp5
 70
     1
102
RTVSPropertyOp6
 70
     1
102
RTVSPropertyOp7
 70
     1
102
RTVSPropertyOp8
 70
     1
102
RTVSPropertyOp9
 70
     1
102
RTVSPropertyOp10
 70
     1
102
RTVSPropertyOp11
 70
     1
102
RTVSPropertyOp12
 70
     1
102
RTVSPropertyOp13
 70
     1
102
RTVSPropertyOp14
 70
     1
102
RTVSPropertyOp15
 70
     1
102
RTVSPropertyOp16
 70
     1
102
RTVSPropertyOp17
 70
     1
102
RTVSPropertyOp18
 70
     1
102
RTVSPropertyOp19
 70
     1
102
RTVSPropertyOp20
 70
     1
102
RTVSPropertyOp21
 70
     1
102
RTVSPropertyOp22
 70
     1
102
RTVSPropertyOp23
 70
     1
102
RTVSPropertyOp24
 70
     1
102
RTVSPropertyOp25
 70
     1
102
RTVSPropertyOp26
 70
     1
102
RTVSPropertyOp27
 70
     1
102
RTVSPropertyOp28
 70
     1
102
RTVSPropertyOp29
 70
     1
102
RTVSPropertyOp30
 70
     1
102
RTVSPropertyOp31
 70
     1
102
RTVSPropertyOp32
 70
     1
  0
XRECORD
  5
4D0
102
{ACAD_REACTORS
330
4CF
102
}
330
4CF
100
AcDbXrecord
280
     1
102
RTVSPropertyOp0
 70
     1
102
RTVSPropertyOp1
 70
     1
102
RTVSPropertyOp2
 70
     1
102
RTVSPropertyOp3
 70
     1
102
RTVSPropertyOp4
 70
     1
102
RTVSPropertyOp5
 70
     1
102
RTVSPropertyOp6
 70
     1
102
RTVSPropertyOp7
 70
     1
102
RTVSPropertyOp8
 70
     1
102
RTVSPropertyOp9
 70
     1
102
RTVSPropertyOp10
 70
     1
102
RTVSPropertyOp11
 70
     1
102
RTVSPropertyOp12
 70
     1
102
RTVSPropertyOp13
 70
     1
102
RTVSPropertyOp14
 70
     1
102
RTVSPropertyOp15
 70
     1
102
RTVSPropertyOp16
 70
     1
102
RTVSPropertyOp17
 70
     1
102
RTVSPropertyOp18
 70
     1
102
RTVSPropertyOp19
 70
     1
102
RTVSPropertyOp20
 70
     1
102
RTVSPropertyOp21
 70
     1
102
RTVSPropertyOp22
 70
     1
102
RTVSPropertyOp23
 70
     1
102
RTVSPropertyOp24
 70
     1
102
RTVSPropertyOp25
 70
     1
102
RTVSPropertyOp26
 70
     1
102
RTVSPropertyOp27
 70
     1
102
RTVSPropertyOp28
 70
     1
102
RTVSPropertyOp29
 70
     1
102
RTVSPropertyOp30
 70
     1
102
RTVSPropertyOp31
 70
     1
102
RTVSPropertyOp32
 70
     1
  0
XRECORD
  5
4A9
102
{ACAD_REACTORS
330
4A8
102
}
330
4A8
100
AcDbXrecord
280
     1
102
RTVSPropertyOp0
 70
     1
102
RTVSPropertyOp1
 70
     1
102
RTVSPropertyOp2
 70
     1
102
RTVSPropertyOp3
 70
     1
102
RTVSPropertyOp4
 70
     1
102
RTVSPropertyOp5
 70
     1
102
RTVSPropertyOp6
 70
     1
102
RTVSPropertyOp7
 70
     1
102
RTVSPropertyOp8
 70
     1
102
RTVSPropertyOp9
 70
     1
102
RTVSPropertyOp10
 70
     1
102
RTVSPropertyOp11
 70
     1
102
RTVSPropertyOp12
 70
     1
102
RTVSPropertyOp13
 70
     1
102
RTVSPropertyOp14
 70
     1
102
RTVSPropertyOp15
 70
     1
102
RTVSPropertyOp16
 70
     1
102
RTVSPropertyOp17
 70
     1
102
RTVSPropertyOp18
 70
     1
102
RTVSPropertyOp19
 70
     1
102
RTVSPropertyOp20
 70
     1
102
RTVSPropertyOp21
 70
     1
102
RTVSPropertyOp22
 70
     1
102
RTVSPropertyOp23
 70
     1
102
RTVSPropertyOp24
 70
     1
102
RTVSPropertyOp25
 70
     1
102
RTVSPropertyOp26
 70
     1
102
RTVSPropertyOp27
 70
     1
102
RTVSPropertyOp28
 70
     1
102
RTVSPropertyOp29
 70
     1
102
RTVSPropertyOp30
 70
     1
102
RTVSPropertyOp31
 70
     1
102
RTVSPropertyOp32
 70
     1
  0
XRECORD
  5
4CA
102
{ACAD_REACTORS
330
4C9
102
}
330
4C9
100
AcDbXrecord
280
     1
102
RTVSPropertyOp0
 70
     1
102
RTVSPropertyOp1
 70
     1
102
RTVSPropertyOp2
 70
     1
102
RTVSPropertyOp3
 70
     1
102
RTVSPropertyOp4
 70
     1
102
RTVSPropertyOp5
 70
     1
102
RTVSPropertyOp6
 70
     1
102
RTVSPropertyOp7
 70
     1
102
RTVSPropertyOp8
 70
     1
102
RTVSPropertyOp9
 70
     1
102
RTVSPropertyOp10
 70
     1
102
RTVSPropertyOp11
 70
     1
102
RTVSPropertyOp12
 70
     1
102
RTVSPropertyOp13
 70
     1
102
RTVSPropertyOp14
 70
     1
102
RTVSPropertyOp15
 70
     1
102
RTVSPropertyOp16
 70
     1
102
RTVSPropertyOp17
 70
     1
102
RTVSPropertyOp18
 70
     1
102
RTVSPropertyOp19
 70
     1
102
RTVSPropertyOp20
 70
     1
102
RTVSPropertyOp21
 70
     1
102
RTVSPropertyOp22
 70
     1
102
RTVSPropertyOp23
 70
     1
102
RTVSPropertyOp24
 70
     1
102
RTVSPropertyOp25
 70
     1
102
RTVSPropertyOp26
 70
     1
102
RTVSPropertyOp27
 70
     1
102
RTVSPropertyOp28
 70
     1
102
RTVSPropertyOp29
 70
     1
102
RTVSPropertyOp30
 70
     1
102
RTVSPropertyOp31
 70
     1
102
RTVSPropertyOp32
 70
     1
  0
XRECORD
  5
4D2
102
{ACAD_REACTORS
330
4D1
102
}
330
4D1
100
AcDbXrecord
280
     1
102
RTVSPropertyOp0
 70
     1
102
RTVSPropertyOp1
 70
     1
102
RTVSPropertyOp2
 70
     1
102
RTVSPropertyOp3
 70
     1
102
RTVSPropertyOp4
 70
     1
102
RTVSPropertyOp5
 70
     1
102
RTVSPropertyOp6
 70
     1
102
RTVSPropertyOp7
 70
     1
102
RTVSPropertyOp8
 70
     1
102
RTVSPropertyOp9
 70
     1
102
RTVSPropertyOp10
 70
     1
102
RTVSPropertyOp11
 70
     1
102
RTVSPropertyOp12
 70
     1
102
RTVSPropertyOp13
 70
     1
102
RTVSPropertyOp14
 70
     1
102
RTVSPropertyOp15
 70
     1
102
RTVSPropertyOp16
 70
     1
102
RTVSPropertyOp17
 70
     1
102
RTVSPropertyOp18
 70
     1
102
RTVSPropertyOp19
 70
     1
102
RTVSPropertyOp20
 70
     1
102
RTVSPropertyOp21
 70
     1
102
RTVSPropertyOp22
 70
     1
102
RTVSPropertyOp23
 70
     1
102
RTVSPropertyOp24
 70
     1
102
RTVSPropertyOp25
 70
     1
102
RTVSPropertyOp26
 70
     1
102
RTVSPropertyOp27
 70
     1
102
RTVSPropertyOp28
 70
     1
102
RTVSPropertyOp29
 70
     1
102
RTVSPropertyOp30
 70
     1
102
RTVSPropertyOp31
 70
     1
102
RTVSPropertyOp32
 70
     1
  0
ENDSEC
  0
EOF
