  0
SECTION
  2
HEADER
  9
$ACADVER
  1
AC1015
  9
$ACADMAINTVER
 70
    20
  9
$DWGCODEPAGE
  3
ANSI_1252
  9
$INSBASE
 10
0.0
 20
0.0
 30
0.0
  9
$EXTMIN
 10
-7.015453062565597
 20
-2.886794355798997
 30
-0.0015258207003583
  9
$EXTMAX
 10
49.00008444348435
 20
89.92570540649547
 30
0.0000000349246037
  9
$LIMMIN
 10
0.0
 20
0.0
  9
$LIMMAX
 10
210.0
 20
297.0
  9
$ORTHOMODE
 70
     0
  9
$REGENMODE
 70
     1
  9
$FILLMODE
 70
     1
  9
$QTEXTMODE
 70
     0
  9
$MIRRTEXT
 70
     1
  9
$LTSCALE
 40
25.4
  9
$ATTMODE
 70
     1
  9
$TEXTSIZE
 40
0.2
  9
$TRACEWID
 40
0.05
  9
$TEXTSTYLE
  7
Standard
  9
$CLAYER
  8
P-0000
  9
$CELTYPE
  6
CONTINUOUS
  9
$CECOLOR
 62
   256
  9
$CELTSCALE
 40
1.0
  9
$DISPSILH
 70
     0
  9
$DIMSCALE
 40
1.0
  9
$DIMASZ
 40
0.18
  9
$DIMEXO
 40
0.0625
  9
$DIMDLI
 40
0.38
  9
$DIMRND
 40
0.0
  9
$DIMDLE
 40
0.0
  9
$DIMEXE
 40
0.18
  9
$DIMTP
 40
0.0
  9
$DIMTM
 40
0.0
  9
$DIMTXT
 40
0.18
  9
$DIMCEN
 40
0.09
  9
$DIMTSZ
 40
0.0
  9
$DIMTOL
 70
     0
  9
$DIMLIM
 70
     0
  9
$DIMTIH
 70
     1
  9
$DIMTOH
 70
     1
  9
$DIMSE1
 70
     0
  9
$DIMSE2
 70
     0
  9
$DIMTAD
 70
     0
  9
$DIMZIN
 70
     0
  9
$DIMBLK
  1

  9
$DIMASO
 70
     1
  9
$DIMSHO
 70
     1
  9
$DIMPOST
  1

  9
$DIMAPOST
  1

  9
$DIMALT
 70
     0
  9
$DIMALTD
 70
     2
  9
$DIMALTF
 40
25.4
  9
$DIMLFAC
 40
1.0
  9
$DIMTOFL
 70
     0
  9
$DIMTVP
 40
0.0
  9
$DIMTIX
 70
     0
  9
$DIMSOXD
 70
     0
  9
$DIMSAH
 70
     0
  9
$DIMBLK1
  1

  9
$DIMBLK2
  1

  9
$DIMSTYLE
  2
Standard
  9
$DIMCLRD
 70
     0
  9
$DIMCLRE
 70
     0
  9
$DIMCLRT
 70
     0
  9
$DIMTFAC
 40
1.0
  9
$DIMGAP
 40
0.09
  9
$DIMJUST
 70
     0
  9
$DIMSD1
 70
     0
  9
$DIMSD2
 70
     0
  9
$DIMTOLJ
 70
     1
  9
$DIMTZIN
 70
     0
  9
$DIMALTZ
 70
     0
  9
$DIMALTTZ
 70
     0
  9
$DIMUPT
 70
     0
  9
$DIMDEC
 70
     4
  9
$DIMTDEC
 70
     4
  9
$DIMALTU
 70
     2
  9
$DIMALTTD
 70
     2
  9
$DIMTXSTY
  7
Standard
  9
$DIMAUNIT
 70
     0
  9
$DIMADEC
 70
     0
  9
$DIMALTRND
 40
0.0
  9
$DIMAZIN
 70
     0
  9
$DIMDSEP
 70
     0
  9
$DIMATFIT
 70
     3
  9
$DIMFRAC
 70
     0
  9
$DIMLDRBLK
  1

  9
$DIMLUNIT
 70
     2
  9
$DIMLWD
 70
     0
  9
$DIMLWE
 70
     0
  9
$DIMTMOVE
 70
     0
  9
$LUNITS
 70
     2
  9
$LUPREC
 70
     4
  9
$SKETCHINC
 40
0.1
  9
$FILLETRAD
 40
0.0
  9
$AUNITS
 70
     0
  9
$AUPREC
 70
     0
  9
$MENU
  1
acad
  9
$ELEVATION
 40
0.0
  9
$PELEVATION
 40
0.0
  9
$THICKNESS
 40
0.0
  9
$LIMCHECK
 70
     0
  9
$CHAMFERA
 40
0.0
  9
$CHAMFERB
 40
0.0
  9
$CHAMFERC
 40
0.0
  9
$CHAMFERD
 40
0.0
  9
$SKPOLY
 70
     0
  9
$TDCREATE
 40
2455560.443258773
  9
$TDUCREATE
 40
2455560.401592107
  9
$TDUPDATE
 40
2455637.452534884
  9
$TDUUPDATE
 40
2455637.410868218
  9
$TDINDWG
 40
0.0010756597
  9
$TDUSRTIMER
 40
0.0010756597
  9
$USRTIMER
 70
     1
  9
$ANGBASE
 50
0.0
  9
$ANGDIR
 70
     0
  9
$PDMODE
 70
     0
  9
$PDSIZE
 40
0.0
  9
$PLINEWID
 40
0.0
  9
$SPLFRAME
 70
     0
  9
$SPLINETYPE
 70
     6
  9
$SPLINESEGS
 70
     8
  9
$HANDSEED
  5
62D
  9
$SURFTAB1
 70
     6
  9
$SURFTAB2
 70
     6
  9
$SURFTYPE
 70
     6
  9
$SURFU
 70
     6
  9
$SURFV
 70
     6
  9
$UCSBASE
  2

  9
$UCSNAME
  2

  9
$UCSORG
 10
0.0
 20
0.0
 30
0.0
  9
$UCSXDIR
 10
1.0
 20
0.0
 30
0.0
  9
$UCSYDIR
 10
0.0
 20
1.0
 30
0.0
  9
$UCSORTHOREF
  2

  9
$UCSORTHOVIEW
 70
     0
  9
$UCSORGTOP
 10
0.0
 20
0.0
 30
0.0
  9
$UCSORGBOTTOM
 10
0.0
 20
0.0
 30
0.0
  9
$UCSORGLEFT
 10
0.0
 20
0.0
 30
0.0
  9
$UCSORGRIGHT
 10
0.0
 20
0.0
 30
0.0
  9
$UCSORGFRONT
 10
0.0
 20
0.0
 30
0.0
  9
$UCSORGBACK
 10
0.0
 20
0.0
 30
0.0
  9
$PUCSBASE
  2

  9
$PUCSNAME
  2

  9
$PUCSORG
 10
0.0
 20
0.0
 30
0.0
  9
$PUCSXDIR
 10
1.0
 20
0.0
 30
0.0
  9
$PUCSYDIR
 10
0.0
 20
1.0
 30
0.0
  9
$PUCSORTHOREF
  2

  9
$PUCSORTHOVIEW
 70
     0
  9
$PUCSORGTOP
 10
0.0
 20
0.0
 30
0.0
  9
$PUCSORGBOTTOM
 10
0.0
 20
0.0
 30
0.0
  9
$PUCSORGLEFT
 10
0.0
 20
0.0
 30
0.0
  9
$PUCSORGRIGHT
 10
0.0
 20
0.0
 30
0.0
  9
$PUCSORGFRONT
 10
0.0
 20
0.0
 30
0.0
  9
$PUCSORGBACK
 10
0.0
 20
0.0
 30
0.0
  9
$USERI1
 70
     0
  9
$USERI2
 70
     0
  9
$USERI3
 70
     0
  9
$USERI4
 70
     0
  9
$USERI5
 70
     0
  9
$USERR1
 40
0.0
  9
$USERR2
 40
0.0
  9
$USERR3
 40
0.0
  9
$USERR4
 40
0.0
  9
$USERR5
 40
0.0
  9
$WORLDVIEW
 70
     1
  9
$SHADEDGE
 70
     3
  9
$SHADEDIF
 70
    70
  9
$TILEMODE
 70
     1
  9
$MAXACTVP
 70
    16
  9
$PINSBASE
 10
0.0
 20
0.0
 30
0.0
  9
$PLIMCHECK
 70
     0
  9
$PEXTMIN
 10
1.000000000000000E+20
 20
1.000000000000000E+20
 30
1.000000000000000E+20
  9
$PEXTMAX
 10
-1.000000000000000E+20
 20
-1.000000000000000E+20
 30
-1.000000000000000E+20
  9
$PLIMMIN
 10
0.0
 20
0.0
  9
$PLIMMAX
 10
12.0
 20
9.0
  9
$UNITMODE
 70
     0
  9
$VISRETAIN
 70
     0
  9
$PLINEGEN
 70
     1
  9
$PSLTSCALE
 70
     0
  9
$TREEDEPTH
 70
  3020
  9
$CMLSTYLE
  2
Standard
  9
$CMLJUST
 70
     0
  9
$CMLSCALE
 40
1.0
  9
$PROXYGRAPHICS
 70
     0
  9
$MEASUREMENT
 70
     0
  9
$CELWEIGHT
370
     0
  9
$ENDCAPS
280
     0
  9
$JOINSTYLE
280
     0
  9
$LWDISPLAY
290
     0
  9
$INSUNITS
 70
     0
  9
$HYPERLINKBASE
  1

  9
$STYLESHEET
  1

  9
$XEDIT
290
     1
  9
$CEPSNTYPE
380
     0
  9
$PSTYLEMODE
290
     1
  9
$FINGERPRINTGUID
  2

  9
$VERSIONGUID
  2
{DF0431DA-E29F-4157-B284-152FC5010441}
  9
$EXTNAMES
290
     1
  9
$PSVPSCALE
 40
0.0
  9
$OLESTARTUP
290
     0
  0
ENDSEC
  0
SECTION
  2
CLASSES
  0
CLASS
  1
LWPOLYLINE
  2
AcDbPolyline
  3
ObjectDBX Classes
 90
        0
280
     0
281
     1
  0
CLASS
  1
IMAGE
  2
AcDbRasterImage
  3
ISM
 90
    34943
280
     0
281
     1
  0
CLASS
  1
OLE2FRAME
  2
AcDbOle2Frame
  3
ObjectDBX Classes
 90
    32768
280
     0
281
     1
  0
CLASS
  1
HATCH
  2
AcDbHatch
  3
ObjectDBX Classes
 90
        0
280
     0
281
     1
  0
CLASS
  1
DICTIONARYVAR
  2
AcDbDictionaryVar
  3
ObjectDBX Classes
 90
        0
280
     0
281
     0
  0
CLASS
  1
RASTERVARIABLES
  2
AcDbRasterVariables
  3
ISM
 90
    32768
280
     0
281
     0
  0
CLASS
  1
IMAGEDEF
  2
AcDbRasterImageDef
  3
ISM
 90
    32768
280
     0
281
     0
  0
CLASS
  1
IMAGEDEF_REACTOR
  2
AcDbRasterImageDefReactor
  3
ISM
 90
    32769
280
     0
281
     0
  0
CLASS
  1
IDBUFFER
  2
AcDbIdBuffer
  3
ObjectDBX Classes
 90
    32768
280
     0
281
     0
  0
CLASS
  1
SPATIAL_FILTER
  2
AcDbSpatialFilter
  3
ObjectDBX Classes
 90
    32768
280
     0
281
     0
  0
CLASS
  1
XRECORD
  2
AcDbXrecord
  3
ObjectDBX Classes
 90
        0
280
     0
281
     0
  0
CLASS
  1
SORTENTSTABLE
  2
AcDbSortentsTable
  3
ObjectDBX Classes
 90
    32768
280
     0
281
     0
  0
CLASS
  1
LAYER_INDEX
  2
AcDbLayerIndex
  3
ObjectDBX Classes
 90
    32768
280
     0
281
     0
  0
CLASS
  1
SPATIAL_INDEX
  2
AcDbSpatialIndex
  3
ObjectDBX Classes
 90
    32768
280
     0
281
     0
  0
CLASS
  1
OBJECT_PTR
  2
CAseDLPNTableRecord
  3
ASE-LPNTableRecord
 90
    32769
280
     0
281
     0
  0
CLASS
  1
LAYOUT
  2
AcDbLayout
  3
ObjectDBX Classes
 90
        0
280
     0
281
     0
  0
CLASS
  1
PLOTSETTINGS
  2
AcDbPlotSettings
  3
ObjectDBX Classes
 90
        0
280
     0
281
     0
  0
CLASS
  1
ACDBDICTIONARYWDFLT
  2
AcDbDictionaryWithDefault
  3
ObjectDBX Classes
 90
        0
280
     0
281
     0
  0
CLASS
  1
ACDBPLACEHOLDER
  2
AcDbPlaceHolder
  3
ObjectDBX Classes
 90
        0
280
     0
281
     0
  0
CLASS
  1
VBA_PROJECT
  2
AcDbVbaProject
  3
acad
 90
    32768
280
     0
281
     0
  0
CLASS
  1
WIPEOUT
  2
AcDbWipeout
  3
"WipeOut|Product Desc: Object Enabler for WipeOut entity                        |Company: Autodesk, Inc.                        |WEB Address: www.autodesk.com"
 90
    34943
280
     0
281
     1
  0
CLASS
  1
WIPEOUTVARIABLES
  2
AcDbWipeoutVariables
  3
"WipeOut|Product Desc:     WipeOut Dbx Application|Company:          Autodesk, Inc.|WEB Address:      www.autodesk.com"
 90
        0
280
     0
281
     0
  0
CLASS
  1
RTEXT
  2
RText
  3
RText|AutoCAD Express Tool|expresstools@autodesk.com
 90
    35839
280
     0
281
     1
  0
CLASS
  1
ARCALIGNEDTEXT
  2
AcDbArcAlignedText
  3
ATEXT|AutoCAD Express Tool|expresstools@autodesk.com
 90
    32768
280
     0
281
     1
  0
CLASS
  1
MATERIAL
  2
AcDbMaterial
  3
ObjectDBX Classes
 90
     1153
280
     0
281
     0
  0
CLASS
  1
VISUALSTYLE
  2
AcDbVisualStyle
  3
ObjectDBX Classes
 90
     4095
280
     0
281
     0
  0
CLASS
  1
SCALE
  2
AcDbScale
  3
ObjectDBX Classes
 90
     1153
280
     0
281
     0
  0
CLASS
  1
TABLESTYLE
  2
AcDbTableStyle
  3
ObjectDBX Classes
 90
     4095
280
     0
281
     0
  0
CLASS
  1
MLEADERSTYLE
  2
AcDbMLeaderStyle
  3
ACDB_MLEADERSTYLE_CLASS
 90
     4095
280
     0
281
     0
  0
CLASS
  1
ACDBQSCATEGORY
  2
AcQsCategory
  3
categories
 90
     1024
280
     0
281
     0
  0
CLASS
  1
AEC_REFEDIT_STATUS_TRACKER
  2
AecDbRefEditStatusTracker
  3
AecArchBase60|Product Desc: Autodesk Architectural Desktop 2007 |Company: Autodesk,Inc. |WEB Address: www.autodesk.com
 90
    32897
280
     0
281
     0
  0
CLASS
  1
NPOCOLLECTION
  2
AcDbImpNonPersistentObjectsCollection
  3
ObjectDBX Classes
 90
    33921
280
     0
281
     0
  0
CLASS
  1
CELLSTYLEMAP
  2
AcDbCellStyleMap
  3
ObjectDBX Classes
 90
     1152
280
     0
281
     0
  0
ENDSEC
  0
SECTION
  2
TABLES
  0
TABLE
  2
VPORT
  5
7
102
{ACAD_XDICTIONARY
360
58B
102
}
330
0
100
AcDbSymbolTable
 70
     1
  0
VPORT
  5
15
330
7
100
AcDbSymbolTableRecord
100
AcDbViewportTableRecord
  2
*ACTIVE
 70
     0
 10
0.0
 20
0.0
 11
1.0
 21
1.0
 12
20.99231569045937
 22
43.51945552534824
 13
0.0
 23
0.0
 14
1.0
 24
1.0
 15
0.0
 25
0.0
 16
0.0
 26
0.0
 36
1.0
 17
0.0
 27
0.0
 37
0.0
 40
93.49410930767239
 41
2.251225490196078
 42
50.0
 43
0.0
 44
0.0
 50
0.0
 51
0.0
 71
     0
 72
   100
 73
     1
 74
     1
 75
     0
 76
     0
 77
     0
 78
     0
281
     0
 65
     0
110
0.0
120
0.0
130
0.0
111
1.0
121
0.0
131
0.0
112
0.0
122
1.0
132
0.0
 79
     0
146
0.0
  0
ENDTAB
  0
TABLE
  2
LTYPE
  5
4
330
0
100
AcDbSymbolTable
 70
     9
  0
LTYPE
  5
11
330
4
100
AcDbSymbolTableRecord
100
AcDbLinetypeTableRecord
  2
ByBlock
 70
     0
  3

 72
    65
 73
     0
 40
0.0
  0
LTYPE
  5
12
330
4
100
AcDbSymbolTableRecord
100
AcDbLinetypeTableRecord
  2
ByLayer
 70
     0
  3

 72
    65
 73
     0
 40
0.0
  0
LTYPE
  5
13
330
4
100
AcDbSymbolTableRecord
100
AcDbLinetypeTableRecord
  2
CONTINUOUS
 70
     0
  3
Solid line
 72
    65
 73
     0
 40
0.0
  0
LTYPE
  5
28
330
4
100
AcDbSymbolTableRecord
100
AcDbLinetypeTableRecord
  2
HIDDEN2
 70
     0
  3
_ _ _ _ _ _ _ _ _ _ _ _ _ _ _ _ _ _ _ _ _ _ _ _
 72
    65
 73
     2
 40
0.1875
 49
0.125
 74
     0
 49
-0.0625
 74
     0
  0
LTYPE
  5
29
330
4
100
AcDbSymbolTableRecord
100
AcDbLinetypeTableRecord
  2
CENTER2
 70
     0
  3
___ _ ___ _ ___ _ ___ _ ___ _ ___ _ ___ _ ___ _
 72
    65
 73
     4
 40
1.125
 49
0.75
 74
     0
 49
-0.125
 74
     0
 49
0.125
 74
     0
 49
-0.125
 74
     0
  0
LTYPE
  5
2A
330
4
100
AcDbSymbolTableRecord
100
AcDbLinetypeTableRecord
  2
PHANTOM2
 70
     0
  3
___ _ _ ___ _ _ ___ _ _ ___ _ _ ___ _ _ ___ _ _
 72
    65
 73
     6
 40
1.25
 49
0.625
 74
     0
 49
-0.125
 74
     0
 49
0.125
 74
     0
 49
-0.125
 74
     0
 49
0.125
 74
     0
 49
-0.125
 74
     0
  0
LTYPE
  5
2B
330
4
100
AcDbSymbolTableRecord
100
AcDbLinetypeTableRecord
  2
DOT2
 70
     0
  3
...............................................
 72
    65
 73
     2
 40
0.125
 49
0.0
 74
     0
 49
-0.125
 74
     0
  0
LTYPE
  5
422
330
4
100
AcDbSymbolTableRecord
100
AcDbLinetypeTableRecord
  2
ASSI
 70
     0
  3
-.-.-.-.-.-.-.-.-.-.-.-.-.-.-.-.-.-.-.-.-.-.-.-
 72
    65
 73
     4
 40
16.0
 49
10.0
 74
     0
 49
-2.0
 74
     0
 49
2.0
 74
     0
 49
-2.0
 74
     0
  0
LTYPE
  5
423
330
4
100
AcDbSymbolTableRecord
100
AcDbLinetypeTableRecord
  2
INGOMBRI
 70
     0
  3
--..--..--..--..--..--..--..--..--..--..--..--
 72
    65
 73
     6
 40
20.0
 49
10.0
 74
     0
 49
-2.0
 74
     0
 49
2.0
 74
     0
 49
-2.0
 74
     0
 49
2.0
 74
     0
 49
-2.0
 74
     0
  0
LTYPE
  5
424
330
4
100
AcDbSymbolTableRecord
100
AcDbLinetypeTableRecord
  2
TRATTEGGIO
 70
     0
  3
- - - - - - - - - - - - - - - - - - - - - -
 72
    65
 73
     2
 40
5.5
 49
4.0
 74
     0
 49
-1.5
 74
     0
  0
LTYPE
  5
425
330
4
100
AcDbSymbolTableRecord
100
AcDbLinetypeTableRecord
  2
PUNTO
 70
     0
  3
Punto . . . . . . . . . . . . . . . . . . . . .
 72
    65
 73
     2
 40
6.349999999999999
 49
0.0
 74
     0
 49
-6.349999999999999
 74
     0
  0
ENDTAB
  0
TABLE
  2
LAYER
  5
2
330
0
100
AcDbSymbolTable
 70
    21
  0
LAYER
  5
14
102
{ACAD_XDICTIONARY
360
556
102
}
330
2
100
AcDbSymbolTableRecord
100
AcDbLayerTableRecord
  2
0
 70
     0
 62
     7
  6
CONTINUOUS
370
    -3
390
1D
  0
LAYER
  5
2D
102
{ACAD_XDICTIONARY
360
558
102
}
330
2
100
AcDbSymbolTableRecord
100
AcDbLayerTableRecord
  2
1
 70
     0
 62
     7
  6
CONTINUOUS
370
    -3
390
1D
  0
LAYER
  5
2F
102
{ACAD_XDICTIONARY
360
55A
102
}
330
2
100
AcDbSymbolTableRecord
100
AcDbLayerTableRecord
  2
11
 70
     0
 62
     7
  6
CONTINUOUS
370
    -3
390
1D
  0
LAYER
  5
31
102
{ACAD_XDICTIONARY
360
55C
102
}
330
2
100
AcDbSymbolTableRecord
100
AcDbLayerTableRecord
  2
7
 70
     0
 62
     7
  6
CONTINUOUS
370
    -3
390
1D
  0
LAYER
  5
33
102
{ACAD_XDICTIONARY
360
55E
102
}
330
2
100
AcDbSymbolTableRecord
100
AcDbLayerTableRecord
  2
AM_0
 70
     0
 62
     7
  6
CONTINUOUS
370
    -3
390
1D
  0
LAYER
  5
35
102
{ACAD_XDICTIONARY
360
560
102
}
330
2
100
AcDbSymbolTableRecord
100
AcDbLayerTableRecord
  2
AM_1
 70
     0
 62
     7
  6
CONTINUOUS
370
    -3
390
1D
  0
LAYER
  5
37
102
{ACAD_XDICTIONARY
360
562
102
}
330
2
100
AcDbSymbolTableRecord
100
AcDbLayerTableRecord
  2
AM_5
 70
     0
 62
     7
  6
CONTINUOUS
370
    -3
390
1D
  0
LAYER
  5
39
102
{ACAD_XDICTIONARY
360
564
102
}
330
2
100
AcDbSymbolTableRecord
100
AcDbLayerTableRecord
  2
AM_6
 70
     0
 62
     7
  6
CONTINUOUS
370
    -3
390
1D
  0
LAYER
  5
3B
102
{ACAD_XDICTIONARY
360
566
102
}
330
2
100
AcDbSymbolTableRecord
100
AcDbLayerTableRecord
  2
AM_7
 70
     0
 62
     7
  6
CONTINUOUS
370
    -3
390
1D
  0
LAYER
  5
3D
102
{ACAD_XDICTIONARY
360
568
102
}
330
2
100
AcDbSymbolTableRecord
100
AcDbLayerTableRecord
  2
AM_8
 70
     0
 62
     7
  6
CONTINUOUS
370
    -3
390
1D
  0
LAYER
  5
3F
102
{ACAD_XDICTIONARY
360
56A
102
}
330
2
100
AcDbSymbolTableRecord
100
AcDbLayerTableRecord
  2
AM_BOR
 70
     0
 62
     7
  6
CONTINUOUS
370
    -3
390
1D
  0
LAYER
  5
41
102
{ACAD_XDICTIONARY
360
56C
102
}
330
2
100
AcDbSymbolTableRecord
100
AcDbLayerTableRecord
  2
DEFAULT
 70
     0
 62
     7
  6
CONTINUOUS
370
    -3
390
1D
  0
LAYER
  5
43
330
2
100
AcDbSymbolTableRecord
100
AcDbLayerTableRecord
  2
DEFPOINTS
 70
     0
 62
     7
  6
CONTINUOUS
290
     0
370
    -3
390
1D
  0
LAYER
  5
45
102
{ACAD_XDICTIONARY
360
56E
102
}
330
2
100
AcDbSymbolTableRecord
100
AcDbLayerTableRecord
  2
PREDEFINITO
 70
     0
 62
     7
  6
CONTINUOUS
370
    -3
390
1D
  0
LAYER
  5
47
102
{ACAD_XDICTIONARY
360
570
102
}
330
2
100
AcDbSymbolTableRecord
100
AcDbLayerTableRecord
  2
PROFILATI-IN-ALLUMINIO
 70
     0
 62
     7
  6
CONTINUOUS
370
    -3
390
1D
  0
LAYER
  5
49
102
{ACAD_XDICTIONARY
360
572
102
}
330
2
100
AcDbSymbolTableRecord
100
AcDbLayerTableRecord
  2
TESTI
 70
     0
 62
     7
  6
CONTINUOUS
370
    -3
390
1D
  0
LAYER
  5
4B
102
{ACAD_XDICTIONARY
360
574
102
}
330
2
100
AcDbSymbolTableRecord
100
AcDbLayerTableRecord
  2
VARI
 70
     0
 62
     7
  6
CONTINUOUS
370
    -3
390
1D
  0
LAYER
  5
56
102
{ACAD_XDICTIONARY
360
576
102
}
330
2
100
AcDbSymbolTableRecord
100
AcDbLayerTableRecord
  2
23_082_00
 70
     0
 62
     7
  6
CONTINUOUS
370
    -3
390
1D
  0
LAYER
  5
77
102
{ACAD_XDICTIONARY
360
578
102
}
330
2
100
AcDbSymbolTableRecord
100
AcDbLayerTableRecord
  2
DV1_0
 70
     0
 62
     7
  6
CONTINUOUS
370
    -3
390
1D
  0
LAYER
  5
7F
102
{ACAD_XDICTIONARY
360
57A
102
}
330
2
100
AcDbSymbolTableRecord
100
AcDbLayerTableRecord
  2
DV2_0
 70
     0
 62
     7
  6
CONTINUOUS
370
    -3
390
1D
  0
LAYER
  5
41A
102
{ACAD_XDICTIONARY
360
57C
102
}
330
2
100
AcDbSymbolTableRecord
100
AcDbLayerTableRecord
  2
P-0000
 70
     0
 62
     7
  6
CONTINUOUS
370
    -3
390
1D
1001
AcAecLayerStandard
1000

1000
TOP
  0
ENDTAB
  0
TABLE
  2
STYLE
  5
3
330
0
100
AcDbSymbolTable
 70
     9
  0
STYLE
  5
17
330
3
100
AcDbSymbolTableRecord
100
AcDbTextStyleTableRecord
  2
Standard
 70
     0
 40
0.0
 41
1.0
 50
0.0
 71
     0
 42
0.2
  3
txt
  4

  0
STYLE
  5
63
330
3
100
AcDbSymbolTableRecord
100
AcDbTextStyleTableRecord
  2
seansi_ttf
 70
     0
 40
0.0
 41
1.0
 50
0.0
 71
     0
 42
0.2
  3
STENCIL.TTF
  4

1001
ACAD
1000
Stencil
1071
        2
  0
STYLE
  5
65
330
3
100
AcDbSymbolTableRecord
100
AcDbTextStyleTableRecord
  2
arial_ttf
 70
     0
 40
0.0
 41
1.0
 50
0.0
 71
     0
 42
0.2
  3
arial.ttf
  4

1001
ACAD
1000
Arial
1071
        2
  0
STYLE
  5
73
330
3
100
AcDbSymbolTableRecord
100
AcDbTextStyleTableRecord
  2
seiso_ttfB
 70
     0
 40
0.0
 41
1.0
 50
0.0
 71
     0
 42
0.2
  3

  4

1001
ACAD
1000
Solid Edge ISO
1071
 33554434
  0
STYLE
  5
8D
330
3
100
AcDbSymbolTableRecord
100
AcDbTextStyleTableRecord
  2
seiso_ttf
 70
     0
 40
0.0
 41
1.0
 50
0.0
 71
     0
 42
0.2
  3

  4

1001
ACAD
1000
Solid Edge ISO
1071
        2
  0
STYLE
  5
426
330
3
100
AcDbSymbolTableRecord
100
AcDbTextStyleTableRecord
  2
ROMANS
 70
     0
 40
0.0
 41
0.8
 50
0.0
 71
     0
 42
3.0
  3
ROMANS.shx
  4

  0
STYLE
  5
427
330
3
100
AcDbSymbolTableRecord
100
AcDbTextStyleTableRecord
  2

 70
     1
 40
0.0
 41
1.0
 50
0.0
 71
     0
 42
0.2
  3
ltypeshp.shx
  4

  0
STYLE
  5
428
330
3
100
AcDbSymbolTableRecord
100
AcDbTextStyleTableRecord
  2
Stile_Quota
 70
     0
 40
0.0
 41
1.0
 50
0.0
 71
     0
 42
3.0
  3
BOD_I.TTF
  4

1001
ACAD
1000
Bodoni MT
1071
 16777234
  0
STYLE
  5
429
330
3
100
AcDbSymbolTableRecord
100
AcDbTextStyleTableRecord
  2
Stile_Quota_FISSO
 70
     0
 40
20.0
 41
1.0
 50
0.0
 71
     0
 42
3.0
  3
BOD_I.TTF
  4

1001
ACAD
1000
Bodoni MT
1071
 16777234
  0
ENDTAB
  0
TABLE
  2
VIEW
  5
5
330
0
100
AcDbSymbolTable
 70
     0
  0
ENDTAB
  0
TABLE
  2
UCS
  5
6
330
0
100
AcDbSymbolTable
 70
     0
  0
ENDTAB
  0
TABLE
  2
APPID
  5
8
330
0
100
AcDbSymbolTable
 70
    11
  0
APPID
  5
16
330
8
100
AcDbSymbolTableRecord
100
AcDbRegAppTableRecord
  2
ACAD
 70
     0
  0
APPID
  5
41B
330
8
100
AcDbSymbolTableRecord
100
AcDbRegAppTableRecord
  2
AcAecLayerStandard
 70
     0
  0
APPID
  5
421
330
8
100
AcDbSymbolTableRecord
100
AcDbRegAppTableRecord
  2
TOP
 70
     0
  0
APPID
  5
42D
330
8
100
AcDbSymbolTableRecord
100
AcDbRegAppTableRecord
  2
ACAD_MLEADERVER
 70
     0
  0
APPID
  5
42E
330
8
100
AcDbSymbolTableRecord
100
AcDbRegAppTableRecord
  2
ACAD_DSTYLE_DIMJAG
 70
     0
  0
APPID
  5
42F
330
8
100
AcDbSymbolTableRecord
100
AcDbRegAppTableRecord
  2
ACAD_DSTYLE_DIMTALN
 70
     0
  0
APPID
  5
430
330
8
100
AcDbSymbolTableRecord
100
AcDbRegAppTableRecord
  2
AcadAnnoPO
 70
     0
  0
APPID
  5
431
330
8
100
AcDbSymbolTableRecord
100
AcDbRegAppTableRecord
  2
ACAD_EXEMPT_FROM_CAD_STANDARDS
 70
     0
  0
APPID
  5
432
330
8
100
AcDbSymbolTableRecord
100
AcDbRegAppTableRecord
  2
ACAD_PSEXT
 70
     0
  0
APPID
  5
433
330
8
100
AcDbSymbolTableRecord
100
AcDbRegAppTableRecord
  2
ACAD_DSTYLE_DIMBREAK
 70
     0
  0
APPID
  5
583
330
8
100
AcDbSymbolTableRecord
100
AcDbRegAppTableRecord
  2
DCO15
 70
     0
  0
ENDTAB
  0
TABLE
  2
DIMSTYLE
  5
9
330
0
100
AcDbSymbolTable
 70
     5
100
AcDbDimStyleTable
 71
     0
  0
DIMSTYLE
105
18
330
9
100
AcDbSymbolTableRecord
100
AcDbDimStyleTableRecord
  2
Standard
 70
     0
289
     0
340
17
  0
DIMSTYLE
105
8E
330
9
100
AcDbSymbolTableRecord
100
AcDbDimStyleTableRecord
  2
ISO
 70
     0
 41
3.0
 42
0.0
 44
1.5
 73
     0
 74
     0
 77
     1
 78
     8
140
3.0
141
1.5
147
1.5
172
     1
173
     1
176
   136
177
   136
178
   136
271
     0
272
     0
278
    44
284
     8
340
8D
343
8C
344
8C
  0
DIMSTYLE
105
42A
330
9
100
AcDbSymbolTableRecord
100
AcDbDimStyleTableRecord
  2
ACADTOP
 70
     0
 41
2.0
 42
1.0
 43
10.0
 44
1.5
 73
     0
 74
     0
 77
     1
 78
     8
 79
     2
140
2.0
141
2.0
146
0.6
147
1.0
172
     1
176
     2
177
     2
178
     1
179
     1
271
     2
272
     2
284
     8
289
     0
340
428
1001
ACAD_DSTYLE_DIMJAG
1070
   388
1040
1.5
1001
ACAD_DSTYLE_DIMTALN
1070
   392
1070
     0
  0
DIMSTYLE
105
42B
330
9
100
AcDbSymbolTableRecord
100
AcDbDimStyleTableRecord
  2
DIERRE_LUNG-ALT
 70
     0
 41
3.0
 42
1.0
 43
10.0
 44
1.5
 73
     0
 74
     0
 75
     1
 76
     1
 78
     8
 79
     2
140
20.0
141
2.0
146
0.6
147
1.0
172
     1
176
     3
177
     3
178
    30
179
     1
271
     1
272
     1
281
     1
282
     1
284
     8
340
429
1001
ACAD_DSTYLE_DIMBREAK
1070
   391
1040
3.75
1001
ACAD_DSTYLE_DIMJAG
1070
   388
1040
1.5
1001
ACAD_DSTYLE_DIMTALN
1070
   392
1070
     0
  0
DIMSTYLE
105
42C
330
9
100
AcDbSymbolTableRecord
100
AcDbDimStyleTableRecord
  2
DIERRE_LARG
 70
     0
 41
3.0
 42
1.0
 43
10.0
 44
1.5
 73
     0
 74
     0
 75
     1
 76
     1
 78
     8
 79
     2
140
20.0
141
2.0
146
0.6
147
1.0
172
     1
176
     4
177
     4
178
     4
179
     1
271
     1
272
     1
281
     1
282
     1
284
     8
340
429
1001
ACAD_DSTYLE_DIMBREAK
1070
   391
1040
3.75
1001
ACAD_DSTYLE_DIMJAG
1070
   388
1040
1.5
1001
ACAD_DSTYLE_DIMTALN
1070
   392
1070
     0
  0
ENDTAB
  0
TABLE
  2
BLOCK_RECORD
  5
1
330
0
100
AcDbSymbolTable
 70
    37
  0
BLOCK_RECORD
  5
A
330
1
100
AcDbSymbolTableRecord
100
AcDbBlockTableRecord
  2
*MODEL_SPACE
340
20
  0
BLOCK_RECORD
  5
B
330
1
100
AcDbSymbolTableRecord
100
AcDbBlockTableRecord
  2
*PAPER_SPACE
340
21
  0
BLOCK_RECORD
  5
75
330
1
100
AcDbSymbolTableRecord
100
AcDbBlockTableRecord
  2
SE0
340
0
102
{BLKREFS
331
7C
102
}
  0
BLOCK_RECORD
  5
76
330
1
100
AcDbSymbolTableRecord
100
AcDbBlockTableRecord
  2
SE1
340
0
  0
BLOCK_RECORD
  5
7D
330
1
100
AcDbSymbolTableRecord
100
AcDbBlockTableRecord
  2
SE2
340
0
102
{BLKREFS
331
84
102
}
  0
BLOCK_RECORD
  5
7E
330
1
100
AcDbSymbolTableRecord
100
AcDbBlockTableRecord
  2
SE3
340
0
  0
BLOCK_RECORD
  5
85
330
1
100
AcDbSymbolTableRecord
100
AcDbBlockTableRecord
  2
SE4
340
0
102
{BLKREFS
331
8B
102
}
  0
BLOCK_RECORD
  5
86
330
1
100
AcDbSymbolTableRecord
100
AcDbBlockTableRecord
  2
SE5
340
0
  0
BLOCK_RECORD
  5
8C
330
1
100
AcDbSymbolTableRecord
100
AcDbBlockTableRecord
  2
_SE_FILLED
340
0
102
{BLKREFS
331
395
331
396
331
3A0
331
3A1
331
3AB
331
3AC
331
3B7
331
3CD
331
3D7
331
3D8
331
3E0
331
3E1
331
3E9
331
3EA
331
3F2
331
3F3
331
3FB
331
3FC
331
404
331
405
331
40D
331
40E
102
}
  0
BLOCK_RECORD
  5
8F
330
1
100
AcDbSymbolTableRecord
100
AcDbBlockTableRecord
  2
SE6
340
0
102
{BLKREFS
331
201
102
}
  0
BLOCK_RECORD
  5
92
330
1
100
AcDbSymbolTableRecord
100
AcDbBlockTableRecord
  2
DMBLK467
340
0
  0
BLOCK_RECORD
  5
94
330
1
100
AcDbSymbolTableRecord
100
AcDbBlockTableRecord
  2
SE7
340
0
  0
BLOCK_RECORD
  5
97
330
1
100
AcDbSymbolTableRecord
100
AcDbBlockTableRecord
  2
DMBLK468
340
0
  0
BLOCK_RECORD
  5
99
330
1
100
AcDbSymbolTableRecord
100
AcDbBlockTableRecord
  2
SE8
340
0
  0
BLOCK_RECORD
  5
9C
330
1
100
AcDbSymbolTableRecord
100
AcDbBlockTableRecord
  2
DMBLK469
340
0
  0
BLOCK_RECORD
  5
9E
330
1
100
AcDbSymbolTableRecord
100
AcDbBlockTableRecord
  2
SE9
340
0
  0
BLOCK_RECORD
  5
A1
330
1
100
AcDbSymbolTableRecord
100
AcDbBlockTableRecord
  2
DMBLK470
340
0
  0
BLOCK_RECORD
  5
A3
330
1
100
AcDbSymbolTableRecord
100
AcDbBlockTableRecord
  2
_SE_BLANK
340
0
102
{BLKREFS
331
3B6
331
3CC
102
}
  0
BLOCK_RECORD
  5
A4
330
1
100
AcDbSymbolTableRecord
100
AcDbBlockTableRecord
  2
SE10
340
0
  0
BLOCK_RECORD
  5
A6
330
1
100
AcDbSymbolTableRecord
100
AcDbBlockTableRecord
  2
DMBLK471
340
0
  0
BLOCK_RECORD
  5
A8
330
1
100
AcDbSymbolTableRecord
100
AcDbBlockTableRecord
  2
_SE_DOT
340
0
102
{BLKREFS
331
3C1
331
3C2
102
}
  0
BLOCK_RECORD
  5
A9
330
1
100
AcDbSymbolTableRecord
100
AcDbBlockTableRecord
  2
SE11
340
0
  0
BLOCK_RECORD
  5
AC
330
1
100
AcDbSymbolTableRecord
100
AcDbBlockTableRecord
  2
DMBLK472
340
0
  0
BLOCK_RECORD
  5
AE
330
1
100
AcDbSymbolTableRecord
100
AcDbBlockTableRecord
  2
SE12
340
0
  0
BLOCK_RECORD
  5
B0
330
1
100
AcDbSymbolTableRecord
100
AcDbBlockTableRecord
  2
DMBLK473
340
0
  0
BLOCK_RECORD
  5
B2
330
1
100
AcDbSymbolTableRecord
100
AcDbBlockTableRecord
  2
SE13
340
0
  0
BLOCK_RECORD
  5
B5
330
1
100
AcDbSymbolTableRecord
100
AcDbBlockTableRecord
  2
DMBLK474
340
0
  0
BLOCK_RECORD
  5
B7
330
1
100
AcDbSymbolTableRecord
100
AcDbBlockTableRecord
  2
SE14
340
0
  0
BLOCK_RECORD
  5
BA
330
1
100
AcDbSymbolTableRecord
100
AcDbBlockTableRecord
  2
DMBLK475
340
0
  0
BLOCK_RECORD
  5
BC
330
1
100
AcDbSymbolTableRecord
100
AcDbBlockTableRecord
  2
SE15
340
0
  0
BLOCK_RECORD
  5
BF
330
1
100
AcDbSymbolTableRecord
100
AcDbBlockTableRecord
  2
DMBLK476
340
0
  0
BLOCK_RECORD
  5
C1
330
1
100
AcDbSymbolTableRecord
100
AcDbBlockTableRecord
  2
SE16
340
0
  0
BLOCK_RECORD
  5
C4
330
1
100
AcDbSymbolTableRecord
100
AcDbBlockTableRecord
  2
DMBLK477
340
0
  0
BLOCK_RECORD
  5
C6
330
1
100
AcDbSymbolTableRecord
100
AcDbBlockTableRecord
  2
SE17
340
0
  0
BLOCK_RECORD
  5
C9
330
1
100
AcDbSymbolTableRecord
100
AcDbBlockTableRecord
  2
DMBLK478
340
0
  0
BLOCK_RECORD
  5
CB
330
1
100
AcDbSymbolTableRecord
100
AcDbBlockTableRecord
  2
SE18
340
0
  0
BLOCK_RECORD
  5
CE
330
1
100
AcDbSymbolTableRecord
100
AcDbBlockTableRecord
  2
DMBLK479
340
0
  0
BLOCK_RECORD
  5
D0
330
1
100
AcDbSymbolTableRecord
100
AcDbBlockTableRecord
  2
SE19
340
0
  0
BLOCK_RECORD
  5
D3
330
1
100
AcDbSymbolTableRecord
100
AcDbBlockTableRecord
  2
DMBLK480
340
0
  0
ENDTAB
  0
ENDSEC
  0
SECTION
  2
BLOCKS
  0
BLOCK
  5
D
330
A
100
AcDbEntity
  8
0
100
AcDbBlockBegin
  2
*MODEL_SPACE
 70
     0
 10
0.0
 20
0.0
 30
0.0
  3
*MODEL_SPACE
  1

  0
ENDBLK
  5
E
330
A
100
AcDbEntity
  8
0
100
AcDbBlockEnd
  0
BLOCK
  5
F
330
B
100
AcDbEntity
 67
     1
  8
0
100
AcDbBlockBegin
  2
*PAPER_SPACE
 70
     0
 10
0.0
 20
0.0
 30
0.0
  3
*PAPER_SPACE
  1

  0
ENDBLK
  5
10
330
B
100
AcDbEntity
 67
     1
  8
0
100
AcDbBlockEnd
  0
BLOCK
  5
131
330
75
100
AcDbEntity
  8
0
 62
     1
 48
0.0
370
     0
100
AcDbBlockBegin
  2
SE0
 70
     0
 10
0.0
 20
0.0
 30
0.0
  3
SE0
  1

  0
ENDBLK
  5
132
330
75
100
AcDbEntity
  8
0
 62
     1
 48
0.0
370
     0
100
AcDbBlockEnd
  0
BLOCK
  5
D5
330
76
100
AcDbEntity
  8
0
 62
     1
 48
0.0
370
     0
100
AcDbBlockBegin
  2
SE1
 70
     0
 10
0.0
 20
0.0
 30
0.0
  3
SE1
  1

  0
LINE
  5
D6
330
76
100
AcDbEntity
  8
DV1_0
  6
HIDDEN2
 62
     7
370
     0
100
AcDbLine
 10
103.2206576231409
 20
194.8834939670057
 30
0.0
 11
103.2206576231409
 21
188.8834939670057
 31
0.0
  0
LINE
  5
D7
330
76
100
AcDbEntity
  8
0
  6
HIDDEN2
 62
     7
370
     0
100
AcDbLine
 10
114.2206576231409
 20
188.8834939670057
 30
0.0
 11
114.2206576231409
 21
194.8834939670057
 31
0.0
  0
LINE
  5
D8
330
76
100
AcDbEntity
  8
0
  6
HIDDEN2
 62
     7
370
     0
100
AcDbLine
 10
100.2206576231409
 20
188.8834939670057
 30
0.0
 11
100.2206576231409
 21
194.8834939670057
 31
0.0
  0
LINE
  5
D9
330
76
100
AcDbEntity
  8
0
  6
HIDDEN2
 62
     7
370
     0
100
AcDbLine
 10
91.62065762314094
 20
202.8834939670058
 30
0.0
 11
91.62065762314094
 21
199.0404159051711
 31
0.0
  0
LINE
  5
DA
330
76
100
AcDbEntity
  8
0
  6
HIDDEN2
 62
     7
370
     0
100
AcDbLine
 10
89.22065762314094
 20
194.8834939670057
 30
0.0
 11
89.22065762314094
 21
188.8834939670057
 31
0.0
  0
LINE
  5
DB
330
76
100
AcDbEntity
  8
0
  6
HIDDEN2
 62
     7
370
     0
100
AcDbLine
 10
118.4706576231409
 20
207.3834939670058
 30
0.0
 11
118.4706576231409
 21
200.3834939670058
 31
0.0
  0
LINE
  5
DC
330
76
100
AcDbEntity
  8
0
  6
HIDDEN2
 62
     7
370
     0
100
AcDbLine
 10
100.2206576231409
 20
194.8834939670057
 30
0.0
 11
97.82065762314093
 21
199.0404159051711
 31
0.0
  0
LINE
  5
DD
330
76
100
AcDbEntity
  8
0
  6
HIDDEN2
 62
     7
370
     0
100
AcDbLine
 10
91.62065762314094
 20
199.0404159051711
 30
0.0
 11
89.22065762314094
 21
194.8834939670057
 31
0.0
  0
LINE
  5
DE
330
76
100
AcDbEntity
  8
0
  6
HIDDEN2
 62
     7
370
     0
100
AcDbLine
 10
105.6206576231409
 20
199.0404159051711
 30
0.0
 11
103.2206576231409
 21
194.8834939670057
 31
0.0
  0
LINE
  5
DF
330
76
100
AcDbEntity
  8
0
  6
HIDDEN2
 62
     7
370
     0
100
AcDbLine
 10
105.6206576231409
 20
202.8834939670058
 30
0.0
 11
105.6206576231409
 21
199.0404159051711
 31
0.0
  0
LINE
  5
E0
330
76
100
AcDbEntity
  8
0
  6
HIDDEN2
 62
     7
370
     0
100
AcDbLine
 10
96.72065762314092
 20
191.8834939670057
 30
0.0
 11
96.72065762314092
 21
196.3834939670057
 31
0.0
  0
LINE
  5
E1
330
76
100
AcDbEntity
  8
0
  6
HIDDEN2
 62
     7
370
     0
100
AcDbLine
 10
97.82065762314093
 20
199.0404159051711
 30
0.0
 11
97.82065762314093
 21
202.8834939670058
 31
0.0
  0
LINE
  5
E2
330
76
100
AcDbEntity
  8
0
  6
HIDDEN2
 62
     7
370
     0
100
AcDbLine
 10
117.7206576231409
 20
191.8834939670057
 30
0.0
 11
117.7206576231409
 21
196.3834939670057
 31
0.0
  0
LINE
  5
E3
330
76
100
AcDbEntity
  8
0
  6
HIDDEN2
 62
     7
370
     0
100
AcDbLine
 10
103.7206576231409
 20
191.8834939670057
 30
0.0
 11
103.7206576231409
 21
196.3834939670057
 31
0.0
  0
LINE
  5
E4
330
76
100
AcDbEntity
  8
0
  6
HIDDEN2
 62
     7
370
     0
100
AcDbLine
 10
110.7206576231409
 20
191.8834939670057
 30
0.0
 11
110.7206576231409
 21
196.3834939670057
 31
0.0
  0
LINE
  5
E5
330
76
100
AcDbEntity
  8
0
  6
HIDDEN2
 62
     7
370
     0
100
AcDbLine
 10
99.72065762314095
 20
196.3834939670057
 30
0.0
 11
99.72065762314095
 21
191.8834939670057
 31
0.0
  0
LINE
  5
E6
330
76
100
AcDbEntity
  8
0
  6
HIDDEN2
 62
     7
370
     0
100
AcDbLine
 10
124.9706576231409
 20
200.3834939670058
 30
0.0
 11
124.9706576231409
 21
207.3834939670058
 31
0.0
  0
LINE
  5
E7
330
76
100
AcDbEntity
  8
0
  6
HIDDEN2
 62
     7
370
     0
100
AcDbLine
 10
111.8206576231409
 20
199.0404159051711
 30
0.0
 11
111.8206576231409
 21
202.8834939670058
 31
0.0
  0
LINE
  5
E8
330
76
100
AcDbEntity
  8
0
  6
HIDDEN2
 62
     7
370
     0
100
AcDbLine
 10
106.7206576231409
 20
196.3834939670057
 30
0.0
 11
106.7206576231409
 21
191.8834939670057
 31
0.0
  0
LINE
  5
E9
330
76
100
AcDbEntity
  8
0
  6
HIDDEN2
 62
     7
370
     0
100
AcDbLine
 10
113.7206576231409
 20
196.3834939670057
 30
0.0
 11
113.7206576231409
 21
191.8834939670057
 31
0.0
  0
LINE
  5
EA
330
76
100
AcDbEntity
  8
0
  6
HIDDEN2
 62
     7
370
     0
100
AcDbLine
 10
88.97065762314094
 20
202.8834939670058
 30
0.0
 11
88.97065762314094
 21
207.3834939670058
 31
0.0
  0
LINE
  5
EB
330
76
100
AcDbEntity
  8
0
  6
HIDDEN2
 62
     7
370
     0
100
AcDbLine
 10
88.97065762314094
 20
202.8834939670058
 30
0.0
 11
91.84565762314093
 21
202.8834939670058
 31
0.0
  0
LINE
  5
EC
330
76
100
AcDbEntity
  8
0
  6
HIDDEN2
 62
     7
370
     0
100
AcDbLine
 10
97.59565762314094
 20
202.8834939670058
 30
0.0
 11
100.4706576231409
 21
202.8834939670058
 31
0.0
  0
LINE
  5
ED
330
76
100
AcDbEntity
  8
0
  6
HIDDEN2
 62
     7
370
     0
100
AcDbLine
 10
97.59565762314094
 20
202.8834939670058
 30
0.0
 11
97.59565762314094
 21
207.3834939670058
 31
0.0
  0
LINE
  5
EE
330
76
100
AcDbEntity
  8
0
  6
HIDDEN2
 62
     7
370
     0
100
AcDbLine
 10
91.84565762314093
 20
202.8834939670058
 30
0.0
 11
97.59565762314094
 21
202.8834939670058
 31
0.0
  0
LINE
  5
EF
330
76
100
AcDbEntity
  8
0
  6
HIDDEN2
 62
     7
370
     0
100
AcDbLine
 10
100.4706576231409
 20
202.8834939670058
 30
0.0
 11
100.4706576231409
 21
207.3834939670058
 31
0.0
  0
LINE
  5
F0
330
76
100
AcDbEntity
  8
0
  6
HIDDEN2
 62
     7
370
     0
100
AcDbLine
 10
97.8206576231409
 20
199.0404159051711
 30
0.0
 11
91.62065762314096
 21
199.0404159051711
 31
0.0
  0
LINE
  5
F1
330
76
100
AcDbEntity
  8
0
  6
HIDDEN2
 62
     7
370
     0
100
AcDbLine
 10
100.2206576231408
 20
194.8834939670057
 30
0.0
 11
89.22065762314099
 21
194.8834939670057
 31
0.0
  0
LINE
  5
F2
330
76
100
AcDbEntity
  8
0
  6
Continuous
 62
     7
370
     0
100
AcDbLine
 10
112.7903627721658
 20
198.3834939670057
 30
0.0
 11
112.7903627721658
 21
207.3834939670057
 31
0.0
  0
LINE
  5
F3
330
76
100
AcDbEntity
  8
0
  6
HIDDEN2
 62
     7
370
     0
100
AcDbLine
 10
91.84565762314093
 20
202.8834939670058
 30
0.0
 11
91.84565762314093
 21
207.3834939670058
 31
0.0
  0
LINE
  5
F4
330
76
100
AcDbEntity
  8
0
  6
HIDDEN2
 62
     7
370
     0
100
AcDbLine
 10
99.72065762314095
 20
196.3834939670057
 30
0.0
 11
103.7206576231409
 21
196.3834939670057
 31
0.0
  0
LINE
  5
F5
330
76
100
AcDbEntity
  8
0
  6
HIDDEN2
 62
     7
370
     0
100
AcDbLine
 10
92.72065762314095
 20
196.3834939670057
 30
0.0
 11
96.7206576231409
 21
196.3834939670057
 31
0.0
  0
LINE
  5
F6
330
76
100
AcDbEntity
  8
0
  6
HIDDEN2
 62
     7
370
     0
100
AcDbLine
 10
106.7206576231409
 20
196.3834939670057
 30
0.0
 11
110.7206576231409
 21
196.3834939670057
 31
0.0
  0
LINE
  5
F7
330
76
100
AcDbEntity
  8
0
  6
HIDDEN2
 62
     7
370
     0
100
AcDbLine
 10
113.7206576231409
 20
196.3834939670057
 30
0.0
 11
117.7206576231409
 21
196.3834939670057
 31
0.0
  0
LINE
  5
F8
330
76
100
AcDbEntity
  8
0
  6
HIDDEN2
 62
     7
370
     0
100
AcDbLine
 10
118.4706576231409
 20
200.3834939670058
 30
0.0
 11
124.9706576231409
 21
200.3834939670058
 31
0.0
  0
LINE
  5
F9
330
76
100
AcDbEntity
  8
0
  6
HIDDEN2
 62
     7
370
     0
100
AcDbLine
 10
132.7206585125888
 20
198.3834939670057
 30
0.0
 11
132.7206585125888
 21
207.3834939670057
 31
0.0
  0
LINE
  5
FA
330
76
100
AcDbEntity
  8
0
  6
HIDDEN2
 62
     7
370
     0
100
AcDbLine
 10
132.7206585125889
 20
198.3834939670057
 30
0.0
 11
132.7206585125889
 21
207.3834939670057
 31
0.0
  0
ARC
  5
FB
330
76
100
AcDbEntity
  8
0
  6
Continuous
 62
     7
370
     0
100
AcDbCircle
 10
129.7206576231409
 20
192.2944144944337
 30
0.0
 40
0.9999999999999991
100
AcDbArc
 50
284.9999999999996
 51
360.0
  0
ARC
  5
FC
330
76
100
AcDbEntity
  8
0
  6
Continuous
 62
     7
370
     0
100
AcDbCircle
 10
129.7206576231409
 20
193.4725734395778
 30
0.0
 40
1.0
100
AcDbArc
 50
0.0
 51
75.00000000000082
  0
ELLIPSE
  5
FD
330
76
100
AcDbEntity
  8
0
  6
Continuous
 62
     7
370
     0
100
AcDbEllipse
 10
129.7206576231409
 20
192.2944144944337
 30
0.0
 11
-0.2588190451025194
 21
0.9659258262890695
 31
0.0
210
0.0
220
0.0
230
0.9999999999999998
 40
0.2505628070857296
 41
3.141592653589881
 42
4.645351482179758
  0
LINE
  5
FE
330
76
100
AcDbEntity
  8
0
  6
Continuous
 62
     7
370
     0
100
AcDbLine
 10
129.9794766682434
 20
191.3284886681446
 30
0.0
 11
122.7206576231409
 21
189.3834939670057
 31
0.0
  0
LINE
  5
FF
330
76
100
AcDbEntity
  8
0
  6
Continuous
 62
     7
370
     0
100
AcDbLine
 10
130.7206576231409
 20
193.4725734395778
 30
0.0
 11
130.7206576231409
 21
192.2944144944337
 31
0.0
  0
LINE
  5
100
330
76
100
AcDbEntity
  8
0
  6
HIDDEN2
 62
     7
370
     0
100
AcDbLine
 10
128.2206577428478
 20
207.3834939670058
 30
0.0
 11
128.2206577428478
 21
198.3834939670058
 31
0.0
  0
LINE
  5
101
330
76
100
AcDbEntity
  8
0
  6
Continuous
 62
     7
370
     0
100
AcDbLine
 10
122.7206576231409
 20
190.3494197932948
 30
0.0
 11
129.9794766682434
 21
192.2944144944337
 31
0.0
  0
LINE
  5
102
330
76
100
AcDbEntity
  8
0
  6
Continuous
 62
     7
370
     0
100
AcDbLine
 10
129.9794766682434
 20
193.4725734395778
 30
0.0
 11
122.7206576231409
 21
195.4175681407166
 31
0.0
  0
LINE
  5
103
330
76
100
AcDbEntity
  8
0
  6
Continuous
 62
     7
370
     0
100
AcDbLine
 10
122.7206576231409
 20
196.3834939670057
 30
0.0
 11
129.9794766682434
 21
194.4384992658669
 31
0.0
  0
LINE
  5
104
330
76
100
AcDbEntity
  8
0
  6
Continuous
 62
     7
370
     0
100
AcDbLine
 10
142.3033347802234
 20
207.3834939670058
 30
0.0
 11
133.4428608315771
 21
207.3834939670058
 31
0.0
  0
LINE
  5
105
330
76
100
AcDbEntity
  8
0
  6
Continuous
 62
     7
370
     0
100
AcDbLine
 10
129.9794766682434
 20
192.2944144944337
 30
0.0
 11
129.9794766682434
 21
193.4725734395778
 31
0.0
  0
LINE
  5
106
330
76
100
AcDbEntity
  8
0
  6
Continuous
 62
     7
370
     0
100
AcDbLine
 10
143.7206576231409
 20
198.3834939670057
 30
0.0
 11
142.3033347802234
 21
198.3834939670057
 31
0.0
  0
LINE
  5
107
330
76
100
AcDbEntity
  8
0
  6
Continuous
 62
     7
370
     0
100
AcDbLine
 10
131.8763696831807
 20
198.3834939670057
 30
0.0
 11
131.8763696831807
 21
207.3834939670057
 31
0.0
  0
LINE
  5
108
330
76
100
AcDbEntity
  8
0
  6
Continuous
 62
     7
370
     0
100
AcDbLine
 10
133.4428608315771
 20
207.3834939670058
 30
0.0
 11
133.4428608315771
 21
198.3834939670058
 31
0.0
  0
LINE
  5
109
330
76
100
AcDbEntity
  8
0
  6
Continuous
 62
     7
370
     0
100
AcDbLine
 10
133.4428608315771
 20
198.3834939670057
 30
0.0
 11
131.8763696831806
 21
198.3834939670057
 31
0.0
  0
LINE
  5
10A
330
76
100
AcDbEntity
  8
0
  6
Continuous
 62
     7
370
     0
100
AcDbLine
 10
131.8763696831807
 20
207.3834939670058
 30
0.0
 11
133.4428608315771
 21
207.3834939670058
 31
0.0
  0
LINE
  5
10B
330
76
100
AcDbEntity
  8
0
  6
Continuous
 62
     7
370
     0
100
AcDbLine
 10
142.3033347802234
 20
198.3834939670057
 30
0.0
 11
142.3033347802234
 21
207.3834939670057
 31
0.0
  0
LINE
  5
10C
330
76
100
AcDbEntity
  8
0
  6
Continuous
 62
     7
370
     0
100
AcDbLine
 10
143.7206576231409
 20
207.3834939670058
 30
0.0
 11
143.7206576231409
 21
198.3834939670058
 31
0.0
  0
LINE
  5
10D
330
76
100
AcDbEntity
  8
0
  6
Continuous
 62
     7
370
     0
100
AcDbLine
 10
142.3033347802234
 20
207.3834939670058
 30
0.0
 11
143.7206576231409
 21
207.3834939670058
 31
0.0
  0
LINE
  5
10E
330
76
100
AcDbEntity
  8
0
  6
Continuous
 62
     7
370
     0
100
AcDbLine
 10
88.72065762314093
 20
207.3834939670058
 30
0.0
 11
88.72065762314093
 21
198.3834939670058
 31
0.0
  0
LINE
  5
10F
330
76
100
AcDbEntity
  8
0
  6
Continuous
 62
     7
370
     0
100
AcDbLine
 10
87.72065762314094
 20
207.3834939670058
 30
0.0
 11
88.72065762314093
 21
207.3834939670058
 31
0.0
  0
LINE
  5
110
330
76
100
AcDbEntity
  8
0
  6
Continuous
 62
     7
370
     0
100
AcDbLine
 10
87.72065762314094
 20
188.8834939670057
 30
0.0
 11
122.7206576231409
 21
188.8834939670057
 31
0.0
  0
LINE
  5
111
330
76
100
AcDbEntity
  8
0
  6
Continuous
 62
     7
370
     0
100
AcDbLine
 10
87.72065762314094
 20
198.3834939670057
 30
0.0
 11
87.72065762314094
 21
207.3834939670057
 31
0.0
  0
LINE
  5
112
330
76
100
AcDbEntity
  8
0
  6
Continuous
 62
     7
370
     0
100
AcDbLine
 10
87.72065762314094
 20
191.8834939670057
 30
0.0
 11
87.72065762314094
 21
198.3834939670057
 31
0.0
  0
LINE
  5
113
330
76
100
AcDbEntity
  8
0
  6
Continuous
 62
     7
370
     0
100
AcDbLine
 10
122.7206576231409
 20
191.8834939670057
 30
0.0
 11
122.7206576231409
 21
198.3834939670057
 31
0.0
  0
LINE
  5
114
330
76
100
AcDbEntity
  8
0
  6
Continuous
 62
     7
370
     0
100
AcDbLine
 10
112.7903627721658
 20
207.3834939670058
 30
0.0
 11
131.8763696831806
 21
207.3834939670058
 31
0.0
  0
LINE
  5
115
330
76
100
AcDbEntity
  8
0
  6
Continuous
 62
     7
370
     0
100
AcDbLine
 10
122.7206576231409
 20
198.3834939670057
 30
0.0
 11
87.72065762314094
 21
198.3834939670057
 31
0.0
  0
LINE
  5
116
330
76
100
AcDbEntity
  8
0
  6
Continuous
 62
     7
370
     0
100
AcDbLine
 10
122.7206576231409
 20
191.8834939670057
 30
0.0
 11
122.7206576231409
 21
188.8834939670057
 31
0.0
  0
LINE
  5
117
330
76
100
AcDbEntity
  8
0
  6
Continuous
 62
     7
370
     0
100
AcDbLine
 10
122.7206576231409
 20
191.8834939670057
 30
0.0
 11
87.72065762314094
 21
191.8834939670057
 31
0.0
  0
LINE
  5
118
330
76
100
AcDbEntity
  8
0
  6
Continuous
 62
     7
370
     0
100
AcDbLine
 10
87.72065762314094
 20
188.8834939670057
 30
0.0
 11
87.72065762314094
 21
191.8834939670057
 31
0.0
  0
LINE
  5
119
330
76
100
AcDbEntity
  8
0
  6
Continuous
 62
     7
370
     0
100
AcDbLine
 10
131.8763696831807
 20
198.3834939670057
 30
0.0
 11
122.7206576231409
 21
198.3834939670057
 31
0.0
  0
LINE
  5
11A
330
76
100
AcDbEntity
  8
0
  6
HIDDEN2
 62
     7
370
     0
100
AcDbLine
 10
105.8456576231409
 20
202.8834939670058
 30
0.0
 11
105.8456576231409
 21
207.3834939670058
 31
0.0
  0
LINE
  5
11B
330
76
100
AcDbEntity
  8
0
  6
HIDDEN2
 62
     7
370
     0
100
AcDbLine
 10
102.9706576231409
 20
202.8834939670058
 30
0.0
 11
102.9706576231409
 21
207.3834939670058
 31
0.0
  0
LINE
  5
11C
330
76
100
AcDbEntity
  8
0
  6
HIDDEN2
 62
     7
370
     0
100
AcDbLine
 10
114.4706576231409
 20
202.8834939670058
 30
0.0
 11
114.4706576231409
 21
207.3834939670058
 31
0.0
  0
LINE
  5
11D
330
76
100
AcDbEntity
  8
0
  6
HIDDEN2
 62
     7
370
     0
100
AcDbLine
 10
102.9706576231409
 20
202.8834939670058
 30
0.0
 11
105.8456576231409
 21
202.8834939670058
 31
0.0
  0
LINE
  5
11E
330
76
100
AcDbEntity
  8
0
  6
HIDDEN2
 62
     7
370
     0
100
AcDbLine
 10
105.8456576231409
 20
202.8834939670058
 30
0.0
 11
111.5956576231409
 21
202.8834939670058
 31
0.0
  0
LINE
  5
11F
330
76
100
AcDbEntity
  8
0
  6
HIDDEN2
 62
     7
370
     0
100
AcDbLine
 10
111.5956576231409
 20
202.8834939670058
 30
0.0
 11
111.5956576231409
 21
207.3834939670058
 31
0.0
  0
LINE
  5
120
330
76
100
AcDbEntity
  8
0
  6
HIDDEN2
 62
     7
370
     0
100
AcDbLine
 10
111.5956576231409
 20
202.8834939670058
 30
0.0
 11
114.4706576231409
 21
202.8834939670058
 31
0.0
  0
LINE
  5
121
330
76
100
AcDbEntity
  8
0
  6
HIDDEN2
 62
     7
370
     0
100
AcDbLine
 10
114.2206576231409
 20
194.8834939670057
 30
0.0
 11
103.220657623141
 21
194.8834939670057
 31
0.0
  0
LINE
  5
122
330
76
100
AcDbEntity
  8
0
  6
HIDDEN2
 62
     7
370
     0
100
AcDbLine
 10
111.8206576231409
 20
199.0404159051711
 30
0.0
 11
105.6206576231409
 21
199.0404159051711
 31
0.0
  0
LINE
  5
123
330
76
100
AcDbEntity
  8
0
  6
Continuous
 62
     7
370
     0
100
AcDbLine
 10
112.7903627721658
 20
207.3834939670058
 30
0.0
 11
104.650952474116
 21
207.3834939670058
 31
0.0
  0
LINE
  5
124
330
76
100
AcDbEntity
  8
0
  6
Continuous
 62
     7
370
     0
100
AcDbLine
 10
90.65095247411599
 20
198.3834939670057
 30
0.0
 11
90.65095247411599
 21
207.3834939670057
 31
0.0
  0
LINE
  5
125
330
76
100
AcDbEntity
  8
0
  6
Continuous
 62
     7
370
     0
100
AcDbLine
 10
98.79036277216584
 20
207.3834939670058
 30
0.0
 11
90.65095247411599
 21
207.3834939670058
 31
0.0
  0
LINE
  5
126
330
76
100
AcDbEntity
  8
0
  6
Continuous
 62
     7
370
     0
100
AcDbLine
 10
104.650952474116
 20
198.3834939670057
 30
0.0
 11
104.650952474116
 21
207.3834939670057
 31
0.0
  0
LINE
  5
127
330
76
100
AcDbEntity
  8
0
  6
Continuous
 62
     7
370
     0
100
AcDbLine
 10
90.65095247411599
 20
207.3834939670058
 30
0.0
 11
88.72065762314091
 21
207.3834939670058
 31
0.0
  0
LINE
  5
128
330
76
100
AcDbEntity
  8
0
  6
Continuous
 62
     7
370
     0
100
AcDbLine
 10
98.79036277216584
 20
198.3834939670057
 30
0.0
 11
98.79036277216584
 21
207.3834939670057
 31
0.0
  0
LINE
  5
129
330
76
100
AcDbEntity
  8
0
  6
Continuous
 62
     7
370
     0
100
AcDbLine
 10
104.650952474116
 20
207.3834939670058
 30
0.0
 11
98.79036277216586
 21
207.3834939670058
 31
0.0
  0
LINE
  5
12A
330
76
100
AcDbEntity
  8
0
  6
HIDDEN2
 62
     7
370
     0
100
AcDbLine
 10
114.2206576231409
 20
194.8834939670057
 30
0.0
 11
111.8206576231409
 21
199.0404159051711
 31
0.0
  0
LINE
  5
12B
330
76
100
AcDbEntity
  8
0
  6
HIDDEN2
 62
     7
370
     0
100
AcDbLine
 10
92.72065762314094
 20
196.3834939670057
 30
0.0
 11
92.72065762314094
 21
191.8834939670057
 31
0.0
  0
ELLIPSE
  5
12C
330
76
100
AcDbEntity
  8
0
  6
Continuous
 62
     7
370
     0
100
AcDbEllipse
 10
129.7206576231409
 20
193.4725734395778
 30
0.0
 11
-0.2588190451025158
 21
-0.9659258262890679
 31
0.0
210
0.0
220
0.0
230
1.0
 40
0.2505628070857297
 41
1.637833824999827
 42
3.141592653589722
  0
LINE
  5
12D
330
76
100
AcDbEntity
  8
0
  6
Continuous
 62
     7
370
     0
100
AcDbLine
 10
142.3033347802234
 20
198.3834939670057
 30
0.0
 11
133.4428608315771
 21
198.3834939670057
 31
0.0
  0
LINE
  5
12E
330
76
100
AcDbEntity
  8
0
  6
Continuous
 62
     7
370
     0
100
AcDbLine
 10
129.9794766682434
 20
193.4725734395778
 30
0.0
 11
130.7206576231409
 21
193.4725734395778
 31
0.0
  0
LINE
  5
12F
330
76
100
AcDbEntity
  8
0
  6
Continuous
 62
     7
370
     0
100
AcDbLine
 10
129.9794766682434
 20
192.2944144944337
 30
0.0
 11
130.7206576231409
 21
192.2944144944337
 31
0.0
  0
ENDBLK
  5
2E9
330
76
100
AcDbEntity
  8
0
370
     0
100
AcDbBlockEnd
  0
BLOCK
  5
17B
330
7D
100
AcDbEntity
  8
0
 62
     1
 48
0.0
370
     0
100
AcDbBlockBegin
  2
SE2
 70
     0
 10
0.0
 20
0.0
 30
0.0
  3
SE2
  1

  0
ENDBLK
  5
17C
330
7D
100
AcDbEntity
  8
0
 62
     1
 48
0.0
370
     0
100
AcDbBlockEnd
  0
BLOCK
  5
133
330
7E
100
AcDbEntity
  8
0
 62
     1
 48
0.0
370
     0
100
AcDbBlockBegin
  2
SE3
 70
     0
 10
0.0
 20
0.0
 30
0.0
  3
SE3
  1

  0
LINE
  5
134
330
7E
100
AcDbEntity
  8
DV2_0
  6
Continuous
 62
     7
370
     0
100
AcDbLine
 10
90.65095247411599
 20
121.5979214477742
 30
0.0
 11
88.72065762314091
 21
121.5979214477742
 31
0.0
  0
ARC
  5
135
330
7E
100
AcDbEntity
  8
0
  6
Continuous
 62
     7
370
     0
100
AcDbCircle
 10
94.72065762314093
 20
127.5979214477742
 30
0.0
 40
7.25
100
AcDbArc
 50
235.8515756550529
 51
304.1484243449469
  0
ARC
  5
136
330
7E
100
AcDbEntity
  8
0
  6
Continuous
 62
     7
370
     0
100
AcDbCircle
 10
94.72065762314093
 20
127.5979214477742
 30
0.0
 40
7.25
100
AcDbArc
 50
55.85157565505296
 51
124.1484243449471
  0
LINE
  5
137
330
7E
100
AcDbEntity
  8
0
  6
Continuous
 62
     7
370
     0
100
AcDbLine
 10
90.65095247411599
 20
133.5979214477742
 30
0.0
 11
88.72065762314091
 21
133.5979214477742
 31
0.0
  0
ARC
  5
138
330
7E
100
AcDbEntity
  8
0
  6
Continuous
 62
     7
370
     0
100
AcDbCircle
 10
108.7206576231409
 20
127.5979214477742
 30
0.0
 40
7.25
100
AcDbArc
 50
55.85157565505287
 51
124.148424344947
  0
LINE
  5
139
330
7E
100
AcDbEntity
  8
0
  6
Continuous
 62
     7
370
     0
100
AcDbLine
 10
98.79036277216586
 20
133.5979214477742
 30
0.0
 11
104.650952474116
 21
133.5979214477742
 31
0.0
  0
CIRCLE
  5
13A
330
7E
100
AcDbEntity
  8
0
  6
HIDDEN2
 62
     7
370
     0
100
AcDbCircle
 10
115.7206576231409
 20
137.7229214477742
 30
0.0
 40
2.0
  0
CIRCLE
  5
13B
330
7E
100
AcDbEntity
  8
0
  6
HIDDEN2
 62
     7
370
     0
100
AcDbCircle
 10
108.7206576231409
 20
127.5979214477742
 30
0.0
 40
5.5
  0
ARC
  5
13C
330
7E
100
AcDbEntity
  8
0
  6
Continuous
 62
     7
370
     0
100
AcDbCircle
 10
108.7206576231409
 20
127.5979214477742
 30
0.0
 40
7.25
100
AcDbArc
 50
235.851575655053
 51
304.1484243449471
  0
CIRCLE
  5
13D
330
7E
100
AcDbEntity
  8
0
  6
Continuous
 62
     7
370
     0
100
AcDbCircle
 10
94.72065762314093
 20
127.5979214477742
 30
0.0
 40
3.1
  0
CIRCLE
  5
13E
330
7E
100
AcDbEntity
  8
0
  6
HIDDEN2
 62
     7
370
     0
100
AcDbCircle
 10
94.72065762314093
 20
127.5979214477742
 30
0.0
 40
5.5
  0
CIRCLE
  5
13F
330
7E
100
AcDbEntity
  8
0
  6
Continuous
 62
     7
370
     0
100
AcDbCircle
 10
108.7206576231409
 20
127.5979214477742
 30
0.0
 40
3.1
  0
ARC
  5
140
330
7E
100
AcDbEntity
  8
0
  6
Continuous
 62
     7
370
     0
100
AcDbCircle
 10
138.0103719639107
 20
108.3163504155273
 30
0.0
 40
16.78288850454134
100
AcDbArc
 50
73.31252822083953
 51
108.3719778931206
  0
LINE
  5
141
330
7E
100
AcDbEntity
  8
0
  6
HIDDEN2
 62
     7
370
     0
100
AcDbLine
 10
122.7206576231409
 20
120.3479214477742
 30
0.0
 11
87.72065762314094
 21
120.3479214477742
 31
0.0
  0
LINE
  5
142
330
7E
100
AcDbEntity
  8
0
  6
Continuous
 62
     7
370
     0
100
AcDbLine
 10
111.5956576231409
 20
122.6182753760137
 30
0.0
 11
114.4706576231409
 21
127.5979214477742
 31
0.0
  0
LINE
  5
143
330
7E
100
AcDbEntity
  8
0
  6
Continuous
 62
     7
370
     0
100
AcDbLine
 10
111.5956576231409
 20
132.5775675195348
 30
0.0
 11
105.8456576231409
 21
132.5775675195348
 31
0.0
  0
LINE
  5
144
330
7E
100
AcDbEntity
  8
0
  6
Continuous
 62
     7
370
     0
100
AcDbLine
 10
114.4706576231409
 20
127.5979214477742
 30
0.0
 11
111.5956576231409
 21
132.5775675195348
 31
0.0
  0
LINE
  5
145
330
7E
100
AcDbEntity
  8
0
  6
Continuous
 62
     7
370
     0
100
AcDbLine
 10
105.8456576231409
 20
122.6182753760137
 30
0.0
 11
111.5956576231409
 21
122.6182753760137
 31
0.0
  0
LINE
  5
146
330
7E
100
AcDbEntity
  8
0
  6
Continuous
 62
     7
370
     0
100
AcDbLine
 10
102.9706576231409
 20
127.5979214477742
 30
0.0
 11
105.8456576231409
 21
122.6182753760137
 31
0.0
  0
LINE
  5
147
330
7E
100
AcDbEntity
  8
0
  6
HIDDEN2
 62
     7
370
     0
100
AcDbLine
 10
122.7206576231409
 20
133.5979214477742
 30
0.0
 11
122.7206576231409
 21
121.5979214477743
 31
0.0
  0
LINE
  5
148
330
7E
100
AcDbEntity
  8
0
  6
Continuous
 62
     7
370
     0
100
AcDbLine
 10
105.8456576231409
 20
132.5775675195348
 30
0.0
 11
102.9706576231409
 21
127.5979214477742
 31
0.0
  0
LINE
  5
149
330
7E
100
AcDbEntity
  8
0
  6
HIDDEN2
 62
     7
370
     0
100
AcDbLine
 10
122.7206576231409
 20
134.8479214477742
 30
0.0
 11
87.72065762314094
 21
134.8479214477742
 31
0.0
  0
CIRCLE
  5
14A
330
7E
100
AcDbEntity
  8
0
  6
Continuous
 62
     7
370
     0
100
AcDbCircle
 10
121.7206576231409
 20
127.5979214477742
 30
0.0
 40
3.25
  0
LINE
  5
14B
330
7E
100
AcDbEntity
  8
0
  6
Continuous
 62
     7
370
     0
100
AcDbLine
 10
87.72065762314094
 20
114.5979214477742
 30
0.0
 11
87.72065762314094
 21
122.5979214477742
 31
0.0
  0
ARC
  5
14C
330
7E
100
AcDbEntity
  8
0
  6
Continuous
 62
     7
370
     0
100
AcDbCircle
 10
129.7206576231409
 20
130.6870009203463
 30
0.0
 40
1.0
100
AcDbArc
 50
0.0
 51
14.77294161582054
  0
ARC
  5
14D
330
7E
100
AcDbEntity
  8
0
  6
HIDDEN2
 62
     7
370
     0
100
AcDbCircle
 10
129.7206576231409
 20
130.6870009203463
 30
0.0
 40
1.0
100
AcDbArc
 50
14.77294161582054
 51
75.00000000000041
  0
ARC
  5
14E
330
7E
100
AcDbEntity
  8
0
  6
Continuous
 62
     7
370
     0
100
AcDbCircle
 10
138.2206580678647
 20
163.5979165558127
 30
0.0
 40
30.49999510803842
100
AcDbArc
 50
260.9875479553195
 51
277.6926046159462
  0
CIRCLE
  5
14F
330
7E
100
AcDbEntity
  8
0
  6
HIDDEN2
 62
     7
370
     0
100
AcDbCircle
 10
101.7206576231409
 20
117.4729214477743
 30
0.0
 40
2.0
  0
CIRCLE
  5
150
330
7E
100
AcDbEntity
  8
0
  6
HIDDEN2
 62
     7
370
     0
100
AcDbCircle
 10
94.72065762314093
 20
117.4729214477743
 30
0.0
 40
2.0
  0
ARC
  5
151
330
7E
100
AcDbEntity
  8
0
  6
Continuous
 62
     7
370
     0
100
AcDbCircle
 10
138.0103719639107
 20
146.8794924800212
 30
0.0
 40
16.78288850454134
100
AcDbArc
 50
251.6280221068797
 51
286.6874717791604
  0
LINE
  5
152
330
7E
100
AcDbEntity
  8
0
  6
Continuous
 62
     7
370
     0
100
AcDbLine
 10
87.72065762314094
 20
132.5979214477742
 30
0.0
 11
87.72065762314094
 21
122.5979214477742
 31
0.0
  0
LINE
  5
153
330
7E
100
AcDbEntity
  8
0
  6
Continuous
 62
     7
370
     0
100
AcDbLine
 10
97.59565762314094
 20
122.6182753760137
 30
0.0
 11
100.4706576231409
 21
127.5979214477742
 31
0.0
  0
LINE
  5
154
330
7E
100
AcDbEntity
  8
0
  6
Continuous
 62
     7
370
     0
100
AcDbLine
 10
122.7206576231409
 20
121.5979214477743
 30
0.0
 11
122.7206576231409
 21
114.5979214477742
 31
0.0
  0
LINE
  5
155
330
7E
100
AcDbEntity
  8
0
  6
Continuous
 62
     7
370
     0
100
AcDbLine
 10
97.59565762314094
 20
132.5775675195348
 30
0.0
 11
91.84565762314093
 21
132.5775675195348
 31
0.0
  0
LINE
  5
156
330
7E
100
AcDbEntity
  8
0
  6
Continuous
 62
     7
370
     0
100
AcDbLine
 10
91.84565762314093
 20
132.5775675195348
 30
0.0
 11
88.97065762314094
 21
127.5979214477742
 31
0.0
  0
ARC
  5
157
330
7E
100
AcDbEntity
  8
0
  6
Continuous
 62
     7
370
     0
100
AcDbCircle
 10
142.4706576231409
 20
123.0621869085243
 30
0.0
 40
1.249999999999997
100
AcDbArc
 50
262.307395384054
 51
360.0
  0
ARC
  5
158
330
7E
100
AcDbEntity
  8
0
  6
Continuous
 62
     7
370
     0
100
AcDbCircle
 10
131.8763696831807
 20
131.5979214477742
 30
0.0
 40
10.0
100
AcDbArc
 50
269.9999999999998
 51
279.0124520446802
  0
ARC
  5
159
330
7E
100
AcDbEntity
  8
0
  6
Continuous
 62
     7
370
     0
100
AcDbCircle
 10
142.4706576231409
 20
123.195076071059
 30
0.0
 40
1.250000000000001
100
AcDbArc
 50
0.0
 51
73.31252822083965
  0
ARC
  5
15A
330
7E
100
AcDbEntity
  8
0
  6
Continuous
 62
     7
370
     0
100
AcDbCircle
 10
142.4706576231409
 20
132.1336559870242
 30
0.0
 40
1.250000000000001
100
AcDbArc
 50
0.0
 51
97.69260461594614
  0
ARC
  5
15B
330
7E
100
AcDbEntity
  8
0
  6
Continuous
 62
     7
370
     0
100
AcDbCircle
 10
142.4706576231409
 20
132.0007668244895
 30
0.0
 40
1.250000000000001
100
AcDbArc
 50
286.6874717791601
 51
360.0
  0
ARC
  5
15C
330
7E
100
AcDbEntity
  8
0
  6
Continuous
 62
     7
370
     0
100
AcDbCircle
 10
131.8763696831805
 20
123.5979214477742
 30
0.0
 40
10.0
100
AcDbArc
 50
80.98754795531945
 51
90.0
  0
LINE
  5
15D
330
7E
100
AcDbEntity
  8
0
  6
Continuous
 62
     7
370
     0
100
AcDbLine
 10
130.7206576231409
 20
130.6870009203463
 30
0.0
 11
130.7206576231409
 21
124.5088419752022
 31
0.0
  0
LINE
  5
15E
330
7E
100
AcDbEntity
  8
0
  6
HIDDEN2
 62
     7
370
     0
100
AcDbLine
 10
122.7206576231409
 20
133.5979214477742
 30
0.0
 11
129.9794766682434
 21
131.6529267466354
 31
0.0
  0
LINE
  5
15F
330
7E
100
AcDbEntity
  8
0
  6
Continuous
 62
     7
370
     0
100
AcDbLine
 10
129.9794766682434
 20
124.5617580026614
 30
0.0
 11
129.9794766682434
 21
130.6340848928871
 31
0.0
  0
LINE
  5
160
330
7E
100
AcDbEntity
  8
0
  6
HIDDEN2
 62
     7
370
     0
100
AcDbLine
 10
129.9794766682434
 20
123.5429161489131
 30
0.0
 11
122.7206576231409
 21
121.5979214477743
 31
0.0
  0
ARC
  5
161
330
7E
100
AcDbEntity
  8
0
  6
Continuous
 62
     7
370
     0
100
AcDbCircle
 10
138.2206580678647
 20
91.59792633973582
 30
0.0
 40
30.49999510803843
100
AcDbArc
 50
82.30739538405378
 51
99.01245204468034
  0
ARC
  5
162
330
7E
100
AcDbEntity
  8
0
  6
Continuous
 62
     7
370
     0
100
AcDbCircle
 10
88.72065762314093
 20
122.5979214477742
 30
0.0
 40
1.0
100
AcDbArc
 50
180.0
 51
270.0
  0
ARC
  5
163
330
7E
100
AcDbEntity
  8
0
  6
Continuous
 62
     7
370
     0
100
AcDbCircle
 10
88.72065762314093
 20
132.5979214477742
 30
0.0
 40
1.0
100
AcDbArc
 50
90.0
 51
180.0
  0
LINE
  5
164
330
7E
100
AcDbEntity
  8
0
  6
Continuous
 62
     7
370
     0
100
AcDbLine
 10
88.97065762314094
 20
127.5979214477742
 30
0.0
 11
91.84565762314093
 21
122.6182753760137
 31
0.0
  0
LINE
  5
165
330
7E
100
AcDbEntity
  8
0
  6
Continuous
 62
     7
370
     0
100
AcDbLine
 10
112.7903627721658
 20
121.5979214477743
 30
0.0
 11
131.8763696831806
 21
121.5979214477743
 31
0.0
  0
LINE
  5
166
330
7E
100
AcDbEntity
  8
0
  6
Continuous
 62
     7
370
     0
100
AcDbLine
 10
143.7206576231409
 20
132.0007668244895
 30
0.0
 11
143.7206576231409
 21
132.1336559870242
 31
0.0
  0
LINE
  5
167
330
7E
100
AcDbEntity
  8
0
  6
Continuous
 62
     7
370
     0
100
AcDbLine
 10
143.7206576231409
 20
123.0621869085243
 30
0.0
 11
143.7206576231409
 21
123.195076071059
 31
0.0
  0
LINE
  5
168
330
7E
100
AcDbEntity
  8
0
  6
Continuous
 62
     7
370
     0
100
AcDbLine
 10
122.7206576231409
 20
140.5979214477742
 30
0.0
 11
122.7206576231409
 21
133.5979214477742
 31
0.0
  0
LINE
  5
169
330
7E
100
AcDbEntity
  8
0
  6
Continuous
 62
     7
370
     0
100
AcDbLine
 10
112.7903627721658
 20
133.5979214477742
 30
0.0
 11
131.8763696831805
 21
133.5979214477742
 31
0.0
  0
LINE
  5
16A
330
7E
100
AcDbEntity
  8
0
  6
Continuous
 62
     7
370
     0
100
AcDbLine
 10
122.7206576231409
 20
140.5979214477742
 30
0.0
 11
87.72065762314094
 21
140.5979214477742
 31
0.0
  0
LINE
  5
16B
330
7E
100
AcDbEntity
  8
0
  6
Continuous
 62
     7
370
     0
100
AcDbLine
 10
87.72065762314094
 20
140.5979214477742
 30
0.0
 11
87.72065762314094
 21
132.5979214477742
 31
0.0
  0
LINE
  5
16C
330
7E
100
AcDbEntity
  8
0
  6
Continuous
 62
     7
370
     0
100
AcDbLine
 10
122.7206576231409
 20
114.5979214477742
 30
0.0
 11
87.72065762314094
 21
114.5979214477742
 31
0.0
  0
ARC
  5
16D
330
7E
100
AcDbEntity
  8
0
  6
HIDDEN2
 62
     7
370
     0
100
AcDbCircle
 10
129.7206576231409
 20
124.5088419752022
 30
0.0
 40
0.9999999999999996
100
AcDbArc
 50
284.9999999999996
 51
345.2270583841787
  0
ARC
  5
16E
330
7E
100
AcDbEntity
  8
0
  6
Continuous
 62
     7
370
     0
100
AcDbCircle
 10
129.7206576231409
 20
124.5088419752022
 30
0.0
 40
0.9999999999999996
100
AcDbArc
 50
345.2270583841787
 51
360.0
  0
LINE
  5
16F
330
7E
100
AcDbEntity
  8
0
  6
Continuous
 62
     7
370
     0
100
AcDbLine
 10
130.7206576231409
 20
130.6870009203463
 30
0.0
 11
130.0751827317541
 21
130.6870009203463
 31
0.0
  0
LINE
  5
170
330
7E
100
AcDbEntity
  8
0
  6
Continuous
 62
     7
370
     0
100
AcDbLine
 10
130.7206576231409
 20
124.5088419752022
 30
0.0
 11
130.075182731754
 21
124.5088419752022
 31
0.0
  0
LINE
  5
171
330
7E
100
AcDbEntity
  8
0
  6
Continuous
 62
     7
370
     0
100
AcDbLine
 10
91.84565762314093
 20
122.6182753760137
 30
0.0
 11
97.59565762314094
 21
122.6182753760137
 31
0.0
  0
LINE
  5
172
330
7E
100
AcDbEntity
  8
0
  6
Continuous
 62
     7
370
     0
100
AcDbLine
 10
100.4706576231409
 20
127.5979214477742
 30
0.0
 11
97.59565762314094
 21
132.5775675195348
 31
0.0
  0
ARC
  5
173
330
7E
100
AcDbEntity
  8
0
  6
Continuous
 62
     7
370
     0
100
AcDbCircle
 10
131.7206577428478
 20
127.5979214477742
 30
0.0
 40
3.499999999999999
100
AcDbArc
 50
73.39843725203062
 51
286.6015627479673
  0
LINE
  5
174
330
7E
100
AcDbEntity
  8
0
  6
Continuous
 62
     7
370
     0
100
AcDbLine
 10
104.650952474116
 20
121.5979214477742
 30
0.0
 11
98.79036277216586
 21
121.5979214477742
 31
0.0
  0
CIRCLE
  5
175
330
7E
100
AcDbEntity
  8
0
  6
HIDDEN2
 62
     7
370
     0
100
AcDbCircle
 10
108.7206576231409
 20
117.4729214477743
 30
0.0
 40
2.0
  0
CIRCLE
  5
176
330
7E
100
AcDbEntity
  8
0
  6
HIDDEN2
 62
     7
370
     0
100
AcDbCircle
 10
115.7206576231409
 20
117.4729214477743
 30
0.0
 40
2.0
  0
CIRCLE
  5
177
330
7E
100
AcDbEntity
  8
0
  6
HIDDEN2
 62
     7
370
     0
100
AcDbCircle
 10
101.7206576231409
 20
137.7229214477742
 30
0.0
 40
2.0
  0
CIRCLE
  5
178
330
7E
100
AcDbEntity
  8
0
  6
HIDDEN2
 62
     7
370
     0
100
AcDbCircle
 10
94.72065762314093
 20
137.7229214477742
 30
0.0
 40
2.0
  0
CIRCLE
  5
179
330
7E
100
AcDbEntity
  8
0
  6
HIDDEN2
 62
     7
370
     0
100
AcDbCircle
 10
108.7206576231409
 20
137.7229214477742
 30
0.0
 40
2.0
  0
ENDBLK
  5
2EA
330
7E
100
AcDbEntity
  8
0
370
     0
100
AcDbBlockEnd
  0
BLOCK
  5
1F2
330
85
100
AcDbEntity
  8
0
 62
     1
 48
0.0
370
     0
100
AcDbBlockBegin
  2
SE4
 70
     0
 10
0.0
 20
0.0
 30
0.0
  3
SE4
  1

  0
ENDBLK
  5
1F3
330
85
100
AcDbEntity
  8
0
 62
     1
 48
0.0
370
     0
100
AcDbBlockEnd
  0
BLOCK
  5
17D
330
86
100
AcDbEntity
  8
0
 62
     1
 48
0.0
370
     0
100
AcDbBlockBegin
  2
SE5
 70
     0
 10
0.0
 20
0.0
 30
0.0
  3
SE5
  1

  0
ELLIPSE
  5
17E
330
86
100
AcDbEntity
  8
0
  6
Continuous
 62
     7
370
     0
100
AcDbEllipse
 10
58.8326686719326
 20
71.31658168536403
 30
0.0
 11
0.0889622577578716
 21
0.9960349977257966
 31
0.0
210
0.0
220
0.0
230
1.0
 40
0.5398878153254481
 41
2.144204945567242
 42
3.141592653589793
  0
ELLIPSE
  5
17F
330
86
100
AcDbEntity
  8
0
  6
Continuous
 62
     7
370
     0
100
AcDbEllipse
 10
52.55664036675622
 20
71.877133924046
 30
0.0
 11
0.5346946650773742
 21
0.9261183264501225
 31
0.0
210
0.0
220
0.0
230
1.0
 40
0.5398878153254731
 41
2.389713239294752
 42
3.387100947317323
  0
ARC
  5
180
330
86
100
AcDbEntity
  8
0
  6
Continuous
 62
     7
370
     0
100
AcDbCircle
 10
58.8326686719326
 20
71.31658168536404
 30
0.0
 40
0.9999999999999989
100
AcDbArc
 50
264.8960906389857
 51
299.9999999999972
  0
LINE
  5
181
330
86
100
AcDbEntity
  8
0
  6
Continuous
 62
     7
370
     0
100
AcDbLine
 10
59.33266867193255
 20
70.45055628157958
 30
0.0
 11
62.42200102112694
 21
72.23418314500297
 31
0.0
  0
ELLIPSE
  5
182
330
86
100
AcDbEntity
  8
0
  6
Continuous
 62
     7
370
     0
100
AcDbEllipse
 10
66.91930735234977
 20
70.54678586786685
 30
0.0
 11
-1.250000000000002
 21
-0.00000000000001
 31
0.0
210
0.0
220
0.0
230
1.0
 40
0.5773502691895561
 41
2.356194490192329
 42
3.141592653589793
  0
LINE
  5
183
330
86
100
AcDbEntity
  8
0
  6
Continuous
 62
     7
370
     0
100
AcDbLine
 10
59.49362930115707
 20
80.97920308806704
 30
0.0
 11
59.49362930115707
 21
73.63073385971708
 31
0.0
  0
ELLIPSE
  5
184
330
86
100
AcDbEntity
  8
0
  6
Continuous
 62
     7
370
     0
100
AcDbEllipse
 10
28.49006578003127
 20
92.2463441261984
 30
0.0
 11
1.000000000000001
 21
0.0000000000000003
 31
0.0
210
0.0
220
0.0
230
1.0
 40
0.57735026918956
 41
3.141592653589793
 42
3.926990816987244
  0
LINE
  5
185
330
86
100
AcDbEntity
  8
0
  6
Continuous
 62
     7
370
     0
100
AcDbLine
 10
68.16930735234977
 20
70.54678586786685
 30
0.0
 11
68.16930735234977
 21
77.89525509621681
 31
0.0
  0
LINE
  5
186
330
86
100
AcDbEntity
  8
0
  6
Continuous
 62
     7
370
     0
100
AcDbLine
 10
27.49006578003127
 20
99.59481335454837
 30
0.0
 11
27.49006578003128
 21
92.2463441261984
 31
0.0
  0
LINE
  5
187
330
86
100
AcDbEntity
  8
0
  6
Continuous
 62
     7
370
     0
100
AcDbLine
 10
74.48983782510663
 20
74.19594583773387
 30
0.0
 11
74.48983782510663
 21
81.54441506608383
 31
0.0
  0
LINE
  5
188
330
86
100
AcDbEntity
  8
0
  6
Continuous
 62
     7
370
     0
100
AcDbLine
 10
53.23880312156069
 20
77.14115737903707
 30
0.0
 11
52.50760226107957
 21
76.71899836540664
 31
0.0
  0
LINE
  5
189
330
86
100
AcDbEntity
  8
0
  6
Continuous
 62
     7
370
     0
100
AcDbLine
 10
52.15950380821285
 20
70.90862394466137
 30
0.0
 11
58.74370641417472
 21
70.32054668763826
 31
0.0
  0
ELLIPSE
  5
18A
330
86
100
AcDbEntity
  8
0
  6
Continuous
 62
     7
370
     0
100
AcDbEllipse
 10
41.57154500559674
 20
59.38235855944312
 30
0.0
 11
30.49999510803003
 21
-0.0000000000050238
 31
0.0
210
0.0
220
0.0
230
1.0
 40
0.5773502691895565
 41
0.6511368847952362
 42
0.9426951252554321
  0
ELLIPSE
  5
18B
330
86
100
AcDbEntity
  8
0
  6
Continuous
 62
     7
370
     0
100
AcDbEllipse
 10
92.48322633274632
 20
96.12470070691578
 30
0.0
 11
-30.4999951080432
 21
-0.0000000000028883
 31
0.0
210
0.0
220
0.0
230
1.0
 40
0.5773502691895562
 41
0.628101201539586
 42
0.9196594419997017
  0
LINE
  5
18C
330
86
100
AcDbEntity
  8
0
  6
Continuous
 62
     7
370
     0
100
AcDbLine
 10
67.80319082883295
 20
70.03647550478709
 30
0.0
 11
67.80319082883295
 21
77.38494473313704
 31
0.0
  0
ELLIPSE
  5
18D
330
86
100
AcDbEntity
  8
0
  6
Continuous
 62
     7
370
     0
100
AcDbEllipse
 10
58.8326686719326
 20
72.27854443586368
 30
0.0
 11
-0.4999999999999822
 21
-0.8660254037844492
 31
0.0
210
0.0
220
0.0
230
1.0
 40
0.2505628070857723
 41
3.960509566089601
 42
5.46426839467958
  0
ELLIPSE
  5
18E
330
86
100
AcDbEntity
  8
0
  6
Continuous
 62
     7
370
     0
100
AcDbEllipse
 10
58.83266867193259
 20
72.2785444358637
 30
0.0
 11
0.4999999999999567
 21
-0.8660254037844627
 31
0.0
210
0.0
220
0.0
230
1.0
 40
0.5773502691896608
 41
0.7853981633975282
 42
2.094395102393283
  0
ELLIPSE
  5
18F
330
86
100
AcDbEntity
  8
0
  6
Continuous
 62
     7
370
     0
100
AcDbEllipse
 10
58.83266867193259
 20
72.2785444358637
 30
0.0
 11
-1.0
 21
0.0000000000000003
 31
0.0
210
0.0
220
0.0
230
1.0
 40
0.5773502691895606
 41
1.047197551196606
 42
2.356194490192342
  0
ELLIPSE
  5
190
330
86
100
AcDbEntity
  8
0
  6
Continuous
 62
     7
370
     0
100
AcDbEllipse
 10
59.71286920582439
 20
82.38481597276148
 30
0.0
 11
9.99999999998082
 21
-0.000000000010741
 31
0.0
210
0.0
220
0.0
230
1.0
 40
0.5773502691896777
 41
0.6281012015408109
 42
0.7853981633987673
  0
ELLIPSE
  5
191
330
86
100
AcDbEntity
  8
0
  6
Continuous
 62
     7
370
     0
100
AcDbEllipse
 10
58.83266867193259
 20
71.31658168536404
 30
0.0
 11
-1.0
 21
-0.0000000000000025
 31
0.0
210
0.0
220
0.0
230
1.0
 40
0.5773502691895631
 41
1.047197551196596
 42
2.356194490192351
  0
LINE
  5
192
330
86
100
AcDbEntity
  8
0
  6
Continuous
 62
     7
370
     0
100
AcDbLine
 10
59.01568137382481
 20
72.96155713775596
 30
0.0
 11
59.88540913698166
 21
73.4636946959362
 31
0.0
  0
ELLIPSE
  5
193
330
86
100
AcDbEntity
  8
0
  6
Continuous
 62
     7
370
     0
100
AcDbEllipse
 10
58.83266867193259
 20
71.31658168536404
 30
0.0
 11
-0.4999999999999622
 21
0.8660254037844635
 31
0.0
210
0.0
220
0.0
230
1.0
 40
0.5773502691896582
 41
3.141592653589793
 42
3.926990816987305
  0
ELLIPSE
  5
194
330
86
100
AcDbEntity
  8
0
  6
Continuous
 62
     7
370
     0
100
AcDbEllipse
 10
41.57154500559683
 20
66.73082778779296
 30
0.0
 11
30.49999510802992
 21
-0.0000000000050116
 31
0.0
210
0.0
220
0.0
230
1.0
 40
0.5773502691895631
 41
0.6511368847952359
 42
0.942695125255433
  0
LINE
  5
195
330
86
100
AcDbEntity
  8
0
  6
Continuous
 62
     7
370
     0
100
AcDbLine
 10
74.0297544736153
 20
80.97985292957806
 30
0.0
 11
74.0297544736153
 21
73.6313837012281
 31
0.0
  0
LINE
  5
196
330
86
100
AcDbEntity
  8
0
  6
Continuous
 62
     7
370
     0
100
AcDbLine
 10
51.82458955918734
 20
75.53598566351443
 30
0.0
 11
51.82458955918734
 21
71.39785986620973
 31
0.0
  0
ELLIPSE
  5
197
330
86
100
AcDbEntity
  8
0
  6
Continuous
 62
     7
370
     0
100
AcDbEllipse
 10
52.55664036675622
 20
75.90201106729883
 30
0.0
 11
-0.4999999999999482
 21
-0.8660254037844691
 31
0.0
210
0.0
220
0.0
230
1.0
 40
0.6174122176334356
 41
3.960509566089605
 42
5.464268394679601
  0
ELLIPSE
  5
198
330
86
100
AcDbEntity
  8
0
  6
Continuous
 62
     7
370
     0
100
AcDbEllipse
 10
66.91930735234977
 20
77.89525509621682
 30
0.0
 11
-1.25
 21
0.0000000000000042
 31
0.0
210
0.0
220
0.0
230
1.0
 40
0.5773502691895589
 41
2.356194490192338
 42
3.635739490607263
  0
LINE
  5
199
330
86
100
AcDbEntity
  8
0
  6
Continuous
 62
     7
370
     0
100
AcDbLine
 10
59.53977545311914
 20
71.87029614539987
 30
0.0
 11
59.53977545311914
 21
70.90833339490024
 31
0.0
  0
LINE
  5
19A
330
86
100
AcDbEntity
  8
0
  6
Continuous
 62
     7
370
     0
100
AcDbLine
 10
61.22969741954936
 20
72.84597304762771
 30
0.0
 11
59.53977545311914
 21
71.87029614539987
 31
0.0
  0
LINE
  5
19B
330
86
100
AcDbEntity
  8
0
  6
Continuous
 62
     7
370
     0
100
AcDbLine
 10
59.53977545311914
 20
70.90833339490022
 30
0.0
 11
62.11753822236486
 21
72.39660542363107
 31
0.0
  0
LINE
  5
19C
330
86
100
AcDbEntity
  8
0
  6
Continuous
 62
     7
370
     0
100
AcDbLine
 10
58.33266867193259
 20
71.77854443586373
 30
0.0
 11
51.82458955918734
 21
75.53598566351443
 31
0.0
  0
LINE
  5
19D
330
86
100
AcDbEntity
  8
0
  6
Continuous
 62
     7
370
     0
100
AcDbLine
 10
52.50760226107956
 20
76.71899836540666
 30
0.0
 11
59.01568137382481
 21
72.96155713775596
 31
0.0
  0
LINE
  5
19E
330
86
100
AcDbEntity
  8
0
  6
Continuous
 62
     7
370
     0
100
AcDbLine
 10
51.82458955918734
 20
71.39785986620974
 30
0.0
 11
58.33266867193259
 21
70.81658168536411
 31
0.0
  0
LINE
  5
19F
330
86
100
AcDbEntity
  8
0
  6
Continuous
 62
     7
370
     0
100
AcDbLine
 10
47.65594481903446
 20
93.00350021441071
 30
0.0
 11
47.65594481903446
 21
96.67773482858569
 31
0.0
  0
ELLIPSE
  5
1A0
330
86
100
AcDbEntity
  8
0
  6
Continuous
 62
     7
370
     0
100
AcDbEllipse
 10
66.82534052437524
 20
77.84100332279082
 30
0.0
 11
-1.249999999999998
 21
-0.0000000000000015
 31
0.0
210
0.0
220
0.0
230
1.0
 40
0.5773502691895592
 41
0.6511368847950611
 42
2.356194490192337
  0
ELLIPSE
  5
1A1
330
86
100
AcDbEntity
  8
0
  6
Continuous
 62
     7
370
     0
100
AcDbEllipse
 10
73.14587099713214
 20
74.14169406430787
 30
0.0
 11
1.249999999999998
 21
0.0000000000000043
 31
0.0
210
0.0
220
0.0
230
1.0
 40
0.5773502691895587
 41
4.218242143367215
 42
5.497787143782113
  0
LINE
  5
1A2
330
86
100
AcDbEntity
  8
0
  6
Continuous
 62
     7
370
     0
100
AcDbLine
 10
65.83109645312211
 20
70.05512554141603
 30
0.0
 11
65.83109645312211
 21
77.40359476976599
 31
0.0
  0
ELLIPSE
  5
1A3
330
86
100
AcDbEntity
  8
0
  6
Continuous
 62
     7
370
     0
100
AcDbEllipse
 10
73.23983782510665
 20
81.54441506608382
 30
0.0
 11
-1.25
 21
-0.0000000000000001
 31
0.0
210
0.0
220
0.0
230
1.0
 40
0.5773502691895586
 41
2.356194490192336
 42
4.061252095589616
  0
LINE
  5
1A4
330
86
100
AcDbEntity
  8
0
  6
Continuous
 62
     7
370
     0
100
AcDbLine
 10
58.33266867193259
 20
70.8165816853641
 30
0.0
 11
58.33266867193259
 21
71.77854443586373
 31
0.0
  0
ELLIPSE
  5
1A5
330
86
100
AcDbEntity
  8
0
  6
Continuous
 62
     7
370
     0
100
AcDbEllipse
 10
73.14587099713211
 20
81.49016329265782
 30
0.0
 11
-1.25
 21
0.000000000000007
 31
0.0
210
0.0
220
0.0
230
1.0
 40
0.5773502691895605
 41
1.076649489777442
 42
2.356194490192355
  0
ELLIPSE
  5
1A6
330
86
100
AcDbEntity
  8
0
  6
Continuous
 62
     7
370
     0
100
AcDbEllipse
 10
66.82534052437524
 20
70.49253409444088
 30
0.0
 11
1.250000000000001
 21
-0.0000000000000021
 31
0.0
210
0.0
220
0.0
230
1.0
 40
0.5773502691895608
 41
3.792729538384859
 42
5.497787143782129
  0
LINE
  5
1A7
330
86
100
AcDbEntity
  8
0
  6
Continuous
 62
     7
370
     0
100
AcDbLine
 10
74.12372130158984
 20
73.68563547465408
 30
0.0
 11
74.12372130158984
 21
81.03410470300403
 31
0.0
  0
LINE
  5
1A8
330
86
100
AcDbEntity
  8
0
  6
Continuous
 62
     7
370
     0
100
AcDbLine
 10
58.2986556434329
 20
74.21985016347469
 30
0.0
 11
58.2986556434329
 21
81.56831939182465
 31
0.0
  0
ELLIPSE
  5
1A9
330
86
100
AcDbEntity
  8
0
  6
Continuous
 62
     7
370
     0
100
AcDbEllipse
 10
73.23983782510665
 20
74.19594583773387
 30
0.0
 11
-1.25
 21
0.0000000000000085
 31
0.0
210
0.0
220
0.0
230
1.0
 40
0.5773502691895604
 41
2.356194490192356
 42
3.141592653589793
  0
LINE
  5
1AA
330
86
100
AcDbEntity
  8
0
  6
Continuous
 62
     7
370
     0
100
AcDbLine
 10
44.80281073088101
 20
89.36014908502702
 30
0.0
 11
58.29865564343289
 21
81.56831939182465
 31
0.0
  0
ELLIPSE
  5
1AB
330
86
100
AcDbEntity
  8
0
  6
Continuous
 62
     7
370
     0
100
AcDbEllipse
 10
65.36972345541077
 20
85.65080229653862
 30
0.0
 11
-10.00000000012278
 21
-0.0000000000741694
 31
0.0
210
0.0
220
0.0
230
1.0
 40
0.5773502691903321
 41
0.7853981633895526
 42
0.94269512524596
  0
LINE
  5
1AC
330
86
100
AcDbEntity
  8
0
  6
Continuous
 62
     7
370
     0
100
AcDbLine
 10
46.8748420908815
 20
75.09991592671813
 30
0.0
 11
22.12610474935234
 21
89.38860609295169
 31
0.0
  0
LINE
  5
1AD
330
86
100
AcDbEntity
  8
0
  6
Continuous
 62
     7
370
     0
100
AcDbLine
 10
67.70922400085843
 20
77.33069295971107
 30
0.0
 11
67.70922400085843
 21
69.98222373136112
 31
0.0
  0
ELLIPSE
  5
1AE
330
86
100
AcDbEntity
  8
0
  6
Continuous
 62
     7
370
     0
100
AcDbEllipse
 10
28.49006578003127
 20
99.59481335454837
 30
0.0
 11
1.000000000000002
 21
0.0000000000000008
 31
0.0
210
0.0
220
0.0
230
1.0
 40
0.5773502691895596
 41
2.356194490192344
 42
3.926990816987235
  0
ELLIPSE
  5
1AF
330
86
100
AcDbEntity
  8
0
  6
Continuous
 62
     7
370
     0
100
AcDbEllipse
 10
65.36972345541022
 20
78.3023330681888
 30
0.0
 11
-10.00000000012239
 21
-0.0000000000739617
 31
0.0
210
0.0
220
0.0
230
1.0
 40
0.5773502691903662
 41
0.7853981633896046
 42
0.9426951252460121
  0
LINE
  5
1B0
330
86
100
AcDbEntity
  8
0
  6
Continuous
 62
     7
370
     0
100
AcDbLine
 10
22.12610474935234
 20
84.08137831692117
 30
0.0
 11
22.12610474935234
 21
89.3886060929517
 31
0.0
  0
ELLIPSE
  5
1B1
330
86
100
AcDbEntity
  8
0
  6
Continuous
 62
     7
370
     0
100
AcDbEllipse
 10
80.51282056790086
 20
82.03681237281918
 30
0.0
 11
-16.78288850454006
 21
0.0000000000007399
 31
0.0
210
0.0
220
0.0
230
1.0
 40
0.5773502691895619
 41
0.7444184561284198
 42
1.076649489777503
  0
LINE
  5
1B2
330
86
100
AcDbEntity
  8
0
  6
Continuous
 62
     7
370
     0
100
AcDbLine
 10
40.33410436490594
 20
96.8391373939176
 30
0.0
 11
41.82231387424543
 21
100.0457832249121
 31
0.0
  0
ELLIPSE
  5
1B3
330
86
100
AcDbEntity
  8
0
  6
Continuous
 62
     7
370
     0
100
AcDbEllipse
 10
35.56113359189674
 20
103.6772962591865
 30
0.0
 11
1.000000000000002
 21
0.0000000000000013
 31
0.0
210
0.0
220
0.0
230
1.0
 40
0.5773502691895603
 41
0.7853981633974417
 42
2.35619449019235
  0
LINE
  5
1B4
330
86
100
AcDbEntity
  8
0
  6
Continuous
 62
     7
370
     0
100
AcDbLine
 10
27.78295899884473
 20
99.18656506408455
 30
0.0
 11
27.78295899884473
 21
91.83809583573459
 31
0.0
  0
LINE
  5
1B5
330
86
100
AcDbEntity
  8
0
  6
Continuous
 62
     7
370
     0
100
AcDbLine
 10
51.82458955918734
 20
77.95765395996484
 30
0.0
 11
46.8748420908815
 21
75.09991592671813
 31
0.0
  0
LINE
  5
1B6
330
86
100
AcDbEntity
  8
0
  6
Continuous
 62
     7
370
     0
100
AcDbLine
 10
46.87484209088151
 20
69.79268815068761
 30
0.0
 11
50.94070608270416
 21
72.14011582085454
 31
0.0
  0
LINE
  5
1B7
330
86
100
AcDbEntity
  8
0
  6
Continuous
 62
     7
370
     0
100
AcDbLine
 10
48.81938573914415
 20
70.91537094946288
 30
0.0
 11
50.94070608270415
 21
69.69062607807123
 31
0.0
  0
LINE
  5
1B8
330
86
100
AcDbEntity
  8
0
  6
Continuous
 62
     7
370
     0
100
AcDbLine
 10
34.8540268107102
 20
104.0855445496503
 30
0.0
 11
27.78295899884473
 21
100.0030616450122
 31
0.0
  0
LINE
  5
1B9
330
86
100
AcDbEntity
  8
0
  6
Continuous
 62
     7
370
     0
100
AcDbLine
 10
74.0297544736153
 20
80.97985292957806
 30
0.0
 11
74.12372130158982
 21
81.03410470300405
 31
0.0
  0
LINE
  5
1BA
330
86
100
AcDbEntity
  8
0
  6
Continuous
 62
     7
370
     0
100
AcDbLine
 10
67.70922400085843
 20
77.33069295971107
 30
0.0
 11
67.80319082883295
 21
77.38494473313706
 31
0.0
  0
LINE
  5
1BB
330
86
100
AcDbEntity
  8
0
  6
Continuous
 62
     7
370
     0
100
AcDbLine
 10
53.28809210511958
 20
94.25912857059278
 30
0.0
 11
66.78393701767141
 21
86.46729887739047
 31
0.0
  0
LINE
  5
1BC
330
86
100
AcDbEntity
  8
0
  6
Continuous
 62
     7
370
     0
100
AcDbLine
 10
46.87484209088151
 20
69.79268815068761
 30
0.0
 11
46.87484209088151
 21
75.09991592671813
 31
0.0
  0
LINE
  5
1BD
330
86
100
AcDbEntity
  8
0
  6
Continuous
 62
     7
370
     0
100
AcDbLine
 10
50.94070608270416
 20
69.69062607807122
 30
0.0
 11
52.93099081573309
 21
70.83971750444934
 31
0.0
  0
LINE
  5
1BE
330
86
100
AcDbEntity
  8
0
  6
Continuous
 62
     7
370
     0
100
AcDbLine
 10
22.12610474935234
 20
89.38860609295169
 30
0.0
 11
27.49006578003127
 21
92.48549043793648
 31
0.0
  0
LINE
  5
1BF
330
86
100
AcDbEntity
  8
0
  6
Continuous
 62
     7
370
     0
100
AcDbLine
 10
50.94070608270416
 20
72.14011582085454
 30
0.0
 11
50.94070608270416
 21
69.69062607807123
 31
0.0
  0
LINE
  5
1C0
330
86
100
AcDbEntity
  8
0
  6
Continuous
 62
     7
370
     0
100
AcDbLine
 10
46.87484209088151
 20
69.79268815068761
 30
0.0
 11
22.12610474935234
 21
84.08137831692117
 31
0.0
  0
LINE
  5
1C1
330
86
100
AcDbEntity
  8
0
  6
Continuous
 62
     7
370
     0
100
AcDbLine
 10
67.80319082883295
 20
70.03647550478709
 30
0.0
 11
67.70922400085841
 21
69.9822237313611
 31
0.0
  0
LINE
  5
1C2
330
86
100
AcDbEntity
  8
0
  6
Continuous
 62
     7
370
     0
100
AcDbLine
 10
74.12372130158984
 20
73.68563547465408
 30
0.0
 11
74.02975447361531
 21
73.63138370122809
 31
0.0
  0
LINE
  5
1C3
330
86
100
AcDbEntity
  8
0
  6
Continuous
 62
     7
370
     0
100
AcDbLine
 10
58.2986556434329
 20
74.21985016347469
 30
0.0
 11
51.82458955918735
 21
77.95765395996484
 31
0.0
  0
LINE
  5
1C4
330
86
100
AcDbEntity
  8
0
  6
Continuous
 62
     7
370
     0
100
AcDbLine
 10
42.10187131787231
 20
92.14428205358307
 30
0.0
 11
42.10187131787231
 21
95.81851666775806
 31
0.0
  0
LINE
  5
1C5
330
86
100
AcDbEntity
  8
0
  6
Continuous
 62
     7
370
     0
100
AcDbLine
 10
39.04737851427034
 20
92.68304942458945
 30
0.0
 11
34.90331579426935
 21
95.07562515152043
 31
0.0
  0
LINE
  5
1C6
330
86
100
AcDbEntity
  8
0
  6
Continuous
 62
     7
370
     0
100
AcDbLine
 10
32.20237638126064
 20
97.8597581200765
 30
0.0
 11
32.05903008017346
 21
97.55088976794931
 31
0.0
  0
LINE
  5
1C7
330
86
100
AcDbEntity
  8
0
  6
Continuous
 62
     7
370
     0
100
AcDbLine
 10
42.10187131787231
 20
92.14428205358307
 30
0.0
 11
41.95852501678512
 21
91.83541370145588
 31
0.0
  0
LINE
  5
1C8
330
86
100
AcDbEntity
  8
0
  6
Continuous
 62
     7
370
     0
100
AcDbLine
 10
47.65594481903446
 20
93.00350021441071
 30
0.0
 11
42.10187131787232
 21
92.14428205358307
 31
0.0
  0
LINE
  5
1C9
330
86
100
AcDbEntity
  8
0
  6
Continuous
 62
     7
370
     0
100
AcDbLine
 10
50.37694560260479
 20
91.43252967955138
 30
0.0
 11
47.65594481903446
 21
93.00350021441071
 31
0.0
  0
LINE
  5
1CA
330
86
100
AcDbEntity
  8
0
  6
Continuous
 62
     7
370
     0
100
AcDbLine
 10
47.65594481903446
 20
96.67773482858569
 30
0.0
 11
42.10187131787232
 21
95.81851666775806
 31
0.0
  0
LINE
  5
1CB
330
86
100
AcDbEntity
  8
0
  6
Continuous
 62
     7
370
     0
100
AcDbLine
 10
42.10187131787231
 20
95.81851666775806
 30
0.0
 11
40.61366180853282
 21
92.6118708367635
 31
0.0
  0
LINE
  5
1CC
330
86
100
AcDbEntity
  8
0
  6
Continuous
 62
     7
370
     0
100
AcDbLine
 10
40.61366180853282
 20
92.6118708367635
 30
0.0
 11
44.67952580035546
 21
90.26444316659654
 31
0.0
  0
LINE
  5
1CD
330
86
100
AcDbEntity
  8
0
  6
Continuous
 62
     7
370
     0
100
AcDbLine
 10
51.82458955918734
 20
77.95765395996484
 30
0.0
 11
44.80281073088101
 21
82.01167985667705
 31
0.0
  0
LINE
  5
1CE
330
86
100
AcDbEntity
  8
0
  6
Continuous
 62
     7
370
     0
100
AcDbLine
 10
50.23359930151761
 20
91.12366132742417
 30
0.0
 11
51.72180881085711
 21
94.33030715841873
 31
0.0
  0
LINE
  5
1CF
330
86
100
AcDbEntity
  8
0
  6
Continuous
 62
     7
370
     0
100
AcDbLine
 10
51.72180881085711
 20
94.33030715841873
 30
0.0
 11
47.65594481903446
 21
96.67773482858567
 31
0.0
  0
LINE
  5
1D0
330
86
100
AcDbEntity
  8
0
  6
Continuous
 62
     7
370
     0
100
AcDbLine
 10
44.67952580035547
 20
90.26444316659654
 30
0.0
 11
50.23359930151761
 21
91.12366132742417
 31
0.0
  0
LINE
  5
1D1
330
86
100
AcDbEntity
  8
0
  6
Continuous
 62
     7
370
     0
100
AcDbLine
 10
32.20237638126064
 20
97.8597581200765
 30
0.0
 11
32.20237638126064
 21
101.5339927342514
 31
0.0
  0
LINE
  5
1D2
330
86
100
AcDbEntity
  8
0
  6
Continuous
 62
     7
370
     0
100
AcDbLine
 10
37.75644988242279
 20
98.71897628090414
 30
0.0
 11
37.75644988242279
 21
102.3932108950791
 31
0.0
  0
LINE
  5
1D3
330
86
100
AcDbEntity
  8
0
  6
Continuous
 62
     7
370
     0
100
AcDbLine
 10
39.04737851427034
 20
85.33458019623948
 30
0.0
 11
34.90331579426935
 21
87.72715592317046
 31
0.0
  0
LINE
  5
1D4
330
86
100
AcDbEntity
  8
0
  6
Continuous
 62
     7
370
     0
100
AcDbLine
 10
39.04737851427034
 20
85.33458019623948
 30
0.0
 11
39.04737851427034
 21
92.68304942458943
 31
0.0
  0
LINE
  5
1D5
330
86
100
AcDbEntity
  8
0
  6
Continuous
 62
     7
370
     0
100
AcDbLine
 10
34.78003086374381
 20
95.97991923308999
 30
0.0
 11
40.33410436490594
 21
96.83913739391762
 31
0.0
  0
LINE
  5
1D6
330
86
100
AcDbEntity
  8
0
  6
Continuous
 62
     7
370
     0
100
AcDbLine
 10
37.75644988242279
 20
98.71897628090414
 30
0.0
 11
32.20237638126064
 21
97.8597581200765
 31
0.0
  0
LINE
  5
1D7
330
86
100
AcDbEntity
  8
0
  6
Continuous
 62
     7
370
     0
100
AcDbLine
 10
40.47745066599312
 20
97.14800574604479
 30
0.0
 11
37.75644988242279
 21
98.71897628090412
 31
0.0
  0
LINE
  5
1D8
330
86
100
AcDbEntity
  8
0
  6
Continuous
 62
     7
370
     0
100
AcDbLine
 10
41.82231387424543
 20
100.0457832249121
 30
0.0
 11
37.75644988242279
 21
102.3932108950791
 31
0.0
  0
LINE
  5
1D9
330
86
100
AcDbEntity
  8
0
  6
Continuous
 62
     7
370
     0
100
AcDbLine
 10
37.75644988242279
 20
102.3932108950791
 30
0.0
 11
32.20237638126064
 21
101.5339927342514
 31
0.0
  0
LINE
  5
1DA
330
86
100
AcDbEntity
  8
0
  6
Continuous
 62
     7
370
     0
100
AcDbLine
 10
32.20237638126065
 20
101.5339927342514
 30
0.0
 11
30.71416687192116
 21
98.32734690325693
 31
0.0
  0
LINE
  5
1DB
330
86
100
AcDbEntity
  8
0
  6
Continuous
 62
     7
370
     0
100
AcDbLine
 10
30.71416687192116
 20
98.32734690325693
 30
0.0
 11
34.78003086374381
 21
95.97991923308999
 31
0.0
  0
LINE
  5
1DC
330
86
100
AcDbEntity
  8
0
  6
Continuous
 62
     7
370
     0
100
AcDbLine
 10
43.38859716850791
 20
99.97460463708621
 30
0.0
 11
47.5326598885089
 21
97.58202891015523
 31
0.0
  0
ELLIPSE
  5
1DD
330
86
100
AcDbEntity
  8
0
  6
Continuous
 62
     7
370
     0
100
AcDbEllipse
 10
36.2682403730833
 20
95.51233044990956
 30
0.0
 11
-3.099999999999997
 21
0.0000000000000017
 31
0.0
210
0.0
220
0.0
230
0.9999999999999998
 40
0.57735026918956
 41
3.789518242477823
 42
5.653135772684013
  0
LINE
  5
1DE
330
86
100
AcDbEntity
  8
0
  6
Continuous
 62
     7
370
     0
100
AcDbLine
 10
44.80281073088101
 20
82.01167985667705
 30
0.0
 11
44.80281073088101
 21
89.360149085027
 31
0.0
  0
ELLIPSE
  5
1DF
330
86
100
AcDbEntity
  8
0
  6
Continuous
 62
     7
370
     0
100
AcDbEllipse
 10
46.16773530969498
 20
86.12261976924118
 30
0.0
 11
-7.250000000000026
 21
-0.0000000000000182
 31
0.0
210
0.0
220
0.0
230
1.0
 40
0.5773502691895598
 41
0.1893957242099364
 42
1.381400602584959
  0
ELLIPSE
  5
1E0
330
86
100
AcDbEntity
  8
0
  6
Continuous
 62
     7
370
     0
100
AcDbEllipse
 10
46.16773530969496
 20
89.79685438341615
 30
0.0
 11
-3.099999999999997
 21
0.0000000000000003
 31
0.0
210
0.0
220
0.0
230
0.9999999999999998
 40
0.5773502691895597
 41
3.789518242477819
 42
5.653135772684013
  0
ELLIPSE
  5
1E1
330
86
100
AcDbEntity
  8
0
  6
Continuous
 62
     7
370
     0
100
AcDbEllipse
 10
46.16773530969498
 20
93.47108899759113
 30
0.0
 11
-7.250000000000027
 21
-0.0000000000000186
 31
0.0
210
0.0
220
0.0
230
1.0
 40
0.5773502691895598
 41
0.189395724209937
 42
1.38140060258496
  0
ELLIPSE
  5
1E2
330
86
100
AcDbEntity
  8
0
  6
Continuous
 62
     7
370
     0
100
AcDbEllipse
 10
46.16773530969494
 20
93.4710889975911
 30
0.0
 11
7.250000000000017
 21
0.000000000000013
 31
0.0
210
0.0
220
0.0
230
1.0
 40
0.5773502691895594
 41
0.1893957242099305
 42
1.38140060258496
  0
LINE
  5
1E3
330
86
100
AcDbEntity
  8
0
  6
Continuous
 62
     7
370
     0
100
AcDbLine
 10
37.63316495189724
 20
103.2975049766486
 30
0.0
 11
36.26824037308329
 21
104.0855445496503
 31
0.0
  0
ELLIPSE
  5
1E4
330
86
100
AcDbEntity
  8
0
  6
Continuous
 62
     7
370
     0
100
AcDbEllipse
 10
36.26824037308329
 20
99.18656506408455
 30
0.0
 11
7.250000000000006
 21
-0.0000000000000026
 31
0.0
210
0.0
220
0.0
230
1.0
 40
0.5773502691895586
 41
0.18939572420994
 42
1.381400602584961
  0
LINE
  5
1E5
330
86
100
AcDbEntity
  8
0
  6
Continuous
 62
     7
370
     0
100
AcDbLine
 10
29.14788357765868
 20
91.05005626273291
 30
0.0
 11
29.14788357765868
 21
98.39852549108286
 31
0.0
  0
ELLIPSE
  5
1E6
330
86
100
AcDbEntity
  8
0
  6
Continuous
 62
     7
370
     0
100
AcDbEllipse
 10
36.2682403730833
 20
99.18656506408455
 30
0.0
 11
-7.25
 21
-0.0000000000000017
 31
0.0
210
0.0
220
0.0
230
0.9999999999999998
 40
0.57735026918956
 41
0.1893957242099329
 42
1.38140060258496
  0
LINE
  5
1E7
330
86
100
AcDbEntity
  8
0
  6
Continuous
 62
     7
370
     0
100
AcDbLine
 10
29.14788357765868
 20
98.39852549108286
 30
0.0
 11
27.78295899884473
 21
99.18656506408453
 31
0.0
  0
LINE
  5
1E8
330
86
100
AcDbEntity
  8
0
  6
Continuous
 62
     7
370
     0
100
AcDbLine
 10
29.14788357765868
 20
91.05005626273291
 30
0.0
 11
27.78295899884473
 21
91.83809583573459
 31
0.0
  0
ELLIPSE
  5
1E9
330
86
100
AcDbEntity
  8
0
  6
Continuous
 62
     7
370
     0
100
AcDbEllipse
 10
36.2682403730833
 20
91.83809583573461
 30
0.0
 11
-7.250000000000007
 21
-0.0000000000000065
 31
0.0
210
0.0
220
0.0
230
1.0
 40
0.5773502691895598
 41
0.189395724209937
 42
1.381400602584962
  0
LINE
  5
1EA
330
86
100
AcDbEntity
  8
0
  6
Continuous
 62
     7
370
     0
100
AcDbLine
 10
34.90331579426934
 20
87.72715592317046
 30
0.0
 11
34.90331579426934
 21
95.07562515152043
 31
0.0
  0
ELLIPSE
  5
1EB
330
86
100
AcDbEntity
  8
0
  6
Continuous
 62
     7
370
     0
100
AcDbEllipse
 10
55.36012346512008
 20
88.16386122156151
 30
0.0
 11
3.249999999999998
 21
0.0000000000000011
 31
0.0
210
0.0
220
0.0
230
1.0
 40
0.5773502691895592
 41
0.0
 42
6.283185307179586
  0
ELLIPSE
  5
1EC
330
86
100
AcDbEntity
  8
0
  6
Continuous
 62
     7
370
     0
100
AcDbEllipse
 10
53.24456131023823
 20
73.64194477842684
 30
0.0
 11
16.78288850454135
 21
-0.000000000000013
 31
0.0
210
0.0
220
0.0
230
1.0
 40
0.5773502691895612
 41
0.4941468370174601
 42
1.106049667736011
  0
LINE
  5
1ED
330
86
100
AcDbEntity
  8
0
  6
Continuous
 62
     7
370
     0
100
AcDbLine
 10
72.55302009494673
 20
73.50633909586433
 30
0.0
 11
72.55302009494673
 21
80.8548083242143
 31
0.0
  0
ELLIPSE
  5
1EE
330
86
100
AcDbEntity
  8
0
  6
Continuous
 62
     7
370
     0
100
AcDbEllipse
 10
80.51282056790082
 20
89.38528160116915
 30
0.0
 11
-16.78288850454003
 21
0.0000000000007451
 31
0.0
210
0.0
220
0.0
230
1.0
 40
0.5773502691895636
 41
0.4647466590589295
 42
1.076649489777504
  0
ELLIPSE
  5
1EF
330
86
100
AcDbEntity
  8
0
  6
Continuous
 62
     7
370
     0
100
AcDbEllipse
 10
62.4311913616311
 20
84.08137826805321
 30
0.0
 11
3.499999999999998
 21
0.0000000000000011
 31
0.0
210
0.0
220
0.0
230
1.0
 40
0.5773502691895598
 41
0.4956462324689356
 42
4.216742747915721
  0
LINE
  5
1F0
330
86
100
AcDbEntity
  8
0
  6
Continuous
 62
     7
370
     0
100
AcDbLine
 10
65.51000676995734
 20
80.25567277985169
 30
0.0
 11
65.51000676995734
 21
85.04243596341673
 31
0.0
  0
ENDBLK
  5
2EB
330
86
100
AcDbEntity
  8
0
370
     0
100
AcDbBlockEnd
  0
BLOCK
  5
1F4
330
8C
100
AcDbEntity
  8
DEFAULT
  6
Continuous
 62
   136
370
     0
100
AcDbBlockBegin
  2
_SE_FILLED
 70
     0
 10
0.0
 20
0.0
 30
0.0
  3
_SE_FILLED
  1

  0
SOLID
  5
1F5
330
8C
100
AcDbEntity
  8
DEFAULT
  6
Continuous
 62
   136
370
     0
100
AcDbTrace
 10
0.0
 20
0.0
 30
0.0
 11
-1.0
 21
-0.1665
 31
0.0
 12
-1.0
 22
0.1665
 32
0.0
 13
0.0
 23
0.0
 33
0.0
  0
LINE
  5
1F6
330
8C
100
AcDbEntity
  8
DEFAULT
  6
Continuous
 62
   136
370
     0
100
AcDbLine
 10
0.0
 20
0.0
 30
0.0
 11
-1.0
 21
0.0
 31
0.0
  0
ENDBLK
  5
1F7
330
8C
100
AcDbEntity
  8
DEFAULT
  6
Continuous
 62
   136
370
     0
100
AcDbBlockEnd
  0
BLOCK
  5
1F8
330
8F
100
AcDbEntity
  8
DEFAULT
 62
     1
 48
0.0
370
     0
100
AcDbBlockBegin
  2
SE6
 70
     0
 10
0.0
 20
0.0
 30
0.0
  3
SE6
  1

  0
HATCH
  5
1F9
330
8F
100
AcDbEntity
  8
DEFAULT
  6
Continuous
 62
   136
100
AcDbHatch
 10
0.0
 20
0.0
 30
0.0
210
0.0
220
0.0
230
1.0
  2
SOLID
 70
     1
 71
     0
 91
        1
 92
        1
 93
        3
 72
     1
 10
92.22065764921797
 20
181.6901261163494
 11
89.22065762314094
 21
182.1901261206956
 72
     1
 10
89.22065762314094
 20
182.1901261206956
 11
92.22065764921797
 21
182.6901261250418
 72
     1
 10
92.22065764921797
 20
182.6901261250418
 11
92.22065764921797
 21
181.6901261163494
 97
        0
 75
     0
 76
     1
 98
        1
 10
0.0
 20
0.0
  0
HATCH
  5
1FA
330
8F
100
AcDbEntity
  8
DEFAULT
  6
Continuous
 62
   136
100
AcDbHatch
 10
0.0
 20
0.0
 30
0.0
210
0.0
220
0.0
230
1.0
  2
SOLID
 70
     1
 71
     0
 91
        1
 92
        1
 93
        3
 72
     1
 10
97.2206575970639
 20
181.6901261163494
 11
100.2206576231409
 21
182.1901261206956
 72
     1
 10
100.2206576231409
 20
182.1901261206956
 11
97.2206575970639
 21
182.6901261250418
 72
     1
 10
97.2206575970639
 20
182.6901261250418
 11
97.2206575970639
 21
181.6901261163494
 97
        0
 75
     0
 76
     1
 98
        1
 10
0.0
 20
0.0
  0
LINE
  5
1FB
330
8F
100
AcDbEntity
  8
DEFAULT
  6
Continuous
 62
   136
370
     0
100
AcDbLine
 10
89.22065762314094
 20
188.8834939670057
 30
0.0
 11
89.22065762314094
 21
180.6901261076571
 31
0.0
  0
LINE
  5
1FC
330
8F
100
AcDbEntity
  8
DEFAULT
  6
Continuous
 62
   136
370
     0
100
AcDbLine
 10
100.2206576231409
 20
188.8834939670057
 30
0.0
 11
100.2206576231409
 21
180.6901261076571
 31
0.0
  0
LINE
  5
1FD
330
8F
100
AcDbEntity
  8
DEFAULT
  6
Continuous
 62
   136
370
     0
100
AcDbLine
 10
89.22065762314094
 20
182.1901261206956
 30
0.0
 11
100.2206575635363
 21
182.1901261206956
 31
0.0
  0
TEXT
  5
1FE
330
8F
100
AcDbEntity
  8
DEFAULT
  6
Continuous
 62
   136
370
     0
100
AcDbText
 10
93.49338486606589
 20
182.9401261206956
 30
0.0
 40
3.0
  1
11
  7
seiso_ttf
 11
93.49338486606589
 21
185.9401261206956
 31
0.0
100
AcDbText
 73
     3
  0
ENDBLK
  5
2EC
330
8F
100
AcDbEntity
  8
0
370
     0
100
AcDbBlockEnd
  0
BLOCK
  5
2ED
330
92
100
AcDbEntity
  8
0
370
     0
100
AcDbBlockBegin
  2
DMBLK467
 70
     0
 10
0.0
 20
0.0
 30
0.0
  3
DMBLK467
  1

  0
INSERT
  5
201
330
92
100
AcDbEntity
  8
DEFAULT
 62
     0
 48
0.0
370
     0
100
AcDbBlockReference
  2
SE6
 10
0.0
 20
0.0
 30
0.0
  0
ENDBLK
  5
202
330
92
100
AcDbEntity
  8
DEFAULT
 62
     0
 48
0.0
370
     0
100
AcDbBlockEnd
  0
BLOCK
  5
203
330
94
100
AcDbEntity
  8
DEFAULT
 62
     1
 48
0.0
370
     0
100
AcDbBlockBegin
  2
SE7
 70
     0
 10
0.0
 20
0.0
 30
0.0
  3
SE7
  1

  0
HATCH
  5
204
330
94
100
AcDbEntity
  8
DEFAULT
  6
Continuous
 62
   136
100
AcDbHatch
 10
0.0
 20
0.0
 30
0.0
210
0.0
220
0.0
230
1.0
  2
SOLID
 70
     1
 71
     0
 91
        1
 92
        1
 93
        3
 72
     1
 10
106.2206576492179
 20
181.8549930294595
 11
103.2206576231409
 21
182.3549930338056
 72
     1
 10
103.2206576231409
 20
182.3549930338056
 11
106.2206576492179
 21
182.8549930381518
 72
     1
 10
106.2206576492179
 20
182.8549930381518
 11
106.2206576492179
 21
181.8549930294595
 97
        0
 75
     0
 76
     1
 98
        1
 10
0.0
 20
0.0
  0
HATCH
  5
205
330
94
100
AcDbEntity
  8
DEFAULT
  6
Continuous
 62
   136
100
AcDbHatch
 10
0.0
 20
0.0
 30
0.0
210
0.0
220
0.0
230
1.0
  2
SOLID
 70
     1
 71
     0
 91
        1
 92
        1
 93
        3
 72
     1
 10
111.2206575970639
 20
181.8549930294595
 11
114.2206576231409
 21
182.3549930338056
 72
     1
 10
114.2206576231409
 20
182.3549930338056
 11
111.2206575970639
 21
182.8549930381518
 72
     1
 10
111.2206575970639
 20
182.8549930381518
 11
111.2206575970639
 21
181.8549930294595
 97
        0
 75
     0
 76
     1
 98
        1
 10
0.0
 20
0.0
  0
LINE
  5
206
330
94
100
AcDbEntity
  8
DEFAULT
  6
Continuous
 62
   136
370
     0
100
AcDbLine
 10
103.2206576231409
 20
188.8834939670057
 30
0.0
 11
103.2206576231409
 21
180.8549930207671
 31
0.0
  0
LINE
  5
207
330
94
100
AcDbEntity
  8
DEFAULT
  6
Continuous
 62
   136
370
     0
100
AcDbLine
 10
114.2206576231409
 20
188.8834939670057
 30
0.0
 11
114.2206576231409
 21
180.8549930207671
 31
0.0
  0
LINE
  5
208
330
94
100
AcDbEntity
  8
DEFAULT
  6
Continuous
 62
   136
370
     0
100
AcDbLine
 10
103.2206576231409
 20
182.3549930338056
 30
0.0
 11
114.2206575635363
 21
182.3549930338056
 31
0.0
  0
TEXT
  5
209
330
94
100
AcDbEntity
  8
DEFAULT
  6
Continuous
 62
   136
370
     0
100
AcDbText
 10
107.4933848660658
 20
183.1049930338056
 30
0.0
 40
3.0
  1
11
  7
seiso_ttf
 11
107.4933848660658
 21
186.1049930338056
 31
0.0
100
AcDbText
 73
     3
  0
ENDBLK
  5
2EE
330
94
100
AcDbEntity
  8
0
370
     0
100
AcDbBlockEnd
  0
BLOCK
  5
2EF
330
97
100
AcDbEntity
  8
0
370
     0
100
AcDbBlockBegin
  2
DMBLK468
 70
     0
 10
0.0
 20
0.0
 30
0.0
  3
DMBLK468
  1

  0
LINE
  5
392
330
97
100
AcDbEntity
  8
DEFAULT
  6
Continuous
 62
   136
370
    -2
100
AcDbLine
 10
103.2206576231409
 20
188.8834939670057
 30
0.0
 11
103.2206576231409
 21
180.8549930338056
 31
0.0
  0
LINE
  5
393
330
97
100
AcDbEntity
  8
DEFAULT
  6
Continuous
 62
   136
370
    -2
100
AcDbLine
 10
114.2206576231409
 20
188.8834939670057
 30
0.0
 11
114.2206576231409
 21
180.8549930338056
 31
0.0
  0
LINE
  5
394
330
97
100
AcDbEntity
  8
DEFAULT
  6
Continuous
 62
   136
370
    -2
100
AcDbLine
 10
106.2206576231409
 20
182.3549930338056
 30
0.0
 11
111.2206576231409
 21
182.3549930338056
 31
0.0
  0
INSERT
  5
395
330
97
100
AcDbEntity
  8
DEFAULT
  6
Continuous
 62
   136
370
    -2
100
AcDbBlockReference
  2
_SE_FILLED
 10
103.2206576231409
 20
182.3549930338056
 30
0.0
 41
3.0
 42
3.0
 43
3.0
 50
180.0
  0
INSERT
  5
396
330
97
100
AcDbEntity
  8
DEFAULT
  6
Continuous
 62
   136
370
    -2
100
AcDbBlockReference
  2
_SE_FILLED
 10
114.2206576231409
 20
182.3549930338056
 30
0.0
 41
3.0
 42
3.0
 43
3.0
  0
MTEXT
  5
397
330
97
100
AcDbEntity
  8
DEFAULT
  6
Continuous
 62
   136
370
     0
100
AcDbMText
 10
108.7206575933386
 20
185.3549930338056
 30
0.0
 40
3.0
 41
0.0
 71
     5
 72
     1
  1
\A1;\A1;11
  7
seiso_ttf
 73
     1
 44
1.0
1001
ACAD
1000
MTEXTBEGIN
1070
    73
1070
     1
1070
    44
1040
1.0
1070
    74
1070
     0
1000
MTEXTEND
  0
POINT
  5
398
330
97
100
AcDbEntity
  8
DEFPOINTS
  6
Continuous
 62
     0
370
     0
100
AcDbPoint
 10
103.2206576231409
 20
188.8834939670057
 30
0.0
  0
POINT
  5
399
330
97
100
AcDbEntity
  8
DEFPOINTS
  6
Continuous
 62
     0
370
     0
100
AcDbPoint
 10
114.2206576231409
 20
188.8834939670057
 30
0.0
  0
POINT
  5
39A
330
97
100
AcDbEntity
  8
DEFPOINTS
  6
Continuous
 62
     0
370
     0
100
AcDbPoint
 10
114.2206576231409
 20
182.3549930338056
 30
0.0
  0
ENDBLK
  5
20D
330
97
100
AcDbEntity
  8
DEFAULT
 62
     0
 48
0.0
370
     0
100
AcDbBlockEnd
  0
BLOCK
  5
20E
330
99
100
AcDbEntity
  8
DEFAULT
 62
     1
 48
0.0
370
     0
100
AcDbBlockBegin
  2
SE8
 70
     0
 10
0.0
 20
0.0
 30
0.0
  3
SE8
  1

  0
HATCH
  5
20F
330
99
100
AcDbEntity
  8
DEFAULT
  6
Continuous
 62
   136
100
AcDbHatch
 10
0.0
 20
0.0
 30
0.0
210
0.0
220
0.0
230
1.0
  2
SOLID
 70
     1
 71
     0
 91
        1
 92
        1
 93
        3
 72
     1
 10
88.62065759706391
 20
211.8127334753912
 11
91.62065762314094
 21
211.3127334710451
 72
     1
 10
91.62065762314094
 20
211.3127334710451
 11
88.62065759706391
 21
210.8127334666989
 72
     1
 10
88.62065759706391
 20
210.8127334666989
 11
88.62065759706391
 21
211.8127334753912
 97
        0
 75
     0
 76
     1
 98
        1
 10
0.0
 20
0.0
  0
HATCH
  5
210
330
99
100
AcDbEntity
  8
DEFAULT
  6
Continuous
 62
   136
100
AcDbHatch
 10
0.0
 20
0.0
 30
0.0
210
0.0
220
0.0
230
1.0
  2
SOLID
 70
     1
 71
     0
 91
        1
 92
        1
 93
        3
 72
     1
 10
100.8206576492179
 20
211.8127334753912
 11
97.82065762314093
 21
211.3127334710451
 72
     1
 10
97.82065762314093
 20
211.3127334710451
 11
100.8206576492179
 21
210.8127334666989
 72
     1
 10
100.8206576492179
 20
210.8127334666989
 11
100.8206576492179
 21
211.8127334753912
 97
        0
 75
     0
 76
     1
 98
        1
 10
0.0
 20
0.0
  0
LINE
  5
211
330
99
100
AcDbEntity
  8
DEFAULT
  6
Continuous
 62
   136
370
     0
100
AcDbLine
 10
91.62065762314094
 20
202.8834939670058
 30
0.0
 11
91.62065762314094
 21
212.8127334840836
 31
0.0
  0
LINE
  5
212
330
99
100
AcDbEntity
  8
DEFAULT
  6
Continuous
 62
   136
370
     0
100
AcDbLine
 10
97.82065762314093
 20
202.8834939670058
 30
0.0
 11
97.82065762314093
 21
212.8127334840836
 31
0.0
  0
LINE
  5
213
330
99
100
AcDbEntity
  8
DEFAULT
  6
Continuous
 62
   136
370
     0
100
AcDbLine
 10
85.62065757098688
 20
211.3127334710451
 30
0.0
 11
103.8206573877026
 21
211.3127334710451
 31
0.0
  0
TEXT
  5
214
330
99
100
AcDbEntity
  8
DEFAULT
  6
Continuous
 62
   136
370
     0
100
AcDbText
 10
92.607021348539
 20
212.0627334710451
 30
0.0
 40
3.0
  1
6,2
  7
seiso_ttf
 11
92.607021348539
 21
215.0627334710451
 31
0.0
100
AcDbText
 73
     3
  0
ENDBLK
  5
2F0
330
99
100
AcDbEntity
  8
0
370
     0
100
AcDbBlockEnd
  0
BLOCK
  5
2F1
330
9C
100
AcDbEntity
  8
0
370
     0
100
AcDbBlockBegin
  2
DMBLK469
 70
     0
 10
0.0
 20
0.0
 30
0.0
  3
DMBLK469
  1

  0
LINE
  5
39B
330
9C
100
AcDbEntity
  8
DEFAULT
  6
Continuous
 62
   136
370
    -2
100
AcDbLine
 10
91.62065762314094
 20
202.8834939670058
 30
0.0
 11
91.62065762314094
 21
212.8127334710451
 31
0.0
  0
LINE
  5
39C
330
9C
100
AcDbEntity
  8
DEFAULT
  6
Continuous
 62
   136
370
    -2
100
AcDbLine
 10
97.82065762314093
 20
202.8834939670058
 30
0.0
 11
97.82065762314093
 21
212.8127334710451
 31
0.0
  0
LINE
  5
39D
330
9C
100
AcDbEntity
  8
DEFAULT
  6
Continuous
 62
   136
370
    -2
100
AcDbLine
 10
88.62065762314093
 20
211.3127334710451
 30
0.0
 11
85.62065762314094
 21
211.3127334710451
 31
0.0
  0
LINE
  5
39E
330
9C
100
AcDbEntity
  8
DEFAULT
  6
Continuous
 62
   136
370
    -2
100
AcDbLine
 10
100.8206576231409
 20
211.3127334710451
 30
0.0
 11
103.8206576231409
 21
211.3127334710451
 31
0.0
  0
LINE
  5
39F
330
9C
100
AcDbEntity
  8
DEFAULT
  6
Continuous
 62
   136
370
    -2
100
AcDbLine
 10
91.62065762314094
 20
211.3127334710451
 30
0.0
 11
97.82065762314093
 21
211.3127334710451
 31
0.0
  0
INSERT
  5
3A0
330
9C
100
AcDbEntity
  8
DEFAULT
  6
Continuous
 62
   136
370
    -2
100
AcDbBlockReference
  2
_SE_FILLED
 10
91.62065762314094
 20
211.3127334710451
 30
0.0
 41
3.0
 42
3.0
 43
3.0
  0
INSERT
  5
3A1
330
9C
100
AcDbEntity
  8
DEFAULT
  6
Continuous
 62
   136
370
    -2
100
AcDbBlockReference
  2
_SE_FILLED
 10
97.82065762314093
 20
211.3127334710451
 30
0.0
 41
3.0
 42
3.0
 43
3.0
 50
180.0
  0
MTEXT
  5
3A2
330
9C
100
AcDbEntity
  8
DEFAULT
  6
Continuous
 62
   136
370
     0
100
AcDbMText
 10
94.72065762314093
 20
214.5984477567594
 30
0.0
 40
3.0
 41
0.0
 71
     5
 72
     1
  1
\A1;\A1;6,2
  7
seiso_ttf
 73
     1
 44
1.0
1001
ACAD
1000
MTEXTBEGIN
1070
    73
1070
     1
1070
    44
1040
1.0
1070
    74
1070
     0
1000
MTEXTEND
  0
POINT
  5
3A3
330
9C
100
AcDbEntity
  8
DEFPOINTS
  6
Continuous
 62
     0
370
     0
100
AcDbPoint
 10
91.62065762314094
 20
202.8834939670058
 30
0.0
  0
POINT
  5
3A4
330
9C
100
AcDbEntity
  8
DEFPOINTS
  6
Continuous
 62
     0
370
     0
100
AcDbPoint
 10
97.82065762314093
 20
202.8834939670058
 30
0.0
  0
POINT
  5
3A5
330
9C
100
AcDbEntity
  8
DEFPOINTS
  6
Continuous
 62
     0
370
     0
100
AcDbPoint
 10
97.82065762314093
 20
211.3127334710451
 30
0.0
  0
ENDBLK
  5
218
330
9C
100
AcDbEntity
  8
DEFAULT
 62
     0
 48
0.0
370
     0
100
AcDbBlockEnd
  0
BLOCK
  5
219
330
9E
100
AcDbEntity
  8
DEFAULT
 62
     1
 48
0.0
370
     0
100
AcDbBlockBegin
  2
SE9
 70
     0
 10
0.0
 20
0.0
 30
0.0
  3
SE9
  1

  0
HATCH
  5
21A
330
9E
100
AcDbEntity
  8
DEFAULT
  6
Continuous
 62
   136
100
AcDbHatch
 10
0.0
 20
0.0
 30
0.0
210
0.0
220
0.0
230
1.0
  2
SOLID
 70
     1
 71
     0
 91
        1
 92
        1
 93
        3
 72
     1
 10
102.6206575970639
 20
211.8127334753912
 11
105.6206576231409
 21
211.3127334710451
 72
     1
 10
105.6206576231409
 20
211.3127334710451
 11
102.6206575970639
 21
210.8127334666989
 72
     1
 10
102.6206575970639
 20
210.8127334666989
 11
102.6206575970639
 21
211.8127334753912
 97
        0
 75
     0
 76
     1
 98
        1
 10
0.0
 20
0.0
  0
HATCH
  5
21B
330
9E
100
AcDbEntity
  8
DEFAULT
  6
Continuous
 62
   136
100
AcDbHatch
 10
0.0
 20
0.0
 30
0.0
210
0.0
220
0.0
230
1.0
  2
SOLID
 70
     1
 71
     0
 91
        1
 92
        1
 93
        3
 72
     1
 10
114.8206576492179
 20
211.8127334753912
 11
111.8206576231409
 21
211.3127334710451
 72
     1
 10
111.8206576231409
 20
211.3127334710451
 11
114.8206576492179
 21
210.8127334666989
 72
     1
 10
114.8206576492179
 20
210.8127334666989
 11
114.8206576492179
 21
211.8127334753912
 97
        0
 75
     0
 76
     1
 98
        1
 10
0.0
 20
0.0
  0
LINE
  5
21C
330
9E
100
AcDbEntity
  8
DEFAULT
  6
Continuous
 62
   136
370
     0
100
AcDbLine
 10
105.6206576231409
 20
202.8834939670058
 30
0.0
 11
105.6206576231409
 21
212.8127334840836
 31
0.0
  0
LINE
  5
21D
330
9E
100
AcDbEntity
  8
DEFAULT
  6
Continuous
 62
   136
370
     0
100
AcDbLine
 10
111.8206576231409
 20
202.8834939670058
 30
0.0
 11
111.8206576231409
 21
212.8127334840836
 31
0.0
  0
LINE
  5
21E
330
9E
100
AcDbEntity
  8
DEFAULT
  6
Continuous
 62
   136
370
     0
100
AcDbLine
 10
99.62065757098686
 20
211.3127334710451
 30
0.0
 11
117.8206573877025
 21
211.3127334710451
 31
0.0
  0
TEXT
  5
21F
330
9E
100
AcDbEntity
  8
DEFAULT
  6
Continuous
 62
   136
370
     0
100
AcDbText
 10
106.607021348539
 20
212.0627334710451
 30
0.0
 40
3.0
  1
6,2
  7
seiso_ttf
 11
106.607021348539
 21
215.0627334710451
 31
0.0
100
AcDbText
 73
     3
  0
ENDBLK
  5
2F2
330
9E
100
AcDbEntity
  8
0
370
     0
100
AcDbBlockEnd
  0
BLOCK
  5
2F3
330
A1
100
AcDbEntity
  8
0
370
     0
100
AcDbBlockBegin
  2
DMBLK470
 70
     0
 10
0.0
 20
0.0
 30
0.0
  3
DMBLK470
  1

  0
LINE
  5
3A6
330
A1
100
AcDbEntity
  8
DEFAULT
  6
Continuous
 62
   136
370
    -2
100
AcDbLine
 10
105.6206576231409
 20
202.8834939670058
 30
0.0
 11
105.6206576231409
 21
212.8127334710451
 31
0.0
  0
LINE
  5
3A7
330
A1
100
AcDbEntity
  8
DEFAULT
  6
Continuous
 62
   136
370
    -2
100
AcDbLine
 10
111.8206576231409
 20
202.8834939670058
 30
0.0
 11
111.8206576231409
 21
212.8127334710451
 31
0.0
  0
LINE
  5
3A8
330
A1
100
AcDbEntity
  8
DEFAULT
  6
Continuous
 62
   136
370
    -2
100
AcDbLine
 10
102.6206576231409
 20
211.3127334710451
 30
0.0
 11
99.62065762314093
 21
211.3127334710451
 31
0.0
  0
LINE
  5
3A9
330
A1
100
AcDbEntity
  8
DEFAULT
  6
Continuous
 62
   136
370
    -2
100
AcDbLine
 10
114.8206576231409
 20
211.3127334710451
 30
0.0
 11
117.8206576231409
 21
211.3127334710451
 31
0.0
  0
LINE
  5
3AA
330
A1
100
AcDbEntity
  8
DEFAULT
  6
Continuous
 62
   136
370
    -2
100
AcDbLine
 10
105.6206576231409
 20
211.3127334710451
 30
0.0
 11
111.8206576231409
 21
211.3127334710451
 31
0.0
  0
INSERT
  5
3AB
330
A1
100
AcDbEntity
  8
DEFAULT
  6
Continuous
 62
   136
370
    -2
100
AcDbBlockReference
  2
_SE_FILLED
 10
105.6206576231409
 20
211.3127334710451
 30
0.0
 41
3.0
 42
3.0
 43
3.0
  0
INSERT
  5
3AC
330
A1
100
AcDbEntity
  8
DEFAULT
  6
Continuous
 62
   136
370
    -2
100
AcDbBlockReference
  2
_SE_FILLED
 10
111.8206576231409
 20
211.3127334710451
 30
0.0
 41
3.0
 42
3.0
 43
3.0
 50
180.0
  0
MTEXT
  5
3AD
330
A1
100
AcDbEntity
  8
DEFAULT
  6
Continuous
 62
   136
370
     0
100
AcDbMText
 10
108.7206576231409
 20
214.5984477567594
 30
0.0
 40
3.0
 41
0.0
 71
     5
 72
     1
  1
\A1;\A1;6,2
  7
seiso_ttf
 73
     1
 44
1.0
1001
ACAD
1000
MTEXTBEGIN
1070
    73
1070
     1
1070
    44
1040
1.0
1070
    74
1070
     0
1000
MTEXTEND
  0
POINT
  5
3AE
330
A1
100
AcDbEntity
  8
DEFPOINTS
  6
Continuous
 62
     0
370
     0
100
AcDbPoint
 10
105.6206576231409
 20
202.8834939670058
 30
0.0
  0
POINT
  5
3AF
330
A1
100
AcDbEntity
  8
DEFPOINTS
  6
Continuous
 62
     0
370
     0
100
AcDbPoint
 10
111.8206576231409
 20
202.8834939670058
 30
0.0
  0
POINT
  5
3B0
330
A1
100
AcDbEntity
  8
DEFPOINTS
  6
Continuous
 62
     0
370
     0
100
AcDbPoint
 10
111.8206576231409
 20
211.3127334710451
 30
0.0
  0
ENDBLK
  5
223
330
A1
100
AcDbEntity
  8
DEFAULT
 62
     0
 48
0.0
370
     0
100
AcDbBlockEnd
  0
BLOCK
  5
224
330
A3
100
AcDbEntity
  8
DEFAULT
  6
Continuous
 62
   136
370
     0
100
AcDbBlockBegin
  2
_SE_BLANK
 70
     0
 10
0.0
 20
0.0
 30
0.0
  3
_SE_BLANK
  1

  0
LINE
  5
225
330
A3
100
AcDbEntity
  8
DEFAULT
  6
Continuous
 62
   136
370
     0
100
AcDbLine
 10
0.0
 20
0.0
 30
0.0
 11
-1.0
 21
0.0
 31
0.0
  0
ENDBLK
  5
226
330
A3
100
AcDbEntity
  8
DEFAULT
  6
Continuous
 62
   136
370
     0
100
AcDbBlockEnd
  0
BLOCK
  5
227
330
A4
100
AcDbEntity
  8
DEFAULT
 62
     1
 48
0.0
370
     0
100
AcDbBlockBegin
  2
SE10
 70
     0
 10
0.0
 20
0.0
 30
0.0
  3
SE10
  1

  0
HATCH
  5
228
330
A4
100
AcDbEntity
  8
DEFAULT
  6
Continuous
 62
   136
100
AcDbHatch
 10
0.0
 20
0.0
 30
0.0
210
0.0
220
0.0
230
1.0
  2
SOLID
 70
     1
 71
     0
 91
        1
 92
        1
 93
        3
 72
     1
 10
81.65916776106156
 20
185.8834939409287
 11
82.15916776540774
 21
188.8834939670057
 72
     1
 10
82.15916776540774
 20
188.8834939670057
 11
82.65916776975393
 21
185.8834939409287
 72
     1
 10
82.65916776975393
 20
185.8834939409287
 11
81.65916776106156
 21
185.8834939409287
 97
        0
 75
     0
 76
     1
 98
        1
 10
0.0
 20
0.0
  0
LINE
  5
229
330
A4
100
AcDbEntity
  8
DEFAULT
  6
Continuous
 62
   136
370
     0
100
AcDbLine
 10
89.22065762314099
 20
194.8834939670057
 30
0.0
 11
80.65916775236923
 21
194.8834939670057
 31
0.0
  0
LINE
  5
22A
330
A4
100
AcDbEntity
  8
DEFAULT
  6
Continuous
 62
   136
370
     0
100
AcDbLine
 10
87.72065762314094
 20
188.8834939670057
 30
0.0
 11
80.65916775236923
 21
188.8834939670057
 31
0.0
  0
LINE
  5
22B
330
A4
100
AcDbEntity
  8
DEFAULT
  6
Continuous
 62
   136
370
     0
100
AcDbLine
 10
82.15916776540774
 20
200.8834940191598
 30
0.0
 11
82.15916776540774
 21
182.8834938626976
 31
0.0
  0
TEXT
  5
22C
330
A4
100
AcDbEntity
  8
DEFAULT
  6
Continuous
 62
   136
370
     0
100
AcDbText
 10
81.40916776540775
 20
190.9630393954741
 30
0.0
 40
3.0
  1
6
 50
90.0
  7
seiso_ttf
 11
78.40916776540774
 21
190.9630393954741
 31
0.0
100
AcDbText
 73
     3
  0
ENDBLK
  5
2F4
330
A4
100
AcDbEntity
  8
0
370
     0
100
AcDbBlockEnd
  0
BLOCK
  5
2F5
330
A6
100
AcDbEntity
  8
0
370
     0
100
AcDbBlockBegin
  2
DMBLK471
 70
     0
 10
0.0
 20
0.0
 30
0.0
  3
DMBLK471
  1

  0
LINE
  5
3B1
330
A6
100
AcDbEntity
  8
DEFAULT
  6
Continuous
 62
   136
370
    -2
100
AcDbLine
 10
89.22065762314099
 20
194.8834939670057
 30
0.0
 11
80.65916776540777
 21
194.8834939670057
 31
0.0
  0
LINE
  5
3B2
330
A6
100
AcDbEntity
  8
DEFAULT
  6
Continuous
 62
   136
370
    -2
100
AcDbLine
 10
87.72065762314094
 20
188.8834939670057
 30
0.0
 11
80.65916776540777
 21
188.8834939670057
 31
0.0
  0
LINE
  5
3B3
330
A6
100
AcDbEntity
  8
DEFAULT
  6
Continuous
 62
   136
370
    -2
100
AcDbLine
 10
82.15916776540778
 20
197.8834939670058
 30
0.0
 11
82.15916776540778
 21
200.8834939670057
 31
0.0
  0
LINE
  5
3B4
330
A6
100
AcDbEntity
  8
DEFAULT
  6
Continuous
 62
   136
370
    -2
100
AcDbLine
 10
82.15916776540778
 20
185.8834939670057
 30
0.0
 11
82.15916776540778
 21
182.8834939670057
 31
0.0
  0
LINE
  5
3B5
330
A6
100
AcDbEntity
  8
DEFAULT
  6
Continuous
 62
   136
370
    -2
100
AcDbLine
 10
82.15916776540778
 20
194.8834939670057
 30
0.0
 11
82.15916776540778
 21
188.8834939670057
 31
0.0
  0
INSERT
  5
3B6
330
A6
100
AcDbEntity
  8
DEFAULT
  6
Continuous
 62
   136
370
    -2
100
AcDbBlockReference
  2
_SE_BLANK
 10
82.15916776540778
 20
194.8834939670057
 30
0.0
 41
3.0
 42
3.0
 43
3.0
 50
270.0
  0
INSERT
  5
3B7
330
A6
100
AcDbEntity
  8
DEFAULT
  6
Continuous
 62
   136
370
    -2
100
AcDbBlockReference
  2
_SE_FILLED
 10
82.15916776540778
 20
188.8834939670057
 30
0.0
 41
3.0
 42
3.0
 43
3.0
 50
90.0
  0
MTEXT
  5
3B8
330
A6
100
AcDbEntity
  8
DEFAULT
  6
Continuous
 62
   136
370
     0
100
AcDbMText
 10
79.15916776540774
 20
191.8834939670058
 30
0.0
 40
3.0
 41
0.0
 71
     5
 72
     1
  1
\A1;\A1;6
  7
seiso_ttf
 11
0.0000000000000001
 21
1.0
 31
0.0
 73
     1
 44
1.0
1001
ACAD
1000
MTEXTBEGIN
1070
    73
1070
     1
1070
    44
1040
1.0
1070
    74
1070
     0
1000
MTEXTEND
  0
POINT
  5
3B9
330
A6
100
AcDbEntity
  8
DEFPOINTS
  6
Continuous
 62
     0
370
     0
100
AcDbPoint
 10
89.22065762314099
 20
194.8834939670057
 30
0.0
  0
POINT
  5
3BA
330
A6
100
AcDbEntity
  8
DEFPOINTS
  6
Continuous
 62
     0
370
     0
100
AcDbPoint
 10
87.72065762314094
 20
188.8834939670057
 30
0.0
  0
POINT
  5
3BB
330
A6
100
AcDbEntity
  8
DEFPOINTS
  6
Continuous
 62
     0
370
     0
100
AcDbPoint
 10
82.15916776540778
 20
188.8834939670057
 30
0.0
  0
ENDBLK
  5
230
330
A6
100
AcDbEntity
  8
DEFAULT
 62
     0
 48
0.0
370
     0
100
AcDbBlockEnd
  0
BLOCK
  5
231
330
A8
100
AcDbEntity
  8
DEFAULT
  6
Continuous
 62
   136
370
     0
100
AcDbBlockBegin
  2
_SE_DOT
 70
     0
 10
0.0
 20
0.0
 30
0.0
  3
_SE_DOT
  1

  0
LWPOLYLINE
  5
232
330
A8
100
AcDbEntity
  8
DEFAULT
  6
Continuous
 62
   136
370
     0
100
AcDbPolyline
 90
        2
 70
     1
 43
0.333
 10
-0.1665
 20
0.0
 42
1.0
 10
0.1665
 20
0.0
 42
1.0
  0
LINE
  5
233
330
A8
100
AcDbEntity
  8
DEFAULT
  6
Continuous
 62
   136
370
     0
100
AcDbLine
 10
0.0
 20
0.0
 30
0.0
 11
-1.0
 21
0.0
 31
0.0
  0
ENDBLK
  5
234
330
A8
100
AcDbEntity
  8
DEFAULT
  6
Continuous
 62
   136
370
     0
100
AcDbBlockEnd
  0
BLOCK
  5
235
330
A9
100
AcDbEntity
  8
DEFAULT
 62
     1
 48
0.0
370
     0
100
AcDbBlockBegin
  2
SE11
 70
     0
 10
0.0
 20
0.0
 30
0.0
  3
SE11
  1

  0
HATCH
  5
236
330
A9
100
AcDbEntity
  8
DEFAULT
  6
Continuous
 62
   136
100
AcDbHatch
 10
0.0
 20
0.0
 30
0.0
210
0.0
220
0.0
230
1.0
  2
SOLID
 70
     1
 71
     0
 91
        1
 92
        1
 93
        1
 72
     2
 10
82.15916776540774
 20
194.8834939670057
 40
0.5000000043461767
 50
0.0
 51
360.0
 73
     1
 97
        0
 75
     0
 76
     1
 98
        1
 10
0.0
 20
0.0
  0
HATCH
  5
237
330
A9
100
AcDbEntity
  8
DEFAULT
  6
Continuous
 62
   136
100
AcDbHatch
 10
0.0
 20
0.0
 30
0.0
210
0.0
220
0.0
230
1.0
  2
SOLID
 70
     1
 71
     0
 91
        1
 92
        1
 93
        1
 72
     2
 10
82.15916776540774
 20
199.0404159051711
 40
0.5000000043461767
 50
0.0
 51
360.0
 73
     1
 97
        0
 75
     0
 76
     1
 98
        1
 10
0.0
 20
0.0
  0
LINE
  5
238
330
A9
100
AcDbEntity
  8
DEFAULT
  6
Continuous
 62
   136
370
     0
100
AcDbLine
 10
89.22065762314099
 20
194.8834939670057
 30
0.0
 11
80.65916775236923
 21
194.8834939670057
 31
0.0
  0
LINE
  5
239
330
A9
100
AcDbEntity
  8
DEFAULT
  6
Continuous
 62
   136
370
     0
100
AcDbLine
 10
91.62065762314096
 20
199.0404159051711
 30
0.0
 11
80.65916775236921
 21
199.0404159051711
 31
0.0
  0
LINE
  5
23A
330
A9
100
AcDbEntity
  8
DEFAULT
  6
Continuous
 62
   136
370
     0
100
AcDbLine
 10
82.15916776540774
 20
191.8834939409287
 30
0.0
 11
82.15916776540774
 21
202.0404159832986
 31
0.0
  0
TEXT
  5
23B
330
A9
100
AcDbEntity
  8
DEFAULT
  6
Continuous
 62
   136
370
     0
100
AcDbText
 10
81.40916776540775
 20
196.07559132575
 30
0.0
 40
3.0
  1
4
 50
90.0
  7
seiso_ttf
 11
78.40916776540774
 21
196.07559132575
 31
0.0
100
AcDbText
 73
     3
  0
ENDBLK
  5
2F6
330
A9
100
AcDbEntity
  8
0
370
     0
100
AcDbBlockEnd
  0
BLOCK
  5
2F7
330
AC
100
AcDbEntity
  8
0
370
     0
100
AcDbBlockBegin
  2
DMBLK472
 70
     0
 10
0.0
 20
0.0
 30
0.0
  3
DMBLK472
  1

  0
LINE
  5
3BC
330
AC
100
AcDbEntity
  8
DEFAULT
  6
Continuous
 62
   136
370
    -2
100
AcDbLine
 10
89.22065762314099
 20
194.8834939670057
 30
0.0
 11
80.65916776540777
 21
194.8834939670057
 31
0.0
  0
LINE
  5
3BD
330
AC
100
AcDbEntity
  8
DEFAULT
  6
Continuous
 62
   136
370
    -2
100
AcDbLine
 10
91.62065762314096
 20
199.0404159051711
 30
0.0
 11
80.65916776540777
 21
199.0404159051711
 31
0.0
  0
LINE
  5
3BE
330
AC
100
AcDbEntity
  8
DEFAULT
  6
Continuous
 62
   136
370
    -2
100
AcDbLine
 10
82.15916776540778
 20
193.3834939670057
 30
0.0
 11
82.15916776540778
 21
191.8834939670057
 31
0.0
  0
LINE
  5
3BF
330
AC
100
AcDbEntity
  8
DEFAULT
  6
Continuous
 62
   136
370
    -2
100
AcDbLine
 10
82.15916776540778
 20
200.5404159051711
 30
0.0
 11
82.15916776540778
 21
202.0404159051711
 31
0.0
  0
LINE
  5
3C0
330
AC
100
AcDbEntity
  8
DEFAULT
  6
Continuous
 62
   136
370
    -2
100
AcDbLine
 10
82.15916776540778
 20
194.8834939670057
 30
0.0
 11
82.15916776540778
 21
199.0404159051711
 31
0.0
  0
INSERT
  5
3C1
330
AC
100
AcDbEntity
  8
DEFAULT
  6
Continuous
 62
   136
370
    -2
100
AcDbBlockReference
  2
_SE_DOT
 10
82.15916776540778
 20
194.8834939670057
 30
0.0
 41
1.5
 42
1.5
 43
1.5
 50
90.0
  0
INSERT
  5
3C2
330
AC
100
AcDbEntity
  8
DEFAULT
  6
Continuous
 62
   136
370
    -2
100
AcDbBlockReference
  2
_SE_DOT
 10
82.15916776540778
 20
199.0404159051711
 30
0.0
 41
1.5
 42
1.5
 43
1.5
 50
270.0
  0
MTEXT
  5
3C3
330
AC
100
AcDbEntity
  8
DEFAULT
  6
Continuous
 62
   136
370
     0
100
AcDbMText
 10
79.15916776540774
 20
196.9619549360884
 30
0.0
 40
3.0
 41
0.0
 71
     5
 72
     1
  1
\A1;\A1;4
  7
seiso_ttf
 11
0.0000000000000001
 21
1.0
 31
0.0
 73
     1
 44
1.0
1001
ACAD
1000
MTEXTBEGIN
1070
    73
1070
     1
1070
    44
1040
1.0
1070
    74
1070
     0
1000
MTEXTEND
  0
POINT
  5
3C4
330
AC
100
AcDbEntity
  8
DEFPOINTS
  6
Continuous
 62
     0
370
     0
100
AcDbPoint
 10
89.22065762314099
 20
194.8834939670057
 30
0.0
  0
POINT
  5
3C5
330
AC
100
AcDbEntity
  8
DEFPOINTS
  6
Continuous
 62
     0
370
     0
100
AcDbPoint
 10
91.62065762314096
 20
199.0404159051711
 30
0.0
  0
POINT
  5
3C6
330
AC
100
AcDbEntity
  8
DEFPOINTS
  6
Continuous
 62
     0
370
     0
100
AcDbPoint
 10
82.15916776540778
 20
199.0404159051711
 30
0.0
  0
ENDBLK
  5
23F
330
AC
100
AcDbEntity
  8
DEFAULT
 62
     0
 48
0.0
370
     0
100
AcDbBlockEnd
  0
BLOCK
  5
240
330
AE
100
AcDbEntity
  8
DEFAULT
 62
     1
 48
0.0
370
     0
100
AcDbBlockBegin
  2
SE12
 70
     0
 10
0.0
 20
0.0
 30
0.0
  3
SE12
  1

  0
HATCH
  5
241
330
AE
100
AcDbEntity
  8
DEFAULT
  6
Continuous
 62
   136
100
AcDbHatch
 10
0.0
 20
0.0
 30
0.0
210
0.0
220
0.0
230
1.0
  2
SOLID
 70
     1
 71
     0
 91
        1
 92
        1
 93
        3
 72
     1
 10
81.65916811272893
 20
210.3834939930828
 11
82.15916811707511
 21
207.3834939670058
 72
     1
 10
82.15916811707511
 20
207.3834939670058
 11
82.65916812142128
 21
210.3834939930828
 72
     1
 10
82.65916812142128
 20
210.3834939930828
 11
81.65916811272893
 21
210.3834939930828
 97
        0
 75
     0
 76
     1
 98
        1
 10
0.0
 20
0.0
  0
LINE
  5
242
330
AE
100
AcDbEntity
  8
DEFAULT
  6
Continuous
 62
   136
370
     0
100
AcDbLine
 10
91.62065762314096
 20
199.0404159051711
 30
0.0
 11
80.6591681040366
 21
199.0404159051711
 31
0.0
  0
LINE
  5
243
330
AE
100
AcDbEntity
  8
DEFAULT
  6
Continuous
 62
   136
370
     0
100
AcDbLine
 10
94.72065762314093
 20
207.3834939670058
 30
0.0
 11
80.6591681040366
 21
207.3834939670058
 31
0.0
  0
LINE
  5
244
330
AE
100
AcDbEntity
  8
DEFAULT
  6
Continuous
 62
   136
370
     0
100
AcDbLine
 10
82.15916811707511
 20
193.040415853017
 30
0.0
 11
82.15916811707511
 21
213.3834941533739
 31
0.0
  0
TEXT
  5
245
330
AE
100
AcDbEntity
  8
DEFAULT
  6
Continuous
 62
   136
370
     0
100
AcDbText
 10
81.4091681170751
 20
202.25740954865
 30
0.0
 40
3.0
  1
8
 50
90.0
  7
seiso_ttf
 11
78.40916811707511
 21
202.25740954865
 31
0.0
100
AcDbText
 73
     3
  0
ENDBLK
  5
2F8
330
AE
100
AcDbEntity
  8
0
370
     0
100
AcDbBlockEnd
  0
BLOCK
  5
2F9
330
B0
100
AcDbEntity
  8
0
370
     0
100
AcDbBlockBegin
  2
DMBLK473
 70
     0
 10
0.0
 20
0.0
 30
0.0
  3
DMBLK473
  1

  0
LINE
  5
3C7
330
B0
100
AcDbEntity
  8
DEFAULT
  6
Continuous
 62
   136
370
    -2
100
AcDbLine
 10
91.62065762314096
 20
199.0404159051711
 30
0.0
 11
80.65916811707515
 21
199.0404159051711
 31
0.0
  0
LINE
  5
3C8
330
B0
100
AcDbEntity
  8
DEFAULT
  6
Continuous
 62
   136
370
    -2
100
AcDbLine
 10
94.72065762314093
 20
207.3834939670058
 30
0.0
 11
80.65916811707515
 21
207.3834939670058
 31
0.0
  0
LINE
  5
3C9
330
B0
100
AcDbEntity
  8
DEFAULT
  6
Continuous
 62
   136
370
    -2
100
AcDbLine
 10
82.15916811707513
 20
196.040415905171
 30
0.0
 11
82.15916811707513
 21
193.040415905171
 31
0.0
  0
LINE
  5
3CA
330
B0
100
AcDbEntity
  8
DEFAULT
  6
Continuous
 62
   136
370
    -2
100
AcDbLine
 10
82.15916811707513
 20
210.3834939670058
 30
0.0
 11
82.15916811707513
 21
213.3834939670058
 31
0.0
  0
LINE
  5
3CB
330
B0
100
AcDbEntity
  8
DEFAULT
  6
Continuous
 62
   136
370
    -2
100
AcDbLine
 10
82.15916811707513
 20
199.0404159051711
 30
0.0
 11
82.15916811707513
 21
207.3834939670058
 31
0.0
  0
INSERT
  5
3CC
330
B0
100
AcDbEntity
  8
DEFAULT
  6
Continuous
 62
   136
370
    -2
100
AcDbBlockReference
  2
_SE_BLANK
 10
82.15916811707513
 20
199.0404159051711
 30
0.0
 41
3.0
 42
3.0
 43
3.0
 50
90.0
  0
INSERT
  5
3CD
330
B0
100
AcDbEntity
  8
DEFAULT
  6
Continuous
 62
   136
370
    -2
100
AcDbBlockReference
  2
_SE_FILLED
 10
82.15916811707513
 20
207.3834939670058
 30
0.0
 41
3.0
 42
3.0
 43
3.0
 50
270.0
  0
MTEXT
  5
3CE
330
B0
100
AcDbEntity
  8
DEFAULT
  6
Continuous
 62
   136
370
     0
100
AcDbMText
 10
79.15916811707511
 20
203.2119549360885
 30
0.0
 40
3.0
 41
0.0
 71
     5
 72
     1
  1
\A1;\A1;8
  7
seiso_ttf
 11
0.0000000000000001
 21
1.0
 31
0.0
 73
     1
 44
1.0
1001
ACAD
1000
MTEXTBEGIN
1070
    73
1070
     1
1070
    44
1040
1.0
1070
    74
1070
     0
1000
MTEXTEND
  0
POINT
  5
3CF
330
B0
100
AcDbEntity
  8
DEFPOINTS
  6
Continuous
 62
     0
370
     0
100
AcDbPoint
 10
91.62065762314096
 20
199.0404159051711
 30
0.0
  0
POINT
  5
3D0
330
B0
100
AcDbEntity
  8
DEFPOINTS
  6
Continuous
 62
     0
370
     0
100
AcDbPoint
 10
94.72065762314093
 20
207.3834939670058
 30
0.0
  0
POINT
  5
3D1
330
B0
100
AcDbEntity
  8
DEFPOINTS
  6
Continuous
 62
     0
370
     0
100
AcDbPoint
 10
82.15916811707513
 20
207.3834939670058
 30
0.0
  0
ENDBLK
  5
249
330
B0
100
AcDbEntity
  8
DEFAULT
 62
     0
 48
0.0
370
     0
100
AcDbBlockEnd
  0
BLOCK
  5
24A
330
B2
100
AcDbEntity
  8
DEFAULT
 62
     1
 48
0.0
370
     0
100
AcDbBlockBegin
  2
SE13
 70
     0
 10
0.0
 20
0.0
 30
0.0
  3
SE13
  1

  0
HATCH
  5
24B
330
B2
100
AcDbEntity
  8
DEFAULT
  6
Continuous
 62
   136
100
AcDbHatch
 10
0.0
 20
0.0
 30
0.0
210
0.0
220
0.0
230
1.0
  2
SOLID
 70
     1
 71
     0
 91
        1
 92
        1
 93
        3
 72
     1
 10
84.7206575970639
 20
149.0329659642731
 11
87.72065762314094
 21
148.5329659599269
 72
     1
 10
87.72065762314094
 20
148.5329659599269
 11
84.7206575970639
 21
148.0329659555807
 72
     1
 10
84.7206575970639
 20
148.0329659555807
 11
84.7206575970639
 21
149.0329659642731
 97
        0
 75
     0
 76
     1
 98
        1
 10
0.0
 20
0.0
  0
HATCH
  5
24C
330
B2
100
AcDbEntity
  8
DEFAULT
  6
Continuous
 62
   136
100
AcDbHatch
 10
0.0
 20
0.0
 30
0.0
210
0.0
220
0.0
230
1.0
  2
SOLID
 70
     1
 71
     0
 91
        1
 92
        1
 93
        3
 72
     1
 10
97.72065764921798
 20
149.0329659642731
 11
94.72065762314093
 21
148.5329659599269
 72
     1
 10
94.72065762314093
 20
148.5329659599269
 11
97.72065764921798
 21
148.0329659555807
 72
     1
 10
97.72065764921798
 20
148.0329659555807
 11
97.72065764921798
 21
149.0329659642731
 97
        0
 75
     0
 76
     1
 98
        1
 10
0.0
 20
0.0
  0
LINE
  5
24D
330
B2
100
AcDbEntity
  8
DEFAULT
  6
Continuous
 62
   136
370
     0
100
AcDbLine
 10
87.72065762314094
 20
122.5979214477742
 30
0.0
 11
87.72065762314094
 21
150.0329659729654
 31
0.0
  0
LINE
  5
24E
330
B2
100
AcDbEntity
  8
DEFAULT
  6
Continuous
 62
   136
370
     0
100
AcDbLine
 10
94.72065762314093
 20
137.6805043909157
 30
0.0
 11
94.72065762314093
 21
150.0329659729654
 31
0.0
  0
LINE
  5
24F
330
B2
100
AcDbEntity
  8
DEFAULT
  6
Continuous
 62
   136
370
     0
100
AcDbLine
 10
81.72065757098687
 20
148.5329659599269
 30
0.0
 11
100.7206578913618
 21
148.5329659599269
 31
0.0
  0
TEXT
  5
250
330
B2
100
AcDbEntity
  8
DEFAULT
  6
Continuous
 62
   136
370
     0
100
AcDbText
 10
90.2661122766289
 20
149.2829659599269
 30
0.0
 40
3.0
  1
7
  7
seiso_ttf
 11
90.2661122766289
 21
152.2829659599269
 31
0.0
100
AcDbText
 73
     3
  0
ENDBLK
  5
2FA
330
B2
100
AcDbEntity
  8
0
370
     0
100
AcDbBlockEnd
  0
BLOCK
  5
2FB
330
B5
100
AcDbEntity
  8
0
370
     0
100
AcDbBlockBegin
  2
DMBLK474
 70
     0
 10
0.0
 20
0.0
 30
0.0
  3
DMBLK474
  1

  0
LINE
  5
3D2
330
B5
100
AcDbEntity
  8
DEFAULT
  6
Continuous
 62
   136
370
    -2
100
AcDbLine
 10
87.72065762314094
 20
122.5979214477742
 30
0.0
 11
87.72065762314094
 21
150.0329659599269
 31
0.0
  0
LINE
  5
3D3
330
B5
100
AcDbEntity
  8
DEFAULT
  6
Continuous
 62
   136
370
    -2
100
AcDbLine
 10
94.72065762314093
 20
127.5979214477742
 30
0.0
 11
94.72065762314093
 21
150.0329659599269
 31
0.0
  0
LINE
  5
3D4
330
B5
100
AcDbEntity
  8
DEFAULT
  6
Continuous
 62
   136
370
    -2
100
AcDbLine
 10
84.72065762314093
 20
148.5329659599269
 30
0.0
 11
81.72065762314094
 21
148.5329659599269
 31
0.0
  0
LINE
  5
3D5
330
B5
100
AcDbEntity
  8
DEFAULT
  6
Continuous
 62
   136
370
    -2
100
AcDbLine
 10
97.72065762314094
 20
148.5329659599269
 30
0.0
 11
100.7206576231409
 21
148.5329659599269
 31
0.0
  0
LINE
  5
3D6
330
B5
100
AcDbEntity
  8
DEFAULT
  6
Continuous
 62
   136
370
    -2
100
AcDbLine
 10
87.72065762314094
 20
148.5329659599269
 30
0.0
 11
94.72065762314093
 21
148.5329659599269
 31
0.0
  0
INSERT
  5
3D7
330
B5
100
AcDbEntity
  8
DEFAULT
  6
Continuous
 62
   136
370
    -2
100
AcDbBlockReference
  2
_SE_FILLED
 10
87.72065762314094
 20
148.5329659599269
 30
0.0
 41
3.0
 42
3.0
 43
3.0
  0
INSERT
  5
3D8
330
B5
100
AcDbEntity
  8
DEFAULT
  6
Continuous
 62
   136
370
    -2
100
AcDbBlockReference
  2
_SE_FILLED
 10
94.72065762314093
 20
148.5329659599269
 30
0.0
 41
3.0
 42
3.0
 43
3.0
 50
180.0
  0
MTEXT
  5
3D9
330
B5
100
AcDbEntity
  8
DEFAULT
  6
Continuous
 62
   136
370
     0
100
AcDbMText
 10
91.22065762314093
 20
151.5329659599269
 30
0.0
 40
3.0
 41
0.0
 71
     5
 72
     1
  1
\A1;\A1;7
  7
seiso_ttf
 73
     1
 44
1.0
1001
ACAD
1000
MTEXTBEGIN
1070
    73
1070
     1
1070
    44
1040
1.0
1070
    74
1070
     0
1000
MTEXTEND
  0
POINT
  5
3DA
330
B5
100
AcDbEntity
  8
DEFPOINTS
  6
Continuous
 62
     0
370
     0
100
AcDbPoint
 10
87.72065762314094
 20
122.5979214477742
 30
0.0
  0
POINT
  5
3DB
330
B5
100
AcDbEntity
  8
DEFPOINTS
  6
Continuous
 62
     0
370
     0
100
AcDbPoint
 10
94.72065762314093
 20
127.5979214477742
 30
0.0
  0
POINT
  5
3DC
330
B5
100
AcDbEntity
  8
DEFPOINTS
  6
Continuous
 62
     0
370
     0
100
AcDbPoint
 10
94.72065762314093
 20
148.5329659599269
 30
0.0
  0
ENDBLK
  5
254
330
B5
100
AcDbEntity
  8
DEFAULT
 62
     0
 48
0.0
370
     0
100
AcDbBlockEnd
  0
BLOCK
  5
255
330
B7
100
AcDbEntity
  8
DEFAULT
 62
     1
 48
0.0
370
     0
100
AcDbBlockBegin
  2
SE14
 70
     0
 10
0.0
 20
0.0
 30
0.0
  3
SE14
  1

  0
HATCH
  5
256
330
B7
100
AcDbEntity
  8
DEFAULT
  6
Continuous
 62
   136
100
AcDbHatch
 10
0.0
 20
0.0
 30
0.0
210
0.0
220
0.0
230
1.0
  2
SOLID
 70
     1
 71
     0
 91
        1
 92
        1
 93
        3
 72
     1
 10
97.72065764921798
 20
149.0329651447092
 11
94.72065762314093
 21
148.532965140363
 72
     1
 10
94.72065762314093
 20
148.532965140363
 11
97.72065764921798
 21
148.0329651360169
 72
     1
 10
97.72065764921798
 20
148.0329651360169
 11
97.72065764921798
 21
149.0329651447092
 97
        0
 75
     0
 76
     1
 98
        1
 10
0.0
 20
0.0
  0
HATCH
  5
257
330
B7
100
AcDbEntity
  8
DEFAULT
  6
Continuous
 62
   136
100
AcDbHatch
 10
0.0
 20
0.0
 30
0.0
210
0.0
220
0.0
230
1.0
  2
SOLID
 70
     1
 71
     0
 91
        1
 92
        1
 93
        3
 72
     1
 10
105.7206575970639
 20
149.0329651447092
 11
108.7206576231409
 21
148.532965140363
 72
     1
 10
108.7206576231409
 20
148.532965140363
 11
105.7206575970639
 21
148.0329651360169
 72
     1
 10
105.7206575970639
 20
148.0329651360169
 11
105.7206575970639
 21
149.0329651447092
 97
        0
 75
     0
 76
     1
 98
        1
 10
0.0
 20
0.0
  0
LINE
  5
258
330
B7
100
AcDbEntity
  8
DEFAULT
  6
Continuous
 62
   136
370
     0
100
AcDbLine
 10
94.72065762314093
 20
127.5979214477742
 30
0.0
 11
94.72065762314093
 21
150.0329651534016
 31
0.0
  0
LINE
  5
259
330
B7
100
AcDbEntity
  8
DEFAULT
  6
Continuous
 62
   136
370
     0
100
AcDbLine
 10
108.7206576231409
 20
127.5979214477742
 30
0.0
 11
108.7206576231409
 21
150.0329651534016
 31
0.0
  0
LINE
  5
25A
330
B7
100
AcDbEntity
  8
DEFAULT
  6
Continuous
 62
   136
370
     0
100
AcDbLine
 10
94.72065762314093
 20
148.532965140363
 30
0.0
 11
108.7206580552746
 21
148.532965140363
 31
0.0
  0
TEXT
  5
25B
330
B7
100
AcDbEntity
  8
DEFAULT
  6
Continuous
 62
   136
370
     0
100
AcDbText
 10
100.2206578392077
 20
149.282965140363
 30
0.0
 40
3.0
  1
14
  7
seiso_ttf
 11
100.2206578392077
 21
152.2829651403631
 31
0.0
100
AcDbText
 73
     3
  0
ENDBLK
  5
2FC
330
B7
100
AcDbEntity
  8
0
370
     0
100
AcDbBlockEnd
  0
BLOCK
  5
2FD
330
BA
100
AcDbEntity
  8
0
370
     0
100
AcDbBlockBegin
  2
DMBLK475
 70
     0
 10
0.0
 20
0.0
 30
0.0
  3
DMBLK475
  1

  0
LINE
  5
3DD
330
BA
100
AcDbEntity
  8
DEFAULT
  6
Continuous
 62
   136
370
    -2
100
AcDbLine
 10
94.72065762314093
 20
127.5979214477742
 30
0.0
 11
94.72065762314093
 21
150.0329651403631
 31
0.0
  0
LINE
  5
3DE
330
BA
100
AcDbEntity
  8
DEFAULT
  6
Continuous
 62
   136
370
    -2
100
AcDbLine
 10
108.7206576231409
 20
127.5979214477742
 30
0.0
 11
108.7206576231409
 21
150.0329651403631
 31
0.0
  0
LINE
  5
3DF
330
BA
100
AcDbEntity
  8
DEFAULT
  6
Continuous
 62
   136
370
    -2
100
AcDbLine
 10
97.72065762314094
 20
148.532965140363
 30
0.0
 11
105.7206576231409
 21
148.532965140363
 31
0.0
  0
INSERT
  5
3E0
330
BA
100
AcDbEntity
  8
DEFAULT
  6
Continuous
 62
   136
370
    -2
100
AcDbBlockReference
  2
_SE_FILLED
 10
94.72065762314093
 20
148.532965140363
 30
0.0
 41
3.0
 42
3.0
 43
3.0
 50
180.0
  0
INSERT
  5
3E1
330
BA
100
AcDbEntity
  8
DEFAULT
  6
Continuous
 62
   136
370
    -2
100
AcDbBlockReference
  2
_SE_FILLED
 10
108.7206576231409
 20
148.532965140363
 30
0.0
 41
3.0
 42
3.0
 43
3.0
  0
MTEXT
  5
3E2
330
BA
100
AcDbEntity
  8
DEFAULT
  6
Continuous
 62
   136
370
     0
100
AcDbMText
 10
101.7206578392078
 20
151.532965140363
 30
0.0
 40
3.0
 41
0.0
 71
     5
 72
     1
  1
\A1;\A1;14
  7
seiso_ttf
 73
     1
 44
1.0
1001
ACAD
1000
MTEXTBEGIN
1070
    73
1070
     1
1070
    44
1040
1.0
1070
    74
1070
     0
1000
MTEXTEND
  0
POINT
  5
3E3
330
BA
100
AcDbEntity
  8
DEFPOINTS
  6
Continuous
 62
     0
370
     0
100
AcDbPoint
 10
94.72065762314093
 20
127.5979214477742
 30
0.0
  0
POINT
  5
3E4
330
BA
100
AcDbEntity
  8
DEFPOINTS
  6
Continuous
 62
     0
370
     0
100
AcDbPoint
 10
108.7206576231409
 20
127.5979214477742
 30
0.0
  0
POINT
  5
3E5
330
BA
100
AcDbEntity
  8
DEFPOINTS
  6
Continuous
 62
     0
370
     0
100
AcDbPoint
 10
108.7206576231409
 20
148.532965140363
 30
0.0
  0
ENDBLK
  5
25F
330
BA
100
AcDbEntity
  8
DEFAULT
 62
     0
 48
0.0
370
     0
100
AcDbBlockEnd
  0
BLOCK
  5
260
330
BC
100
AcDbEntity
  8
DEFAULT
 62
     1
 48
0.0
370
     0
100
AcDbBlockBegin
  2
SE15
 70
     0
 10
0.0
 20
0.0
 30
0.0
  3
SE15
  1

  0
HATCH
  5
261
330
BC
100
AcDbEntity
  8
DEFAULT
  6
Continuous
 62
   136
100
AcDbHatch
 10
0.0
 20
0.0
 30
0.0
210
0.0
220
0.0
230
1.0
  2
SOLID
 70
     1
 71
     0
 91
        1
 92
        1
 93
        3
 72
     1
 10
111.7206576492179
 20
149.0329651447092
 11
108.7206576231409
 21
148.532965140363
 72
     1
 10
108.7206576231409
 20
148.532965140363
 11
111.7206576492179
 21
148.0329651360169
 72
     1
 10
111.7206576492179
 20
148.0329651360169
 11
111.7206576492179
 21
149.0329651447092
 97
        0
 75
     0
 76
     1
 98
        1
 10
0.0
 20
0.0
  0
HATCH
  5
262
330
BC
100
AcDbEntity
  8
DEFAULT
  6
Continuous
 62
   136
100
AcDbHatch
 10
0.0
 20
0.0
 30
0.0
210
0.0
220
0.0
230
1.0
  2
SOLID
 70
     1
 71
     0
 91
        1
 92
        1
 93
        3
 72
     1
 10
119.7206575970639
 20
149.0329651447092
 11
122.7206576231409
 21
148.532965140363
 72
     1
 10
122.7206576231409
 20
148.532965140363
 11
119.7206575970639
 21
148.0329651360169
 72
     1
 10
119.7206575970639
 20
148.0329651360169
 11
119.7206575970639
 21
149.0329651447092
 97
        0
 75
     0
 76
     1
 98
        1
 10
0.0
 20
0.0
  0
LINE
  5
263
330
BC
100
AcDbEntity
  8
DEFAULT
  6
Continuous
 62
   136
370
     0
100
AcDbLine
 10
108.7206576231409
 20
127.5979214477742
 30
0.0
 11
108.7206576231409
 21
150.0329651534016
 31
0.0
  0
LINE
  5
264
330
BC
100
AcDbEntity
  8
DEFAULT
  6
Continuous
 62
   136
370
     0
100
AcDbLine
 10
122.7206576231409
 20
140.5979214477742
 30
0.0
 11
122.7206576231409
 21
150.0329651534016
 31
0.0
  0
LINE
  5
265
330
BC
100
AcDbEntity
  8
DEFAULT
  6
Continuous
 62
   136
370
     0
100
AcDbLine
 10
108.7206576231409
 20
148.532965140363
 30
0.0
 11
122.7206580552746
 21
148.532965140363
 31
0.0
  0
TEXT
  5
266
330
BC
100
AcDbEntity
  8
DEFAULT
  6
Continuous
 62
   136
370
     0
100
AcDbText
 10
114.2206578392077
 20
149.282965140363
 30
0.0
 40
3.0
  1
14
  7
seiso_ttf
 11
114.2206578392077
 21
152.2829651403631
 31
0.0
100
AcDbText
 73
     3
  0
ENDBLK
  5
2FE
330
BC
100
AcDbEntity
  8
0
370
     0
100
AcDbBlockEnd
  0
BLOCK
  5
2FF
330
BF
100
AcDbEntity
  8
0
370
     0
100
AcDbBlockBegin
  2
DMBLK476
 70
     0
 10
0.0
 20
0.0
 30
0.0
  3
DMBLK476
  1

  0
LINE
  5
3E6
330
BF
100
AcDbEntity
  8
DEFAULT
  6
Continuous
 62
   136
370
    -2
100
AcDbLine
 10
108.7206576231409
 20
127.5979214477742
 30
0.0
 11
108.7206576231409
 21
150.0329651403631
 31
0.0
  0
LINE
  5
3E7
330
BF
100
AcDbEntity
  8
DEFAULT
  6
Continuous
 62
   136
370
    -2
100
AcDbLine
 10
122.7206576231409
 20
140.5979214477742
 30
0.0
 11
122.7206576231409
 21
150.0329651403631
 31
0.0
  0
LINE
  5
3E8
330
BF
100
AcDbEntity
  8
DEFAULT
  6
Continuous
 62
   136
370
    -2
100
AcDbLine
 10
111.7206576231409
 20
148.532965140363
 30
0.0
 11
119.7206576231409
 21
148.532965140363
 31
0.0
  0
INSERT
  5
3E9
330
BF
100
AcDbEntity
  8
DEFAULT
  6
Continuous
 62
   136
370
    -2
100
AcDbBlockReference
  2
_SE_FILLED
 10
108.7206576231409
 20
148.532965140363
 30
0.0
 41
3.0
 42
3.0
 43
3.0
 50
180.0
  0
INSERT
  5
3EA
330
BF
100
AcDbEntity
  8
DEFAULT
  6
Continuous
 62
   136
370
    -2
100
AcDbBlockReference
  2
_SE_FILLED
 10
122.7206576231409
 20
148.532965140363
 30
0.0
 41
3.0
 42
3.0
 43
3.0
  0
MTEXT
  5
3EB
330
BF
100
AcDbEntity
  8
DEFAULT
  6
Continuous
 62
   136
370
     0
100
AcDbMText
 10
115.7206578392077
 20
151.532965140363
 30
0.0
 40
3.0
 41
0.0
 71
     5
 72
     1
  1
\A1;\A1;14
  7
seiso_ttf
 73
     1
 44
1.0
1001
ACAD
1000
MTEXTBEGIN
1070
    73
1070
     1
1070
    44
1040
1.0
1070
    74
1070
     0
1000
MTEXTEND
  0
POINT
  5
3EC
330
BF
100
AcDbEntity
  8
DEFPOINTS
  6
Continuous
 62
     0
370
     0
100
AcDbPoint
 10
108.7206576231409
 20
127.5979214477742
 30
0.0
  0
POINT
  5
3ED
330
BF
100
AcDbEntity
  8
DEFPOINTS
  6
Continuous
 62
     0
370
     0
100
AcDbPoint
 10
122.7206576231409
 20
140.5979214477742
 30
0.0
  0
POINT
  5
3EE
330
BF
100
AcDbEntity
  8
DEFPOINTS
  6
Continuous
 62
     0
370
     0
100
AcDbPoint
 10
122.7206576231409
 20
148.532965140363
 30
0.0
  0
ENDBLK
  5
26A
330
BF
100
AcDbEntity
  8
DEFAULT
 62
     0
 48
0.0
370
     0
100
AcDbBlockEnd
  0
BLOCK
  5
26B
330
C1
100
AcDbEntity
  8
DEFAULT
 62
     1
 48
0.0
370
     0
100
AcDbBlockBegin
  2
SE16
 70
     0
 10
0.0
 20
0.0
 30
0.0
  3
SE16
  1

  0
HATCH
  5
26C
330
C1
100
AcDbEntity
  8
DEFAULT
  6
Continuous
 62
   136
100
AcDbHatch
 10
0.0
 20
0.0
 30
0.0
210
0.0
220
0.0
230
1.0
  2
SOLID
 70
     1
 71
     0
 91
        1
 92
        1
 93
        3
 72
     1
 10
125.720657649218
 20
149.0329658078109
 11
122.7206576231409
 21
148.5329658034647
 72
     1
 10
122.7206576231409
 20
148.5329658034647
 11
125.720657649218
 21
148.0329657991186
 72
     1
 10
125.720657649218
 20
148.0329657991186
 11
125.720657649218
 21
149.0329658078109
 97
        0
 75
     0
 76
     1
 98
        1
 10
0.0
 20
0.0
  0
HATCH
  5
26D
330
C1
100
AcDbEntity
  8
DEFAULT
  6
Continuous
 62
   136
100
AcDbHatch
 10
0.0
 20
0.0
 30
0.0
210
0.0
220
0.0
230
1.0
  2
SOLID
 70
     1
 71
     0
 91
        1
 92
        1
 93
        3
 72
     1
 10
140.7206575970639
 20
149.0329658078109
 11
143.7206576231409
 21
148.5329658034647
 72
     1
 10
143.7206576231409
 20
148.5329658034647
 11
140.7206575970639
 21
148.0329657991186
 72
     1
 10
140.7206575970639
 20
148.0329657991186
 11
140.7206575970639
 21
149.0329658078109
 97
        0
 75
     0
 76
     1
 98
        1
 10
0.0
 20
0.0
  0
LINE
  5
26E
330
C1
100
AcDbEntity
  8
DEFAULT
  6
Continuous
 62
   136
370
     0
100
AcDbLine
 10
122.7206576231409
 20
140.5979214477742
 30
0.0
 11
122.7206576231409
 21
150.0329658165032
 31
0.0
  0
LINE
  5
26F
330
C1
100
AcDbEntity
  8
DEFAULT
  6
Continuous
 62
   136
370
     0
100
AcDbLine
 10
143.7206576231409
 20
132.0007668244895
 30
0.0
 11
143.7206576231409
 21
150.0329658165032
 31
0.0
  0
LINE
  5
270
330
C1
100
AcDbEntity
  8
DEFAULT
  6
Continuous
 62
   136
370
     0
100
AcDbLine
 10
122.7206576231409
 20
148.5329658034647
 30
0.0
 11
143.7206573400189
 21
148.5329658034647
 31
0.0
  0
TEXT
  5
271
330
C1
100
AcDbEntity
  8
DEFAULT
  6
Continuous
 62
   136
370
     0
100
AcDbText
 10
131.686566572489
 20
149.2829658034647
 30
0.0
 40
3.0
  1
21
  7
seiso_ttf
 11
131.686566572489
 21
152.2829658034647
 31
0.0
100
AcDbText
 73
     3
  0
ENDBLK
  5
300
330
C1
100
AcDbEntity
  8
0
370
     0
100
AcDbBlockEnd
  0
BLOCK
  5
301
330
C4
100
AcDbEntity
  8
0
370
     0
100
AcDbBlockBegin
  2
DMBLK477
 70
     0
 10
0.0
 20
0.0
 30
0.0
  3
DMBLK477
  1

  0
LINE
  5
3EF
330
C4
100
AcDbEntity
  8
DEFAULT
  6
Continuous
 62
   136
370
    -2
100
AcDbLine
 10
122.7206576231409
 20
140.5979214477742
 30
0.0
 11
122.7206576231409
 21
150.0329658034647
 31
0.0
  0
LINE
  5
3F0
330
C4
100
AcDbEntity
  8
DEFAULT
  6
Continuous
 62
   136
370
    -2
100
AcDbLine
 10
143.7206576231409
 20
132.0007668244895
 30
0.0
 11
143.7206576231409
 21
150.0329658034647
 31
0.0
  0
LINE
  5
3F1
330
C4
100
AcDbEntity
  8
DEFAULT
  6
Continuous
 62
   136
370
    -2
100
AcDbLine
 10
125.7206576231409
 20
148.5329658034647
 30
0.0
 11
140.7206576231409
 21
148.5329658034647
 31
0.0
  0
INSERT
  5
3F2
330
C4
100
AcDbEntity
  8
DEFAULT
  6
Continuous
 62
   136
370
    -2
100
AcDbBlockReference
  2
_SE_FILLED
 10
122.7206576231409
 20
148.5329658034647
 30
0.0
 41
3.0
 42
3.0
 43
3.0
 50
180.0
  0
INSERT
  5
3F3
330
C4
100
AcDbEntity
  8
DEFAULT
  6
Continuous
 62
   136
370
    -2
100
AcDbBlockReference
  2
_SE_FILLED
 10
143.7206576231409
 20
148.5329658034647
 30
0.0
 41
3.0
 42
3.0
 43
3.0
  0
MTEXT
  5
3F4
330
C4
100
AcDbEntity
  8
DEFAULT
  6
Continuous
 62
   136
370
     0
100
AcDbMText
 10
133.2206574815799
 20
151.5329658034647
 30
0.0
 40
3.0
 41
0.0
 71
     5
 72
     1
  1
\A1;\A1;21
  7
seiso_ttf
 73
     1
 44
1.0
1001
ACAD
1000
MTEXTBEGIN
1070
    73
1070
     1
1070
    44
1040
1.0
1070
    74
1070
     0
1000
MTEXTEND
  0
POINT
  5
3F5
330
C4
100
AcDbEntity
  8
DEFPOINTS
  6
Continuous
 62
     0
370
     0
100
AcDbPoint
 10
122.7206576231409
 20
140.5979214477742
 30
0.0
  0
POINT
  5
3F6
330
C4
100
AcDbEntity
  8
DEFPOINTS
  6
Continuous
 62
     0
370
     0
100
AcDbPoint
 10
143.7206576231409
 20
132.0007668244895
 30
0.0
  0
POINT
  5
3F7
330
C4
100
AcDbEntity
  8
DEFPOINTS
  6
Continuous
 62
     0
370
     0
100
AcDbPoint
 10
143.7206576231409
 20
148.5329658034647
 30
0.0
  0
ENDBLK
  5
275
330
C4
100
AcDbEntity
  8
DEFAULT
 62
     0
 48
0.0
370
     0
100
AcDbBlockEnd
  0
BLOCK
  5
276
330
C6
100
AcDbEntity
  8
DEFAULT
 62
     1
 48
0.0
370
     0
100
AcDbBlockBegin
  2
SE17
 70
     0
 10
0.0
 20
0.0
 30
0.0
  3
SE17
  1

  0
HATCH
  5
277
330
C6
100
AcDbEntity
  8
DEFAULT
  6
Continuous
 62
   136
100
AcDbHatch
 10
0.0
 20
0.0
 30
0.0
210
0.0
220
0.0
230
1.0
  2
SOLID
 70
     1
 71
     0
 91
        1
 92
        1
 93
        3
 72
     1
 10
90.72065764921797
 20
156.7096324103032
 11
87.72065762314094
 21
156.2096324059571
 72
     1
 10
87.72065762314094
 20
156.2096324059571
 11
90.72065764921797
 21
155.7096324016109
 72
     1
 10
90.72065764921797
 20
155.7096324016109
 11
90.72065764921797
 21
156.7096324103032
 97
        0
 75
     0
 76
     1
 98
        1
 10
0.0
 20
0.0
  0
HATCH
  5
278
330
C6
100
AcDbEntity
  8
DEFAULT
  6
Continuous
 62
   136
100
AcDbHatch
 10
0.0
 20
0.0
 30
0.0
210
0.0
220
0.0
230
1.0
  2
SOLID
 70
     1
 71
     0
 91
        1
 92
        1
 93
        3
 72
     1
 10
140.7206575970639
 20
156.7096324103032
 11
143.7206576231409
 21
156.2096324059571
 72
     1
 10
143.7206576231409
 20
156.2096324059571
 11
140.7206575970639
 21
155.7096324016109
 72
     1
 10
140.7206575970639
 20
155.7096324016109
 11
140.7206575970639
 21
156.7096324103032
 97
        0
 75
     0
 76
     1
 98
        1
 10
0.0
 20
0.0
  0
LINE
  5
279
330
C6
100
AcDbEntity
  8
DEFAULT
  6
Continuous
 62
   136
370
     0
100
AcDbLine
 10
87.72065762314094
 20
140.5979214477742
 30
0.0
 11
87.72065762314094
 21
157.7096324189956
 31
0.0
  0
LINE
  5
27A
330
C6
100
AcDbEntity
  8
DEFAULT
  6
Continuous
 62
   136
370
     0
100
AcDbLine
 10
143.7206576231409
 20
132.1336559911966
 30
0.0
 11
143.7206576231409
 21
157.7096324189956
 31
0.0
  0
LINE
  5
27B
330
C6
100
AcDbEntity
  8
DEFAULT
  6
Continuous
 62
   136
370
     0
100
AcDbLine
 10
87.72065762314094
 20
156.2096324059571
 30
0.0
 11
143.7206593516756
 21
156.2096324059571
 31
0.0
  0
TEXT
  5
27C
330
C6
100
AcDbEntity
  8
DEFAULT
  6
Continuous
 62
   136
370
     0
100
AcDbText
 10
113.947931214681
 20
156.9596324059571
 30
0.0
 40
3.0
  1
56
  7
seiso_ttf
 11
113.947931214681
 21
159.9596324059571
 31
0.0
100
AcDbText
 73
     3
  0
ENDBLK
  5
302
330
C6
100
AcDbEntity
  8
0
370
     0
100
AcDbBlockEnd
  0
BLOCK
  5
303
330
C9
100
AcDbEntity
  8
0
370
     0
100
AcDbBlockBegin
  2
DMBLK478
 70
     0
 10
0.0
 20
0.0
 30
0.0
  3
DMBLK478
  1

  0
LINE
  5
3F8
330
C9
100
AcDbEntity
  8
DEFAULT
  6
Continuous
 62
   136
370
    -2
100
AcDbLine
 10
87.72065762314094
 20
140.5979214477742
 30
0.0
 11
87.72065762314094
 21
157.7096324059571
 31
0.0
  0
LINE
  5
3F9
330
C9
100
AcDbEntity
  8
DEFAULT
  6
Continuous
 62
   136
370
    -2
100
AcDbLine
 10
143.7206576231409
 20
132.0007668244895
 30
0.0
 11
143.7206576231409
 21
157.7096324059571
 31
0.0
  0
LINE
  5
3FA
330
C9
100
AcDbEntity
  8
DEFAULT
  6
Continuous
 62
   136
370
    -2
100
AcDbLine
 10
90.72065762314094
 20
156.2096324059571
 30
0.0
 11
140.7206576231409
 21
156.2096324059571
 31
0.0
  0
INSERT
  5
3FB
330
C9
100
AcDbEntity
  8
DEFAULT
  6
Continuous
 62
   136
370
    -2
100
AcDbBlockReference
  2
_SE_FILLED
 10
87.72065762314094
 20
156.2096324059571
 30
0.0
 41
3.0
 42
3.0
 43
3.0
 50
180.0
  0
INSERT
  5
3FC
330
C9
100
AcDbEntity
  8
DEFAULT
  6
Continuous
 62
   136
370
    -2
100
AcDbBlockReference
  2
_SE_FILLED
 10
143.7206576231409
 20
156.2096324059571
 30
0.0
 41
3.0
 42
3.0
 43
3.0
  0
MTEXT
  5
3FD
330
C9
100
AcDbEntity
  8
DEFAULT
  6
Continuous
 62
   136
370
     0
100
AcDbMText
 10
115.7206584874083
 20
159.2096324059571
 30
0.0
 40
3.0
 41
0.0
 71
     5
 72
     1
  1
\A1;\A1;56
  7
seiso_ttf
 73
     1
 44
1.0
1001
ACAD
1000
MTEXTBEGIN
1070
    73
1070
     1
1070
    44
1040
1.0
1070
    74
1070
     0
1000
MTEXTEND
  0
POINT
  5
3FE
330
C9
100
AcDbEntity
  8
DEFPOINTS
  6
Continuous
 62
     0
370
     0
100
AcDbPoint
 10
87.72065762314094
 20
140.5979214477742
 30
0.0
  0
POINT
  5
3FF
330
C9
100
AcDbEntity
  8
DEFPOINTS
  6
Continuous
 62
     0
370
     0
100
AcDbPoint
 10
143.7206576231409
 20
132.0007668244895
 30
0.0
  0
POINT
  5
400
330
C9
100
AcDbEntity
  8
DEFPOINTS
  6
Continuous
 62
     0
370
     0
100
AcDbPoint
 10
143.7206576231409
 20
156.2096324059571
 30
0.0
  0
ENDBLK
  5
280
330
C9
100
AcDbEntity
  8
DEFAULT
 62
     0
 48
0.0
370
     0
100
AcDbBlockEnd
  0
BLOCK
  5
281
330
CB
100
AcDbEntity
  8
DEFAULT
 62
     1
 48
0.0
370
     0
100
AcDbBlockBegin
  2
SE18
 70
     0
 10
0.0
 20
0.0
 30
0.0
  3
SE18
  1

  0
HATCH
  5
282
330
CB
100
AcDbEntity
  8
DEFAULT
  6
Continuous
 62
   136
100
AcDbHatch
 10
0.0
 20
0.0
 30
0.0
210
0.0
220
0.0
230
1.0
  2
SOLID
 70
     1
 71
     0
 91
        1
 92
        1
 93
        3
 72
     1
 10
83.83344439983757
 20
137.5979214216972
 11
84.33344440418375
 21
140.5979214477742
 72
     1
 10
84.33344440418375
 20
140.5979214477742
 11
84.83344440852993
 21
137.5979214216972
 72
     1
 10
84.83344440852993
 20
137.5979214216972
 11
83.83344439983757
 21
137.5979214216972
 97
        0
 75
     0
 76
     1
 98
        1
 10
0.0
 20
0.0
  0
HATCH
  5
283
330
CB
100
AcDbEntity
  8
DEFAULT
  6
Continuous
 62
   136
100
AcDbHatch
 10
0.0
 20
0.0
 30
0.0
210
0.0
220
0.0
230
1.0
  2
SOLID
 70
     1
 71
     0
 91
        1
 92
        1
 93
        3
 72
     1
 10
83.83344439983757
 20
117.5979214738513
 11
84.33344440418375
 21
114.5979214477742
 72
     1
 10
84.33344440418375
 20
114.5979214477742
 11
84.83344440852993
 21
117.5979214738513
 72
     1
 10
84.83344440852993
 20
117.5979214738513
 11
83.83344439983757
 21
117.5979214738513
 97
        0
 75
     0
 76
     1
 98
        1
 10
0.0
 20
0.0
  0
LINE
  5
284
330
CB
100
AcDbEntity
  8
DEFAULT
  6
Continuous
 62
   136
370
     0
100
AcDbLine
 10
87.72065762314094
 20
140.5979214477742
 30
0.0
 11
82.83344439114523
 21
140.5979214477742
 31
0.0
  0
LINE
  5
285
330
CB
100
AcDbEntity
  8
DEFAULT
  6
Continuous
 62
   136
370
     0
100
AcDbLine
 10
87.72065762314094
 20
114.5979214477742
 30
0.0
 11
82.83344439114523
 21
114.5979214477742
 31
0.0
  0
LINE
  5
286
330
CB
100
AcDbEntity
  8
DEFAULT
  6
Continuous
 62
   136
370
     0
100
AcDbLine
 10
84.33344440418375
 20
140.5979214477742
 30
0.0
 11
84.33344440418375
 21
114.5979209113324
 31
0.0
  0
TEXT
  5
287
330
CB
100
AcDbEntity
  8
DEFAULT
  6
Continuous
 62
   136
370
     0
100
AcDbText
 10
83.58344440418376
 20
125.7570120886443
 30
0.0
 40
3.0
  1
26
 50
90.0
  7
seiso_ttf
 11
80.58344440418375
 21
125.7570120886443
 31
0.0
100
AcDbText
 73
     3
  0
ENDBLK
  5
304
330
CB
100
AcDbEntity
  8
0
370
     0
100
AcDbBlockEnd
  0
BLOCK
  5
305
330
CE
100
AcDbEntity
  8
0
370
     0
100
AcDbBlockBegin
  2
DMBLK479
 70
     0
 10
0.0
 20
0.0
 30
0.0
  3
DMBLK479
  1

  0
LINE
  5
401
330
CE
100
AcDbEntity
  8
DEFAULT
  6
Continuous
 62
   136
370
    -2
100
AcDbLine
 10
87.72065762314094
 20
140.5979214477742
 30
0.0
 11
82.83344440418376
 21
140.5979214477742
 31
0.0
  0
LINE
  5
402
330
CE
100
AcDbEntity
  8
DEFAULT
  6
Continuous
 62
   136
370
    -2
100
AcDbLine
 10
87.72065762314094
 20
114.5979214477742
 30
0.0
 11
82.83344440418376
 21
114.5979214477742
 31
0.0
  0
LINE
  5
403
330
CE
100
AcDbEntity
  8
DEFAULT
  6
Continuous
 62
   136
370
    -2
100
AcDbLine
 10
84.33344440418377
 20
137.5979214477742
 30
0.0
 11
84.33344440418377
 21
117.5979214477742
 31
0.0
  0
INSERT
  5
404
330
CE
100
AcDbEntity
  8
DEFAULT
  6
Continuous
 62
   136
370
    -2
100
AcDbBlockReference
  2
_SE_FILLED
 10
84.33344440418377
 20
140.5979214477742
 30
0.0
 41
3.0
 42
3.0
 43
3.0
 50
90.0
  0
INSERT
  5
405
330
CE
100
AcDbEntity
  8
DEFAULT
  6
Continuous
 62
   136
370
    -2
100
AcDbBlockReference
  2
_SE_FILLED
 10
84.33344440418377
 20
114.5979214477742
 30
0.0
 41
3.0
 42
3.0
 43
3.0
 50
270.0
  0
MTEXT
  5
406
330
CE
100
AcDbEntity
  8
DEFAULT
  6
Continuous
 62
   136
370
     0
100
AcDbMText
 10
81.33344440418374
 20
127.5979211795533
 30
0.0
 40
3.0
 41
0.0
 71
     5
 72
     1
  1
\A1;\A1;26
  7
seiso_ttf
 11
0.0000000000000001
 21
1.0
 31
0.0
 73
     1
 44
1.0
1001
ACAD
1000
MTEXTBEGIN
1070
    73
1070
     1
1070
    44
1040
1.0
1070
    74
1070
     0
1000
MTEXTEND
  0
POINT
  5
407
330
CE
100
AcDbEntity
  8
DEFPOINTS
  6
Continuous
 62
     0
370
     0
100
AcDbPoint
 10
87.72065762314094
 20
140.5979214477742
 30
0.0
  0
POINT
  5
408
330
CE
100
AcDbEntity
  8
DEFPOINTS
  6
Continuous
 62
     0
370
     0
100
AcDbPoint
 10
87.72065762314094
 20
114.5979214477742
 30
0.0
  0
POINT
  5
409
330
CE
100
AcDbEntity
  8
DEFPOINTS
  6
Continuous
 62
     0
370
     0
100
AcDbPoint
 10
84.33344440418377
 20
114.5979214477742
 30
0.0
  0
ENDBLK
  5
28B
330
CE
100
AcDbEntity
  8
DEFAULT
 62
     0
 48
0.0
370
     0
100
AcDbBlockEnd
  0
BLOCK
  5
28C
330
D0
100
AcDbEntity
  8
DEFAULT
 62
     1
 48
0.0
370
     0
100
AcDbBlockBegin
  2
SE19
 70
     0
 10
0.0
 20
0.0
 30
0.0
  3
SE19
  1

  0
HATCH
  5
28D
330
D0
100
AcDbEntity
  8
DEFAULT
  6
Continuous
 62
   136
100
AcDbHatch
 10
0.0
 20
0.0
 30
0.0
210
0.0
220
0.0
230
1.0
  2
SOLID
 70
     1
 71
     0
 91
        1
 92
        1
 93
        3
 72
     1
 10
76.53127704009803
 20
191.8834939930828
 11
77.03127704444421
 21
188.8834939670057
 72
     1
 10
77.03127704444421
 20
188.8834939670057
 11
77.53127704879038
 21
191.8834939930828
 72
     1
 10
77.53127704879038
 20
191.8834939930828
 11
76.53127704009803
 21
191.8834939930828
 97
        0
 75
     0
 76
     1
 98
        1
 10
0.0
 20
0.0
  0
HATCH
  5
28E
330
D0
100
AcDbEntity
  8
DEFAULT
  6
Continuous
 62
   136
100
AcDbHatch
 10
0.0
 20
0.0
 30
0.0
210
0.0
220
0.0
230
1.0
  2
SOLID
 70
     1
 71
     0
 91
        1
 92
        1
 93
        3
 72
     1
 10
76.53127704009803
 20
204.3834939409288
 11
77.03127704444421
 21
207.3834939670058
 72
     1
 10
77.03127704444421
 20
207.3834939670058
 11
77.53127704879038
 21
204.3834939409288
 72
     1
 10
77.53127704879038
 20
204.3834939409288
 11
76.53127704009803
 21
204.3834939409288
 97
        0
 75
     0
 76
     1
 98
        1
 10
0.0
 20
0.0
  0
LINE
  5
28F
330
D0
100
AcDbEntity
  8
DEFAULT
  6
Continuous
 62
   136
370
     0
100
AcDbLine
 10
87.72065762314094
 20
188.8834939670057
 30
0.0
 11
75.53127703140569
 21
188.8834939670057
 31
0.0
  0
LINE
  5
290
330
D0
100
AcDbEntity
  8
DEFAULT
  6
Continuous
 62
   136
370
     0
100
AcDbLine
 10
87.72065762314094
 20
207.3834939670058
 30
0.0
 11
75.53127703140569
 21
207.3834939670058
 31
0.0
  0
LINE
  5
291
330
D0
100
AcDbEntity
  8
DEFAULT
  6
Continuous
 62
   136
370
     0
100
AcDbLine
 10
77.03127704444421
 20
188.8834939670057
 30
0.0
 11
77.03127704444421
 21
207.3834942054243
 31
0.0
  0
TEXT
  5
292
330
D0
100
AcDbEntity
  8
DEFAULT
  6
Continuous
 62
   136
370
     0
100
AcDbText
 10
76.28127704444421
 20
196.5653122680332
 30
0.0
 40
3.0
  1
18
 50
90.0
  7
seiso_ttf
 11
73.28127704444421
 21
196.5653122680332
 31
0.0
100
AcDbText
 73
     3
  0
ENDBLK
  5
306
330
D0
100
AcDbEntity
  8
0
370
     0
100
AcDbBlockEnd
  0
BLOCK
  5
307
330
D3
100
AcDbEntity
  8
0
370
     0
100
AcDbBlockBegin
  2
DMBLK480
 70
     0
 10
0.0
 20
0.0
 30
0.0
  3
DMBLK480
  1

  0
LINE
  5
40A
330
D3
100
AcDbEntity
  8
DEFAULT
  6
Continuous
 62
   136
370
    -2
100
AcDbLine
 10
87.72065762314094
 20
188.8834939670057
 30
0.0
 11
75.53127704444424
 21
188.8834939670057
 31
0.0
  0
LINE
  5
40B
330
D3
100
AcDbEntity
  8
DEFAULT
  6
Continuous
 62
   136
370
    -2
100
AcDbLine
 10
87.72065762314094
 20
207.3834939670058
 30
0.0
 11
75.53127704444424
 21
207.3834939670058
 31
0.0
  0
LINE
  5
40C
330
D3
100
AcDbEntity
  8
DEFAULT
  6
Continuous
 62
   136
370
    -2
100
AcDbLine
 10
77.03127704444423
 20
191.8834939670057
 30
0.0
 11
77.03127704444423
 21
204.3834939670058
 31
0.0
  0
INSERT
  5
40D
330
D3
100
AcDbEntity
  8
DEFAULT
  6
Continuous
 62
   136
370
    -2
100
AcDbBlockReference
  2
_SE_FILLED
 10
77.03127704444423
 20
188.8834939670057
 30
0.0
 41
3.0
 42
3.0
 43
3.0
 50
270.0
  0
INSERT
  5
40E
330
D3
100
AcDbEntity
  8
DEFAULT
  6
Continuous
 62
   136
370
    -2
100
AcDbBlockReference
  2
_SE_FILLED
 10
77.03127704444423
 20
207.3834939670058
 30
0.0
 41
3.0
 42
3.0
 43
3.0
 50
90.0
  0
MTEXT
  5
40F
330
D3
100
AcDbEntity
  8
DEFAULT
  6
Continuous
 62
   136
370
     0
100
AcDbMText
 10
74.03127704444421
 20
198.133494086215
 30
0.0
 40
3.0
 41
0.0
 71
     5
 72
     1
  1
\A1;\A1;19
  7
seiso_ttf
 11
0.0000000000000001
 21
1.0
 31
0.0
 73
     1
 44
1.0
1001
ACAD
1000
MTEXTBEGIN
1070
    73
1070
     1
1070
    44
1040
1.0
1070
    74
1070
     0
1000
MTEXTEND
  0
POINT
  5
410
330
D3
100
AcDbEntity
  8
DEFPOINTS
  6
Continuous
 62
     0
370
     0
100
AcDbPoint
 10
87.72065762314094
 20
188.8834939670057
 30
0.0
  0
POINT
  5
411
330
D3
100
AcDbEntity
  8
DEFPOINTS
  6
Continuous
 62
     0
370
     0
100
AcDbPoint
 10
87.72065762314094
 20
207.3834939670058
 30
0.0
  0
POINT
  5
412
330
D3
100
AcDbEntity
  8
DEFPOINTS
  6
Continuous
 62
     0
370
     0
100
AcDbPoint
 10
77.03127704444423
 20
207.3834939670058
 30
0.0
  0
ENDBLK
  5
296
330
D3
100
AcDbEntity
  8
DEFAULT
 62
     0
 48
0.0
370
     0
100
AcDbBlockEnd
  0
ENDSEC
  0
SECTION
  2
ENTITIES
  0
INSERT
  5
7C
330
A
100
AcDbEntity
  8
0
 62
     0
 48
0.0
370
     0
100
AcDbBlockReference
  2
SE0
 10
0.0
 20
0.0
 30
0.0
  0
INSERT
  5
84
330
A
100
AcDbEntity
  8
0
 62
     0
 48
0.0
370
     0
100
AcDbBlockReference
  2
SE2
 10
0.0
 20
0.0
 30
0.0
  0
INSERT
  5
8B
330
A
100
AcDbEntity
  8
0
 62
     0
 48
0.0
370
     0
100
AcDbBlockReference
  2
SE4
 10
0.0
 20
0.0
 30
0.0
  0
LINE
  5
4B6
330
A
100
AcDbEntity
  8
DV2_0
  6
Continuous
 62
     7
370
     0
100
AcDbLine
 10
-4.069705149024926
 20
4.124999999999985
 30
0.0
 11
-6.0
 21
4.124999999999985
 31
0.0
  0
ARC
  5
4B7
330
A
100
AcDbEntity
  8
0
  6
Continuous
 62
     7
370
     0
100
AcDbCircle
 10
0.0000000000000142
 20
10.125
 30
0.0
 40
7.25
100
AcDbArc
 50
235.8515756550531
 51
304.1484243449469
  0
ARC
  5
4B8
330
A
100
AcDbEntity
  8
0
  6
Continuous
 62
     7
370
     0
100
AcDbCircle
 10
0.0000000000000142
 20
10.125
 30
0.0
 40
7.25
100
AcDbArc
 50
55.85157565505312
 51
124.1484243449469
  0
LINE
  5
4B9
330
A
100
AcDbEntity
  8
0
  6
Continuous
 62
     7
370
     0
100
AcDbLine
 10
-4.069705149024926
 20
16.125
 30
0.0
 11
-6.0
 21
16.125
 31
0.0
  0
ARC
  5
4BA
330
A
100
AcDbEntity
  8
0
  6
Continuous
 62
     7
370
     0
100
AcDbCircle
 10
14.0
 20
10.125
 30
0.0
 40
7.25
100
AcDbArc
 50
55.85157565505312
 51
124.1484243449469
  0
LINE
  5
4BB
330
A
100
AcDbEntity
  8
0
  6
Continuous
 62
     7
370
     0
100
AcDbLine
 10
4.06970514902494
 20
16.125
 30
0.0
 11
9.930294850975073
 21
16.125
 31
0.0
  0
CIRCLE
  5
4BC
330
A
100
AcDbEntity
  8
0
  6
HIDDEN2
 62
     7
370
     0
100
AcDbCircle
 10
21.00000000000001
 20
20.25
 30
0.0
 40
2.0
  0
CIRCLE
  5
4BD
330
A
100
AcDbEntity
  8
0
  6
HIDDEN2
 62
     7
370
     0
100
AcDbCircle
 10
14.0
 20
10.125
 30
0.0
 40
5.5
  0
ARC
  5
4BE
330
A
100
AcDbEntity
  8
0
  6
Continuous
 62
     7
370
     0
100
AcDbCircle
 10
14.0
 20
10.125
 30
0.0
 40
7.25
100
AcDbArc
 50
235.8515756550531
 51
304.1484243449469
  0
CIRCLE
  5
4BF
330
A
100
AcDbEntity
  8
0
  6
Continuous
 62
     7
370
     0
100
AcDbCircle
 10
0.0000000000000142
 20
10.125
 30
0.0
 40
3.1
  0
CIRCLE
  5
4C0
330
A
100
AcDbEntity
  8
0
  6
HIDDEN2
 62
     7
370
     0
100
AcDbCircle
 10
0.0000000000000142
 20
10.125
 30
0.0
 40
5.5
  0
CIRCLE
  5
4C1
330
A
100
AcDbEntity
  8
0
  6
Continuous
 62
     7
370
     0
100
AcDbCircle
 10
14.0
 20
10.125
 30
0.0
 40
3.1
  0
ARC
  5
4C2
330
A
100
AcDbEntity
  8
0
  6
Continuous
 62
     7
370
     0
100
AcDbCircle
 10
43.28971434076983
 20
-9.156571032246944
 30
0.0
 40
16.78288850454134
100
AcDbArc
 50
73.31252822083981
 51
108.3719778931204
  0
LINE
  5
4C3
330
A
100
AcDbEntity
  8
0
  6
HIDDEN2
 62
     7
370
     0
100
AcDbLine
 10
28.00000000000002
 20
2.874999999999985
 30
0.0
 11
-6.999999999999985
 21
2.874999999999985
 31
0.0
  0
LINE
  5
4C4
330
A
100
AcDbEntity
  8
0
  6
Continuous
 62
     7
370
     0
100
AcDbLine
 10
16.87500000000001
 20
5.145353928239472
 30
0.0
 11
19.75000000000001
 21
10.125
 31
0.0
  0
LINE
  5
4C5
330
A
100
AcDbEntity
  8
0
  6
Continuous
 62
     7
370
     0
100
AcDbLine
 10
16.875
 20
15.10464607176053
 30
0.0
 11
11.125
 21
15.10464607176053
 31
0.0
  0
LINE
  5
4C6
330
A
100
AcDbEntity
  8
0
  6
Continuous
 62
     7
370
     0
100
AcDbLine
 10
19.75000000000001
 20
10.125
 30
0.0
 11
16.87500000000001
 21
15.10464607176053
 31
0.0
  0
LINE
  5
4C7
330
A
100
AcDbEntity
  8
0
  6
Continuous
 62
     7
370
     0
100
AcDbLine
 10
11.12500000000001
 20
5.145353928239472
 30
0.0
 11
16.87500000000001
 21
5.145353928239472
 31
0.0
  0
LINE
  5
4C8
330
A
100
AcDbEntity
  8
0
  6
Continuous
 62
     7
370
     0
100
AcDbLine
 10
8.250000000000014
 20
10.125
 30
0.0
 11
11.12500000000001
 21
5.145353928239487
 31
0.0
  0
LINE
  5
4C9
330
A
100
AcDbEntity
  8
0
  6
HIDDEN2
 62
     7
370
     0
100
AcDbLine
 10
28.00000000000002
 20
16.125
 30
0.0
 11
28.00000000000002
 21
4.125
 31
0.0
  0
LINE
  5
4CA
330
A
100
AcDbEntity
  8
0
  6
Continuous
 62
     7
370
     0
100
AcDbLine
 10
11.12500000000001
 20
15.10464607176053
 30
0.0
 11
8.250000000000014
 21
10.125
 31
0.0
  0
LINE
  5
4CB
330
A
100
AcDbEntity
  8
0
  6
HIDDEN2
 62
     7
370
     0
100
AcDbLine
 10
28.00000000000002
 20
17.375
 30
0.0
 11
-6.999999999999985
 21
17.375
 31
0.0
  0
CIRCLE
  5
4CC
330
A
100
AcDbEntity
  8
0
  6
Continuous
 62
     7
370
     0
100
AcDbCircle
 10
27.00000000000001
 20
10.125
 30
0.0
 40
3.25
  0
LINE
  5
4CD
330
A
100
AcDbEntity
  8
0
  6
Continuous
 62
     7
370
     0
100
AcDbLine
 10
-6.999999999999985
 20
-2.875000000000014
 30
0.0
 11
-6.999999999999985
 21
5.124999999999985
 31
0.0
  0
ARC
  5
4CE
330
A
100
AcDbEntity
  8
0
  6
Continuous
 62
     7
370
     0
100
AcDbCircle
 10
35.00000000000002
 20
13.21407947257205
 30
0.0
 40
1.0
100
AcDbArc
 50
0.0
 51
14.77294161582054
  0
ARC
  5
4CF
330
A
100
AcDbEntity
  8
0
  6
HIDDEN2
 62
     7
370
     0
100
AcDbCircle
 10
35.00000000000002
 20
13.21407947257205
 30
0.0
 40
1.0
100
AcDbArc
 50
14.77294161582054
 51
75.00000000000041
  0
ARC
  5
4D0
330
A
100
AcDbEntity
  8
0
  6
Continuous
 62
     7
370
     0
100
AcDbCircle
 10
43.5000004447238
 20
46.1249951080384
 30
0.0
 40
30.49999510803842
100
AcDbArc
 50
260.9875479553199
 51
277.6926046159458
  0
CIRCLE
  5
4D1
330
A
100
AcDbEntity
  8
0
  6
HIDDEN2
 62
     7
370
     0
100
AcDbCircle
 10
7.000000000000014
 20
0.0
 30
0.0
 40
2.0
  0
CIRCLE
  5
4D2
330
A
100
AcDbEntity
  8
0
  6
HIDDEN2
 62
     7
370
     0
100
AcDbCircle
 10
0.0
 20
0.0
 30
0.0
 40
2.0
  0
ARC
  5
4D3
330
A
100
AcDbEntity
  8
0
  6
Continuous
 62
     7
370
     0
100
AcDbCircle
 10
43.28971434076983
 20
29.40657103224694
 30
0.0
 40
16.78288850454134
100
AcDbArc
 50
251.6280221068796
 51
286.6874717791602
  0
LINE
  5
4D4
330
A
100
AcDbEntity
  8
0
  6
Continuous
 62
     7
370
     0
100
AcDbLine
 10
-6.999999999999985
 20
15.125
 30
0.0
 11
-6.999999999999985
 21
5.125
 31
0.0
  0
LINE
  5
4D5
330
A
100
AcDbEntity
  8
0
  6
Continuous
 62
     7
370
     0
100
AcDbLine
 10
2.875000000000014
 20
5.145353928239472
 30
0.0
 11
5.750000000000014
 21
10.125
 31
0.0
  0
LINE
  5
4D6
330
A
100
AcDbEntity
  8
0
  6
Continuous
 62
     7
370
     0
100
AcDbLine
 10
28.00000000000002
 20
4.125
 30
0.0
 11
28.00000000000002
 21
-2.875
 31
0.0
  0
LINE
  5
4D7
330
A
100
AcDbEntity
  8
0
  6
Continuous
 62
     7
370
     0
100
AcDbLine
 10
2.875000000000014
 20
15.10464607176053
 30
0.0
 11
-2.874999999999985
 21
15.10464607176053
 31
0.0
  0
LINE
  5
4D8
330
A
100
AcDbEntity
  8
0
  6
Continuous
 62
     7
370
     0
100
AcDbLine
 10
-2.874999999999985
 20
15.10464607176053
 30
0.0
 11
-5.749999999999985
 21
10.125
 31
0.0
  0
ARC
  5
4D9
330
A
100
AcDbEntity
  8
0
  6
Continuous
 62
     7
370
     0
100
AcDbCircle
 10
47.75000000000001
 20
5.589265460750013
 30
0.0
 40
1.249999999999997
100
AcDbArc
 50
262.3073953840542
 51
0.0
  0
ARC
  5
4DA
330
A
100
AcDbEntity
  8
0
  6
Continuous
 62
     7
370
     0
100
AcDbCircle
 10
37.15571206003976
 20
14.125
 30
0.0
 40
10.0
100
AcDbArc
 50
270.0
 51
279.0124520446801
  0
ARC
  5
4DB
330
A
100
AcDbEntity
  8
0
  6
Continuous
 62
     7
370
     0
100
AcDbCircle
 10
47.75000000000001
 20
5.722154623284779
 30
0.0
 40
1.250000000000001
100
AcDbArc
 50
0.0
 51
73.31252822083981
  0
ARC
  5
4DC
330
A
100
AcDbEntity
  8
0
  6
Continuous
 62
     7
370
     0
100
AcDbCircle
 10
47.75000000000001
 20
14.66073453925
 30
0.0
 40
1.250000000000001
100
AcDbArc
 50
0.0
 51
97.6926046159458
  0
ARC
  5
4DD
330
A
100
AcDbEntity
  8
0
  6
Continuous
 62
     7
370
     0
100
AcDbCircle
 10
47.75000000000001
 20
14.52784537671522
 30
0.0
 40
1.250000000000001
100
AcDbArc
 50
286.6874717791602
 51
0.0
  0
ARC
  5
4DE
330
A
100
AcDbEntity
  8
0
  6
Continuous
 62
     7
370
     0
100
AcDbCircle
 10
37.15571206003965
 20
6.125
 30
0.0
 40
10.0
100
AcDbArc
 50
80.98754795531911
 51
90.0
  0
LINE
  5
4DF
330
A
100
AcDbEntity
  8
0
  6
Continuous
 62
     7
370
     0
100
AcDbLine
 10
36.00000000000001
 20
13.21407947257205
 30
0.0
 11
36.00000000000001
 21
7.035920527427933
 31
0.0
  0
LINE
  5
4E0
330
A
100
AcDbEntity
  8
0
  6
HIDDEN2
 62
     7
370
     0
100
AcDbLine
 10
28.00000000000002
 20
16.125
 30
0.0
 11
35.25881904510253
 21
14.18000529886112
 31
0.0
  0
LINE
  5
4E1
330
A
100
AcDbEntity
  8
0
  6
Continuous
 62
     7
370
     0
100
AcDbLine
 10
35.25881904510253
 20
7.088836554887137
 30
0.0
 11
35.25881904510253
 21
13.16116344511283
 31
0.0
  0
LINE
  5
4E2
330
A
100
AcDbEntity
  8
0
  6
HIDDEN2
 62
     7
370
     0
100
AcDbLine
 10
35.25881904510253
 20
6.069994701138867
 30
0.0
 11
28.00000000000002
 21
4.125
 31
0.0
  0
ARC
  5
4E3
330
A
100
AcDbEntity
  8
0
  6
Continuous
 62
     7
370
     0
100
AcDbCircle
 10
43.50000044472382
 20
-25.87499510803845
 30
0.0
 40
30.49999510803843
100
AcDbArc
 50
82.30739538405339
 51
99.01245204468009
  0
ARC
  5
4E4
330
A
100
AcDbEntity
  8
0
  6
Continuous
 62
     7
370
     0
100
AcDbCircle
 10
-5.999999999999985
 20
5.124999999999985
 30
0.0
 40
1.0
100
AcDbArc
 50
180.0
 51
270.0
  0
ARC
  5
4E5
330
A
100
AcDbEntity
  8
0
  6
Continuous
 62
     7
370
     0
100
AcDbCircle
 10
-5.999999999999985
 20
15.125
 30
0.0
 40
1.0
100
AcDbArc
 50
90.0
 51
180.0
  0
LINE
  5
4E6
330
A
100
AcDbEntity
  8
0
  6
Continuous
 62
     7
370
     0
100
AcDbLine
 10
-5.749999999999985
 20
10.125
 30
0.0
 11
-2.874999999999985
 21
5.145353928239472
 31
0.0
  0
LINE
  5
4E7
330
A
100
AcDbEntity
  8
0
  6
Continuous
 62
     7
370
     0
100
AcDbLine
 10
18.06970514902494
 20
4.125
 30
0.0
 11
37.15571206003974
 21
4.125
 31
0.0
  0
LINE
  5
4E8
330
A
100
AcDbEntity
  8
0
  6
Continuous
 62
     7
370
     0
100
AcDbLine
 10
49.00000000000002
 20
14.52784537671522
 30
0.0
 11
49.00000000000002
 21
14.66073453924997
 31
0.0
  0
LINE
  5
4E9
330
A
100
AcDbEntity
  8
0
  6
Continuous
 62
     7
370
     0
100
AcDbLine
 10
49.00000000000002
 20
5.589265460750013
 30
0.0
 11
49.00000000000002
 21
5.722154623284779
 31
0.0
  0
LINE
  5
4EA
330
A
100
AcDbEntity
  8
0
  6
Continuous
 62
     7
370
     0
100
AcDbLine
 10
28.00000000000002
 20
23.125
 30
0.0
 11
28.00000000000002
 21
16.125
 31
0.0
  0
LINE
  5
4EB
330
A
100
AcDbEntity
  8
0
  6
Continuous
 62
     7
370
     0
100
AcDbLine
 10
18.06970514902494
 20
16.125
 30
0.0
 11
37.15571206003965
 21
16.125
 31
0.0
  0
LINE
  5
4EC
330
A
100
AcDbEntity
  8
0
  6
Continuous
 62
     7
370
     0
100
AcDbLine
 10
28.00000000000002
 20
23.125
 30
0.0
 11
-6.999999999999985
 21
23.125
 31
0.0
  0
LINE
  5
4ED
330
A
100
AcDbEntity
  8
0
  6
Continuous
 62
     7
370
     0
100
AcDbLine
 10
-6.999999999999985
 20
23.125
 30
0.0
 11
-6.999999999999985
 21
15.125
 31
0.0
  0
LINE
  5
4EE
330
A
100
AcDbEntity
  8
0
  6
Continuous
 62
     7
370
     0
100
AcDbLine
 10
28.00000000000002
 20
-2.875
 30
0.0
 11
-6.999999999999985
 21
-2.875
 31
0.0
  0
ARC
  5
4EF
330
A
100
AcDbEntity
  8
0
  6
HIDDEN2
 62
     7
370
     0
100
AcDbCircle
 10
35.00000000000002
 20
7.035920527427933
 30
0.0
 40
0.9999999999999996
100
AcDbArc
 50
284.9999999999996
 51
345.2270583841785
  0
ARC
  5
4F0
330
A
100
AcDbEntity
  8
0
  6
Continuous
 62
     7
370
     0
100
AcDbCircle
 10
35.00000000000002
 20
7.035920527427933
 30
0.0
 40
0.9999999999999996
100
AcDbArc
 50
345.2270583841785
 51
0.0
  0
LINE
  5
4F1
330
A
100
AcDbEntity
  8
0
  6
Continuous
 62
     7
370
     0
100
AcDbLine
 10
36.00000000000001
 20
13.21407947257205
 30
0.0
 11
35.35452510861317
 21
13.21407947257205
 31
0.0
  0
LINE
  5
4F2
330
A
100
AcDbEntity
  8
0
  6
Continuous
 62
     7
370
     0
100
AcDbLine
 10
36.00000000000001
 20
7.035920527427933
 30
0.0
 11
35.35452510861315
 21
7.035920527427933
 31
0.0
  0
LINE
  5
4F3
330
A
100
AcDbEntity
  8
0
  6
Continuous
 62
     7
370
     0
100
AcDbLine
 10
-2.874999999999985
 20
5.145353928239472
 30
0.0
 11
2.875000000000014
 21
5.145353928239472
 31
0.0
  0
LINE
  5
4F4
330
A
100
AcDbEntity
  8
0
  6
Continuous
 62
     7
370
     0
100
AcDbLine
 10
5.750000000000014
 20
10.125
 30
0.0
 11
2.875000000000014
 21
15.10464607176053
 31
0.0
  0
ARC
  5
4F5
330
A
100
AcDbEntity
  8
0
  6
Continuous
 62
     7
370
     0
100
AcDbCircle
 10
37.00000011970691
 20
10.125
 30
0.0
 40
3.499999999999999
100
AcDbArc
 50
73.39843725203093
 51
286.6015627479673
  0
LINE
  5
4F6
330
A
100
AcDbEntity
  8
0
  6
Continuous
 62
     7
370
     0
100
AcDbLine
 10
9.930294850975087
 20
4.124999999999985
 30
0.0
 11
4.06970514902494
 21
4.124999999999985
 31
0.0
  0
CIRCLE
  5
4F7
330
A
100
AcDbEntity
  8
0
  6
HIDDEN2
 62
     7
370
     0
100
AcDbCircle
 10
14.0
 20
0.0
 30
0.0
 40
2.0
  0
CIRCLE
  5
4F8
330
A
100
AcDbEntity
  8
0
  6
HIDDEN2
 62
     7
370
     0
100
AcDbCircle
 10
21.00000000000001
 20
0.0
 30
0.0
 40
2.0
  0
CIRCLE
  5
4F9
330
A
100
AcDbEntity
  8
0
  6
HIDDEN2
 62
     7
370
     0
100
AcDbCircle
 10
7.0
 20
20.25
 30
0.0
 40
2.0
  0
CIRCLE
  5
4FA
330
A
100
AcDbEntity
  8
0
  6
HIDDEN2
 62
     7
370
     0
100
AcDbCircle
 10
0.0
 20
20.25
 30
0.0
 40
2.0
  0
CIRCLE
  5
4FB
330
A
100
AcDbEntity
  8
0
  6
HIDDEN2
 62
     7
370
     0
100
AcDbCircle
 10
14.0
 20
20.25
 30
0.0
 40
2.0
  0
LINE
  5
4FC
330
A
100
AcDbEntity
  8
DV1_0
  6
HIDDEN2
 62
     7
370
     0
100
AcDbLine
 10
8.500000000000014
 20
77.41057251923149
 30
0.0
 11
8.500000000000014
 21
71.41057251923149
 31
0.0
  0
LINE
  5
4FD
330
A
100
AcDbEntity
  8
0
  6
HIDDEN2
 62
     7
370
     0
100
AcDbLine
 10
19.50000000000001
 20
71.41057251923149
 30
0.0
 11
19.50000000000001
 21
77.41057251923149
 31
0.0
  0
LINE
  5
4FE
330
A
100
AcDbEntity
  8
0
  6
HIDDEN2
 62
     7
370
     0
100
AcDbLine
 10
5.500000000000014
 20
71.41057251923149
 30
0.0
 11
5.500000000000014
 21
77.41057251923149
 31
0.0
  0
LINE
  5
4FF
330
A
100
AcDbEntity
  8
0
  6
HIDDEN2
 62
     7
370
     0
100
AcDbLine
 10
-3.09999999999998
 20
85.41057251923152
 30
0.0
 11
-3.09999999999998
 21
81.56749445739682
 31
0.0
  0
LINE
  5
500
330
A
100
AcDbEntity
  8
0
  6
HIDDEN2
 62
     7
370
     0
100
AcDbLine
 10
-5.499999999999985
 20
77.41057251923149
 30
0.0
 11
-5.499999999999985
 21
71.41057251923149
 31
0.0
  0
LINE
  5
501
330
A
100
AcDbEntity
  8
0
  6
HIDDEN2
 62
     7
370
     0
100
AcDbLine
 10
23.75000000000001
 20
89.91057251923152
 30
0.0
 11
23.75000000000001
 21
82.91057251923152
 31
0.0
  0
LINE
  5
502
330
A
100
AcDbEntity
  8
0
  6
HIDDEN2
 62
     7
370
     0
100
AcDbLine
 10
5.500000000000014
 20
77.41057251923149
 30
0.0
 11
3.100000000000008
 21
81.56749445739681
 31
0.0
  0
LINE
  5
503
330
A
100
AcDbEntity
  8
0
  6
HIDDEN2
 62
     7
370
     0
100
AcDbLine
 10
-3.09999999999998
 20
81.56749445739681
 30
0.0
 11
-5.499999999999985
 21
77.41057251923149
 31
0.0
  0
LINE
  5
504
330
A
100
AcDbEntity
  8
0
  6
HIDDEN2
 62
     7
370
     0
100
AcDbLine
 10
10.9
 20
81.56749445739681
 30
0.0
 11
8.5
 21
77.41057251923149
 31
0.0
  0
LINE
  5
505
330
A
100
AcDbEntity
  8
0
  6
HIDDEN2
 62
     7
370
     0
100
AcDbLine
 10
10.9
 20
85.41057251923152
 30
0.0
 11
10.9
 21
81.56749445739682
 31
0.0
  0
LINE
  5
506
330
A
100
AcDbEntity
  8
0
  6
HIDDEN2
 62
     7
370
     0
100
AcDbLine
 10
2.0
 20
74.41057251923149
 30
0.0
 11
2.0
 21
78.91057251923149
 31
0.0
  0
LINE
  5
507
330
A
100
AcDbEntity
  8
0
  6
HIDDEN2
 62
     7
370
     0
100
AcDbLine
 10
3.100000000000008
 20
81.56749445739681
 30
0.0
 11
3.100000000000008
 21
85.41057251923149
 31
0.0
  0
LINE
  5
508
330
A
100
AcDbEntity
  8
0
  6
HIDDEN2
 62
     7
370
     0
100
AcDbLine
 10
23.00000000000002
 20
74.41057251923149
 30
0.0
 11
23.00000000000002
 21
78.91057251923149
 31
0.0
  0
LINE
  5
509
330
A
100
AcDbEntity
  8
0
  6
HIDDEN2
 62
     7
370
     0
100
AcDbLine
 10
9.0
 20
74.41057251923149
 30
0.0
 11
9.0
 21
78.91057251923149
 31
0.0
  0
LINE
  5
50A
330
A
100
AcDbEntity
  8
0
  6
HIDDEN2
 62
     7
370
     0
100
AcDbLine
 10
16.0
 20
74.41057251923149
 30
0.0
 11
16.0
 21
78.91057251923149
 31
0.0
  0
LINE
  5
50B
330
A
100
AcDbEntity
  8
0
  6
HIDDEN2
 62
     7
370
     0
100
AcDbLine
 10
5.000000000000014
 20
78.91057251923149
 30
0.0
 11
5.000000000000014
 21
74.41057251923149
 31
0.0
  0
LINE
  5
50C
330
A
100
AcDbEntity
  8
0
  6
HIDDEN2
 62
     7
370
     0
100
AcDbLine
 10
30.25000000000002
 20
82.91057251923152
 30
0.0
 11
30.25000000000002
 21
89.91057251923152
 31
0.0
  0
LINE
  5
50D
330
A
100
AcDbEntity
  8
0
  6
HIDDEN2
 62
     7
370
     0
100
AcDbLine
 10
17.10000000000001
 20
81.56749445739681
 30
0.0
 11
17.10000000000001
 21
85.41057251923149
 31
0.0
  0
LINE
  5
50E
330
A
100
AcDbEntity
  8
0
  6
HIDDEN2
 62
     7
370
     0
100
AcDbLine
 10
12.0
 20
78.91057251923149
 30
0.0
 11
12.0
 21
74.41057251923149
 31
0.0
  0
LINE
  5
50F
330
A
100
AcDbEntity
  8
0
  6
HIDDEN2
 62
     7
370
     0
100
AcDbLine
 10
19.00000000000001
 20
78.91057251923149
 30
0.0
 11
19.00000000000001
 21
74.41057251923149
 31
0.0
  0
LINE
  5
510
330
A
100
AcDbEntity
  8
0
  6
HIDDEN2
 62
     7
370
     0
100
AcDbLine
 10
-5.749999999999985
 20
85.41057251923152
 30
0.0
 11
-5.749999999999985
 21
89.91057251923152
 31
0.0
  0
LINE
  5
511
330
A
100
AcDbEntity
  8
0
  6
HIDDEN2
 62
     7
370
     0
100
AcDbLine
 10
-5.749999999999985
 20
85.41057251923152
 30
0.0
 11
-2.874999999999985
 21
85.41057251923152
 31
0.0
  0
LINE
  5
512
330
A
100
AcDbEntity
  8
0
  6
HIDDEN2
 62
     7
370
     0
100
AcDbLine
 10
2.875000000000014
 20
85.41057251923152
 30
0.0
 11
5.750000000000014
 21
85.41057251923152
 31
0.0
  0
LINE
  5
513
330
A
100
AcDbEntity
  8
0
  6
HIDDEN2
 62
     7
370
     0
100
AcDbLine
 10
2.875000000000014
 20
85.41057251923152
 30
0.0
 11
2.875000000000014
 21
89.91057251923152
 31
0.0
  0
LINE
  5
514
330
A
100
AcDbEntity
  8
0
  6
HIDDEN2
 62
     7
370
     0
100
AcDbLine
 10
-2.874999999999985
 20
85.41057251923152
 30
0.0
 11
2.875000000000014
 21
85.41057251923152
 31
0.0
  0
LINE
  5
515
330
A
100
AcDbEntity
  8
0
  6
HIDDEN2
 62
     7
370
     0
100
AcDbLine
 10
5.750000000000014
 20
85.41057251923152
 30
0.0
 11
5.750000000000014
 21
89.91057251923152
 31
0.0
  0
LINE
  5
516
330
A
100
AcDbEntity
  8
0
  6
HIDDEN2
 62
     7
370
     0
100
AcDbLine
 10
3.09999999999998
 20
81.56749445739681
 30
0.0
 11
-3.099999999999965
 21
81.56749445739681
 31
0.0
  0
LINE
  5
517
330
A
100
AcDbEntity
  8
0
  6
HIDDEN2
 62
     7
370
     0
100
AcDbLine
 10
5.499999999999957
 20
77.41057251923149
 30
0.0
 11
-5.499999999999928
 21
77.41057251923149
 31
0.0
  0
LINE
  5
518
330
A
100
AcDbEntity
  8
0
  6
Continuous
 62
     7
370
     0
100
AcDbLine
 10
18.06970514902494
 20
80.9105725192315
 30
0.0
 11
18.06970514902494
 21
89.9105725192315
 31
0.0
  0
LINE
  5
519
330
A
100
AcDbEntity
  8
0
  6
HIDDEN2
 62
     7
370
     0
100
AcDbLine
 10
-2.874999999999985
 20
85.41057251923152
 30
0.0
 11
-2.874999999999985
 21
89.91057251923152
 31
0.0
  0
LINE
  5
51A
330
A
100
AcDbEntity
  8
0
  6
HIDDEN2
 62
     7
370
     0
100
AcDbLine
 10
5.000000000000028
 20
78.91057251923149
 30
0.0
 11
8.999999999999985
 21
78.91057251923149
 31
0.0
  0
LINE
  5
51B
330
A
100
AcDbEntity
  8
0
  6
HIDDEN2
 62
     7
370
     0
100
AcDbLine
 10
-1.999999999999971
 20
78.91057251923149
 30
0.0
 11
1.999999999999985
 21
78.91057251923149
 31
0.0
  0
LINE
  5
51C
330
A
100
AcDbEntity
  8
0
  6
HIDDEN2
 62
     7
370
     0
100
AcDbLine
 10
12.00000000000003
 20
78.91057251923149
 30
0.0
 11
15.99999999999998
 21
78.91057251923149
 31
0.0
  0
LINE
  5
51D
330
A
100
AcDbEntity
  8
0
  6
HIDDEN2
 62
     7
370
     0
100
AcDbLine
 10
19.00000000000003
 20
78.91057251923149
 30
0.0
 11
22.99999999999998
 21
78.91057251923149
 31
0.0
  0
LINE
  5
51E
330
A
100
AcDbEntity
  8
0
  6
HIDDEN2
 62
     7
370
     0
100
AcDbLine
 10
23.75000000000004
 20
82.91057251923152
 30
0.0
 11
30.24999999999999
 21
82.91057251923152
 31
0.0
  0
LINE
  5
51F
330
A
100
AcDbEntity
  8
0
  6
HIDDEN2
 62
     7
370
     0
100
AcDbLine
 10
38.00000088944786
 20
80.9105725192315
 30
0.0
 11
38.00000088944786
 21
89.9105725192315
 31
0.0
  0
LINE
  5
520
330
A
100
AcDbEntity
  8
0
  6
HIDDEN2
 62
     7
370
     0
100
AcDbLine
 10
38.00000088944798
 20
80.9105725192315
 30
0.0
 11
38.00000088944798
 21
89.9105725192315
 31
0.0
  0
ARC
  5
521
330
A
100
AcDbEntity
  8
0
  6
Continuous
 62
     7
370
     0
100
AcDbCircle
 10
35.00000000000002
 20
74.82149304665944
 30
0.0
 40
0.9999999999999991
100
AcDbArc
 50
284.9999999999996
 51
0.0
  0
ARC
  5
522
330
A
100
AcDbEntity
  8
0
  6
Continuous
 62
     7
370
     0
100
AcDbCircle
 10
35.00000000000002
 20
75.99965199180354
 30
0.0
 40
1.0
100
AcDbArc
 50
0.0
 51
75.00000000000041
  0
ELLIPSE
  5
523
330
A
100
AcDbEntity
  8
0
  6
Continuous
 62
     7
370
     0
100
AcDbEllipse
 10
35.00000000000002
 20
74.82149304665944
 30
0.0
 11
-0.2588190451025194
 21
0.9659258262890693
 31
0.0
210
0.0
220
0.0
230
1.0
 40
0.2505628070857296
 41
3.141592653589881
 42
4.645351482179758
  0
LINE
  5
524
330
A
100
AcDbEntity
  8
0
  6
Continuous
 62
     7
370
     0
100
AcDbLine
 10
35.25881904510253
 20
73.85556722037037
 30
0.0
 11
28.00000000000002
 21
71.91057251923149
 31
0.0
  0
LINE
  5
525
330
A
100
AcDbEntity
  8
0
  6
Continuous
 62
     7
370
     0
100
AcDbLine
 10
36.00000000000001
 20
75.99965199180354
 30
0.0
 11
36.00000000000001
 21
74.82149304665944
 31
0.0
  0
LINE
  5
526
330
A
100
AcDbEntity
  8
0
  6
HIDDEN2
 62
     7
370
     0
100
AcDbLine
 10
33.50000011970691
 20
89.91057251923152
 30
0.0
 11
33.50000011970691
 21
80.91057251923151
 31
0.0
  0
LINE
  5
527
330
A
100
AcDbEntity
  8
0
  6
Continuous
 62
     7
370
     0
100
AcDbLine
 10
28.00000000000002
 20
72.87649834552055
 30
0.0
 11
35.25881904510253
 21
74.82149304665944
 31
0.0
  0
LINE
  5
528
330
A
100
AcDbEntity
  8
0
  6
Continuous
 62
     7
370
     0
100
AcDbLine
 10
35.25881904510253
 20
75.99965199180354
 30
0.0
 11
28.00000000000002
 21
77.9446466929424
 31
0.0
  0
LINE
  5
529
330
A
100
AcDbEntity
  8
0
  6
Continuous
 62
     7
370
     0
100
AcDbLine
 10
28.00000000000002
 20
78.91057251923149
 30
0.0
 11
35.25881904510253
 21
76.96557781809261
 31
0.0
  0
LINE
  5
52A
330
A
100
AcDbEntity
  8
0
  6
Continuous
 62
     7
370
     0
100
AcDbLine
 10
47.58267715708247
 20
89.91057251923152
 30
0.0
 11
38.72220320843617
 21
89.91057251923152
 31
0.0
  0
LINE
  5
52B
330
A
100
AcDbEntity
  8
0
  6
Continuous
 62
     7
370
     0
100
AcDbLine
 10
35.25881904510253
 20
74.82149304665944
 30
0.0
 11
35.25881904510253
 21
75.99965199180354
 31
0.0
  0
LINE
  5
52C
330
A
100
AcDbEntity
  8
0
  6
Continuous
 62
     7
370
     0
100
AcDbLine
 10
49.00000000000002
 20
80.9105725192315
 30
0.0
 11
47.58267715708247
 21
80.9105725192315
 31
0.0
  0
LINE
  5
52D
330
A
100
AcDbEntity
  8
0
  6
Continuous
 62
     7
370
     0
100
AcDbLine
 10
37.15571206003976
 20
80.9105725192315
 30
0.0
 11
37.15571206003976
 21
89.9105725192315
 31
0.0
  0
LINE
  5
52E
330
A
100
AcDbEntity
  8
0
  6
Continuous
 62
     7
370
     0
100
AcDbLine
 10
38.72220320843617
 20
89.91057251923152
 30
0.0
 11
38.72220320843617
 21
80.91057251923151
 31
0.0
  0
LINE
  5
52F
330
A
100
AcDbEntity
  8
0
  6
Continuous
 62
     7
370
     0
100
AcDbLine
 10
38.72220320843617
 20
80.9105725192315
 30
0.0
 11
37.15571206003974
 21
80.9105725192315
 31
0.0
  0
LINE
  5
530
330
A
100
AcDbEntity
  8
0
  6
Continuous
 62
     7
370
     0
100
AcDbLine
 10
37.15571206003976
 20
89.91057251923152
 30
0.0
 11
38.72220320843617
 21
89.91057251923152
 31
0.0
  0
LINE
  5
531
330
A
100
AcDbEntity
  8
0
  6
Continuous
 62
     7
370
     0
100
AcDbLine
 10
47.58267715708247
 20
80.9105725192315
 30
0.0
 11
47.58267715708247
 21
89.9105725192315
 31
0.0
  0
LINE
  5
532
330
A
100
AcDbEntity
  8
0
  6
Continuous
 62
     7
370
     0
100
AcDbLine
 10
49.00000000000002
 20
89.91057251923152
 30
0.0
 11
49.00000000000002
 21
80.91057251923151
 31
0.0
  0
LINE
  5
533
330
A
100
AcDbEntity
  8
0
  6
Continuous
 62
     7
370
     0
100
AcDbLine
 10
47.58267715708247
 20
89.91057251923152
 30
0.0
 11
49.00000000000002
 21
89.91057251923152
 31
0.0
  0
LINE
  5
534
330
A
100
AcDbEntity
  8
0
  6
Continuous
 62
     7
370
     0
100
AcDbLine
 10
-5.999999999999985
 20
89.91057251923152
 30
0.0
 11
-5.999999999999985
 21
80.91057251923151
 31
0.0
  0
LINE
  5
535
330
A
100
AcDbEntity
  8
0
  6
Continuous
 62
     7
370
     0
100
AcDbLine
 10
-6.999999999999985
 20
89.91057251923152
 30
0.0
 11
-5.999999999999985
 21
89.91057251923152
 31
0.0
  0
LINE
  5
536
330
A
100
AcDbEntity
  8
0
  6
Continuous
 62
     7
370
     0
100
AcDbLine
 10
-6.999999999999985
 20
71.41057251923149
 30
0.0
 11
28.00000000000002
 21
71.41057251923149
 31
0.0
  0
LINE
  5
537
330
A
100
AcDbEntity
  8
0
  6
Continuous
 62
     7
370
     0
100
AcDbLine
 10
-6.999999999999985
 20
80.9105725192315
 30
0.0
 11
-6.999999999999985
 21
89.9105725192315
 31
0.0
  0
LINE
  5
538
330
A
100
AcDbEntity
  8
0
  6
Continuous
 62
     7
370
     0
100
AcDbLine
 10
-6.999999999999985
 20
74.41057251923149
 30
0.0
 11
-6.999999999999985
 21
80.9105725192315
 31
0.0
  0
LINE
  5
539
330
A
100
AcDbEntity
  8
0
  6
Continuous
 62
     7
370
     0
100
AcDbLine
 10
28.00000000000002
 20
74.41057251923149
 30
0.0
 11
28.00000000000002
 21
80.9105725192315
 31
0.0
  0
LINE
  5
53A
330
A
100
AcDbEntity
  8
0
  6
Continuous
 62
     7
370
     0
100
AcDbLine
 10
18.06970514902494
 20
89.91057251923152
 30
0.0
 11
37.15571206003974
 21
89.91057251923152
 31
0.0
  0
LINE
  5
53B
330
A
100
AcDbEntity
  8
0
  6
Continuous
 62
     7
370
     0
100
AcDbLine
 10
28.00000000000002
 20
80.9105725192315
 30
0.0
 11
-6.999999999999985
 21
80.9105725192315
 31
0.0
  0
LINE
  5
53C
330
A
100
AcDbEntity
  8
0
  6
Continuous
 62
     7
370
     0
100
AcDbLine
 10
28.00000000000002
 20
74.41057251923149
 30
0.0
 11
28.00000000000002
 21
71.41057251923149
 31
0.0
  0
LINE
  5
53D
330
A
100
AcDbEntity
  8
0
  6
Continuous
 62
     7
370
     0
100
AcDbLine
 10
28.00000000000002
 20
74.41057251923149
 30
0.0
 11
-6.999999999999985
 21
74.41057251923149
 31
0.0
  0
LINE
  5
53E
330
A
100
AcDbEntity
  8
0
  6
Continuous
 62
     7
370
     0
100
AcDbLine
 10
-6.999999999999985
 20
71.41057251923149
 30
0.0
 11
-6.999999999999985
 21
74.41057251923149
 31
0.0
  0
LINE
  5
53F
330
A
100
AcDbEntity
  8
0
  6
Continuous
 62
     7
370
     0
100
AcDbLine
 10
37.15571206003976
 20
80.9105725192315
 30
0.0
 11
28.00000000000004
 21
80.9105725192315
 31
0.0
  0
LINE
  5
540
330
A
100
AcDbEntity
  8
0
  6
HIDDEN2
 62
     7
370
     0
100
AcDbLine
 10
11.12500000000001
 20
85.41057251923152
 30
0.0
 11
11.12500000000001
 21
89.91057251923152
 31
0.0
  0
LINE
  5
541
330
A
100
AcDbEntity
  8
0
  6
HIDDEN2
 62
     7
370
     0
100
AcDbLine
 10
8.250000000000014
 20
85.41057251923152
 30
0.0
 11
8.250000000000014
 21
89.91057251923152
 31
0.0
  0
LINE
  5
542
330
A
100
AcDbEntity
  8
0
  6
HIDDEN2
 62
     7
370
     0
100
AcDbLine
 10
19.75000000000001
 20
85.41057251923152
 30
0.0
 11
19.75000000000001
 21
89.91057251923152
 31
0.0
  0
LINE
  5
543
330
A
100
AcDbEntity
  8
0
  6
HIDDEN2
 62
     7
370
     0
100
AcDbLine
 10
8.250000000000014
 20
85.41057251923152
 30
0.0
 11
11.12500000000001
 21
85.41057251923152
 31
0.0
  0
LINE
  5
544
330
A
100
AcDbEntity
  8
0
  6
HIDDEN2
 62
     7
370
     0
100
AcDbLine
 10
11.12500000000001
 20
85.41057251923152
 30
0.0
 11
16.87500000000001
 21
85.41057251923152
 31
0.0
  0
LINE
  5
545
330
A
100
AcDbEntity
  8
0
  6
HIDDEN2
 62
     7
370
     0
100
AcDbLine
 10
16.87500000000001
 20
85.41057251923152
 30
0.0
 11
16.87500000000001
 21
89.91057251923152
 31
0.0
  0
LINE
  5
546
330
A
100
AcDbEntity
  8
0
  6
HIDDEN2
 62
     7
370
     0
100
AcDbLine
 10
16.87500000000001
 20
85.41057251923152
 30
0.0
 11
19.75000000000001
 21
85.41057251923152
 31
0.0
  0
LINE
  5
547
330
A
100
AcDbEntity
  8
0
  6
HIDDEN2
 62
     7
370
     0
100
AcDbLine
 10
19.49999999999995
 20
77.41057251923149
 30
0.0
 11
8.500000000000056
 21
77.41057251923149
 31
0.0
  0
LINE
  5
548
330
A
100
AcDbEntity
  8
0
  6
HIDDEN2
 62
     7
370
     0
100
AcDbLine
 10
17.09999999999998
 20
81.56749445739681
 30
0.0
 11
10.90000000000003
 21
81.56749445739681
 31
0.0
  0
LINE
  5
549
330
A
100
AcDbEntity
  8
0
  6
Continuous
 62
     7
370
     0
100
AcDbLine
 10
18.06970514902494
 20
89.91057251923152
 30
0.0
 11
9.930294850975087
 21
89.91057251923152
 31
0.0
  0
LINE
  5
54A
330
A
100
AcDbEntity
  8
0
  6
Continuous
 62
     7
370
     0
100
AcDbLine
 10
-4.069705149024926
 20
80.9105725192315
 30
0.0
 11
-4.069705149024926
 21
89.9105725192315
 31
0.0
  0
LINE
  5
54B
330
A
100
AcDbEntity
  8
0
  6
Continuous
 62
     7
370
     0
100
AcDbLine
 10
4.069705149024926
 20
89.91057251923152
 30
0.0
 11
-4.069705149024926
 21
89.91057251923152
 31
0.0
  0
LINE
  5
54C
330
A
100
AcDbEntity
  8
0
  6
Continuous
 62
     7
370
     0
100
AcDbLine
 10
9.930294850975087
 20
80.9105725192315
 30
0.0
 11
9.930294850975087
 21
89.9105725192315
 31
0.0
  0
LINE
  5
54D
330
A
100
AcDbEntity
  8
0
  6
Continuous
 62
     7
370
     0
100
AcDbLine
 10
-4.069705149024926
 20
89.91057251923152
 30
0.0
 11
-6.0
 21
89.91057251923152
 31
0.0
  0
LINE
  5
54E
330
A
100
AcDbEntity
  8
0
  6
Continuous
 62
     7
370
     0
100
AcDbLine
 10
4.069705149024926
 20
80.9105725192315
 30
0.0
 11
4.069705149024926
 21
89.9105725192315
 31
0.0
  0
LINE
  5
54F
330
A
100
AcDbEntity
  8
0
  6
Continuous
 62
     7
370
     0
100
AcDbLine
 10
9.930294850975087
 20
89.91057251923152
 30
0.0
 11
4.06970514902494
 21
89.91057251923152
 31
0.0
  0
LINE
  5
550
330
A
100
AcDbEntity
  8
0
  6
HIDDEN2
 62
     7
370
     0
100
AcDbLine
 10
19.50000000000001
 20
77.41057251923149
 30
0.0
 11
17.10000000000001
 21
81.56749445739681
 31
0.0
  0
LINE
  5
551
330
A
100
AcDbEntity
  8
0
  6
HIDDEN2
 62
     7
370
     0
100
AcDbLine
 10
-1.999999999999985
 20
78.91057251923149
 30
0.0
 11
-1.999999999999985
 21
74.41057251923149
 31
0.0
  0
ELLIPSE
  5
552
330
A
100
AcDbEntity
  8
0
  6
Continuous
 62
     7
370
     0
100
AcDbEllipse
 10
35.00000000000002
 20
75.99965199180354
 30
0.0
 11
-0.2588190451025158
 21
-0.9659258262890679
 31
0.0
210
0.0
220
0.0
230
1.0
 40
0.2505628070857297
 41
1.637833824999827
 42
3.141592653589722
  0
LINE
  5
553
330
A
100
AcDbEntity
  8
0
  6
Continuous
 62
     7
370
     0
100
AcDbLine
 10
47.58267715708247
 20
80.9105725192315
 30
0.0
 11
38.72220320843617
 21
80.9105725192315
 31
0.0
  0
LINE
  5
554
330
A
100
AcDbEntity
  8
0
  6
Continuous
 62
     7
370
     0
100
AcDbLine
 10
35.25881904510253
 20
75.99965199180354
 30
0.0
 11
36.00000000000001
 21
75.99965199180354
 31
0.0
  0
LINE
  5
555
330
A
100
AcDbEntity
  8
0
  6
Continuous
 62
     7
370
     0
100
AcDbLine
 10
35.25881904510253
 20
74.82149304665944
 30
0.0
 11
36.00000000000001
 21
74.82149304665944
 31
0.0
  0
ENDSEC
  0
SECTION
  2
OBJECTS
  0
DICTIONARY
  5
19
330
0
100
AcDbDictionary
281
     1
  3
ACAD_COLOR
350
2C6
  3
ACAD_GROUP
350
1A
  3
ACAD_LAYOUT
350
1E
  3
ACAD_MATERIAL
350
299
  3
ACAD_MLEADERSTYLE
350
30E
  3
ACAD_MLINESTYLE
350
1B
  3
ACAD_PLOTSETTINGS
350
22
  3
ACAD_PLOTSTYLENAME
350
1F
  3
ACAD_SCALELIST
350
2C7
  3
ACAD_TABLESTYLE
350
308
  3
ACAD_VISUALSTYLE
350
2B2
  3
ACAD_WIPEOUT_VARS
350
23
  3
ACDB_RECOMPOSE_DATA
350
5E3
  3
AcDbVariableDictionary
350
297
  3
AEC_PROPERTY_SET_DEFS
350
440
  3
ASE_INDEX_DICTIONARY
350
582
  3
DWGPROPS
350
5E4
  3
qs_topprt_diz
350
418
  3
QSCATDICT
350
415
  3
QsPallStyleDict
350
417
  3
QsTop499
350
57E
  3
TopSpotLight
350
41F
  0
DICTIONARY
  5
58B
330
7
100
AcDbDictionary
280
     1
281
     1
  0
DICTIONARY
  5
556
330
14
100
AcDbDictionary
280
     1
281
     1
  3
ADSK_XREC_LAYER_RECONCILED
360
557
  0
DICTIONARY
  5
558
330
2D
100
AcDbDictionary
280
     1
281
     1
  3
ADSK_XREC_LAYER_RECONCILED
360
559
  0
DICTIONARY
  5
55A
330
2F
100
AcDbDictionary
280
     1
281
     1
  3
ADSK_XREC_LAYER_RECONCILED
360
55B
  0
DICTIONARY
  5
55C
330
31
100
AcDbDictionary
280
     1
281
     1
  3
ADSK_XREC_LAYER_RECONCILED
360
55D
  0
DICTIONARY
  5
55E
330
33
100
AcDbDictionary
280
     1
281
     1
  3
ADSK_XREC_LAYER_RECONCILED
360
55F
  0
DICTIONARY
  5
560
330
35
100
AcDbDictionary
280
     1
281
     1
  3
ADSK_XREC_LAYER_RECONCILED
360
561
  0
DICTIONARY
  5
562
330
37
100
AcDbDictionary
280
     1
281
     1
  3
ADSK_XREC_LAYER_RECONCILED
360
563
  0
DICTIONARY
  5
564
330
39
100
AcDbDictionary
280
     1
281
     1
  3
ADSK_XREC_LAYER_RECONCILED
360
565
  0
DICTIONARY
  5
566
330
3B
100
AcDbDictionary
280
     1
281
     1
  3
ADSK_XREC_LAYER_RECONCILED
360
567
  0
DICTIONARY
  5
568
330
3D
100
AcDbDictionary
280
     1
281
     1
  3
ADSK_XREC_LAYER_RECONCILED
360
569
  0
DICTIONARY
  5
56A
330
3F
100
AcDbDictionary
280
     1
281
     1
  3
ADSK_XREC_LAYER_RECONCILED
360
56B
  0
DICTIONARY
  5
56C
330
41
100
AcDbDictionary
280
     1
281
     1
  3
ADSK_XREC_LAYER_RECONCILED
360
56D
  0
DICTIONARY
  5
56E
330
45
100
AcDbDictionary
280
     1
281
     1
  3
ADSK_XREC_LAYER_RECONCILED
360
56F
  0
DICTIONARY
  5
570
330
47
100
AcDbDictionary
280
     1
281
     1
  3
ADSK_XREC_LAYER_RECONCILED
360
571
  0
DICTIONARY
  5
572
330
49
100
AcDbDictionary
280
     1
281
     1
  3
ADSK_XREC_LAYER_RECONCILED
360
573
  0
DICTIONARY
  5
574
330
4B
100
AcDbDictionary
280
     1
281
     1
  3
ADSK_XREC_LAYER_RECONCILED
360
575
  0
DICTIONARY
  5
576
330
56
100
AcDbDictionary
280
     1
281
     1
  3
ADSK_XREC_LAYER_RECONCILED
360
577
  0
DICTIONARY
  5
578
330
77
100
AcDbDictionary
280
     1
281
     1
  3
ADSK_XREC_LAYER_RECONCILED
360
579
  0
DICTIONARY
  5
57A
330
7F
100
AcDbDictionary
280
     1
281
     1
  3
ADSK_XREC_LAYER_RECONCILED
360
57B
  0
DICTIONARY
  5
57C
330
41A
100
AcDbDictionary
280
     1
281
     1
  3
ADSK_XREC_LAYER_RECONCILED
360
57D
  0
DICTIONARY
  5
2C6
102
{ACAD_REACTORS
330
19
102
}
330
19
100
AcDbDictionary
281
     1
  0
DICTIONARY
  5
1A
102
{ACAD_REACTORS
330
19
102
}
330
19
100
AcDbDictionary
281
     1
  0
DICTIONARY
  5
1E
102
{ACAD_REACTORS
330
19
102
}
330
19
100
AcDbDictionary
281
     1
  3
Layout1
350
21
  3
Model
350
20
  0
DICTIONARY
  5
299
102
{ACAD_REACTORS
330
19
102
}
330
19
100
AcDbDictionary
281
     1
  3
ByBlock
350
2A2
  3
ByLayer
350
29A
  3
Global
350
2AA
  0
DICTIONARY
  5
30E
102
{ACAD_REACTORS
330
19
102
}
330
19
100
AcDbDictionary
281
     1
  3
Standard
350
30F
  0
DICTIONARY
  5
1B
102
{ACAD_REACTORS
330
19
102
}
330
19
100
AcDbDictionary
281
     1
  3
Standard
350
1C
  0
DICTIONARY
  5
22
102
{ACAD_REACTORS
330
19
102
}
330
19
100
AcDbDictionary
281
     1
  3
Kyocera_1010 OR
350
434
  3
Kyocera_1010 VER
350
435
  3
Olivetti_200 A3
350
436
  3
Olivetti_200 A4
350
437
  3
PLOTTER
350
438
  0
ACDBDICTIONARYWDFLT
  5
1F
102
{ACAD_REACTORS
330
19
102
}
330
19
100
AcDbDictionary
281
     1
  3
Normal
350
1D
100
AcDbDictionaryWithDefault
340
1D
  0
DICTIONARY
  5
2C7
102
{ACAD_REACTORS
330
19
102
}
330
19
100
AcDbDictionary
281
     1
  3
A0
350
2C8
  3
A1
350
2C9
  3
A2
350
2CA
  3
A3
350
2CB
  3
A4
350
2CC
  3
A5
350
2CD
  3
A6
350
2CE
  3
A7
350
2CF
  3
A8
350
2D0
  3
A9
350
2D1
  3
B0
350
2D2
  3
B1
350
2D3
  3
B2
350
2D4
  3
B3
350
2D5
  3
B4
350
2D6
  3
B5
350
2D7
  3
B6
350
2D8
  3
B7
350
2D9
  3
B8
350
2DA
  3
B9
350
2DB
  3
C0
350
2DC
  3
C1
350
2DD
  3
C2
350
2DE
  3
C3
350
2DF
  3
C4
350
2E0
  3
C5
350
2E1
  3
C6
350
2E2
  3
C7
350
2E3
  3
C8
350
2E4
  3
C9
350
2E5
  3
D0
350
2E6
  3
D1
350
2E7
  3
D2
350
2E8
  0
DICTIONARY
  5
308
102
{ACAD_REACTORS
330
19
102
}
330
19
100
AcDbDictionary
281
     1
  3
QSTABFORI
350
439
  3
QSTABREGION
350
43B
  3
Standard
350
309
  0
DICTIONARY
  5
2B2
102
{ACAD_REACTORS
330
19
102
}
330
19
100
AcDbDictionary
281
     1
  3
2dWireframe
350
2B8
  3
3D Hidden
350
2BA
  3
3dWireframe
350
2B9
  3
Basic
350
2B7
  3
Brighten
350
2BE
  3
ColorChange
350
2C2
  3
Conceptual
350
2BB
  3
Dim
350
2BD
  3
EdgeColorOff
350
2C5
  3
Facepattern
350
2C1
  3
Flat
350
2B3
  3
FlatWithEdges
350
2B4
  3
Gouraud
350
2B5
  3
GouraudWithEdges
350
2B6
  3
Hidden
350
5D0
  3
JitterOff
350
2C3
  3
Linepattern
350
2C0
  3
OverhangOff
350
2C4
  3
Realistic
350
2BC
  3
Shaded
350
5D5
  3
Shaded with edges
350
5D4
  3
Shades of Gray
350
5D1
  3
Sketchy
350
5D2
  3
Thicken
350
2BF
  3
Wireframe
350
5CF
  3
X-Ray
350
5D3
  0
WIPEOUTVARIABLES
  5
23
330
19
100
AcDbWipeoutVariables
 70
     1
  0
XRECORD
  5
5E3
102
{ACAD_REACTORS
330
19
102
}
330
19
100
AcDbXrecord
280
     1
 90
        1
330
309
330
439
330
43B
  0
DICTIONARY
  5
297
330
19
100
AcDbDictionary
281
     0
  3
CANNOSCALE
350
5CA
  3
CMLEADERSTYLE
350
5C8
  3
CTABLESTYLE
350
5C7
  3
DIMASSOC
350
298
  3
DRAWORDERCTL
350
5C9
  3
INDEXCTL
350
5CC
  3
SORTENTS
350
5CB
  3
XCLIPFRAME
350
5DF
  0
DICTIONARY
  5
440
102
{ACAD_REACTORS
330
19
102
}
330
19
100
AcDbDictionary
281
     1
  0
DICTIONARY
  5
582
102
{ACAD_REACTORS
330
19
102
}
330
19
100
AcDbDictionary
281
     1
  3
ASEBlockHierarchyIndexRecord
350
584
1001
DCO15
1040
1713678395.014
  0
XRECORD
  5
5E4
102
{ACAD_REACTORS
330
19
102
}
330
19
100
AcDbXrecord
280
     1
  1
DWGPROPS COOKIE
  2

  3

  4

  6

  7

  8
mpistoia
  9

300
=
301
=
302
=
303
=
304
=
305
=
306
=
307
=
308
=
309
=
 40
0.0010749421296296
 41
2455560.443258773
 42
2455637.452534884
  1

 90
        0
  0
DICTIONARY
  5
418
102
{ACAD_REACTORS
330
19
102
}
330
19
100
AcDbDictionary
281
     1
  3
UCNT
350
419
  0
DICTIONARY
  5
415
102
{ACAD_REACTORS
330
19
102
}
330
19
100
AcDbDictionary
281
     1
  3
DEFAULT
350
416
  0
DICTIONARY
  5
417
102
{ACAD_REACTORS
330
19
102
}
330
19
100
AcDbDictionary
281
     1
  0
DICTIONARY
  5
57E
102
{ACAD_REACTORS
330
19
102
}
330
19
100
AcDbDictionary
281
     1
  3
TOP
350
580
  3
X233c
350
57F
  0
DICTIONARY
  5
41F
102
{ACAD_REACTORS
330
19
102
}
330
19
100
AcDbDictionary
281
     1
  3
colors
350
420
  0
XRECORD
  5
557
102
{ACAD_REACTORS
330
556
102
}
330
556
100
AcDbXrecord
280
     1
290
     1
  0
XRECORD
  5
559
102
{ACAD_REACTORS
330
558
102
}
330
558
100
AcDbXrecord
280
     1
290
     1
  0
XRECORD
  5
55B
102
{ACAD_REACTORS
330
55A
102
}
330
55A
100
AcDbXrecord
280
     1
290
     1
  0
XRECORD
  5
55D
102
{ACAD_REACTORS
330
55C
102
}
330
55C
100
AcDbXrecord
280
     1
290
     1
  0
XRECORD
  5
55F
102
{ACAD_REACTORS
330
55E
102
}
330
55E
100
AcDbXrecord
280
     1
290
     1
  0
XRECORD
  5
561
102
{ACAD_REACTORS
330
560
102
}
330
560
100
AcDbXrecord
280
     1
290
     1
  0
XRECORD
  5
563
102
{ACAD_REACTORS
330
562
102
}
330
562
100
AcDbXrecord
280
     1
290
     1
  0
XRECORD
  5
565
102
{ACAD_REACTORS
330
564
102
}
330
564
100
AcDbXrecord
280
     1
290
     1
  0
XRECORD
  5
567
102
{ACAD_REACTORS
330
566
102
}
330
566
100
AcDbXrecord
280
     1
290
     1
  0
XRECORD
  5
569
102
{ACAD_REACTORS
330
568
102
}
330
568
100
AcDbXrecord
280
     1
290
     1
  0
XRECORD
  5
56B
102
{ACAD_REACTORS
330
56A
102
}
330
56A
100
AcDbXrecord
280
     1
290
     1
  0
XRECORD
  5
56D
102
{ACAD_REACTORS
330
56C
102
}
330
56C
100
AcDbXrecord
280
     1
290
     1
  0
XRECORD
  5
56F
102
{ACAD_REACTORS
330
56E
102
}
330
56E
100
AcDbXrecord
280
     1
290
     1
  0
XRECORD
  5
571
102
{ACAD_REACTORS
330
570
102
}
330
570
100
AcDbXrecord
280
     1
290
     1
  0
XRECORD
  5
573
102
{ACAD_REACTORS
330
572
102
}
330
572
100
AcDbXrecord
280
     1
290
     1
  0
XRECORD
  5
575
102
{ACAD_REACTORS
330
574
102
}
330
574
100
AcDbXrecord
280
     1
290
     1
  0
XRECORD
  5
577
102
{ACAD_REACTORS
330
576
102
}
330
576
100
AcDbXrecord
280
     1
290
     1
  0
XRECORD
  5
579
102
{ACAD_REACTORS
330
578
102
}
330
578
100
AcDbXrecord
280
     1
290
     1
  0
XRECORD
  5
57B
102
{ACAD_REACTORS
330
57A
102
}
330
57A
100
AcDbXrecord
280
     1
290
     1
  0
XRECORD
  5
57D
102
{ACAD_REACTORS
330
57C
102
}
330
57C
100
AcDbXrecord
280
     1
290
     1
  0
LAYOUT
  5
21
102
{ACAD_XDICTIONARY
360
5E7
102
}
102
{ACAD_REACTORS
330
1E
102
}
330
1E
100
AcDbPlotSettings
  1

  2

  4

  6

 40
0.0
 41
0.0
 42
0.0
 43
0.0
 44
0.0
 45
0.0
 46
0.0
 47
0.0
 48
0.0
 49
0.0
140
0.0
141
0.0
142
1.0
143
1.0
 70
     0
 72
     0
 73
     0
 74
     0
  7

 75
     0
147
1.0
148
0.0
149
0.0
100
AcDbLayout
  1
Layout1
 70
     0
 71
     1
 10
0.0
 20
0.0
 11
12.0
 21
9.0
 12
0.0
 22
0.0
 32
0.0
 14
1.000000000000000E+20
 24
1.000000000000000E+20
 34
1.000000000000000E+20
 15
-1.000000000000000E+20
 25
-1.000000000000000E+20
 35
-1.000000000000000E+20
146
0.0
 13
0.0
 23
0.0
 33
0.0
 16
1.0
 26
0.0
 36
0.0
 17
0.0
 27
1.0
 37
0.0
 76
     0
330
B
  0
LAYOUT
  5
20
102
{ACAD_XDICTIONARY
360
5E5
102
}
102
{ACAD_REACTORS
330
1E
102
}
330
1E
100
AcDbPlotSettings
  1

  2

  4

  6

 40
0.0
 41
0.0
 42
0.0
 43
0.0
 44
0.0
 45
0.0
 46
0.0
 47
0.0
 48
0.0
 49
0.0
140
0.0
141
0.0
142
1.0
143
1.0
 70
  1024
 72
     0
 73
     0
 74
     0
  7

 75
     0
147
1.0
148
0.0
149
0.0
100
AcDbLayout
  1
Model
 70
     0
 71
     0
 10
0.0
 20
0.0
 11
0.0
 21
0.0
 12
0.0
 22
0.0
 32
0.0
 14
0.0
 24
0.0
 34
0.0
 15
0.0
 25
0.0
 35
0.0
146
0.0
 13
0.0
 23
0.0
 33
0.0
 16
0.0
 26
0.0
 36
0.0
 17
0.0
 27
0.0
 37
0.0
 76
     0
330
A
331
15
  0
MATERIAL
  5
2A2
102
{ACAD_XDICTIONARY
360
2A3
102
}
102
{ACAD_REACTORS
330
299
102
}
330
299
100
AcDbMaterial
  1
ByBlock
 72
     0
 43
0.0208333333333333
 43
0.0
 43
0.0
 43
0.0
 43
0.0
 43
0.0208333333333333
 43
0.0
 43
0.0
 43
0.0
 43
0.0
 43
1.0
 43
0.0
 43
0.0
 43
0.0
 43
0.0
 43
1.0
 77
     0
 47
0.0208333333333333
 47
0.0
 47
0.0
 47
0.0
 47
0.0
 47
0.0208333333333333
 47
0.0
 47
0.0
 47
0.0
 47
0.0
 47
1.0
 47
0.0
 47
0.0
 47
0.0
 47
0.0
 47
1.0
171
     0
 49
0.0208333333333333
 49
0.0
 49
0.0
 49
0.0
 49
0.0
 49
0.0208333333333333
 49
0.0
 49
0.0
 49
0.0
 49
0.0
 49
1.0
 49
0.0
 49
0.0
 49
0.0
 49
0.0
 49
1.0
175
     0
142
0.0208333333333333
142
0.0
142
0.0
142
0.0
142
0.0
142
0.0208333333333333
142
0.0
142
0.0
142
0.0
142
0.0
142
1.0
142
0.0
142
0.0
142
0.0
142
0.0
142
1.0
179
     0
144
0.0208333333333333
144
0.0
144
0.0
144
0.0
144
0.0
144
0.0208333333333333
144
0.0
144
0.0
144
0.0
144
0.0
144
1.0
144
0.0
144
0.0
144
0.0
144
0.0
144
1.0
147
0.0208333333333333
147
0.0
147
0.0
147
0.0
147
0.0
147
0.0208333333333333
147
0.0
147
0.0
147
0.0
147
0.0
147
1.0
147
0.0
147
0.0
147
0.0
147
0.0
147
1.0
  0
MATERIAL
  5
29A
102
{ACAD_XDICTIONARY
360
29B
102
}
102
{ACAD_REACTORS
330
299
102
}
330
299
100
AcDbMaterial
  1
ByLayer
 72
     0
 43
0.0208333333333333
 43
0.0
 43
0.0
 43
0.0
 43
0.0
 43
0.0208333333333333
 43
0.0
 43
0.0
 43
0.0
 43
0.0
 43
1.0
 43
0.0
 43
0.0
 43
0.0
 43
0.0
 43
1.0
 77
     0
 47
0.0208333333333333
 47
0.0
 47
0.0
 47
0.0
 47
0.0
 47
0.0208333333333333
 47
0.0
 47
0.0
 47
0.0
 47
0.0
 47
1.0
 47
0.0
 47
0.0
 47
0.0
 47
0.0
 47
1.0
171
     0
 49
0.0208333333333333
 49
0.0
 49
0.0
 49
0.0
 49
0.0
 49
0.0208333333333333
 49
0.0
 49
0.0
 49
0.0
 49
0.0
 49
1.0
 49
0.0
 49
0.0
 49
0.0
 49
0.0
 49
1.0
175
     0
142
0.0208333333333333
142
0.0
142
0.0
142
0.0
142
0.0
142
0.0208333333333333
142
0.0
142
0.0
142
0.0
142
0.0
142
1.0
142
0.0
142
0.0
142
0.0
142
0.0
142
1.0
179
     0
144
0.0208333333333333
144
0.0
144
0.0
144
0.0
144
0.0
144
0.0208333333333333
144
0.0
144
0.0
144
0.0
144
0.0
144
1.0
144
0.0
144
0.0
144
0.0
144
0.0
144
1.0
147
0.0208333333333333
147
0.0
147
0.0
147
0.0
147
0.0
147
0.0208333333333333
147
0.0
147
0.0
147
0.0
147
0.0
147
1.0
147
0.0
147
0.0
147
0.0
147
0.0
147
1.0
  0
MATERIAL
  5
2AA
102
{ACAD_XDICTIONARY
360
2AB
102
}
102
{ACAD_REACTORS
330
299
102
}
330
299
100
AcDbMaterial
  1
Global
 72
     0
 43
0.0208333333333333
 43
0.0
 43
0.0
 43
0.0
 43
0.0
 43
0.0208333333333333
 43
0.0
 43
0.0
 43
0.0
 43
0.0
 43
1.0
 43
0.0
 43
0.0
 43
0.0
 43
0.0
 43
1.0
 77
     0
 47
0.0208333333333333
 47
0.0
 47
0.0
 47
0.0
 47
0.0
 47
0.0208333333333333
 47
0.0
 47
0.0
 47
0.0
 47
0.0
 47
1.0
 47
0.0
 47
0.0
 47
0.0
 47
0.0
 47
1.0
171
     0
 49
0.0208333333333333
 49
0.0
 49
0.0
 49
0.0
 49
0.0
 49
0.0208333333333333
 49
0.0
 49
0.0
 49
0.0
 49
0.0
 49
1.0
 49
0.0
 49
0.0
 49
0.0
 49
0.0
 49
1.0
175
     0
142
0.0208333333333333
142
0.0
142
0.0
142
0.0
142
0.0
142
0.0208333333333333
142
0.0
142
0.0
142
0.0
142
0.0
142
1.0
142
0.0
142
0.0
142
0.0
142
0.0
142
1.0
179
     0
144
0.0208333333333333
144
0.0
144
0.0
144
0.0
144
0.0
144
0.0208333333333333
144
0.0
144
0.0
144
0.0
144
0.0
144
1.0
144
0.0
144
0.0
144
0.0
144
0.0
144
1.0
147
0.0208333333333333
147
0.0
147
0.0
147
0.0
147
0.0
147
0.0208333333333333
147
0.0
147
0.0
147
0.0
147
0.0
147
1.0
147
0.0
147
0.0
147
0.0
147
0.0
147
1.0
  0
MLEADERSTYLE
  5
30F
102
{ACAD_REACTORS
330
30E
102
}
330
30E
100
AcDbMLeaderStyle
170
     2
171
     1
172
     0
 90
        2
 40
0.0
 41
0.0
173
     1
 91
-1056964608
340
11
 92
       -2
290
     1
 42
0.09
291
     1
 43
0.36
  3
Standard
 44
0.18
300

342
17
174
     1
178
     6
175
     1
176
     0
 93
-1056964608
 45
0.18
292
     0
297
     0
 46
0.18
 94
-1056964608
 47
1.0
 49
1.0
140
1.0
293
     1
141
0.0
294
     1
177
     0
142
1.0
295
     0
296
     0
143
0.125
1001
ACAD_MLEADERVER
1070
     2
  0
MLINESTYLE
  5
1C
102
{ACAD_REACTORS
330
1B
102
}
330
1B
100
AcDbMlineStyle
  2
STANDARD
 70
     0
  3

 62
     0
 51
90.0
 52
90.0
 71
     2
 49
0.5
 62
   256
  6
BYLAYER
 49
-0.5
 62
   256
  6
BYLAYER
  0
PLOTSETTINGS
  5
434
102
{ACAD_XDICTIONARY
360
613
102
}
102
{ACAD_REACTORS
330
22
102
}
330
22
100
AcDbPlotSettings
  1
Kyocera_1010 OR
  2
Kyocera_1010.pc3
  4
A4
  6

 40
4.984749794006347
 41
5.154074668884277
 42
5.111740112304687
 43
4.9847412109375
 44
210.0156707763672
 45
297.0106506347656
 46
0.0
 47
109.7870247470818
 48
0.0
 49
0.0
140
0.0
141
0.0
142
1.0
143
0.6770771918566143
 70
 11956
 72
     1
 73
     1
 74
     1
  7
DIERRE BN.ctb
 75
     0
147
1.476936473458659
148
-222.4649060220283
149
-239.0808115236937
1001
ACAD_PSEXT
1000
Kyocera_1010.pc3
1000
Kyocera Mita FS-1010 KX
1000
\\PC5
1000

1070
     0
  0
PLOTSETTINGS
  5
435
102
{ACAD_XDICTIONARY
360
615
102
}
102
{ACAD_REACTORS
330
22
102
}
330
22
100
AcDbPlotSettings
  1
Kyocera_1010 VER
  2
Kyocera_1010.pc3
  4
A4
  6

 40
4.984749794006347
 41
5.154074668884277
 42
5.111740112304687
 43
4.9847412109375
 44
210.0156707763672
 45
297.0106506347656
 46
51.67548120477697
 47
0.0
 48
0.0
 49
0.0
140
0.0
141
0.0
142
1.0
143
0.4718508448115938
 70
 11956
 72
     1
 73
     0
 74
     1
  7
DIERRE BN.ctb
 75
     0
147
2.119313785268927
148
-222.4649060220283
149
-239.0808115236937
1001
ACAD_PSEXT
1000
Kyocera_1010.pc3
1000
Kyocera Mita FS-1010 KX
1000
\\PC5
1000

1070
     0
  0
PLOTSETTINGS
  5
436
102
{ACAD_XDICTIONARY
360
617
102
}
102
{ACAD_REACTORS
330
22
102
}
330
22
100
AcDbPlotSettings
  1
Olivetti_200 A3
  2
Olivetti_200.pc3
  4
A3
  6

 40
4.984749794006347
 41
5.111746788024902
 42
5.154083251953125
 43
4.9847412109375
 44
297.0106506347656
 45
419.9889831542968
 46
0.0
 47
156.6621412366913
 48
0.0
 49
0.0
140
0.0
141
0.0
142
1.0
143
0.4718508730467012
 70
 11956
 72
     1
 73
     1
 74
     1
  7
DIERRE BN.ctb
 75
     0
147
2.119313658451206
148
-222.4649060220283
149
-239.0808115236937
1001
ACAD_PSEXT
1000
Olivetti_200.pc3
1000
Olivetti d-Copia 200MF KX
1000
IP_192.168.1.151
1000

1070
     0
  0
PLOTSETTINGS
  5
437
102
{ACAD_XDICTIONARY
360
619
102
}
102
{ACAD_REACTORS
330
22
102
}
330
22
100
AcDbPlotSettings
  1
Olivetti_200 A4
  2
Olivetti_200.pc3
  4
A4
  6

 40
4.984749794006347
 41
5.154074668884277
 42
5.111740112304687
 43
4.9847412109375
 44
210.0156707763672
 45
297.0106506347656
 46
51.67548120477697
 47
0.0
 48
0.0
 49
0.0
140
0.0
141
0.0
142
1.0
143
0.4718508448115938
 70
 11956
 72
     1
 73
     0
 74
     1
  7
DIERRE BN.ctb
 75
     0
147
2.119313785268927
148
-222.4649060220283
149
-239.0808115236937
1001
ACAD_PSEXT
1000
Olivetti_200.pc3
1000
Olivetti d-Copia 200MF KX
1000
IP_192.168.1.151
1000

1070
     0
  0
PLOTSETTINGS
  5
438
102
{ACAD_XDICTIONARY
360
61B
102
}
102
{ACAD_REACTORS
330
22
102
}
330
22
100
AcDbPlotSettings
  1
PLOTTER
  2
PLOTTER.pc3
  4
User622
  6

 40
0.0
 41
0.0
 42
0.0
 43
0.0
 44
841.0
 45
1189.0
 46
0.0
 47
0.0
 48
0.0
 49
0.0
140
0.0
141
0.0
142
1.0
143
1.0
 70
 11936
 72
     1
 73
     0
 74
     1
  7
DIERRE BN.ctb
 75
     0
147
2.194137304425714
148
-222.4649060220283
149
-239.0808115236937
1001
ACAD_PSEXT
1000
PLOTTER.pc3
1000
HP DesignJet 430 (E/A0) by HP
1000
\\SERVER2003
1000

1070
     0
  0
ACDBPLACEHOLDER
  5
1D
102
{ACAD_REACTORS
330
1F
102
}
330
1F
  0
SCALE
  5
2C8
102
{ACAD_REACTORS
330
2C7
102
}
330
2C7
100
AcDbScale
 70
     0
300
1:1
140
1.0
141
1.0
290
     1
  0
SCALE
  5
2C9
102
{ACAD_REACTORS
330
2C7
102
}
330
2C7
100
AcDbScale
 70
     0
300
1:2
140
1.0
141
2.0
290
     0
  0
SCALE
  5
2CA
102
{ACAD_REACTORS
330
2C7
102
}
330
2C7
100
AcDbScale
 70
     0
300
1:4
140
1.0
141
4.0
290
     0
  0
SCALE
  5
2CB
102
{ACAD_REACTORS
330
2C7
102
}
330
2C7
100
AcDbScale
 70
     0
300
1:5
140
1.0
141
5.0
290
     0
  0
SCALE
  5
2CC
102
{ACAD_REACTORS
330
2C7
102
}
330
2C7
100
AcDbScale
 70
     0
300
1:8
140
1.0
141
8.0
290
     0
  0
SCALE
  5
2CD
102
{ACAD_REACTORS
330
2C7
102
}
330
2C7
100
AcDbScale
 70
     0
300
1:10
140
1.0
141
10.0
290
     0
  0
SCALE
  5
2CE
102
{ACAD_REACTORS
330
2C7
102
}
330
2C7
100
AcDbScale
 70
     0
300
1:16
140
1.0
141
16.0
290
     0
  0
SCALE
  5
2CF
102
{ACAD_REACTORS
330
2C7
102
}
330
2C7
100
AcDbScale
 70
     0
300
1:20
140
1.0
141
20.0
290
     0
  0
SCALE
  5
2D0
102
{ACAD_REACTORS
330
2C7
102
}
330
2C7
100
AcDbScale
 70
     0
300
1:30
140
1.0
141
30.0
290
     0
  0
SCALE
  5
2D1
102
{ACAD_REACTORS
330
2C7
102
}
330
2C7
100
AcDbScale
 70
     0
300
1:40
140
1.0
141
40.0
290
     0
  0
SCALE
  5
2D2
102
{ACAD_REACTORS
330
2C7
102
}
330
2C7
100
AcDbScale
 70
     0
300
1:50
140
1.0
141
50.0
290
     0
  0
SCALE
  5
2D3
102
{ACAD_REACTORS
330
2C7
102
}
330
2C7
100
AcDbScale
 70
     0
300
1:100
140
1.0
141
100.0
290
     0
  0
SCALE
  5
2D4
102
{ACAD_REACTORS
330
2C7
102
}
330
2C7
100
AcDbScale
 70
     0
300
2:1
140
2.0
141
1.0
290
     0
  0
SCALE
  5
2D5
102
{ACAD_REACTORS
330
2C7
102
}
330
2C7
100
AcDbScale
 70
     0
300
4:1
140
4.0
141
1.0
290
     0
  0
SCALE
  5
2D6
102
{ACAD_REACTORS
330
2C7
102
}
330
2C7
100
AcDbScale
 70
     0
300
8:1
140
8.0
141
1.0
290
     0
  0
SCALE
  5
2D7
102
{ACAD_REACTORS
330
2C7
102
}
330
2C7
100
AcDbScale
 70
     0
300
10:1
140
10.0
141
1.0
290
     0
  0
SCALE
  5
2D8
102
{ACAD_REACTORS
330
2C7
102
}
330
2C7
100
AcDbScale
 70
     0
300
100:1
140
100.0
141
1.0
290
     0
  0
SCALE
  5
2D9
102
{ACAD_REACTORS
330
2C7
102
}
330
2C7
100
AcDbScale
 70
     0
300
1/128" = 1'-0"
140
0.0078125
141
12.0
290
     0
  0
SCALE
  5
2DA
102
{ACAD_REACTORS
330
2C7
102
}
330
2C7
100
AcDbScale
 70
     0
300
1/64" = 1'-0"
140
0.015625
141
12.0
290
     0
  0
SCALE
  5
2DB
102
{ACAD_REACTORS
330
2C7
102
}
330
2C7
100
AcDbScale
 70
     0
300
1/32" = 1'-0"
140
0.03125
141
12.0
290
     0
  0
SCALE
  5
2DC
102
{ACAD_REACTORS
330
2C7
102
}
330
2C7
100
AcDbScale
 70
     0
300
1/16" = 1'-0"
140
0.0625
141
12.0
290
     0
  0
SCALE
  5
2DD
102
{ACAD_REACTORS
330
2C7
102
}
330
2C7
100
AcDbScale
 70
     0
300
3/32" = 1'-0"
140
0.09375
141
12.0
290
     0
  0
SCALE
  5
2DE
102
{ACAD_REACTORS
330
2C7
102
}
330
2C7
100
AcDbScale
 70
     0
300
1/8" = 1'-0"
140
0.125
141
12.0
290
     0
  0
SCALE
  5
2DF
102
{ACAD_REACTORS
330
2C7
102
}
330
2C7
100
AcDbScale
 70
     0
300
3/16" = 1'-0"
140
0.1875
141
12.0
290
     0
  0
SCALE
  5
2E0
102
{ACAD_REACTORS
330
2C7
102
}
330
2C7
100
AcDbScale
 70
     0
300
1/4" = 1'-0"
140
0.25
141
12.0
290
     0
  0
SCALE
  5
2E1
102
{ACAD_REACTORS
330
2C7
102
}
330
2C7
100
AcDbScale
 70
     0
300
3/8" = 1'-0"
140
0.375
141
12.0
290
     0
  0
SCALE
  5
2E2
102
{ACAD_REACTORS
330
2C7
102
}
330
2C7
100
AcDbScale
 70
     0
300
1/2" = 1'-0"
140
0.5
141
12.0
290
     0
  0
SCALE
  5
2E3
102
{ACAD_REACTORS
330
2C7
102
}
330
2C7
100
AcDbScale
 70
     0
300
3/4" = 1'-0"
140
0.75
141
12.0
290
     0
  0
SCALE
  5
2E4
102
{ACAD_REACTORS
330
2C7
102
}
330
2C7
100
AcDbScale
 70
     0
300
1" = 1'-0"
140
1.0
141
12.0
290
     0
  0
SCALE
  5
2E5
102
{ACAD_REACTORS
330
2C7
102
}
330
2C7
100
AcDbScale
 70
     0
300
1-1/2" = 1'-0"
140
1.5
141
12.0
290
     0
  0
SCALE
  5
2E6
102
{ACAD_REACTORS
330
2C7
102
}
330
2C7
100
AcDbScale
 70
     0
300
3" = 1'-0"
140
3.0
141
12.0
290
     0
  0
SCALE
  5
2E7
102
{ACAD_REACTORS
330
2C7
102
}
330
2C7
100
AcDbScale
 70
     0
300
6" = 1'-0"
140
6.0
141
12.0
290
     0
  0
SCALE
  5
2E8
102
{ACAD_REACTORS
330
2C7
102
}
330
2C7
100
AcDbScale
 70
     0
300
1'-0" = 1'-0"
140
12.0
141
12.0
290
     0
  0
TABLESTYLE
  5
439
102
{ACAD_XDICTIONARY
360
43A
102
}
102
{ACAD_REACTORS
330
308
102
}
330
308
100
AcDbTableStyle
  3
Standard
 70
     1
 71
     0
 40
1.5
 41
1.5
280
     1
281
     0
  7
ROMANS
140
3.0
170
     5
 62
     7
 63
     7
283
     0
274
    -2
284
     1
 64
     0
275
    -2
285
     1
 65
     0
276
    -2
286
     1
 66
     0
277
    -2
287
     1
 67
     0
278
    -2
288
     1
 68
     0
279
    -2
289
     1
 69
     0
  7
ROMANS
140
6.0
170
     5
 62
     1
 63
     7
283
     0
274
    -2
284
     1
 64
     0
275
    -2
285
     1
 65
     0
276
    -2
286
     1
 66
     0
277
    -2
287
     1
 67
     0
278
    -2
288
     1
 68
     0
279
    -2
289
     1
 69
     0
  7
ROMANS
140
3.5
170
     5
 62
     3
 63
     7
283
     0
274
    -2
284
     1
 64
     0
275
    -2
285
     1
 65
     0
276
    -2
286
     1
 66
     0
277
    -2
287
     1
 67
     0
278
    -2
288
     1
 68
     0
279
    -2
289
     1
 69
     0
  0
TABLESTYLE
  5
43B
102
{ACAD_XDICTIONARY
360
43C
102
}
102
{ACAD_REACTORS
330
308
102
}
330
308
100
AcDbTableStyle
  3
Standard
 70
     0
 71
     0
 40
1.5
 41
1.5
280
     0
281
     0
  7
ROMANS
140
4.5
170
     5
 62
     7
 63
     7
283
     0
274
    -2
284
     1
 64
     0
275
    -2
285
     1
 65
     0
276
    -2
286
     1
 66
     0
277
    -2
287
     1
 67
     0
278
    -2
288
     1
 68
     0
279
    -2
289
     1
 69
     0
  7
ROMANS
140
6.0
170
     5
 62
     1
 63
     7
283
     0
274
    -2
284
     1
 64
     0
275
    -2
285
     1
 65
     0
276
    -2
286
     1
 66
     0
277
    -2
287
     1
 67
     0
278
    -2
288
     1
 68
     0
279
    -2
289
     1
 69
     0
  7
ROMANS
140
5.0
170
     5
 62
     3
 63
     7
283
     0
274
    -2
284
     1
 64
     0
275
    -2
285
     1
 65
     0
276
    -2
286
     1
 66
     0
277
    -2
287
     1
 67
     0
278
    -2
288
     1
 68
     0
279
    -2
289
     1
 69
     0
  0
TABLESTYLE
  5
309
102
{ACAD_XDICTIONARY
360
585
102
}
102
{ACAD_REACTORS
330
308
102
}
330
308
100
AcDbTableStyle
  3
Standard
 70
     0
 71
     0
 40
0.06
 41
0.06
280
     0
281
     0
  7
Standard
140
0.18
170
     2
 62
     0
 63
     7
283
     0
274
    -2
284
     1
 64
     0
275
    -2
285
     1
 65
     0
276
    -2
286
     1
 66
     0
277
    -2
287
     1
 67
     0
278
    -2
288
     1
 68
     0
279
    -2
289
     1
 69
     0
  7
Standard
140
0.25
170
     5
 62
     0
 63
     7
283
     0
274
    -2
284
     1
 64
     0
275
    -2
285
     1
 65
     0
276
    -2
286
     1
 66
     0
277
    -2
287
     1
 67
     0
278
    -2
288
     1
 68
     0
279
    -2
289
     1
 69
     0
  7
Standard
140
0.18
170
     5
 62
     0
 63
     7
283
     0
274
    -2
284
     1
 64
     0
275
    -2
285
     1
 65
     0
276
    -2
286
     1
 66
     0
277
    -2
287
     1
 67
     0
278
    -2
288
     1
 68
     0
279
    -2
289
     1
 69
     0
  0
VISUALSTYLE
  5
2B8
102
{ACAD_XDICTIONARY
360
5F6
102
}
102
{ACAD_REACTORS
330
2B2
102
}
330
2B2
100
AcDbVisualStyle
  2
2dWireframe
 70
     4
 71
     0
 72
     2
 73
     0
 90
        0
 40
-0.6
 41
-30.0
 62
     5
 63
     7
 74
     1
 91
        4
 64
     7
 65
   257
 75
     1
175
     1
 42
1.0
 92
        0
 66
   257
 43
1.0
 76
     1
 77
     6
 78
     2
 67
     7
 79
     5
170
     0
171
     0
290
     0
174
     0
 93
        1
 44
0.0
173
     0
291
     0
 45
0.0
1001
ACAD
1000
AcDbSavedByObjectVersion
1070
     0
  0
VISUALSTYLE
  5
2BA
102
{ACAD_XDICTIONARY
360
5FA
102
}
102
{ACAD_REACTORS
330
2B2
102
}
330
2B2
100
AcDbVisualStyle
  2
3D Hidden
 70
     6
 71
     1
 72
     2
 73
     2
 90
        0
 40
-0.6
 41
-30.0
 62
     5
 63
     7
 74
     2
 91
        2
 64
     7
 65
   257
 75
     2
175
     1
 42
179.0
 92
        0
 66
   257
 43
1.0
 76
     1
 77
     6
 78
     2
 67
     7
 79
     3
170
     0
171
     0
290
     0
174
     0
 93
        1
 44
0.0
173
     0
291
     0
 45
0.0
1001
ACAD
1000
AcDbSavedByObjectVersion
1070
     0
  0
VISUALSTYLE
  5
2B9
102
{ACAD_XDICTIONARY
360
5F8
102
}
102
{ACAD_REACTORS
330
2B2
102
}
330
2B2
100
AcDbVisualStyle
  2
3dWireframe
 70
     5
 71
     0
 72
     2
 73
     0
 90
        0
 40
-0.6
 41
-30.0
 62
     5
 63
     7
 74
     1
 91
        4
 64
     7
 65
   257
 75
     1
175
     1
 42
1.0
 92
        0
 66
   257
 43
1.0
 76
     1
 77
     6
 78
     2
 67
     7
 79
     5
170
     0
171
     0
290
     0
174
     0
 93
        1
 44
0.0
173
     0
291
     0
 45
0.0
1001
ACAD
1000
AcDbSavedByObjectVersion
1070
     0
  0
VISUALSTYLE
  5
2B7
102
{ACAD_XDICTIONARY
360
5F4
102
}
102
{ACAD_REACTORS
330
2B2
102
}
330
2B2
100
AcDbVisualStyle
  2
Basic
 70
     7
 71
     1
 72
     0
 73
     1
 90
        0
 40
-0.6
 41
-30.0
 62
     5
 63
     7
 74
     0
 91
        4
 64
     7
 65
   257
 75
     1
175
     1
 42
1.0
 92
        8
 66
     7
 43
1.0
 76
     1
 77
     6
 78
     2
 67
     7
 79
     5
170
     0
171
     0
290
     0
174
     0
 93
        1
 44
0.0
173
     0
291
     1
 45
0.0
1001
ACAD
1000
AcDbSavedByObjectVersion
1070
     0
  0
VISUALSTYLE
  5
2BE
102
{ACAD_XDICTIONARY
360
602
102
}
102
{ACAD_REACTORS
330
2B2
102
}
330
2B2
100
AcDbVisualStyle
  2
Brighten
 70
    12
 71
     2
 72
     2
 73
     0
 90
        0
 40
-0.6
 41
-30.0
 62
     5
 63
     7
 74
     1
 91
        4
 64
     7
 65
   257
 75
     1
175
     1
 42
1.0
 92
        8
 66
     7
 43
1.0
 76
     1
 77
     6
 78
     2
 67
     7
 79
     5
170
     0
171
     0
290
     0
174
     0
 93
        1
 44
50.0
173
     0
291
     1
 45
0.0
1001
ACAD
1000
AcDbSavedByObjectVersion
1070
     0
  0
VISUALSTYLE
  5
2C2
102
{ACAD_XDICTIONARY
360
60A
102
}
102
{ACAD_REACTORS
330
2B2
102
}
330
2B2
100
AcDbVisualStyle
  2
ColorChange
 70
    16
 71
     2
 72
     2
 73
     3
 90
        0
 40
-0.6
 41
-30.0
 62
     5
 63
     8
 74
     1
 91
        4
 64
     7
 65
   257
 75
     1
175
     1
 42
1.0
 92
        8
 66
     8
 43
1.0
 76
     1
 77
     6
 78
     2
 67
     7
 79
     5
170
     0
171
     0
290
     0
174
     0
 93
        1
 44
0.0
173
     0
291
     1
 45
0.0
1001
ACAD
1000
AcDbSavedByObjectVersion
1070
     0
  0
VISUALSTYLE
  5
2BB
102
{ACAD_XDICTIONARY
360
5FC
102
}
102
{ACAD_REACTORS
330
2B2
102
}
330
2B2
100
AcDbVisualStyle
  2
Conceptual
 70
     9
 71
     3
 72
     2
 73
     0
 90
        0
 40
-0.6
 41
-30.0
 62
     5
 63
     7
 74
     2
 91
        2
 64
     7
 65
   257
 75
     1
175
     1
 42
179.0
 92
        8
 66
     7
 43
1.0
 76
     1
 77
     6
 78
     2
 67
     7
 79
     3
170
     0
171
     0
290
     0
174
     0
 93
        1
 44
0.0
173
     0
291
     0
 45
0.0
1001
ACAD
1000
AcDbSavedByObjectVersion
1070
     0
  0
VISUALSTYLE
  5
2BD
102
{ACAD_XDICTIONARY
360
600
102
}
102
{ACAD_REACTORS
330
2B2
102
}
330
2B2
100
AcDbVisualStyle
  2
Dim
 70
    11
 71
     2
 72
     2
 73
     0
 90
        0
 40
-0.6
 41
-30.0
 62
     5
 63
     7
 74
     1
 91
        4
 64
     7
 65
   257
 75
     1
175
     1
 42
1.0
 92
        8
 66
     7
 43
1.0
 76
     1
 77
     6
 78
     2
 67
     7
 79
     5
170
     0
171
     0
290
     0
174
     0
 93
        1
 44
-50.0
173
     0
291
     1
 45
0.0
1001
ACAD
1000
AcDbSavedByObjectVersion
1070
     0
  0
VISUALSTYLE
  5
2C5
102
{ACAD_XDICTIONARY
360
610
102
}
102
{ACAD_REACTORS
330
2B2
102
}
330
2B2
100
AcDbVisualStyle
  2
EdgeColorOff
 70
    22
 71
     2
 72
     2
 73
     0
 90
        0
 40
-0.6
 41
-30.0
 62
     5
 63
     7
 74
     1
 91
        4
 64
     7
 65
   257
 75
     1
175
     1
 42
1.0
 92
        8
 66
     7
 43
1.0
 76
     1
 77
     6
 78
     2
 67
     7
 79
     5
170
     0
171
     0
290
     0
174
     0
 93
        1
 44
0.0
173
     0
291
     1
 45
0.0
1001
ACAD
1000
AcDbSavedByObjectVersion
1070
     0
  0
VISUALSTYLE
  5
2C1
102
{ACAD_XDICTIONARY
360
608
102
}
102
{ACAD_REACTORS
330
2B2
102
}
330
2B2
100
AcDbVisualStyle
  2
Facepattern
 70
    15
 71
     2
 72
     2
 73
     0
 90
        0
 40
-0.6
 41
-30.0
 62
     5
 63
     7
 74
     1
 91
        4
 64
     7
 65
   257
 75
     1
175
     1
 42
1.0
 92
        8
 66
     7
 43
1.0
 76
     1
 77
     6
 78
     2
 67
     7
 79
     5
170
     0
171
     0
290
     0
174
     0
 93
        1
 44
0.0
173
     0
291
     1
 45
0.0
1001
ACAD
1000
AcDbSavedByObjectVersion
1070
     0
  0
VISUALSTYLE
  5
2B3
102
{ACAD_XDICTIONARY
360
5EC
102
}
102
{ACAD_REACTORS
330
2B2
102
}
330
2B2
100
AcDbVisualStyle
  2
Flat
 70
     0
 71
     2
 72
     1
 73
     1
 90
        2
 40
-0.6
 41
30.0
 62
     5
 63
     7
 74
     0
 91
        4
 64
     7
 65
   257
 75
     1
175
     1
 42
1.0
 92
        8
 66
     7
 43
1.0
 76
     1
 77
     6
 78
     2
 67
     7
 79
     5
170
     0
171
     0
290
     0
174
     0
 93
       13
 44
0.0
173
     0
291
     1
 45
0.0
1001
ACAD
1000
AcDbSavedByObjectVersion
1070
     0
  0
VISUALSTYLE
  5
2B4
102
{ACAD_XDICTIONARY
360
5EE
102
}
102
{ACAD_REACTORS
330
2B2
102
}
330
2B2
100
AcDbVisualStyle
  2
FlatWithEdges
 70
     1
 71
     2
 72
     1
 73
     1
 90
        2
 40
-0.6
 41
30.0
 62
     5
 63
     7
 74
     1
 91
        4
 64
     7
 65
   257
 75
     1
175
     1
 42
1.0
 92
        0
 66
   257
 43
1.0
 76
     1
 77
     6
 78
     2
 67
     7
 79
     5
170
     0
171
     0
290
     0
174
     0
 93
       13
 44
0.0
173
     0
291
     1
 45
0.0
1001
ACAD
1000
AcDbSavedByObjectVersion
1070
     0
  0
VISUALSTYLE
  5
2B5
102
{ACAD_XDICTIONARY
360
5F0
102
}
102
{ACAD_REACTORS
330
2B2
102
}
330
2B2
100
AcDbVisualStyle
  2
Gouraud
 70
     2
 71
     2
 72
     2
 73
     1
 90
        2
 40
-0.6
 41
30.0
 62
     5
 63
     7
 74
     0
 91
        4
 64
     7
 65
   257
 75
     1
175
     1
 42
1.0
 92
        0
 66
     7
 43
1.0
 76
     1
 77
     6
 78
     2
 67
     7
 79
     5
170
     0
171
     0
290
     0
174
     0
 93
       13
 44
0.0
173
     0
291
     1
 45
0.0
1001
ACAD
1000
AcDbSavedByObjectVersion
1070
     0
  0
VISUALSTYLE
  5
2B6
102
{ACAD_XDICTIONARY
360
5F2
102
}
102
{ACAD_REACTORS
330
2B2
102
}
330
2B2
100
AcDbVisualStyle
  2
GouraudWithEdges
 70
     3
 71
     2
 72
     2
 73
     1
 90
        2
 40
-0.6
 41
30.0
 62
     5
 63
     7
 74
     1
 91
        4
 64
     7
 65
   257
 75
     1
175
     1
 42
1.0
 92
        0
 66
   257
 43
1.0
 76
     1
 77
     6
 78
     2
 67
     7
 79
     5
170
     0
171
     0
290
     0
174
     0
 93
       13
 44
0.0
173
     0
291
     1
 45
0.0
1001
ACAD
1000
AcDbSavedByObjectVersion
1070
     0
  0
VISUALSTYLE
  5
5D0
102
{ACAD_XDICTIONARY
360
621
102
}
102
{ACAD_REACTORS
330
2B2
102
}
330
2B2
100
AcDbVisualStyle
  2
Hidden
 70
     6
 71
     1
 72
     2
 73
     2
 90
        0
 40
-0.6
 41
-30.0
 62
     5
 63
     7
 74
     2
 91
        2
 64
     7
 65
   257
 75
     2
175
     1
 42
40.0
 92
        0
 66
   257
 43
1.0
 76
     1
 77
     6
 78
     2
 67
     7
 79
     3
170
     0
171
     0
290
     0
174
     0
 93
        1
 44
0.0
173
     0
291
     0
 45
0.0
1001
ACAD
1000
AcDbSavedByObjectVersion
1070
     0
  0
VISUALSTYLE
  5
2C3
102
{ACAD_XDICTIONARY
360
60C
102
}
102
{ACAD_REACTORS
330
2B2
102
}
330
2B2
100
AcDbVisualStyle
  2
JitterOff
 70
    20
 71
     2
 72
     2
 73
     0
 90
        0
 40
-0.6
 41
-30.0
 62
     5
 63
     7
 74
     1
 91
        4
 64
     7
 65
   257
 75
     1
175
     1
 42
1.0
 92
       10
 66
     7
 43
1.0
 76
     1
 77
     6
 78
     2
 67
     7
 79
     5
170
     0
171
     0
290
     0
174
     0
 93
        1
 44
0.0
173
     0
291
     1
 45
0.0
1001
ACAD
1000
AcDbSavedByObjectVersion
1070
     0
  0
VISUALSTYLE
  5
2C0
102
{ACAD_XDICTIONARY
360
606
102
}
102
{ACAD_REACTORS
330
2B2
102
}
330
2B2
100
AcDbVisualStyle
  2
Linepattern
 70
    14
 71
     2
 72
     2
 73
     0
 90
        0
 40
-0.6
 41
-30.0
 62
     5
 63
     7
 74
     1
 91
        4
 64
     7
 65
   257
 75
     7
175
     7
 42
1.0
 92
        8
 66
     7
 43
1.0
 76
     1
 77
     6
 78
     2
 67
     7
 79
     5
170
     0
171
     0
290
     0
174
     0
 93
        1
 44
0.0
173
     0
291
     1
 45
0.0
1001
ACAD
1000
AcDbSavedByObjectVersion
1070
     0
  0
VISUALSTYLE
  5
2C4
102
{ACAD_XDICTIONARY
360
60E
102
}
102
{ACAD_REACTORS
330
2B2
102
}
330
2B2
100
AcDbVisualStyle
  2
OverhangOff
 70
    21
 71
     2
 72
     2
 73
     0
 90
        0
 40
-0.6
 41
-30.0
 62
     5
 63
     7
 74
     1
 91
        4
 64
     7
 65
   257
 75
     1
175
     1
 42
1.0
 92
        9
 66
     7
 43
1.0
 76
     1
 77
     6
 78
     2
 67
     7
 79
     5
170
     0
171
     0
290
     0
174
     0
 93
        1
 44
0.0
173
     0
291
     1
 45
0.0
1001
ACAD
1000
AcDbSavedByObjectVersion
1070
     0
  0
VISUALSTYLE
  5
2BC
102
{ACAD_XDICTIONARY
360
5FE
102
}
102
{ACAD_REACTORS
330
2B2
102
}
330
2B2
100
AcDbVisualStyle
  2
Realistic
 70
     8
 71
     2
 72
     2
 73
     0
 90
        0
 40
-0.6
 41
-30.0
 62
     5
 63
     7
 74
     1
 91
        0
 64
     7
 65
   257
 75
     1
175
     1
 42
1.0
 92
        8
 66
     8
 43
1.0
 76
     1
 77
     6
 78
     2
 67
     7
 79
     5
170
     0
171
     0
290
     0
174
     0
 93
       13
 44
0.0
173
     0
291
     0
 45
0.0
1001
ACAD
1000
AcDbSavedByObjectVersion
1070
     0
  0
VISUALSTYLE
  5
5D5
102
{ACAD_XDICTIONARY
360
62B
102
}
102
{ACAD_REACTORS
330
2B2
102
}
330
2B2
100
AcDbVisualStyle
  2
Shaded
 70
    27
 71
     2
 72
     2
 73
     1
 90
        2
 40
-0.6
 41
30.0
 62
     5
 63
     7
 74
     0
 91
        4
 64
     7
 65
   257
 75
     1
175
     1
 42
1.0
 92
        8
 66
   257
 43
1.0
 76
     1
 77
     6
 78
     2
 67
     8
 79
     3
170
     0
171
     0
290
     0
174
     0
 93
        5
 44
0.0
173
     0
291
     0
 45
0.0
1001
ACAD
1000
AcDbSavedByObjectVersion
1070
     0
  0
VISUALSTYLE
  5
5D4
102
{ACAD_XDICTIONARY
360
629
102
}
102
{ACAD_REACTORS
330
2B2
102
}
330
2B2
100
AcDbVisualStyle
  2
Shaded with edges
 70
    26
 71
     2
 72
     2
 73
     1
 90
        2
 40
-0.6
 41
30.0
 62
     5
 63
     7
 74
     1
 91
       10
 64
     7
 65
   257
 75
     2
175
     1
 42
1.0
 92
        8
 66
   257
 43
1.0
 76
     1
 77
     6
 78
     2
 67
     7
 79
     3
170
     0
171
     0
290
     0
174
     0
 93
        5
 44
0.0
173
     0
291
     0
 45
0.0
1001
ACAD
1000
AcDbSavedByObjectVersion
1070
     0
  0
VISUALSTYLE
  5
5D1
102
{ACAD_XDICTIONARY
360
623
102
}
102
{ACAD_REACTORS
330
2B2
102
}
330
2B2
100
AcDbVisualStyle
  2
Shades of Gray
 70
    23
 71
     2
 72
     2
 73
     3
 90
        0
 40
-0.6
 41
-30.0
 62
     5
 63
     7
 74
     2
 91
        2
 64
     7
 65
     7
 75
     1
175
     1
 42
40.0
 92
        8
 66
     7
 43
1.0
 76
     1
 77
     6
 78
     2
 67
     7
 79
     3
170
     0
171
     0
290
     0
174
     0
 93
        1
 44
0.0
173
     0
291
     0
 45
0.0
1001
ACAD
1000
AcDbSavedByObjectVersion
1070
     0
  0
VISUALSTYLE
  5
5D2
102
{ACAD_XDICTIONARY
360
625
102
}
102
{ACAD_REACTORS
330
2B2
102
}
330
2B2
100
AcDbVisualStyle
  2
Sketchy
 70
    24
 71
     1
 72
     2
 73
     2
 90
        0
 40
-0.6
 41
-30.0
 62
     5
 63
     7
 74
     2
 91
        2
 64
     7
 65
     7
 75
     1
175
     1
 42
40.0
 92
       11
 66
     7
 43
1.0
 76
     1
 77
     6
 78
     2
 67
     7
 79
     6
170
     0
171
     0
290
     0
174
     0
 93
        1
 44
0.0
173
     0
291
     0
 45
0.0
1001
ACAD
1000
AcDbSavedByObjectVersion
1070
     0
  0
VISUALSTYLE
  5
2BF
102
{ACAD_XDICTIONARY
360
604
102
}
102
{ACAD_REACTORS
330
2B2
102
}
330
2B2
100
AcDbVisualStyle
  2
Thicken
 70
    13
 71
     2
 72
     2
 73
     0
 90
        0
 40
-0.6
 41
-30.0
 62
     5
 63
     7
 74
     1
 91
        4
 64
     7
 65
   257
 75
     1
175
     1
 42
1.0
 92
       12
 66
     7
 43
1.0
 76
     1
 77
     6
 78
     2
 67
     7
 79
     5
170
     0
171
     0
290
     0
174
     0
 93
        1
 44
0.0
173
     0
291
     1
 45
0.0
1001
ACAD
1000
AcDbSavedByObjectVersion
1070
     0
  0
VISUALSTYLE
  5
5CF
102
{ACAD_XDICTIONARY
360
61F
102
}
102
{ACAD_REACTORS
330
2B2
102
}
330
2B2
100
AcDbVisualStyle
  2
Wireframe
 70
     5
 71
     0
 72
     2
 73
     0
 90
        0
 40
-0.6
 41
-30.0
 62
     5
 63
     7
 74
     1
 91
        4
 64
     7
 65
   257
 75
     1
175
     1
 42
1.0
 92
        0
 66
   257
 43
1.0
 76
     1
 77
     6
 78
     2
 67
     7
 79
     3
170
     0
171
     0
290
     0
174
     0
 93
        1
 44
0.0
173
     0
291
     0
 45
0.0
1001
ACAD
1000
AcDbSavedByObjectVersion
1070
     0
  0
VISUALSTYLE
  5
5D3
102
{ACAD_XDICTIONARY
360
627
102
}
102
{ACAD_REACTORS
330
2B2
102
}
330
2B2
100
AcDbVisualStyle
  2
X-Ray
 70
    25
 71
     2
 72
     2
 73
     1
 90
        1
 40
0.5
 41
-30.0
 62
     5
 63
     7
 74
     1
 91
        0
 64
     7
 65
   257
 75
     1
175
     1
 42
1.0
 92
        8
 66
     7
 43
1.0
 76
     1
 77
     6
 78
     2
 67
     7
 79
     3
170
     0
171
     0
290
     0
174
     0
 93
       13
 44
0.0
173
     0
291
     0
 45
0.0
1001
ACAD
1000
AcDbSavedByObjectVersion
1070
     0
  0
DICTIONARYVAR
  5
5CA
102
{ACAD_REACTORS
330
297
102
}
330
297
100
DictionaryVariables
280
     0
  1
1:1
  0
DICTIONARYVAR
  5
5C8
102
{ACAD_REACTORS
330
297
102
}
330
297
100
DictionaryVariables
280
     0
  1
STANDARD
  0
DICTIONARYVAR
  5
5C7
102
{ACAD_REACTORS
330
297
102
}
330
297
100
DictionaryVariables
280
     0
  1
STANDARD
  0
DICTIONARYVAR
  5
298
330
297
100
DictionaryVariables
280
     0
  1
2
  0
DICTIONARYVAR
  5
5C9
102
{ACAD_REACTORS
330
297
102
}
330
297
100
DictionaryVariables
280
     0
  1
0
  0
DICTIONARYVAR
  5
5CC
102
{ACAD_REACTORS
330
297
102
}
330
297
100
DictionaryVariables
280
     0
  1
0
  0
DICTIONARYVAR
  5
5CB
102
{ACAD_REACTORS
330
297
102
}
330
297
100
DictionaryVariables
280
     0
  1
127
  0
DICTIONARYVAR
  5
5DF
102
{ACAD_REACTORS
330
297
102
}
330
297
100
DictionaryVariables
280
     0
  1
2
  0
XRECORD
  5
584
102
{ACAD_REACTORS
330
582
102
}
330
582
100
AcDbXrecord
280
     1
330
7C
330
84
330
8B
330
201
330
395
330
396
330
3A0
330
3A1
330
3AB
330
3AC
330
3B6
330
3B7
330
3C1
330
3C2
330
3CC
330
3CD
330
3D7
330
3D8
330
3E0
330
3E1
330
3E9
330
3EA
330
3F2
330
3F3
330
3FB
330
3FC
330
404
330
405
330
40D
330
40E
  0
XRECORD
  5
419
102
{ACAD_REACTORS
330
418
102
}
330
418
100
AcDbXrecord
280
     1
 91
        1
  0
ACAD_PROXY_OBJECT
  5
416
102
{ACAD_REACTORS
330
415
102
}
330
415
100
AcDbProxyObject
 90
      499
 91
      529
 95
   983063
 70
     0
 93
       88
310
4050844454641554C5400E00
 94
        0
1001
ACAD
1000
AcRTDxfName
1000
ACDBQSCATEGORY
  0
XRECORD
  5
580
102
{ACAD_REACTORS
330
57E
102
}
330
57E
100
AcDbXrecord
280
     1
  9
X233c
  0
XRECORD
  5
57F
102
{ACAD_REACTORS
330
57E
102
}
330
57E
100
AcDbXrecord
280
     1
  2
TOP
  3
P-0000
280
     1
310
6465736372697A696F6E6500544F5000444154410032392F31322F313000554D004E520052455600300044495345474E41544F5245004D2E43617075616E6F005343414C4100313A310000
 10
0.0
 20
0.0
 30
0.0
  0
XRECORD
  5
420
102
{ACAD_REACTORS
330
41F
102
}
330
41F
100
AcDbXrecord
280
     1
 90
      202
 91
      144
  0
DICTIONARY
  5
5E7
330
21
100
AcDbDictionary
280
     1
281
     1
  3
ACAD_XREC_ROUNDTRIP
360
5E8
  0
DICTIONARY
  5
5E5
330
20
100
AcDbDictionary
280
     1
281
     1
  3
ACAD_XREC_ROUNDTRIP
360
5E6
  0
DICTIONARY
  5
2A3
330
2A2
100
AcDbDictionary
280
     1
281
     1
  3
ACAD_XREC_ROUNDTRIP
360
5EA
  3
BUMPTILE
360
2A5
  3
DIFFUSETILE
360
2A4
  3
OPACITYTILE
360
2A8
  3
REFLECTIONTILE
360
2A7
  3
REFRACTIONTILE
360
2A9
  3
SPECULARTILE
360
2A6
  0
DICTIONARY
  5
29B
330
29A
100
AcDbDictionary
280
     1
281
     1
  3
ACAD_XREC_ROUNDTRIP
360
5E9
  3
BUMPTILE
360
29D
  3
DIFFUSETILE
360
29C
  3
OPACITYTILE
360
2A0
  3
REFLECTIONTILE
360
29F
  3
REFRACTIONTILE
360
2A1
  3
SPECULARTILE
360
29E
  0
DICTIONARY
  5
2AB
330
2AA
100
AcDbDictionary
280
     1
281
     1
  3
ACAD_XREC_ROUNDTRIP
360
5EB
  3
BUMPTILE
360
2AD
  3
DIFFUSETILE
360
2AC
  3
OPACITYTILE
360
2B0
  3
REFLECTIONTILE
360
2AF
  3
REFRACTIONTILE
360
2B1
  3
SPECULARTILE
360
2AE
  0
DICTIONARY
  5
613
330
434
100
AcDbDictionary
280
     1
281
     1
  3
ACAD_XREC_ROUNDTRIP
360
614
  0
DICTIONARY
  5
615
330
435
100
AcDbDictionary
280
     1
281
     1
  3
ACAD_XREC_ROUNDTRIP
360
616
  0
DICTIONARY
  5
617
330
436
100
AcDbDictionary
280
     1
281
     1
  3
ACAD_XREC_ROUNDTRIP
360
618
  0
DICTIONARY
  5
619
330
437
100
AcDbDictionary
280
     1
281
     1
  3
ACAD_XREC_ROUNDTRIP
360
61A
  0
DICTIONARY
  5
61B
330
438
100
AcDbDictionary
280
     1
281
     1
  3
ACAD_XREC_ROUNDTRIP
360
61C
  0
DICTIONARY
  5
43A
330
439
100
AcDbDictionary
280
     1
281
     1
  3
ACAD_ROUNDTRIP_2008_TABLESTYLE_CELLSTYLEMAP
360
5E1
  3
ACAD_XREC_ROUNDTRIP
360
61D
  0
DICTIONARY
  5
43C
330
43B
100
AcDbDictionary
280
     1
281
     1
  3
ACAD_ROUNDTRIP_2008_TABLESTYLE_CELLSTYLEMAP
360
5E2
  3
ACAD_XREC_ROUNDTRIP
360
61E
  0
DICTIONARY
  5
585
330
309
100
AcDbDictionary
280
     1
281
     1
  3
ACAD_ROUNDTRIP_2008_TABLESTYLE_CELLSTYLEMAP
360
5E0
  3
ACAD_XREC_ROUNDTRIP
360
612
  0
DICTIONARY
  5
5F6
330
2B8
100
AcDbDictionary
280
     1
281
     1
  3
ACAD_XREC_ROUNDTRIP
360
5F7
  0
DICTIONARY
  5
5FA
330
2BA
100
AcDbDictionary
280
     1
281
     1
  3
ACAD_XREC_ROUNDTRIP
360
5FB
  0
DICTIONARY
  5
5F8
330
2B9
100
AcDbDictionary
280
     1
281
     1
  3
ACAD_XREC_ROUNDTRIP
360
5F9
  0
DICTIONARY
  5
5F4
330
2B7
100
AcDbDictionary
280
     1
281
     1
  3
ACAD_XREC_ROUNDTRIP
360
5F5
  0
DICTIONARY
  5
602
330
2BE
100
AcDbDictionary
280
     1
281
     1
  3
ACAD_XREC_ROUNDTRIP
360
603
  0
DICTIONARY
  5
60A
330
2C2
100
AcDbDictionary
280
     1
281
     1
  3
ACAD_XREC_ROUNDTRIP
360
60B
  0
DICTIONARY
  5
5FC
330
2BB
100
AcDbDictionary
280
     1
281
     1
  3
ACAD_XREC_ROUNDTRIP
360
5FD
  0
DICTIONARY
  5
600
330
2BD
100
AcDbDictionary
280
     1
281
     1
  3
ACAD_XREC_ROUNDTRIP
360
601
  0
DICTIONARY
  5
610
330
2C5
100
AcDbDictionary
280
     1
281
     1
  3
ACAD_XREC_ROUNDTRIP
360
611
  0
DICTIONARY
  5
608
330
2C1
100
AcDbDictionary
280
     1
281
     1
  3
ACAD_XREC_ROUNDTRIP
360
609
  0
DICTIONARY
  5
5EC
330
2B3
100
AcDbDictionary
280
     1
281
     1
  3
ACAD_XREC_ROUNDTRIP
360
5ED
  0
DICTIONARY
  5
5EE
330
2B4
100
AcDbDictionary
280
     1
281
     1
  3
ACAD_XREC_ROUNDTRIP
360
5EF
  0
DICTIONARY
  5
5F0
330
2B5
100
AcDbDictionary
280
     1
281
     1
  3
ACAD_XREC_ROUNDTRIP
360
5F1
  0
DICTIONARY
  5
5F2
330
2B6
100
AcDbDictionary
280
     1
281
     1
  3
ACAD_XREC_ROUNDTRIP
360
5F3
  0
DICTIONARY
  5
621
330
5D0
100
AcDbDictionary
280
     1
281
     1
  3
ACAD_XREC_ROUNDTRIP
360
622
  0
DICTIONARY
  5
60C
330
2C3
100
AcDbDictionary
280
     1
281
     1
  3
ACAD_XREC_ROUNDTRIP
360
60D
  0
DICTIONARY
  5
606
330
2C0
100
AcDbDictionary
280
     1
281
     1
  3
ACAD_XREC_ROUNDTRIP
360
607
  0
DICTIONARY
  5
60E
330
2C4
100
AcDbDictionary
280
     1
281
     1
  3
ACAD_XREC_ROUNDTRIP
360
60F
  0
DICTIONARY
  5
5FE
330
2BC
100
AcDbDictionary
280
     1
281
     1
  3
ACAD_XREC_ROUNDTRIP
360
5FF
  0
DICTIONARY
  5
62B
330
5D5
100
AcDbDictionary
280
     1
281
     1
  3
ACAD_XREC_ROUNDTRIP
360
62C
  0
DICTIONARY
  5
629
330
5D4
100
AcDbDictionary
280
     1
281
     1
  3
ACAD_XREC_ROUNDTRIP
360
62A
  0
DICTIONARY
  5
623
330
5D1
100
AcDbDictionary
280
     1
281
     1
  3
ACAD_XREC_ROUNDTRIP
360
624
  0
DICTIONARY
  5
625
330
5D2
100
AcDbDictionary
280
     1
281
     1
  3
ACAD_XREC_ROUNDTRIP
360
626
  0
DICTIONARY
  5
604
330
2BF
100
AcDbDictionary
280
     1
281
     1
  3
ACAD_XREC_ROUNDTRIP
360
605
  0
DICTIONARY
  5
61F
330
5CF
100
AcDbDictionary
280
     1
281
     1
  3
ACAD_XREC_ROUNDTRIP
360
620
  0
DICTIONARY
  5
627
330
5D3
100
AcDbDictionary
280
     1
281
     1
  3
ACAD_XREC_ROUNDTRIP
360
628
  0
XRECORD
  5
5E8
102
{ACAD_REACTORS
330
5E7
102
}
330
5E7
100
AcDbXrecord
280
     1
102
SHADEPLOT
 70
     0
102
SHADEPLOTRESLEVEL
 70
     2
102
SHADEPLOTCUSTOMDPI
 70
   300
  0
XRECORD
  5
5E6
102
{ACAD_REACTORS
330
5E5
102
}
330
5E5
100
AcDbXrecord
280
     1
102
SHADEPLOT
 70
     0
102
SHADEPLOTRESLEVEL
 70
     2
102
SHADEPLOTCUSTOMDPI
 70
   300
  0
XRECORD
  5
5EA
102
{ACAD_REACTORS
330
2A3
102
}
330
2A3
100
AcDbXrecord
280
     1
102
MATERIAL
148
0.0
149
0.0
149
0.0
 93
        0
 94
      127
282
     0
 72
     0
 77
     0
171
     0
175
     0
179
     0
273
     0
  0
XRECORD
  5
2A5
102
{ACAD_REACTORS
330
2A3
102
}
330
2A3
100
AcDbXrecord
280
     1
270
     1
271
     1
  0
XRECORD
  5
2A4
102
{ACAD_REACTORS
330
2A3
102
}
330
2A3
100
AcDbXrecord
280
     1
270
     1
271
     1
  0
XRECORD
  5
2A8
102
{ACAD_REACTORS
330
2A3
102
}
330
2A3
100
AcDbXrecord
280
     1
270
     1
271
     1
  0
XRECORD
  5
2A7
102
{ACAD_REACTORS
330
2A3
102
}
330
2A3
100
AcDbXrecord
280
     1
270
     1
271
     1
  0
XRECORD
  5
2A9
102
{ACAD_REACTORS
330
2A3
102
}
330
2A3
100
AcDbXrecord
280
     1
270
     1
271
     1
  0
XRECORD
  5
2A6
102
{ACAD_REACTORS
330
2A3
102
}
330
2A3
100
AcDbXrecord
280
     1
270
     1
271
     1
  0
XRECORD
  5
5E9
102
{ACAD_REACTORS
330
29B
102
}
330
29B
100
AcDbXrecord
280
     1
102
MATERIAL
148
0.0
149
0.0
149
0.0
 93
        0
 94
      127
282
     0
 72
     0
 77
     0
171
     0
175
     0
179
     0
273
     0
  0
XRECORD
  5
29D
102
{ACAD_REACTORS
330
29B
102
}
330
29B
100
AcDbXrecord
280
     1
270
     1
271
     1
  0
XRECORD
  5
29C
102
{ACAD_REACTORS
330
29B
102
}
330
29B
100
AcDbXrecord
280
     1
270
     1
271
     1
  0
XRECORD
  5
2A0
102
{ACAD_REACTORS
330
29B
102
}
330
29B
100
AcDbXrecord
280
     1
270
     1
271
     1
  0
XRECORD
  5
29F
102
{ACAD_REACTORS
330
29B
102
}
330
29B
100
AcDbXrecord
280
     1
270
     1
271
     1
  0
XRECORD
  5
2A1
102
{ACAD_REACTORS
330
29B
102
}
330
29B
100
AcDbXrecord
280
     1
270
     1
271
     1
  0
XRECORD
  5
29E
102
{ACAD_REACTORS
330
29B
102
}
330
29B
100
AcDbXrecord
280
     1
270
     1
271
     1
  0
XRECORD
  5
5EB
102
{ACAD_REACTORS
330
2AB
102
}
330
2AB
100
AcDbXrecord
280
     1
102
MATERIAL
148
0.0
149
0.0
149
0.0
 93
        0
 94
      127
282
     0
 72
     0
 77
     0
171
     0
175
     0
179
     0
273
     0
  0
XRECORD
  5
2AD
102
{ACAD_REACTORS
330
2AB
102
}
330
2AB
100
AcDbXrecord
280
     1
270
     1
271
     1
  0
XRECORD
  5
2AC
102
{ACAD_REACTORS
330
2AB
102
}
330
2AB
100
AcDbXrecord
280
     1
270
     1
271
     1
  0
XRECORD
  5
2B0
102
{ACAD_REACTORS
330
2AB
102
}
330
2AB
100
AcDbXrecord
280
     1
270
     1
271
     1
  0
XRECORD
  5
2AF
102
{ACAD_REACTORS
330
2AB
102
}
330
2AB
100
AcDbXrecord
280
     1
270
     1
271
     1
  0
XRECORD
  5
2B1
102
{ACAD_REACTORS
330
2AB
102
}
330
2AB
100
AcDbXrecord
280
     1
270
     1
271
     1
  0
XRECORD
  5
2AE
102
{ACAD_REACTORS
330
2AB
102
}
330
2AB
100
AcDbXrecord
280
     1
270
     1
271
     1
  0
XRECORD
  5
614
102
{ACAD_REACTORS
330
613
102
}
330
613
100
AcDbXrecord
280
     1
102
SHADEPLOT
 70
     0
102
SHADEPLOTRESLEVEL
 70
     2
102
SHADEPLOTCUSTOMDPI
 70
   300
  0
XRECORD
  5
616
102
{ACAD_REACTORS
330
615
102
}
330
615
100
AcDbXrecord
280
     1
102
SHADEPLOT
 70
     0
102
SHADEPLOTRESLEVEL
 70
     2
102
SHADEPLOTCUSTOMDPI
 70
   300
  0
XRECORD
  5
618
102
{ACAD_REACTORS
330
617
102
}
330
617
100
AcDbXrecord
280
     1
102
SHADEPLOT
 70
     0
102
SHADEPLOTRESLEVEL
 70
     2
102
SHADEPLOTCUSTOMDPI
 70
   300
  0
XRECORD
  5
61A
102
{ACAD_REACTORS
330
619
102
}
330
619
100
AcDbXrecord
280
     1
102
SHADEPLOT
 70
     0
102
SHADEPLOTRESLEVEL
 70
     2
102
SHADEPLOTCUSTOMDPI
 70
   300
  0
XRECORD
  5
61C
102
{ACAD_REACTORS
330
61B
102
}
330
61B
100
AcDbXrecord
280
     1
102
SHADEPLOT
 70
     0
102
SHADEPLOTRESLEVEL
 70
     2
102
SHADEPLOTCUSTOMDPI
 70
   300
  0
CELLSTYLEMAP
  5
5E1
102
{ACAD_REACTORS
330
43A
102
}
330
43A
100
AcDbCellStyleMap
 90
        3
300
CELLSTYLE
  1
TABLEFORMAT_BEGIN
 90
        5
170
     1
 91
        0
 92
    32768
 62
   257
 93
        1
300
CONTENTFORMAT
  1
CONTENTFORMAT_BEGIN
 90
        0
 91
        0
 92
      512
 93
        0
300

 40
0.0
140
1.0
 94
        5
 62
     1
340
426
144
6.0
309
CONTENTFORMAT_END
171
     1
301
MARGIN
  1
CELLMARGIN_BEGIN
 40
1.5
 40
1.5
 40
1.5
 40
1.5
 40
0.18
 40
0.18
309
CELLMARGIN_END
 94
        6
 95
        1
302
GRIDFORMAT
  1
GRIDFORMAT_BEGIN
 90
        0
 91
        1
 62
     0
 92
       -2
340
0
 93
        0
 40
0.045
309
GRIDFORMAT_END
 95
        2
302
GRIDFORMAT
  1
GRIDFORMAT_BEGIN
 90
        0
 91
        1
 62
     0
 92
       -2
340
0
 93
        0
 40
0.045
309
GRIDFORMAT_END
 95
        4
302
GRIDFORMAT
  1
GRIDFORMAT_BEGIN
 90
        0
 91
        1
 62
     0
 92
       -2
340
0
 93
        0
 40
0.045
309
GRIDFORMAT_END
 95
        8
302
GRIDFORMAT
  1
GRIDFORMAT_BEGIN
 90
        0
 91
        1
 62
     0
 92
       -2
340
0
 93
        0
 40
0.045
309
GRIDFORMAT_END
 95
       16
302
GRIDFORMAT
  1
GRIDFORMAT_BEGIN
 90
        0
 91
        1
 62
     0
 92
       -2
340
0
 93
        0
 40
0.045
309
GRIDFORMAT_END
 95
       32
302
GRIDFORMAT
  1
GRIDFORMAT_BEGIN
 90
        0
 91
        1
 62
     0
 92
       -2
340
0
 93
        0
 40
0.045
309
GRIDFORMAT_END
309
TABLEFORMAT_END
  1
CELLSTYLE_BEGIN
 90
        1
 91
        1
300
_TITLE
309
CELLSTYLE_END
300
CELLSTYLE
  1
TABLEFORMAT_BEGIN
 90
        5
170
     1
 91
        0
 92
        0
 62
   257
 93
        1
300
CONTENTFORMAT
  1
CONTENTFORMAT_BEGIN
 90
        0
 91
        0
 92
      512
 93
        0
300

 40
0.0
140
1.0
 94
        5
 62
     3
340
426
144
3.5
309
CONTENTFORMAT_END
171
     1
301
MARGIN
  1
CELLMARGIN_BEGIN
 40
1.5
 40
1.5
 40
1.5
 40
1.5
 40
0.18
 40
0.18
309
CELLMARGIN_END
 94
        6
 95
        1
302
GRIDFORMAT
  1
GRIDFORMAT_BEGIN
 90
        0
 91
        1
 62
     0
 92
       -2
340
0
 93
        0
 40
0.045
309
GRIDFORMAT_END
 95
        2
302
GRIDFORMAT
  1
GRIDFORMAT_BEGIN
 90
        0
 91
        1
 62
     0
 92
       -2
340
0
 93
        0
 40
0.045
309
GRIDFORMAT_END
 95
        4
302
GRIDFORMAT
  1
GRIDFORMAT_BEGIN
 90
        0
 91
        1
 62
     0
 92
       -2
340
0
 93
        0
 40
0.045
309
GRIDFORMAT_END
 95
        8
302
GRIDFORMAT
  1
GRIDFORMAT_BEGIN
 90
        0
 91
        1
 62
     0
 92
       -2
340
0
 93
        0
 40
0.045
309
GRIDFORMAT_END
 95
       16
302
GRIDFORMAT
  1
GRIDFORMAT_BEGIN
 90
        0
 91
        1
 62
     0
 92
       -2
340
0
 93
        0
 40
0.045
309
GRIDFORMAT_END
 95
       32
302
GRIDFORMAT
  1
GRIDFORMAT_BEGIN
 90
        0
 91
        1
 62
     0
 92
       -2
340
0
 93
        0
 40
0.045
309
GRIDFORMAT_END
309
TABLEFORMAT_END
  1
CELLSTYLE_BEGIN
 90
        2
 91
        1
300
_HEADER
309
CELLSTYLE_END
300
CELLSTYLE
  1
TABLEFORMAT_BEGIN
 90
        5
170
     1
 91
        0
 92
        0
 62
   257
 93
        1
300
CONTENTFORMAT
  1
CONTENTFORMAT_BEGIN
 90
        0
 91
        0
 92
      512
 93
        0
300

 40
0.0
140
1.0
 94
        5
 62
     7
340
426
144
3.0
309
CONTENTFORMAT_END
171
     1
301
MARGIN
  1
CELLMARGIN_BEGIN
 40
1.5
 40
1.5
 40
1.5
 40
1.5
 40
0.18
 40
0.18
309
CELLMARGIN_END
 94
        6
 95
        1
302
GRIDFORMAT
  1
GRIDFORMAT_BEGIN
 90
        0
 91
        1
 62
     0
 92
       -2
340
0
 93
        0
 40
0.045
309
GRIDFORMAT_END
 95
        2
302
GRIDFORMAT
  1
GRIDFORMAT_BEGIN
 90
        0
 91
        1
 62
     0
 92
       -2
340
0
 93
        0
 40
0.045
309
GRIDFORMAT_END
 95
        4
302
GRIDFORMAT
  1
GRIDFORMAT_BEGIN
 90
        0
 91
        1
 62
     0
 92
       -2
340
0
 93
        0
 40
0.045
309
GRIDFORMAT_END
 95
        8
302
GRIDFORMAT
  1
GRIDFORMAT_BEGIN
 90
        0
 91
        1
 62
     0
 92
       -2
340
0
 93
        0
 40
0.045
309
GRIDFORMAT_END
 95
       16
302
GRIDFORMAT
  1
GRIDFORMAT_BEGIN
 90
        0
 91
        1
 62
     0
 92
       -2
340
0
 93
        0
 40
0.045
309
GRIDFORMAT_END
 95
       32
302
GRIDFORMAT
  1
GRIDFORMAT_BEGIN
 90
        0
 91
        1
 62
     0
 92
       -2
340
0
 93
        0
 40
0.045
309
GRIDFORMAT_END
309
TABLEFORMAT_END
  1
CELLSTYLE_BEGIN
 90
        3
 91
        2
300
_DATA
309
CELLSTYLE_END
  0
XRECORD
  5
61D
102
{ACAD_REACTORS
330
43A
102
}
330
43A
100
AcDbXrecord
280
     1
102
ACAD_ROUNDTRIP_PRE2007_TABLESTYLE
 90
      512
 91
        0
  1

 92
      512
 93
        0
  2

 94
      512
 95
        0
  3

  0
CELLSTYLEMAP
  5
5E2
102
{ACAD_REACTORS
330
43C
102
}
330
43C
100
AcDbCellStyleMap
 90
        3
300
CELLSTYLE
  1
TABLEFORMAT_BEGIN
 90
        5
170
     1
 91
        0
 92
    32768
 62
   257
 93
        1
300
CONTENTFORMAT
  1
CONTENTFORMAT_BEGIN
 90
        0
 91
        0
 92
      512
 93
        0
300

 40
0.0
140
1.0
 94
        5
 62
     1
340
426
144
6.0
309
CONTENTFORMAT_END
171
     1
301
MARGIN
  1
CELLMARGIN_BEGIN
 40
1.5
 40
1.5
 40
1.5
 40
1.5
 40
0.18
 40
0.18
309
CELLMARGIN_END
 94
        6
 95
        1
302
GRIDFORMAT
  1
GRIDFORMAT_BEGIN
 90
        0
 91
        1
 62
     0
 92
       -2
340
0
 93
        0
 40
0.045
309
GRIDFORMAT_END
 95
        2
302
GRIDFORMAT
  1
GRIDFORMAT_BEGIN
 90
        0
 91
        1
 62
     0
 92
       -2
340
0
 93
        0
 40
0.045
309
GRIDFORMAT_END
 95
        4
302
GRIDFORMAT
  1
GRIDFORMAT_BEGIN
 90
        0
 91
        1
 62
     0
 92
       -2
340
0
 93
        0
 40
0.045
309
GRIDFORMAT_END
 95
        8
302
GRIDFORMAT
  1
GRIDFORMAT_BEGIN
 90
        0
 91
        1
 62
     0
 92
       -2
340
0
 93
        0
 40
0.045
309
GRIDFORMAT_END
 95
       16
302
GRIDFORMAT
  1
GRIDFORMAT_BEGIN
 90
        0
 91
        1
 62
     0
 92
       -2
340
0
 93
        0
 40
0.045
309
GRIDFORMAT_END
 95
       32
302
GRIDFORMAT
  1
GRIDFORMAT_BEGIN
 90
        0
 91
        1
 62
     0
 92
       -2
340
0
 93
        0
 40
0.045
309
GRIDFORMAT_END
309
TABLEFORMAT_END
  1
CELLSTYLE_BEGIN
 90
        1
 91
        1
300
_TITLE
309
CELLSTYLE_END
300
CELLSTYLE
  1
TABLEFORMAT_BEGIN
 90
        5
170
     1
 91
        0
 92
        0
 62
   257
 93
        1
300
CONTENTFORMAT
  1
CONTENTFORMAT_BEGIN
 90
        0
 91
        0
 92
      512
 93
        0
300

 40
0.0
140
1.0
 94
        5
 62
     3
340
426
144
5.0
309
CONTENTFORMAT_END
171
     1
301
MARGIN
  1
CELLMARGIN_BEGIN
 40
1.5
 40
1.5
 40
1.5
 40
1.5
 40
0.18
 40
0.18
309
CELLMARGIN_END
 94
        6
 95
        1
302
GRIDFORMAT
  1
GRIDFORMAT_BEGIN
 90
        0
 91
        1
 62
     0
 92
       -2
340
0
 93
        0
 40
0.045
309
GRIDFORMAT_END
 95
        2
302
GRIDFORMAT
  1
GRIDFORMAT_BEGIN
 90
        0
 91
        1
 62
     0
 92
       -2
340
0
 93
        0
 40
0.045
309
GRIDFORMAT_END
 95
        4
302
GRIDFORMAT
  1
GRIDFORMAT_BEGIN
 90
        0
 91
        1
 62
     0
 92
       -2
340
0
 93
        0
 40
0.045
309
GRIDFORMAT_END
 95
        8
302
GRIDFORMAT
  1
GRIDFORMAT_BEGIN
 90
        0
 91
        1
 62
     0
 92
       -2
340
0
 93
        0
 40
0.045
309
GRIDFORMAT_END
 95
       16
302
GRIDFORMAT
  1
GRIDFORMAT_BEGIN
 90
        0
 91
        1
 62
     0
 92
       -2
340
0
 93
        0
 40
0.045
309
GRIDFORMAT_END
 95
       32
302
GRIDFORMAT
  1
GRIDFORMAT_BEGIN
 90
        0
 91
        1
 62
     0
 92
       -2
340
0
 93
        0
 40
0.045
309
GRIDFORMAT_END
309
TABLEFORMAT_END
  1
CELLSTYLE_BEGIN
 90
        2
 91
        1
300
_HEADER
309
CELLSTYLE_END
300
CELLSTYLE
  1
TABLEFORMAT_BEGIN
 90
        5
170
     1
 91
        0
 92
        0
 62
   257
 93
        1
300
CONTENTFORMAT
  1
CONTENTFORMAT_BEGIN
 90
        0
 91
        0
 92
      512
 93
        0
300

 40
0.0
140
1.0
 94
        5
 62
     7
340
426
144
4.5
309
CONTENTFORMAT_END
171
     1
301
MARGIN
  1
CELLMARGIN_BEGIN
 40
1.5
 40
1.5
 40
1.5
 40
1.5
 40
0.18
 40
0.18
309
CELLMARGIN_END
 94
        6
 95
        1
302
GRIDFORMAT
  1
GRIDFORMAT_BEGIN
 90
        0
 91
        1
 62
     0
 92
       -2
340
0
 93
        0
 40
0.045
309
GRIDFORMAT_END
 95
        2
302
GRIDFORMAT
  1
GRIDFORMAT_BEGIN
 90
        0
 91
        1
 62
     0
 92
       -2
340
0
 93
        0
 40
0.045
309
GRIDFORMAT_END
 95
        4
302
GRIDFORMAT
  1
GRIDFORMAT_BEGIN
 90
        0
 91
        1
 62
     0
 92
       -2
340
0
 93
        0
 40
0.045
309
GRIDFORMAT_END
 95
        8
302
GRIDFORMAT
  1
GRIDFORMAT_BEGIN
 90
        0
 91
        1
 62
     0
 92
       -2
340
0
 93
        0
 40
0.045
309
GRIDFORMAT_END
 95
       16
302
GRIDFORMAT
  1
GRIDFORMAT_BEGIN
 90
        0
 91
        1
 62
     0
 92
       -2
340
0
 93
        0
 40
0.045
309
GRIDFORMAT_END
 95
       32
302
GRIDFORMAT
  1
GRIDFORMAT_BEGIN
 90
        0
 91
        1
 62
     0
 92
       -2
340
0
 93
        0
 40
0.045
309
GRIDFORMAT_END
309
TABLEFORMAT_END
  1
CELLSTYLE_BEGIN
 90
        3
 91
        2
300
_DATA
309
CELLSTYLE_END
  0
XRECORD
  5
61E
102
{ACAD_REACTORS
330
43C
102
}
330
43C
100
AcDbXrecord
280
     1
102
ACAD_ROUNDTRIP_PRE2007_TABLESTYLE
 90
      512
 91
        0
  1

 92
      512
 93
        0
  2

 94
      512
 95
        0
  3

  0
CELLSTYLEMAP
  5
5E0
102
{ACAD_REACTORS
330
585
102
}
330
585
100
AcDbCellStyleMap
 90
        3
300
CELLSTYLE
  1
TABLEFORMAT_BEGIN
 90
        5
170
     1
 91
        0
 92
    32768
 62
   257
 93
        1
300
CONTENTFORMAT
  1
CONTENTFORMAT_BEGIN
 90
        0
 91
        0
 92
      512
 93
        0
300

 40
0.0
140
1.0
 94
        5
 62
     0
340
17
144
0.25
309
CONTENTFORMAT_END
171
     0
 94
        0
309
TABLEFORMAT_END
  1
CELLSTYLE_BEGIN
 90
        1
 91
        1
300
_TITLE
309
CELLSTYLE_END
300
CELLSTYLE
  1
TABLEFORMAT_BEGIN
 90
        5
170
     1
 91
        0
 92
        0
 62
   257
 93
        1
300
CONTENTFORMAT
  1
CONTENTFORMAT_BEGIN
 90
        0
 91
        0
 92
      512
 93
        0
300

 40
0.0
140
1.0
 94
        5
 62
     0
340
17
144
0.18
309
CONTENTFORMAT_END
171
     0
 94
        0
309
TABLEFORMAT_END
  1
CELLSTYLE_BEGIN
 90
        2
 91
        1
300
_HEADER
309
CELLSTYLE_END
300
CELLSTYLE
  1
TABLEFORMAT_BEGIN
 90
        5
170
     1
 91
        0
 92
        0
 62
   257
 93
        1
300
CONTENTFORMAT
  1
CONTENTFORMAT_BEGIN
 90
        0
 91
        0
 92
      512
 93
        0
300

 40
0.0
140
1.0
 94
        2
 62
     0
340
17
144
0.18
309
CONTENTFORMAT_END
171
     0
 94
        0
309
TABLEFORMAT_END
  1
CELLSTYLE_BEGIN
 90
        3
 91
        2
300
_DATA
309
CELLSTYLE_END
  0
XRECORD
  5
612
102
{ACAD_REACTORS
330
585
102
}
330
585
100
AcDbXrecord
280
     1
102
ACAD_ROUNDTRIP_PRE2007_TABLESTYLE
 90
      512
 91
        0
  1

 92
      512
 93
        0
  2

 94
      512
 95
        0
  3

  0
XRECORD
  5
5F7
102
{ACAD_REACTORS
330
5F6
102
}
330
5F6
100
AcDbXrecord
280
     1
102
RTVSPropertyOp0
 70
     1
102
RTVSPropertyOp1
 70
     1
102
RTVSPropertyOp2
 70
     1
102
RTVSPropertyOp3
 70
     1
102
RTVSPropertyOp4
 70
     1
102
RTVSPropertyOp5
 70
     1
102
RTVSPropertyOp6
 70
     1
102
RTVSPropertyOp7
 70
     1
102
RTVSPropertyOp8
 70
     1
102
RTVSPropertyOp9
 70
     1
102
RTVSPropertyOp10
 70
     1
102
RTVSPropertyOp11
 70
     1
102
RTVSPropertyOp12
 70
     1
102
RTVSPropertyOp13
 70
     1
102
RTVSPropertyOp14
 70
     1
102
RTVSPropertyOp15
 70
     1
102
RTVSPropertyOp16
 70
     1
102
RTVSPropertyOp17
 70
     1
102
RTVSPropertyOp18
 70
     1
102
RTVSPropertyOp19
 70
     1
102
RTVSPropertyOp20
 70
     1
102
RTVSPropertyOp21
 70
     1
102
RTVSPropertyOp22
 70
     1
102
RTVSPropertyOp23
 70
     1
102
RTVSPropertyOp24
 70
     1
102
RTVSPropertyOp25
 70
     1
102
RTVSPropertyOp26
 70
     1
102
RTVSPropertyOp27
 70
     1
102
RTVSPropertyOp28
 70
     1
102
RTVSPropertyOp29
 70
     1
102
RTVSPropertyOp30
 70
     1
102
RTVSPropertyOp31
 70
     1
102
RTVSPropertyOp32
 70
     1
  0
XRECORD
  5
5FB
102
{ACAD_REACTORS
330
5FA
102
}
330
5FA
100
AcDbXrecord
280
     1
102
RTVSPropertyOp0
 70
     1
102
RTVSPropertyOp1
 70
     1
102
RTVSPropertyOp2
 70
     1
102
RTVSPropertyOp3
 70
     1
102
RTVSPropertyOp4
 70
     1
102
RTVSPropertyOp5
 70
     1
102
RTVSPropertyOp6
 70
     1
102
RTVSPropertyOp7
 70
     1
102
RTVSPropertyOp8
 70
     1
102
RTVSPropertyOp9
 70
     1
102
RTVSPropertyOp10
 70
     1
102
RTVSPropertyOp11
 70
     1
102
RTVSPropertyOp12
 70
     1
102
RTVSPropertyOp13
 70
     1
102
RTVSPropertyOp14
 70
     1
102
RTVSPropertyOp15
 70
     1
102
RTVSPropertyOp16
 70
     1
102
RTVSPropertyOp17
 70
     1
102
RTVSPropertyOp18
 70
     1
102
RTVSPropertyOp19
 70
     1
102
RTVSPropertyOp20
 70
     1
102
RTVSPropertyOp21
 70
     1
102
RTVSPropertyOp22
 70
     1
102
RTVSPropertyOp23
 70
     1
102
RTVSPropertyOp24
 70
     1
102
RTVSPropertyOp25
 70
     1
102
RTVSPropertyOp26
 70
     1
102
RTVSPropertyOp27
 70
     1
102
RTVSPropertyOp28
 70
     1
102
RTVSPropertyOp29
 70
     1
102
RTVSPropertyOp30
 70
     1
102
RTVSPropertyOp31
 70
     1
102
RTVSPropertyOp32
 70
     1
  0
XRECORD
  5
5F9
102
{ACAD_REACTORS
330
5F8
102
}
330
5F8
100
AcDbXrecord
280
     1
102
RTVSPropertyOp0
 70
     1
102
RTVSPropertyOp1
 70
     1
102
RTVSPropertyOp2
 70
     1
102
RTVSPropertyOp3
 70
     1
102
RTVSPropertyOp4
 70
     1
102
RTVSPropertyOp5
 70
     1
102
RTVSPropertyOp6
 70
     1
102
RTVSPropertyOp7
 70
     1
102
RTVSPropertyOp8
 70
     1
102
RTVSPropertyOp9
 70
     1
102
RTVSPropertyOp10
 70
     1
102
RTVSPropertyOp11
 70
     1
102
RTVSPropertyOp12
 70
     1
102
RTVSPropertyOp13
 70
     1
102
RTVSPropertyOp14
 70
     1
102
RTVSPropertyOp15
 70
     1
102
RTVSPropertyOp16
 70
     1
102
RTVSPropertyOp17
 70
     1
102
RTVSPropertyOp18
 70
     1
102
RTVSPropertyOp19
 70
     1
102
RTVSPropertyOp20
 70
     1
102
RTVSPropertyOp21
 70
     1
102
RTVSPropertyOp22
 70
     1
102
RTVSPropertyOp23
 70
     1
102
RTVSPropertyOp24
 70
     1
102
RTVSPropertyOp25
 70
     1
102
RTVSPropertyOp26
 70
     1
102
RTVSPropertyOp27
 70
     1
102
RTVSPropertyOp28
 70
     1
102
RTVSPropertyOp29
 70
     1
102
RTVSPropertyOp30
 70
     1
102
RTVSPropertyOp31
 70
     1
102
RTVSPropertyOp32
 70
     1
  0
XRECORD
  5
5F5
102
{ACAD_REACTORS
330
5F4
102
}
330
5F4
100
AcDbXrecord
280
     1
102
RTVSPropertyOp0
 70
     1
102
RTVSPropertyOp1
 70
     1
102
RTVSPropertyOp2
 70
     1
102
RTVSPropertyOp3
 70
     1
102
RTVSPropertyOp4
 70
     1
102
RTVSPropertyOp5
 70
     1
102
RTVSPropertyOp6
 70
     1
102
RTVSPropertyOp7
 70
     1
102
RTVSPropertyOp8
 70
     1
102
RTVSPropertyOp9
 70
     1
102
RTVSPropertyOp10
 70
     1
102
RTVSPropertyOp11
 70
     1
102
RTVSPropertyOp12
 70
     1
102
RTVSPropertyOp13
 70
     1
102
RTVSPropertyOp14
 70
     1
102
RTVSPropertyOp15
 70
     1
102
RTVSPropertyOp16
 70
     1
102
RTVSPropertyOp17
 70
     1
102
RTVSPropertyOp18
 70
     1
102
RTVSPropertyOp19
 70
     1
102
RTVSPropertyOp20
 70
     1
102
RTVSPropertyOp21
 70
     1
102
RTVSPropertyOp22
 70
     1
102
RTVSPropertyOp23
 70
     1
102
RTVSPropertyOp24
 70
     1
102
RTVSPropertyOp25
 70
     1
102
RTVSPropertyOp26
 70
     1
102
RTVSPropertyOp27
 70
     1
102
RTVSPropertyOp28
 70
     1
102
RTVSPropertyOp29
 70
     1
102
RTVSPropertyOp30
 70
     1
102
RTVSPropertyOp31
 70
     1
102
RTVSPropertyOp32
 70
     1
  0
XRECORD
  5
603
102
{ACAD_REACTORS
330
602
102
}
330
602
100
AcDbXrecord
280
     1
102
RTVSPropertyOp0
 70
     1
102
RTVSPropertyOp1
 70
     1
102
RTVSPropertyOp2
 70
     1
102
RTVSPropertyOp3
 70
     1
102
RTVSPropertyOp4
 70
     1
102
RTVSPropertyOp5
 70
     1
102
RTVSPropertyOp6
 70
     1
102
RTVSPropertyOp7
 70
     1
102
RTVSPropertyOp8
 70
     1
102
RTVSPropertyOp9
 70
     1
102
RTVSPropertyOp10
 70
     1
102
RTVSPropertyOp11
 70
     1
102
RTVSPropertyOp12
 70
     1
102
RTVSPropertyOp13
 70
     1
102
RTVSPropertyOp14
 70
     1
102
RTVSPropertyOp15
 70
     1
102
RTVSPropertyOp16
 70
     1
102
RTVSPropertyOp17
 70
     1
102
RTVSPropertyOp18
 70
     1
102
RTVSPropertyOp19
 70
     1
102
RTVSPropertyOp20
 70
     1
102
RTVSPropertyOp21
 70
     1
102
RTVSPropertyOp22
 70
     1
102
RTVSPropertyOp23
 70
     1
102
RTVSPropertyOp24
 70
     1
102
RTVSPropertyOp25
 70
     1
102
RTVSPropertyOp26
 70
     1
102
RTVSPropertyOp27
 70
     1
102
RTVSPropertyOp28
 70
     1
102
RTVSPropertyOp29
 70
     1
102
RTVSPropertyOp30
 70
     1
102
RTVSPropertyOp31
 70
     1
102
RTVSPropertyOp32
 70
     1
  0
XRECORD
  5
60B
102
{ACAD_REACTORS
330
60A
102
}
330
60A
100
AcDbXrecord
280
     1
102
RTVSPropertyOp0
 70
     1
102
RTVSPropertyOp1
 70
     1
102
RTVSPropertyOp2
 70
     1
102
RTVSPropertyOp3
 70
     1
102
RTVSPropertyOp4
 70
     1
102
RTVSPropertyOp5
 70
     1
102
RTVSPropertyOp6
 70
     1
102
RTVSPropertyOp7
 70
     1
102
RTVSPropertyOp8
 70
     1
102
RTVSPropertyOp9
 70
     1
102
RTVSPropertyOp10
 70
     1
102
RTVSPropertyOp11
 70
     1
102
RTVSPropertyOp12
 70
     1
102
RTVSPropertyOp13
 70
     1
102
RTVSPropertyOp14
 70
     1
102
RTVSPropertyOp15
 70
     1
102
RTVSPropertyOp16
 70
     1
102
RTVSPropertyOp17
 70
     1
102
RTVSPropertyOp18
 70
     1
102
RTVSPropertyOp19
 70
     1
102
RTVSPropertyOp20
 70
     1
102
RTVSPropertyOp21
 70
     1
102
RTVSPropertyOp22
 70
     1
102
RTVSPropertyOp23
 70
     1
102
RTVSPropertyOp24
 70
     1
102
RTVSPropertyOp25
 70
     1
102
RTVSPropertyOp26
 70
     1
102
RTVSPropertyOp27
 70
     1
102
RTVSPropertyOp28
 70
     1
102
RTVSPropertyOp29
 70
     1
102
RTVSPropertyOp30
 70
     1
102
RTVSPropertyOp31
 70
     1
102
RTVSPropertyOp32
 70
     1
  0
XRECORD
  5
5FD
102
{ACAD_REACTORS
330
5FC
102
}
330
5FC
100
AcDbXrecord
280
     1
102
RTVSPropertyOp0
 70
     1
102
RTVSPropertyOp1
 70
     1
102
RTVSPropertyOp2
 70
     1
102
RTVSPropertyOp3
 70
     1
102
RTVSPropertyOp4
 70
     1
102
RTVSPropertyOp5
 70
     1
102
RTVSPropertyOp6
 70
     1
102
RTVSPropertyOp7
 70
     1
102
RTVSPropertyOp8
 70
     1
102
RTVSPropertyOp9
 70
     1
102
RTVSPropertyOp10
 70
     1
102
RTVSPropertyOp11
 70
     1
102
RTVSPropertyOp12
 70
     1
102
RTVSPropertyOp13
 70
     1
102
RTVSPropertyOp14
 70
     1
102
RTVSPropertyOp15
 70
     1
102
RTVSPropertyOp16
 70
     1
102
RTVSPropertyOp17
 70
     1
102
RTVSPropertyOp18
 70
     1
102
RTVSPropertyOp19
 70
     1
102
RTVSPropertyOp20
 70
     1
102
RTVSPropertyOp21
 70
     1
102
RTVSPropertyOp22
 70
     1
102
RTVSPropertyOp23
 70
     1
102
RTVSPropertyOp24
 70
     1
102
RTVSPropertyOp25
 70
     1
102
RTVSPropertyOp26
 70
     1
102
RTVSPropertyOp27
 70
     1
102
RTVSPropertyOp28
 70
     1
102
RTVSPropertyOp29
 70
     1
102
RTVSPropertyOp30
 70
     1
102
RTVSPropertyOp31
 70
     1
102
RTVSPropertyOp32
 70
     1
  0
XRECORD
  5
601
102
{ACAD_REACTORS
330
600
102
}
330
600
100
AcDbXrecord
280
     1
102
RTVSPropertyOp0
 70
     1
102
RTVSPropertyOp1
 70
     1
102
RTVSPropertyOp2
 70
     1
102
RTVSPropertyOp3
 70
     1
102
RTVSPropertyOp4
 70
     1
102
RTVSPropertyOp5
 70
     1
102
RTVSPropertyOp6
 70
     1
102
RTVSPropertyOp7
 70
     1
102
RTVSPropertyOp8
 70
     1
102
RTVSPropertyOp9
 70
     1
102
RTVSPropertyOp10
 70
     1
102
RTVSPropertyOp11
 70
     1
102
RTVSPropertyOp12
 70
     1
102
RTVSPropertyOp13
 70
     1
102
RTVSPropertyOp14
 70
     1
102
RTVSPropertyOp15
 70
     1
102
RTVSPropertyOp16
 70
     1
102
RTVSPropertyOp17
 70
     1
102
RTVSPropertyOp18
 70
     1
102
RTVSPropertyOp19
 70
     1
102
RTVSPropertyOp20
 70
     1
102
RTVSPropertyOp21
 70
     1
102
RTVSPropertyOp22
 70
     1
102
RTVSPropertyOp23
 70
     1
102
RTVSPropertyOp24
 70
     1
102
RTVSPropertyOp25
 70
     1
102
RTVSPropertyOp26
 70
     1
102
RTVSPropertyOp27
 70
     1
102
RTVSPropertyOp28
 70
     1
102
RTVSPropertyOp29
 70
     1
102
RTVSPropertyOp30
 70
     1
102
RTVSPropertyOp31
 70
     1
102
RTVSPropertyOp32
 70
     1
  0
XRECORD
  5
611
102
{ACAD_REACTORS
330
610
102
}
330
610
100
AcDbXrecord
280
     1
102
RTVSPropertyOp0
 70
     0
102
RTVSPropertyOp1
 70
     0
102
RTVSPropertyOp2
 70
     0
102
RTVSPropertyOp3
 70
     0
102
RTVSPropertyOp4
 70
     0
102
RTVSPropertyOp5
 70
     0
102
RTVSPropertyOp6
 70
     0
102
RTVSPropertyOp7
 70
     0
102
RTVSPropertyOp8
 70
     0
102
RTVSPropertyOp9
 70
     0
102
RTVSPropertyOp10
 70
     0
102
RTVSPropertyOp11
 70
     0
102
RTVSPropertyOp12
 70
     0
102
RTVSPropertyOp13
 70
     0
102
RTVSPropertyOp14
 70
     2
102
RTVSPropertyOp15
 70
     0
102
RTVSPropertyOp16
 70
     0
102
RTVSPropertyOp17
 70
     0
102
RTVSPropertyOp18
 70
     0
102
RTVSPropertyOp19
 70
     0
102
RTVSPropertyOp20
 70
     0
102
RTVSPropertyOp21
 70
     0
102
RTVSPropertyOp22
 70
     0
102
RTVSPropertyOp23
 70
     0
102
RTVSPropertyOp24
 70
     0
102
RTVSPropertyOp25
 70
     0
102
RTVSPropertyOp26
 70
     0
102
RTVSPropertyOp27
 70
     0
102
RTVSPropertyOp28
 70
     1
102
RTVSPropertyOp29
 70
     1
102
RTVSPropertyOp30
 70
     1
102
RTVSPropertyOp31
 70
     1
102
RTVSPropertyOp32
 70
     1
  0
XRECORD
  5
609
102
{ACAD_REACTORS
330
608
102
}
330
608
100
AcDbXrecord
280
     1
102
RTVSPropertyOp0
 70
     1
102
RTVSPropertyOp1
 70
     1
102
RTVSPropertyOp2
 70
     1
102
RTVSPropertyOp3
 70
     1
102
RTVSPropertyOp4
 70
     1
102
RTVSPropertyOp5
 70
     1
102
RTVSPropertyOp6
 70
     1
102
RTVSPropertyOp7
 70
     1
102
RTVSPropertyOp8
 70
     1
102
RTVSPropertyOp9
 70
     1
102
RTVSPropertyOp10
 70
     1
102
RTVSPropertyOp11
 70
     1
102
RTVSPropertyOp12
 70
     1
102
RTVSPropertyOp13
 70
     1
102
RTVSPropertyOp14
 70
     1
102
RTVSPropertyOp15
 70
     1
102
RTVSPropertyOp16
 70
     1
102
RTVSPropertyOp17
 70
     1
102
RTVSPropertyOp18
 70
     1
102
RTVSPropertyOp19
 70
     1
102
RTVSPropertyOp20
 70
     1
102
RTVSPropertyOp21
 70
     1
102
RTVSPropertyOp22
 70
     1
102
RTVSPropertyOp23
 70
     1
102
RTVSPropertyOp24
 70
     1
102
RTVSPropertyOp25
 70
     1
102
RTVSPropertyOp26
 70
     1
102
RTVSPropertyOp27
 70
     1
102
RTVSPropertyOp28
 70
     1
102
RTVSPropertyOp29
 70
     1
102
RTVSPropertyOp30
 70
     1
102
RTVSPropertyOp31
 70
     1
102
RTVSPropertyOp32
 70
     1
  0
XRECORD
  5
5ED
102
{ACAD_REACTORS
330
5EC
102
}
330
5EC
100
AcDbXrecord
280
     1
102
RTVSPropertyOp0
 70
     1
102
RTVSPropertyOp1
 70
     1
102
RTVSPropertyOp2
 70
     1
102
RTVSPropertyOp3
 70
     1
102
RTVSPropertyOp4
 70
     1
102
RTVSPropertyOp5
 70
     1
102
RTVSPropertyOp6
 70
     1
102
RTVSPropertyOp7
 70
     1
102
RTVSPropertyOp8
 70
     1
102
RTVSPropertyOp9
 70
     1
102
RTVSPropertyOp10
 70
     1
102
RTVSPropertyOp11
 70
     1
102
RTVSPropertyOp12
 70
     1
102
RTVSPropertyOp13
 70
     1
102
RTVSPropertyOp14
 70
     1
102
RTVSPropertyOp15
 70
     1
102
RTVSPropertyOp16
 70
     1
102
RTVSPropertyOp17
 70
     1
102
RTVSPropertyOp18
 70
     1
102
RTVSPropertyOp19
 70
     1
102
RTVSPropertyOp20
 70
     1
102
RTVSPropertyOp21
 70
     1
102
RTVSPropertyOp22
 70
     1
102
RTVSPropertyOp23
 70
     1
102
RTVSPropertyOp24
 70
     1
102
RTVSPropertyOp25
 70
     1
102
RTVSPropertyOp26
 70
     1
102
RTVSPropertyOp27
 70
     1
102
RTVSPropertyOp28
 70
     1
102
RTVSPropertyOp29
 70
     1
102
RTVSPropertyOp30
 70
     1
102
RTVSPropertyOp31
 70
     1
102
RTVSPropertyOp32
 70
     1
  0
XRECORD
  5
5EF
102
{ACAD_REACTORS
330
5EE
102
}
330
5EE
100
AcDbXrecord
280
     1
102
RTVSPropertyOp0
 70
     1
102
RTVSPropertyOp1
 70
     1
102
RTVSPropertyOp2
 70
     1
102
RTVSPropertyOp3
 70
     1
102
RTVSPropertyOp4
 70
     1
102
RTVSPropertyOp5
 70
     1
102
RTVSPropertyOp6
 70
     1
102
RTVSPropertyOp7
 70
     1
102
RTVSPropertyOp8
 70
     1
102
RTVSPropertyOp9
 70
     1
102
RTVSPropertyOp10
 70
     1
102
RTVSPropertyOp11
 70
     1
102
RTVSPropertyOp12
 70
     1
102
RTVSPropertyOp13
 70
     1
102
RTVSPropertyOp14
 70
     1
102
RTVSPropertyOp15
 70
     1
102
RTVSPropertyOp16
 70
     1
102
RTVSPropertyOp17
 70
     1
102
RTVSPropertyOp18
 70
     1
102
RTVSPropertyOp19
 70
     1
102
RTVSPropertyOp20
 70
     1
102
RTVSPropertyOp21
 70
     1
102
RTVSPropertyOp22
 70
     1
102
RTVSPropertyOp23
 70
     1
102
RTVSPropertyOp24
 70
     1
102
RTVSPropertyOp25
 70
     1
102
RTVSPropertyOp26
 70
     1
102
RTVSPropertyOp27
 70
     1
102
RTVSPropertyOp28
 70
     1
102
RTVSPropertyOp29
 70
     1
102
RTVSPropertyOp30
 70
     1
102
RTVSPropertyOp31
 70
     1
102
RTVSPropertyOp32
 70
     1
  0
XRECORD
  5
5F1
102
{ACAD_REACTORS
330
5F0
102
}
330
5F0
100
AcDbXrecord
280
     1
102
RTVSPropertyOp0
 70
     1
102
RTVSPropertyOp1
 70
     1
102
RTVSPropertyOp2
 70
     1
102
RTVSPropertyOp3
 70
     1
102
RTVSPropertyOp4
 70
     1
102
RTVSPropertyOp5
 70
     1
102
RTVSPropertyOp6
 70
     1
102
RTVSPropertyOp7
 70
     1
102
RTVSPropertyOp8
 70
     1
102
RTVSPropertyOp9
 70
     1
102
RTVSPropertyOp10
 70
     1
102
RTVSPropertyOp11
 70
     1
102
RTVSPropertyOp12
 70
     1
102
RTVSPropertyOp13
 70
     1
102
RTVSPropertyOp14
 70
     1
102
RTVSPropertyOp15
 70
     1
102
RTVSPropertyOp16
 70
     1
102
RTVSPropertyOp17
 70
     1
102
RTVSPropertyOp18
 70
     1
102
RTVSPropertyOp19
 70
     1
102
RTVSPropertyOp20
 70
     1
102
RTVSPropertyOp21
 70
     1
102
RTVSPropertyOp22
 70
     1
102
RTVSPropertyOp23
 70
     1
102
RTVSPropertyOp24
 70
     1
102
RTVSPropertyOp25
 70
     1
102
RTVSPropertyOp26
 70
     1
102
RTVSPropertyOp27
 70
     1
102
RTVSPropertyOp28
 70
     1
102
RTVSPropertyOp29
 70
     1
102
RTVSPropertyOp30
 70
     1
102
RTVSPropertyOp31
 70
     1
102
RTVSPropertyOp32
 70
     1
  0
XRECORD
  5
5F3
102
{ACAD_REACTORS
330
5F2
102
}
330
5F2
100
AcDbXrecord
280
     1
102
RTVSPropertyOp0
 70
     1
102
RTVSPropertyOp1
 70
     1
102
RTVSPropertyOp2
 70
     1
102
RTVSPropertyOp3
 70
     1
102
RTVSPropertyOp4
 70
     1
102
RTVSPropertyOp5
 70
     1
102
RTVSPropertyOp6
 70
     1
102
RTVSPropertyOp7
 70
     1
102
RTVSPropertyOp8
 70
     1
102
RTVSPropertyOp9
 70
     1
102
RTVSPropertyOp10
 70
     1
102
RTVSPropertyOp11
 70
     1
102
RTVSPropertyOp12
 70
     1
102
RTVSPropertyOp13
 70
     1
102
RTVSPropertyOp14
 70
     1
102
RTVSPropertyOp15
 70
     1
102
RTVSPropertyOp16
 70
     1
102
RTVSPropertyOp17
 70
     1
102
RTVSPropertyOp18
 70
     1
102
RTVSPropertyOp19
 70
     1
102
RTVSPropertyOp20
 70
     1
102
RTVSPropertyOp21
 70
     1
102
RTVSPropertyOp22
 70
     1
102
RTVSPropertyOp23
 70
     1
102
RTVSPropertyOp24
 70
     1
102
RTVSPropertyOp25
 70
     1
102
RTVSPropertyOp26
 70
     1
102
RTVSPropertyOp27
 70
     1
102
RTVSPropertyOp28
 70
     1
102
RTVSPropertyOp29
 70
     1
102
RTVSPropertyOp30
 70
     1
102
RTVSPropertyOp31
 70
     1
102
RTVSPropertyOp32
 70
     1
  0
XRECORD
  5
622
102
{ACAD_REACTORS
330
621
102
}
330
621
100
AcDbXrecord
280
     1
102
RTVSPropertyOp0
 70
     1
102
RTVSPropertyOp1
 70
     1
102
RTVSPropertyOp2
 70
     1
102
RTVSPropertyOp3
 70
     1
102
RTVSPropertyOp4
 70
     1
102
RTVSPropertyOp5
 70
     1
102
RTVSPropertyOp6
 70
     1
102
RTVSPropertyOp7
 70
     1
102
RTVSPropertyOp8
 70
     1
102
RTVSPropertyOp9
 70
     1
102
RTVSPropertyOp10
 70
     1
102
RTVSPropertyOp11
 70
     1
102
RTVSPropertyOp12
 70
     1
102
RTVSPropertyOp13
 70
     1
102
RTVSPropertyOp14
 70
     1
102
RTVSPropertyOp15
 70
     1
102
RTVSPropertyOp16
 70
     1
102
RTVSPropertyOp17
 70
     1
102
RTVSPropertyOp18
 70
     1
102
RTVSPropertyOp19
 70
     1
102
RTVSPropertyOp20
 70
     1
102
RTVSPropertyOp21
 70
     1
102
RTVSPropertyOp22
 70
     1
102
RTVSPropertyOp23
 70
     1
102
RTVSPropertyOp24
 70
     1
102
RTVSPropertyOp25
 70
     1
102
RTVSPropertyOp26
 70
     1
102
RTVSPropertyOp27
 70
     1
102
RTVSPropertyOp28
 70
     1
102
RTVSPropertyOp29
 70
     1
102
RTVSPropertyOp30
 70
     1
102
RTVSPropertyOp31
 70
     1
102
RTVSPropertyOp32
 70
     1
  0
XRECORD
  5
60D
102
{ACAD_REACTORS
330
60C
102
}
330
60C
100
AcDbXrecord
280
     1
102
RTVSPropertyOp0
 70
     0
102
RTVSPropertyOp1
 70
     0
102
RTVSPropertyOp2
 70
     0
102
RTVSPropertyOp3
 70
     0
102
RTVSPropertyOp4
 70
     0
102
RTVSPropertyOp5
 70
     0
102
RTVSPropertyOp6
 70
     0
102
RTVSPropertyOp7
 70
     0
102
RTVSPropertyOp8
 70
     0
102
RTVSPropertyOp9
 70
     0
102
RTVSPropertyOp10
 70
     0
102
RTVSPropertyOp11
 70
     0
102
RTVSPropertyOp12
 70
     0
102
RTVSPropertyOp13
 70
     0
102
RTVSPropertyOp14
 70
     2
102
RTVSPropertyOp15
 70
     0
102
RTVSPropertyOp16
 70
     0
102
RTVSPropertyOp17
 70
     0
102
RTVSPropertyOp18
 70
     0
102
RTVSPropertyOp19
 70
     0
102
RTVSPropertyOp20
 70
     0
102
RTVSPropertyOp21
 70
     0
102
RTVSPropertyOp22
 70
     0
102
RTVSPropertyOp23
 70
     0
102
RTVSPropertyOp24
 70
     0
102
RTVSPropertyOp25
 70
     0
102
RTVSPropertyOp26
 70
     0
102
RTVSPropertyOp27
 70
     0
102
RTVSPropertyOp28
 70
     1
102
RTVSPropertyOp29
 70
     1
102
RTVSPropertyOp30
 70
     1
102
RTVSPropertyOp31
 70
     1
102
RTVSPropertyOp32
 70
     1
  0
XRECORD
  5
607
102
{ACAD_REACTORS
330
606
102
}
330
606
100
AcDbXrecord
280
     1
102
RTVSPropertyOp0
 70
     1
102
RTVSPropertyOp1
 70
     1
102
RTVSPropertyOp2
 70
     1
102
RTVSPropertyOp3
 70
     1
102
RTVSPropertyOp4
 70
     1
102
RTVSPropertyOp5
 70
     1
102
RTVSPropertyOp6
 70
     1
102
RTVSPropertyOp7
 70
     1
102
RTVSPropertyOp8
 70
     1
102
RTVSPropertyOp9
 70
     1
102
RTVSPropertyOp10
 70
     1
102
RTVSPropertyOp11
 70
     1
102
RTVSPropertyOp12
 70
     1
102
RTVSPropertyOp13
 70
     1
102
RTVSPropertyOp14
 70
     1
102
RTVSPropertyOp15
 70
     1
102
RTVSPropertyOp16
 70
     1
102
RTVSPropertyOp17
 70
     1
102
RTVSPropertyOp18
 70
     1
102
RTVSPropertyOp19
 70
     1
102
RTVSPropertyOp20
 70
     1
102
RTVSPropertyOp21
 70
     1
102
RTVSPropertyOp22
 70
     1
102
RTVSPropertyOp23
 70
     1
102
RTVSPropertyOp24
 70
     1
102
RTVSPropertyOp25
 70
     1
102
RTVSPropertyOp26
 70
     1
102
RTVSPropertyOp27
 70
     1
102
RTVSPropertyOp28
 70
     1
102
RTVSPropertyOp29
 70
     1
102
RTVSPropertyOp30
 70
     1
102
RTVSPropertyOp31
 70
     1
102
RTVSPropertyOp32
 70
     1
  0
XRECORD
  5
60F
102
{ACAD_REACTORS
330
60E
102
}
330
60E
100
AcDbXrecord
280
     1
102
RTVSPropertyOp0
 70
     0
102
RTVSPropertyOp1
 70
     0
102
RTVSPropertyOp2
 70
     0
102
RTVSPropertyOp3
 70
     0
102
RTVSPropertyOp4
 70
     0
102
RTVSPropertyOp5
 70
     0
102
RTVSPropertyOp6
 70
     0
102
RTVSPropertyOp7
 70
     0
102
RTVSPropertyOp8
 70
     0
102
RTVSPropertyOp9
 70
     0
102
RTVSPropertyOp10
 70
     0
102
RTVSPropertyOp11
 70
     0
102
RTVSPropertyOp12
 70
     0
102
RTVSPropertyOp13
 70
     0
102
RTVSPropertyOp14
 70
     2
102
RTVSPropertyOp15
 70
     0
102
RTVSPropertyOp16
 70
     0
102
RTVSPropertyOp17
 70
     0
102
RTVSPropertyOp18
 70
     0
102
RTVSPropertyOp19
 70
     0
102
RTVSPropertyOp20
 70
     0
102
RTVSPropertyOp21
 70
     0
102
RTVSPropertyOp22
 70
     0
102
RTVSPropertyOp23
 70
     0
102
RTVSPropertyOp24
 70
     0
102
RTVSPropertyOp25
 70
     0
102
RTVSPropertyOp26
 70
     0
102
RTVSPropertyOp27
 70
     0
102
RTVSPropertyOp28
 70
     1
102
RTVSPropertyOp29
 70
     1
102
RTVSPropertyOp30
 70
     1
102
RTVSPropertyOp31
 70
     1
102
RTVSPropertyOp32
 70
     1
  0
XRECORD
  5
5FF
102
{ACAD_REACTORS
330
5FE
102
}
330
5FE
100
AcDbXrecord
280
     1
102
RTVSPropertyOp0
 70
     1
102
RTVSPropertyOp1
 70
     1
102
RTVSPropertyOp2
 70
     1
102
RTVSPropertyOp3
 70
     1
102
RTVSPropertyOp4
 70
     1
102
RTVSPropertyOp5
 70
     1
102
RTVSPropertyOp6
 70
     1
102
RTVSPropertyOp7
 70
     1
102
RTVSPropertyOp8
 70
     1
102
RTVSPropertyOp9
 70
     1
102
RTVSPropertyOp10
 70
     1
102
RTVSPropertyOp11
 70
     1
102
RTVSPropertyOp12
 70
     1
102
RTVSPropertyOp13
 70
     1
102
RTVSPropertyOp14
 70
     1
102
RTVSPropertyOp15
 70
     1
102
RTVSPropertyOp16
 70
     1
102
RTVSPropertyOp17
 70
     1
102
RTVSPropertyOp18
 70
     1
102
RTVSPropertyOp19
 70
     1
102
RTVSPropertyOp20
 70
     1
102
RTVSPropertyOp21
 70
     1
102
RTVSPropertyOp22
 70
     1
102
RTVSPropertyOp23
 70
     1
102
RTVSPropertyOp24
 70
     1
102
RTVSPropertyOp25
 70
     1
102
RTVSPropertyOp26
 70
     1
102
RTVSPropertyOp27
 70
     1
102
RTVSPropertyOp28
 70
     1
102
RTVSPropertyOp29
 70
     1
102
RTVSPropertyOp30
 70
     1
102
RTVSPropertyOp31
 70
     1
102
RTVSPropertyOp32
 70
     1
  0
XRECORD
  5
62C
102
{ACAD_REACTORS
330
62B
102
}
330
62B
100
AcDbXrecord
280
     1
102
RTVSPropertyOp0
 70
     1
102
RTVSPropertyOp1
 70
     1
102
RTVSPropertyOp2
 70
     1
102
RTVSPropertyOp3
 70
     1
102
RTVSPropertyOp4
 70
     1
102
RTVSPropertyOp5
 70
     1
102
RTVSPropertyOp6
 70
     1
102
RTVSPropertyOp7
 70
     1
102
RTVSPropertyOp8
 70
     1
102
RTVSPropertyOp9
 70
     1
102
RTVSPropertyOp10
 70
     1
102
RTVSPropertyOp11
 70
     1
102
RTVSPropertyOp12
 70
     1
102
RTVSPropertyOp13
 70
     1
102
RTVSPropertyOp14
 70
     1
102
RTVSPropertyOp15
 70
     1
102
RTVSPropertyOp16
 70
     1
102
RTVSPropertyOp17
 70
     1
102
RTVSPropertyOp18
 70
     1
102
RTVSPropertyOp19
 70
     1
102
RTVSPropertyOp20
 70
     1
102
RTVSPropertyOp21
 70
     1
102
RTVSPropertyOp22
 70
     1
102
RTVSPropertyOp23
 70
     1
102
RTVSPropertyOp24
 70
     1
102
RTVSPropertyOp25
 70
     1
102
RTVSPropertyOp26
 70
     1
102
RTVSPropertyOp27
 70
     1
102
RTVSPropertyOp28
 70
     1
102
RTVSPropertyOp29
 70
     1
102
RTVSPropertyOp30
 70
     1
102
RTVSPropertyOp31
 70
     1
102
RTVSPropertyOp32
 70
     1
  0
XRECORD
  5
62A
102
{ACAD_REACTORS
330
629
102
}
330
629
100
AcDbXrecord
280
     1
102
RTVSPropertyOp0
 70
     1
102
RTVSPropertyOp1
 70
     1
102
RTVSPropertyOp2
 70
     1
102
RTVSPropertyOp3
 70
     1
102
RTVSPropertyOp4
 70
     1
102
RTVSPropertyOp5
 70
     1
102
RTVSPropertyOp6
 70
     1
102
RTVSPropertyOp7
 70
     1
102
RTVSPropertyOp8
 70
     1
102
RTVSPropertyOp9
 70
     1
102
RTVSPropertyOp10
 70
     1
102
RTVSPropertyOp11
 70
     1
102
RTVSPropertyOp12
 70
     1
102
RTVSPropertyOp13
 70
     1
102
RTVSPropertyOp14
 70
     1
102
RTVSPropertyOp15
 70
     1
102
RTVSPropertyOp16
 70
     1
102
RTVSPropertyOp17
 70
     1
102
RTVSPropertyOp18
 70
     1
102
RTVSPropertyOp19
 70
     1
102
RTVSPropertyOp20
 70
     1
102
RTVSPropertyOp21
 70
     1
102
RTVSPropertyOp22
 70
     1
102
RTVSPropertyOp23
 70
     1
102
RTVSPropertyOp24
 70
     1
102
RTVSPropertyOp25
 70
     1
102
RTVSPropertyOp26
 70
     1
102
RTVSPropertyOp27
 70
     1
102
RTVSPropertyOp28
 70
     1
102
RTVSPropertyOp29
 70
     1
102
RTVSPropertyOp30
 70
     1
102
RTVSPropertyOp31
 70
     1
102
RTVSPropertyOp32
 70
     1
  0
XRECORD
  5
624
102
{ACAD_REACTORS
330
623
102
}
330
623
100
AcDbXrecord
280
     1
102
RTVSPropertyOp0
 70
     1
102
RTVSPropertyOp1
 70
     1
102
RTVSPropertyOp2
 70
     1
102
RTVSPropertyOp3
 70
     1
102
RTVSPropertyOp4
 70
     1
102
RTVSPropertyOp5
 70
     1
102
RTVSPropertyOp6
 70
     1
102
RTVSPropertyOp7
 70
     1
102
RTVSPropertyOp8
 70
     1
102
RTVSPropertyOp9
 70
     1
102
RTVSPropertyOp10
 70
     1
102
RTVSPropertyOp11
 70
     1
102
RTVSPropertyOp12
 70
     1
102
RTVSPropertyOp13
 70
     1
102
RTVSPropertyOp14
 70
     1
102
RTVSPropertyOp15
 70
     1
102
RTVSPropertyOp16
 70
     1
102
RTVSPropertyOp17
 70
     1
102
RTVSPropertyOp18
 70
     1
102
RTVSPropertyOp19
 70
     1
102
RTVSPropertyOp20
 70
     1
102
RTVSPropertyOp21
 70
     1
102
RTVSPropertyOp22
 70
     1
102
RTVSPropertyOp23
 70
     1
102
RTVSPropertyOp24
 70
     1
102
RTVSPropertyOp25
 70
     1
102
RTVSPropertyOp26
 70
     1
102
RTVSPropertyOp27
 70
     1
102
RTVSPropertyOp28
 70
     1
102
RTVSPropertyOp29
 70
     1
102
RTVSPropertyOp30
 70
     1
102
RTVSPropertyOp31
 70
     1
102
RTVSPropertyOp32
 70
     1
  0
XRECORD
  5
626
102
{ACAD_REACTORS
330
625
102
}
330
625
100
AcDbXrecord
280
     1
102
RTVSPropertyOp0
 70
     1
102
RTVSPropertyOp1
 70
     1
102
RTVSPropertyOp2
 70
     1
102
RTVSPropertyOp3
 70
     1
102
RTVSPropertyOp4
 70
     1
102
RTVSPropertyOp5
 70
     1
102
RTVSPropertyOp6
 70
     1
102
RTVSPropertyOp7
 70
     1
102
RTVSPropertyOp8
 70
     1
102
RTVSPropertyOp9
 70
     1
102
RTVSPropertyOp10
 70
     1
102
RTVSPropertyOp11
 70
     1
102
RTVSPropertyOp12
 70
     1
102
RTVSPropertyOp13
 70
     1
102
RTVSPropertyOp14
 70
     1
102
RTVSPropertyOp15
 70
     1
102
RTVSPropertyOp16
 70
     1
102
RTVSPropertyOp17
 70
     1
102
RTVSPropertyOp18
 70
     1
102
RTVSPropertyOp19
 70
     1
102
RTVSPropertyOp20
 70
     1
102
RTVSPropertyOp21
 70
     1
102
RTVSPropertyOp22
 70
     1
102
RTVSPropertyOp23
 70
     1
102
RTVSPropertyOp24
 70
     1
102
RTVSPropertyOp25
 70
     1
102
RTVSPropertyOp26
 70
     1
102
RTVSPropertyOp27
 70
     1
102
RTVSPropertyOp28
 70
     1
102
RTVSPropertyOp29
 70
     1
102
RTVSPropertyOp30
 70
     1
102
RTVSPropertyOp31
 70
     1
102
RTVSPropertyOp32
 70
     1
  0
XRECORD
  5
605
102
{ACAD_REACTORS
330
604
102
}
330
604
100
AcDbXrecord
280
     1
102
RTVSPropertyOp0
 70
     1
102
RTVSPropertyOp1
 70
     1
102
RTVSPropertyOp2
 70
     1
102
RTVSPropertyOp3
 70
     1
102
RTVSPropertyOp4
 70
     1
102
RTVSPropertyOp5
 70
     1
102
RTVSPropertyOp6
 70
     1
102
RTVSPropertyOp7
 70
     1
102
RTVSPropertyOp8
 70
     1
102
RTVSPropertyOp9
 70
     1
102
RTVSPropertyOp10
 70
     1
102
RTVSPropertyOp11
 70
     1
102
RTVSPropertyOp12
 70
     1
102
RTVSPropertyOp13
 70
     1
102
RTVSPropertyOp14
 70
     1
102
RTVSPropertyOp15
 70
     1
102
RTVSPropertyOp16
 70
     1
102
RTVSPropertyOp17
 70
     1
102
RTVSPropertyOp18
 70
     1
102
RTVSPropertyOp19
 70
     1
102
RTVSPropertyOp20
 70
     1
102
RTVSPropertyOp21
 70
     1
102
RTVSPropertyOp22
 70
     1
102
RTVSPropertyOp23
 70
     1
102
RTVSPropertyOp24
 70
     1
102
RTVSPropertyOp25
 70
     1
102
RTVSPropertyOp26
 70
     1
102
RTVSPropertyOp27
 70
     1
102
RTVSPropertyOp28
 70
     1
102
RTVSPropertyOp29
 70
     1
102
RTVSPropertyOp30
 70
     1
102
RTVSPropertyOp31
 70
     1
102
RTVSPropertyOp32
 70
     1
  0
XRECORD
  5
620
102
{ACAD_REACTORS
330
61F
102
}
330
61F
100
AcDbXrecord
280
     1
102
RTVSPropertyOp0
 70
     1
102
RTVSPropertyOp1
 70
     1
102
RTVSPropertyOp2
 70
     1
102
RTVSPropertyOp3
 70
     1
102
RTVSPropertyOp4
 70
     1
102
RTVSPropertyOp5
 70
     1
102
RTVSPropertyOp6
 70
     1
102
RTVSPropertyOp7
 70
     1
102
RTVSPropertyOp8
 70
     1
102
RTVSPropertyOp9
 70
     1
102
RTVSPropertyOp10
 70
     1
102
RTVSPropertyOp11
 70
     1
102
RTVSPropertyOp12
 70
     1
102
RTVSPropertyOp13
 70
     1
102
RTVSPropertyOp14
 70
     1
102
RTVSPropertyOp15
 70
     1
102
RTVSPropertyOp16
 70
     1
102
RTVSPropertyOp17
 70
     1
102
RTVSPropertyOp18
 70
     1
102
RTVSPropertyOp19
 70
     1
102
RTVSPropertyOp20
 70
     1
102
RTVSPropertyOp21
 70
     1
102
RTVSPropertyOp22
 70
     1
102
RTVSPropertyOp23
 70
     1
102
RTVSPropertyOp24
 70
     1
102
RTVSPropertyOp25
 70
     1
102
RTVSPropertyOp26
 70
     1
102
RTVSPropertyOp27
 70
     1
102
RTVSPropertyOp28
 70
     1
102
RTVSPropertyOp29
 70
     1
102
RTVSPropertyOp30
 70
     1
102
RTVSPropertyOp31
 70
     1
102
RTVSPropertyOp32
 70
     1
  0
XRECORD
  5
628
102
{ACAD_REACTORS
330
627
102
}
330
627
100
AcDbXrecord
280
     1
102
RTVSPropertyOp0
 70
     1
102
RTVSPropertyOp1
 70
     1
102
RTVSPropertyOp2
 70
     1
102
RTVSPropertyOp3
 70
     1
102
RTVSPropertyOp4
 70
     1
102
RTVSPropertyOp5
 70
     1
102
RTVSPropertyOp6
 70
     1
102
RTVSPropertyOp7
 70
     1
102
RTVSPropertyOp8
 70
     1
102
RTVSPropertyOp9
 70
     1
102
RTVSPropertyOp10
 70
     1
102
RTVSPropertyOp11
 70
     1
102
RTVSPropertyOp12
 70
     1
102
RTVSPropertyOp13
 70
     1
102
RTVSPropertyOp14
 70
     1
102
RTVSPropertyOp15
 70
     1
102
RTVSPropertyOp16
 70
     1
102
RTVSPropertyOp17
 70
     1
102
RTVSPropertyOp18
 70
     1
102
RTVSPropertyOp19
 70
     1
102
RTVSPropertyOp20
 70
     1
102
RTVSPropertyOp21
 70
     1
102
RTVSPropertyOp22
 70
     1
102
RTVSPropertyOp23
 70
     1
102
RTVSPropertyOp24
 70
     1
102
RTVSPropertyOp25
 70
     1
102
RTVSPropertyOp26
 70
     1
102
RTVSPropertyOp27
 70
     1
102
RTVSPropertyOp28
 70
     1
102
RTVSPropertyOp29
 70
     1
102
RTVSPropertyOp30
 70
     1
102
RTVSPropertyOp31
 70
     1
102
RTVSPropertyOp32
 70
     1
  0
ENDSEC
  0
EOF
