  0
SECTION
  2
HEADER
  9
$ACADVER
  1
AC1027
  9
$ACADMAINTVER
 70
    57
  9
$DWGCODEPAGE
  3
ANSI_1252
  9
$LASTSAVEDBY
  1
SJouini
  9
$CUSTOMPROPERTYTAG
  1
PrintArea
  9
$CUSTOMPROPERTY
  1
-1310.9408,758.2187|-1179.4281,877.0187
  9
$CUSTOMPROPERTYTAG
  1
Formato
  9
$CUSTOMPROPERTY
  1
4
  9
$CUSTOMPROPERTYTAG
  1
Scala
  9
$CUSTOMPROPERTY
  1
2.5:1
  9
$CUSTOMPROPERTYTAG
  1
FrameBlockName
  9
$CUSTOMPROPERTY
  1
TAB-A4
  9
$REQUIREDVERSIONS
160
                 0
  9
$INSBASE
 10
0.0
 20
0.0
 30
0.0
  9
$EXTMIN
 10
-1281.268020207671
 20
816.6832538661989
 30
-0.0015258207003583
  9
$EXTMAX
 10
-1256.165050555023
 20
841.6999322739611
 30
0.0000000349246037
  9
$LIMMIN
 10
0.0
 20
0.0
  9
$LIMMAX
 10
420.0
 20
300.0
  9
$ORTHOMODE
 70
     0
  9
$REGENMODE
 70
     1
  9
$FILLMODE
 70
     1
  9
$QTEXTMODE
 70
     0
  9
$MIRRTEXT
 70
     0
  9
$LTSCALE
 40
0.4
  9
$ATTMODE
 70
     1
  9
$TEXTSIZE
 40
3.0
  9
$TRACEWID
 40
0.05
  9
$TEXTSTYLE
  7
ROMANS
  9
$CLAYER
  8
P-00000000
  9
$CELTYPE
  6
CONTINUOUS
  9
$CECOLOR
 62
     7
  9
$CELTSCALE
 40
1.0
  9
$DISPSILH
 70
     0
  9
$DIMSCALE
 40
0.4
  9
$DIMASZ
 40
2.0
  9
$DIMEXO
 40
1.0
  9
$DIMDLI
 40
10.0
  9
$DIMRND
 40
0.0
  9
$DIMDLE
 40
0.0
  9
$DIMEXE
 40
1.5
  9
$DIMTP
 40
0.0
  9
$DIMTM
 40
0.0
  9
$DIMTXT
 40
2.0
  9
$DIMCEN
 40
2.0
  9
$DIMTSZ
 40
0.0
  9
$DIMTOL
 70
     0
  9
$DIMLIM
 70
     0
  9
$DIMTIH
 70
     0
  9
$DIMTOH
 70
     0
  9
$DIMSE1
 70
     0
  9
$DIMSE2
 70
     0
  9
$DIMTAD
 70
     1
  9
$DIMZIN
 70
     8
  9
$DIMBLK
  1

  9
$DIMASO
 70
     1
  9
$DIMSHO
 70
     1
  9
$DIMPOST
  1

  9
$DIMAPOST
  1

  9
$DIMALT
 70
     0
  9
$DIMALTD
 70
     2
  9
$DIMALTF
 40
25.4
  9
$DIMLFAC
 40
1.0
  9
$DIMTOFL
 70
     1
  9
$DIMTVP
 40
0.0
  9
$DIMTIX
 70
     0
  9
$DIMSOXD
 70
     0
  9
$DIMSAH
 70
     0
  9
$DIMBLK1
  1

  9
$DIMBLK2
  1

  9
$DIMSTYLE
  2
ACADTOP
  9
$DIMCLRD
 70
     2
  9
$DIMCLRE
 70
     2
  9
$DIMCLRT
 70
     1
  9
$DIMTFAC
 40
0.6
  9
$DIMGAP
 40
1.0
  9
$DIMJUST
 70
     0
  9
$DIMSD1
 70
     0
  9
$DIMSD2
 70
     0
  9
$DIMTOLJ
 70
     1
  9
$DIMTZIN
 70
     8
  9
$DIMALTZ
 70
     0
  9
$DIMALTTZ
 70
     0
  9
$DIMUPT
 70
     0
  9
$DIMDEC
 70
     2
  9
$DIMTDEC
 70
     2
  9
$DIMALTU
 70
     2
  9
$DIMALTTD
 70
     2
  9
$DIMTXSTY
  7
Stile_Quota
  9
$DIMAUNIT
 70
     0
  9
$DIMADEC
 70
     1
  9
$DIMALTRND
 40
0.0
  9
$DIMAZIN
 70
     2
  9
$DIMDSEP
 70
    46
  9
$DIMATFIT
 70
     0
  9
$DIMFRAC
 70
     0
  9
$DIMLDRBLK
  1

  9
$DIMLUNIT
 70
     2
  9
$DIMLWD
 70
    -2
  9
$DIMLWE
 70
    -2
  9
$DIMTMOVE
 70
     0
  9
$DIMFXL
 40
1.0
  9
$DIMFXLON
 70
     0
  9
$DIMJOGANG
 40
0.7853981633974483
  9
$DIMTFILL
 70
     0
  9
$DIMTFILLCLR
 70
     0
  9
$DIMARCSYM
 70
     0
  9
$DIMLTYPE
  6

  9
$DIMLTEX1
  6

  9
$DIMLTEX2
  6

  9
$DIMTXTDIRECTION
 70
     0
  9
$LUNITS
 70
     2
  9
$LUPREC
 70
     3
  9
$SKETCHINC
 40
0.1
  9
$FILLETRAD
 40
0.5
  9
$AUNITS
 70
     0
  9
$AUPREC
 70
     3
  9
$MENU
  1
.
  9
$ELEVATION
 40
0.0
  9
$PELEVATION
 40
0.0
  9
$THICKNESS
 40
0.0
  9
$LIMCHECK
 70
     0
  9
$CHAMFERA
 40
0.5
  9
$CHAMFERB
 40
0.5
  9
$CHAMFERC
 40
1.0
  9
$CHAMFERD
 40
0.0
  9
$SKPOLY
 70
     1
  9
$TDCREATE
 40
2457064.696062153
  9
$TDUCREATE
 40
2457064.654395486
  9
$TDUPDATE
 40
2457064.706114896
  9
$TDUUPDATE
 40
2457064.664448229
  9
$TDINDWG
 40
0.0100531944
  9
$TDUSRTIMER
 40
0.0100531597
  9
$USRTIMER
 70
     1
  9
$ANGBASE
 50
0.0
  9
$ANGDIR
 70
     0
  9
$PDMODE
 70
     0
  9
$PDSIZE
 40
0.0
  9
$PLINEWID
 40
0.0
  9
$SPLFRAME
 70
     0
  9
$SPLINETYPE
 70
     6
  9
$SPLINESEGS
 70
     8
  9
$HANDSEED
  5
A46
  9
$SURFTAB1
 70
     6
  9
$SURFTAB2
 70
     6
  9
$SURFTYPE
 70
     6
  9
$SURFU
 70
     6
  9
$SURFV
 70
     6
  9
$UCSBASE
  2

  9
$UCSNAME
  2

  9
$UCSORG
 10
0.0
 20
0.0
 30
0.0
  9
$UCSXDIR
 10
1.0
 20
0.0
 30
0.0
  9
$UCSYDIR
 10
0.0
 20
1.0
 30
0.0
  9
$UCSORTHOREF
  2

  9
$UCSORTHOVIEW
 70
     0
  9
$UCSORGTOP
 10
0.0
 20
0.0
 30
0.0
  9
$UCSORGBOTTOM
 10
0.0
 20
0.0
 30
0.0
  9
$UCSORGLEFT
 10
0.0
 20
0.0
 30
0.0
  9
$UCSORGRIGHT
 10
0.0
 20
0.0
 30
0.0
  9
$UCSORGFRONT
 10
0.0
 20
0.0
 30
0.0
  9
$UCSORGBACK
 10
0.0
 20
0.0
 30
0.0
  9
$PUCSBASE
  2

  9
$PUCSNAME
  2

  9
$PUCSORG
 10
0.0
 20
0.0
 30
0.0
  9
$PUCSXDIR
 10
1.0
 20
0.0
 30
0.0
  9
$PUCSYDIR
 10
0.0
 20
1.0
 30
0.0
  9
$PUCSORTHOREF
  2

  9
$PUCSORTHOVIEW
 70
     0
  9
$PUCSORGTOP
 10
0.0
 20
0.0
 30
0.0
  9
$PUCSORGBOTTOM
 10
0.0
 20
0.0
 30
0.0
  9
$PUCSORGLEFT
 10
0.0
 20
0.0
 30
0.0
  9
$PUCSORGRIGHT
 10
0.0
 20
0.0
 30
0.0
  9
$PUCSORGFRONT
 10
0.0
 20
0.0
 30
0.0
  9
$PUCSORGBACK
 10
0.0
 20
0.0
 30
0.0
  9
$USERI1
 70
     0
  9
$USERI2
 70
     0
  9
$USERI3
 70
     0
  9
$USERI4
 70
     0
  9
$USERI5
 70
     0
  9
$USERR1
 40
0.0
  9
$USERR2
 40
0.0
  9
$USERR3
 40
0.0
  9
$USERR4
 40
0.0
  9
$USERR5
 40
0.0
  9
$WORLDVIEW
 70
     1
  9
$SHADEDGE
 70
     3
  9
$SHADEDIF
 70
    70
  9
$TILEMODE
 70
     1
  9
$MAXACTVP
 70
    48
  9
$PINSBASE
 10
0.0
 20
0.0
 30
0.0
  9
$PLIMCHECK
 70
     0
  9
$PEXTMIN
 10
1.000000000000000E+20
 20
1.000000000000000E+20
 30
1.000000000000000E+20
  9
$PEXTMAX
 10
-1.000000000000000E+20
 20
-1.000000000000000E+20
 30
-1.000000000000000E+20
  9
$PLIMMIN
 10
0.0
 20
0.0
  9
$PLIMMAX
 10
12.0
 20
9.0
  9
$UNITMODE
 70
     0
  9
$VISRETAIN
 70
     1
  9
$PLINEGEN
 70
     0
  9
$PSLTSCALE
 70
     1
  9
$TREEDEPTH
 70
  3020
  9
$CMLSTYLE
  2
STANDARD
  9
$CMLJUST
 70
     0
  9
$CMLSCALE
 40
1.0
  9
$PROXYGRAPHICS
 70
     1
  9
$MEASUREMENT
 70
     1
  9
$CELWEIGHT
370
    -1
  9
$ENDCAPS
280
     0
  9
$JOINSTYLE
280
     0
  9
$LWDISPLAY
290
     0
  9
$INSUNITS
 70
     0
  9
$HYPERLINKBASE
  1

  9
$STYLESHEET
  1
MACAP BN.ctb
  9
$XEDIT
290
     1
  9
$CEPSNTYPE
380
     0
  9
$PSTYLEMODE
290
     1
  9
$FINGERPRINTGUID
  2
{C9850AF8-B802-4EF5-93B5-97B497C81881}
  9
$VERSIONGUID
  2
{F9B64FFB-55E0-4132-B7D7-F0664630472A}
  9
$EXTNAMES
290
     1
  9
$PSVPSCALE
 40
0.0
  9
$OLESTARTUP
290
     0
  9
$SORTENTS
280
   127
  9
$INDEXCTL
280
     0
  9
$HIDETEXT
280
     0
  9
$XCLIPFRAME
280
     0
  9
$HALOGAP
280
     0
  9
$OBSCOLOR
 70
   257
  9
$OBSLTYPE
280
     0
  9
$INTERSECTIONDISPLAY
280
     0
  9
$INTERSECTIONCOLOR
 70
   257
  9
$DIMASSOC
280
     2
  9
$PROJECTNAME
  1

  9
$CAMERADISPLAY
290
     0
  9
$LENSLENGTH
 40
50.0
  9
$CAMERAHEIGHT
 40
0.0
  9
$STEPSPERSEC
 40
2.0
  9
$STEPSIZE
 40
6.0
  9
$3DDWFPREC
 40
2.0
  9
$PSOLWIDTH
 40
0.25
  9
$PSOLHEIGHT
 40
4.0
  9
$LOFTANG1
 40
1.570796326794896
  9
$LOFTANG2
 40
1.570796326794896
  9
$LOFTMAG1
 40
0.0
  9
$LOFTMAG2
 40
0.0
  9
$LOFTPARAM
 70
     7
  9
$LOFTNORMALS
280
     1
  9
$LATITUDE
 40
37.795
  9
$LONGITUDE
 40
-122.394
  9
$NORTHDIRECTION
 40
0.0
  9
$TIMEZONE
 70
 -8000
  9
$LIGHTGLYPHDISPLAY
280
     1
  9
$TILEMODELIGHTSYNCH
280
     1
  9
$CMATERIAL
347
2B1
  9
$SOLIDHIST
280
     1
  9
$SHOWHIST
280
     1
  9
$DWFFRAME
280
     2
  9
$DGNFRAME
280
     0
  9
$REALWORLDSCALE
290
     1
  9
$INTERFERECOLOR
 62
     1
  9
$INTERFEREOBJVS
345
2BE
  9
$INTERFEREVPVS
346
6D4
  9
$CSHADOW
280
     0
  9
$SHADOWPLANELOCATION
 40
0.0
  0
ENDSEC
  0
SECTION
  2
CLASSES
  0
CLASS
  1
DICTIONARYVAR
  2
AcDbDictionaryVar
  3
ObjectDBX Classes
 90
        0
 91
       13
280
     0
281
     0
  0
CLASS
  1
ACDBDICTIONARYWDFLT
  2
AcDbDictionaryWithDefault
  3
ObjectDBX Classes
 90
        0
 91
        1
280
     0
281
     0
  0
CLASS
  1
PLOTSETTINGS
  2
AcDbPlotSettings
  3
ObjectDBX Classes
 90
        0
 91
       18
280
     0
281
     0
  0
CLASS
  1
MATERIAL
  2
AcDbMaterial
  3
ObjectDBX Classes
 90
     1153
 91
        3
280
     0
281
     0
  0
CLASS
  1
VISUALSTYLE
  2
AcDbVisualStyle
  3
ObjectDBX Classes
 90
     4095
 91
       26
280
     0
281
     0
  0
CLASS
  1
TABLESTYLE
  2
AcDbTableStyle
  3
ObjectDBX Classes
 90
     4095
 91
        5
280
     0
281
     0
  0
CLASS
  1
SCALE
  2
AcDbScale
  3
ObjectDBX Classes
 90
     1153
 91
       33
280
     0
281
     0
  0
CLASS
  1
MLEADERSTYLE
  2
AcDbMLeaderStyle
  3
ACDB_MLEADERSTYLE_CLASS
 90
     4095
 91
        2
280
     0
281
     0
  0
CLASS
  1
CELLSTYLEMAP
  2
AcDbCellStyleMap
  3
ObjectDBX Classes
 90
     1152
 91
       10
280
     0
281
     0
  0
CLASS
  1
DIMASSOC
  2
AcDbDimAssoc
  3
"AcDbDimAssoc|Product Desc:     AcDim ARX App For Dimension|Company:          Autodesk, Inc.|WEB Address:      www.autodesk.com"
 90
        0
 91
        2
280
     0
281
     0
  0
CLASS
  1
ACDBSECTIONVIEWSTYLE
  2
AcDbSectionViewStyle
  3
ObjectDBX Classes
 90
     1025
 91
        2
280
     0
281
     0
  0
CLASS
  1
ACDBDETAILVIEWSTYLE
  2
AcDbDetailViewStyle
  3
ObjectDBX Classes
 90
     1025
 91
        2
280
     0
281
     0
  0
CLASS
  1
ACDBQSCATEGORY
  2
AcQsCategory
  3
categories
 90
     1024
 91
        1
280
     0
281
     0
  0
CLASS
  1
ACDBQSPALLSTYLE
  2
AcQsPallStyle
  3
pallcart
 90
     1024
 91
        1
280
     0
281
     0
  0
CLASS
  1
SORTENTSTABLE
  2
AcDbSortentsTable
  3
ObjectDBX Classes
 90
        0
 91
        1
280
     0
281
     0
  0
ENDSEC
  0
SECTION
  2
TABLES
  0
TABLE
  2
VPORT
  5
12
102
{ACAD_XDICTIONARY
360
300
102
}
330
0
100
AcDbSymbolTable
 70
     1
  0
VPORT
  5
2AE
330
12
100
AcDbSymbolTableRecord
100
AcDbViewportTableRecord
  2
*Active
 70
     0
 10
0.0
 20
0.0
 11
1.0
 21
1.0
 12
-1268.716535381347
 22
829.1915930700799
 13
0.0
 23
0.0
 14
1.0
 24
1.0
 15
1.0
 25
1.0
 16
0.0
 26
0.0
 36
1.0
 17
0.0
 27
0.0
 37
0.0
 40
25.22285982321091
 41
2.265474552957359
 42
50.0
 43
0.0
 44
0.0
 50
0.0
 51
0.0
 71
     0
 72
   100
 73
     1
 74
     0
 75
     0
 76
     0
 77
     0
 78
     0
281
     0
 65
     1
110
0.0
120
0.0
130
0.0
111
1.0
121
0.0
131
0.0
112
0.0
122
1.0
132
0.0
 79
     0
146
0.0
348
2BA
 60
     3
 61
     5
292
     1
282
     1
141
0.0
142
0.0
 63
   250
421
  3355443
1001
ACAD_NAV_VCDISPLAY
1070
     3
  0
ENDTAB
  0
TABLE
  2
LTYPE
  5
D
330
0
100
AcDbSymbolTable
 70
     6
  0
LTYPE
  5
E
330
D
100
AcDbSymbolTableRecord
100
AcDbLinetypeTableRecord
  2
BYBLOCK
 70
     0
  3

 72
    65
 73
     0
 40
0.0
  0
LTYPE
  5
F
330
D
100
AcDbSymbolTableRecord
100
AcDbLinetypeTableRecord
  2
BYLAYER
 70
     0
  3

 72
    65
 73
     0
 40
0.0
  0
LTYPE
  5
5
330
D
100
AcDbSymbolTableRecord
100
AcDbLinetypeTableRecord
  2
CONTINUOUS
 70
     0
  3
Solid line
 72
    65
 73
     0
 40
0.0
  0
LTYPE
  5
3E
330
D
100
AcDbSymbolTableRecord
100
AcDbLinetypeTableRecord
  2
ASSI
 70
     0
  3
-.-.-.-.-.-.-.-.-.-.-.-.-.-.-.-.-.-.-.-.-.-.-.-
 72
    65
 73
     4
 40
16.0
 49
10.0
 74
     0
 49
-2.0
 74
     0
 49
2.0
 74
     0
 49
-2.0
 74
     0
  0
LTYPE
  5
3F
330
D
100
AcDbSymbolTableRecord
100
AcDbLinetypeTableRecord
  2
INGOMBRI
 70
     0
  3
--..--..--..--..--..--..--..--..--..--..--..--
 72
    65
 73
     6
 40
20.0
 49
10.0
 74
     0
 49
-2.0
 74
     0
 49
2.0
 74
     0
 49
-2.0
 74
     0
 49
2.0
 74
     0
 49
-2.0
 74
     0
  0
LTYPE
  5
40
330
D
100
AcDbSymbolTableRecord
100
AcDbLinetypeTableRecord
  2
TRATTEGGIO
 70
     0
  3
- - - - - - - - - - - - - - - - - - - - - -
 72
    65
 73
     2
 40
5.5
 49
4.0
 74
     0
 49
-1.5
 74
     0
  0
LTYPE
  5
277
330
D
100
AcDbSymbolTableRecord
100
AcDbLinetypeTableRecord
  2
PUNTO
 70
     0
  3
Punto . . . . . . . . . . . . . . . . . . . . .
 72
    65
 73
     2
 40
6.349999999999999
 49
0.0
 74
     0
 49
-6.349999999999999
 74
     0
  0
LTYPE
  5
93B
330
D
100
AcDbSymbolTableRecord
100
AcDbLinetypeTableRecord
  2
DASHDOT2
 70
     0
  3
_._._._._._._._._._._._._._._._._._._._._._._._
 72
    65
 73
     4
 40
0.5
 49
0.25
 74
     0
 49
-0.125
 74
     0
 49
0.0
 74
     0
 49
-0.125
 74
     0
  0
ENDTAB
  0
TABLE
  2
LAYER
  5
A
102
{ACAD_XDICTIONARY
360
74C
102
}
330
0
100
AcDbSymbolTable
 70
     6
  0
LAYER
  5
4
102
{ACAD_XDICTIONARY
360
37B
102
}
330
A
100
AcDbSymbolTableRecord
100
AcDbLayerTableRecord
  2
0
 70
     0
 62
     7
  6
CONTINUOUS
370
    -3
390
44
347
2B3
348
0
  0
LAYER
  5
118
330
A
100
AcDbSymbolTableRecord
100
AcDbLayerTableRecord
  2
Defpoints
 70
     0
 62
     7
  6
CONTINUOUS
290
     0
370
    -3
390
44
347
2B3
348
0
  0
LAYER
  5
884
330
A
100
AcDbSymbolTableRecord
100
AcDbLayerTableRecord
  2
P-00000000
 70
     0
 62
     7
  6
CONTINUOUS
370
    -3
390
44
347
2B3
348
0
1001
AcAecLayerStandard
1000

1000
TOP
  0
LAYER
  5
93C
330
A
100
AcDbSymbolTableRecord
100
AcDbLayerTableRecord
  2
P-0000
 70
     0
 62
     7
  6
CONTINUOUS
370
    -3
390
44
347
2B3
348
0
1001
AcAecLayerStandard
1000

1000
TOP
  0
LAYER
  5
93D
330
A
100
AcDbSymbolTableRecord
100
AcDbLayerTableRecord
  2
Livello 1
 70
     0
 62
     7
  6
CONTINUOUS
370
    -3
390
44
347
2B3
348
0
  0
ENDTAB
  0
TABLE
  2
STYLE
  5
B
330
0
100
AcDbSymbolTable
 70
    10
  0
STYLE
  5
C
330
B
100
AcDbSymbolTableRecord
100
AcDbTextStyleTableRecord
  2
STANDARD
 70
     0
 40
0.0
 41
0.8
 50
0.0
 71
     0
 42
0.2
  3
romans.shx
  4

  0
STYLE
  5
1B
330
B
100
AcDbSymbolTableRecord
100
AcDbTextStyleTableRecord
  2
ROMANS
 70
     0
 40
0.0
 41
0.8
 50
0.0
 71
     0
 42
3.0
  3
ROMANS.shx
  4

  0
STYLE
  5
25
330
B
100
AcDbSymbolTableRecord
100
AcDbTextStyleTableRecord
  2

 70
     1
 40
0.0
 41
1.0
 50
0.0
 71
     0
 42
0.2
  3
ltypeshp.shx
  4

  0
STYLE
  5
35C
330
B
100
AcDbSymbolTableRecord
100
AcDbTextStyleTableRecord
  2
Stile_Quota
 70
     0
 40
0.0
 41
1.0
 50
0.0
 71
     0
 42
3.0
  3
BOD_I.TTF
  4

1001
ACAD
1000
Bodoni MT
1071
 16777234
  0
STYLE
  5
635
330
B
100
AcDbSymbolTableRecord
100
AcDbTextStyleTableRecord
  2
Stile_Quota_FISSO
 70
     0
 40
20.0
 41
1.0
 50
0.0
 71
     0
 42
3.0
  3
BOD_I.TTF
  4

1001
ACAD
1000
Bodoni MT
1071
 16777234
  0
STYLE
  5
7CC
330
B
100
AcDbSymbolTableRecord
100
AcDbTextStyleTableRecord
  2
SS-TABPALL
 70
     0
 40
0.0
 41
1.0
 50
0.0
 71
     0
 42
3.0
  3
times.ttf
  4

1001
ACAD
1000
Times New Roman
1071
       18
  0
STYLE
  5
93E
330
B
100
AcDbSymbolTableRecord
100
AcDbTextStyleTableRecord
  2
STYLE1
 70
     0
 40
0.0
 41
1.0
 50
0.0
 71
     0
 42
3.0
  3
eurr____.ttf
  4

1001
ACAD
1000
EuroRoman
1071
      514
  0
STYLE
  5
93F
330
B
100
AcDbSymbolTableRecord
100
AcDbTextStyleTableRecord
  2
arial_ttf
 70
     0
 40
0.0
 41
1.0
 50
0.0
 71
     0
 42
0.2
  3
arial.ttf
  4

1001
ACAD
1000
Arial
1071
        2
  0
STYLE
  5
940
330
B
100
AcDbSymbolTableRecord
100
AcDbTextStyleTableRecord
  2
seansi_ttf
 70
     0
 40
0.0
 41
1.0
 50
0.0
 71
     0
 42
0.2
  3
seansi.ttf
  4

  0
STYLE
  5
941
330
B
100
AcDbSymbolTableRecord
100
AcDbTextStyleTableRecord
  2
Stile_Cart
 70
     0
 40
0.0
 41
1.0
 50
0.0
 71
     0
 42
1.5
  3
times.ttf
  4

1001
ACAD
1000
Times New Roman
1071
       18
  0
ENDTAB
  0
TABLE
  2
VIEW
  5
10
330
0
100
AcDbSymbolTable
 70
     1
  0
ENDTAB
  0
TABLE
  2
UCS
  5
11
330
0
100
AcDbSymbolTable
 70
     0
  0
ENDTAB
  0
TABLE
  2
APPID
  5
14
330
0
100
AcDbSymbolTable
 70
    13
  0
APPID
  5
15
330
14
100
AcDbSymbolTableRecord
100
AcDbRegAppTableRecord
  2
ACAD
 70
     0
  0
APPID
  5
53
330
14
100
AcDbSymbolTableRecord
100
AcDbRegAppTableRecord
  2
TOP
 70
     0
  0
APPID
  5
356
330
14
100
AcDbSymbolTableRecord
100
AcDbRegAppTableRecord
  2
ACAD_MLEADERVER
 70
     0
  0
APPID
  5
35A
330
14
100
AcDbSymbolTableRecord
100
AcDbRegAppTableRecord
  2
ACAD_DSTYLE_DIMJAG
 70
     0
  0
APPID
  5
35B
330
14
100
AcDbSymbolTableRecord
100
AcDbRegAppTableRecord
  2
ACAD_DSTYLE_DIMTALN
 70
     0
  0
APPID
  5
35D
330
14
100
AcDbSymbolTableRecord
100
AcDbRegAppTableRecord
  2
AcadAnnoPO
 70
     0
  0
APPID
  5
374
330
14
100
AcDbSymbolTableRecord
100
AcDbRegAppTableRecord
  2
ACAD_EXEMPT_FROM_CAD_STANDARDS
 70
     0
  0
APPID
  5
38F
330
14
100
AcDbSymbolTableRecord
100
AcDbRegAppTableRecord
  2
ACAD_PSEXT
 70
     0
  0
APPID
  5
3BC
330
14
100
AcDbSymbolTableRecord
100
AcDbRegAppTableRecord
  2
ACAD_DSTYLE_DIMBREAK
 70
     0
  0
APPID
  5
829
330
14
100
AcDbSymbolTableRecord
100
AcDbRegAppTableRecord
  2
ACAD_NAV_VCDISPLAY
 70
     0
  0
APPID
  5
885
330
14
100
AcDbSymbolTableRecord
100
AcDbRegAppTableRecord
  2
AcAecLayerStandard
 70
     0
  0
APPID
  5
898
330
14
100
AcDbSymbolTableRecord
100
AcDbRegAppTableRecord
  2
ACAD_DSTYLE_DIMRADIAL_EXTENSION
 70
     0
  0
APPID
  5
A20
330
14
100
AcDbSymbolTableRecord
100
AcDbRegAppTableRecord
  2
DCO15
 70
     0
  0
ENDTAB
  0
TABLE
  2
DIMSTYLE
  5
16
330
0
100
AcDbSymbolTable
 70
     5
100
AcDbDimStyleTable
 71
     3
340
1D
340
3BD
340
3BE
  0
DIMSTYLE
105
1D
330
16
100
AcDbSymbolTableRecord
100
AcDbDimStyleTableRecord
  2
ACADTOP
 70
     0
 40
0.4
 41
2.0
 42
1.0
 43
10.0
 44
1.5
 73
     0
 74
     0
 77
     1
 78
     8
 79
     2
140
2.0
141
2.0
146
0.6
147
1.0
172
     1
176
     2
177
     2
178
     1
179
     1
271
     2
272
     2
284
     8
289
     0
340
35C
1001
ACAD_DSTYLE_DIMJAG
1070
   388
1040
1.5
1001
ACAD_DSTYLE_DIMTALN
1070
   392
1070
     0
  0
DIMSTYLE
105
3BD
330
16
100
AcDbSymbolTableRecord
100
AcDbDimStyleTableRecord
  2
DIERRE_LUNG-ALT
 70
     0
 40
0.4
 41
3.0
 42
1.0
 43
10.0
 44
1.5
 73
     0
 74
     0
 75
     1
 76
     1
 78
     8
 79
     2
140
20.0
141
2.0
146
0.6
147
1.0
172
     1
176
     3
177
     3
178
    30
179
     1
271
     1
272
     1
281
     1
282
     1
284
     8
340
635
1001
ACAD_DSTYLE_DIMBREAK
1070
   391
1040
3.75
1001
ACAD_DSTYLE_DIMJAG
1070
   388
1040
1.5
1001
ACAD_DSTYLE_DIMTALN
1070
   392
1070
     0
  0
DIMSTYLE
105
3BE
330
16
100
AcDbSymbolTableRecord
100
AcDbDimStyleTableRecord
  2
DIERRE_LARG
 70
     0
 40
0.4
 41
3.0
 42
1.0
 43
10.0
 44
1.5
 73
     0
 74
     0
 75
     1
 76
     1
 78
     8
 79
     2
140
20.0
141
2.0
146
0.6
147
1.0
172
     1
176
     4
177
     4
178
     4
179
     1
271
     1
272
     1
281
     1
282
     1
284
     8
340
635
1001
ACAD_DSTYLE_DIMBREAK
1070
   391
1040
3.75
1001
ACAD_DSTYLE_DIMJAG
1070
   388
1040
1.5
1001
ACAD_DSTYLE_DIMTALN
1070
   392
1070
     0
  0
DIMSTYLE
105
942
330
16
100
AcDbSymbolTableRecord
100
AcDbDimStyleTableRecord
  2
STANDARD
 70
     0
340
C
  0
DIMSTYLE
105
943
330
16
100
AcDbSymbolTableRecord
100
AcDbDimStyleTableRecord
  2
ISO-25
 70
     0
 41
2.5
 42
0.625
 43
3.75
 44
1.25
 50
90.0
 73
     0
 74
     0
 77
     1
 78
     8
140
2.5
141
2.5
143
0.03937007874016
147
0.625
171
     3
172
     1
271
     2
272
     2
274
     3
278
    44
283
     0
284
     8
340
C
  0
ENDTAB
  0
TABLE
  2
BLOCK_RECORD
  5
1
330
0
100
AcDbSymbolTable
 70
     5
  0
BLOCK_RECORD
  5
2
330
1
100
AcDbSymbolTableRecord
100
AcDbBlockTableRecord
  2
*MODEL_SPACE
340
47
 70
     0
280
     1
281
     0
  0
BLOCK_RECORD
  5
7
330
1
100
AcDbSymbolTableRecord
100
AcDbBlockTableRecord
  2
*PAPER_SPACE
340
48
 70
     0
280
     1
281
     0
  0
BLOCK_RECORD
  5
89A
330
1
100
AcDbSymbolTableRecord
100
AcDbBlockTableRecord
  2
*D1
340
0
 70
     0
280
     1
281
     0
  0
BLOCK_RECORD
  5
8B3
330
1
100
AcDbSymbolTableRecord
100
AcDbBlockTableRecord
  2
*D2
340
0
 70
     0
280
     1
281
     0
  0
BLOCK_RECORD
  5
8D2
330
1
100
AcDbSymbolTableRecord
100
AcDbBlockTableRecord
  2
block 2
340
0
102
{BLKREFS
331
9CF
102
}
 70
     0
280
     1
281
     0
  0
BLOCK_RECORD
  5
948
102
{ACAD_XDICTIONARY
360
A02
102
}
330
1
100
AcDbSymbolTableRecord
100
AcDbBlockTableRecord
  2
TAB-A4
340
0
 70
     0
280
     1
281
     0
  0
ENDTAB
  0
ENDSEC
  0
SECTION
  2
BLOCKS
  0
BLOCK
  5
3
330
2
100
AcDbEntity
  8
0
100
AcDbBlockBegin
  2
*MODEL_SPACE
 70
     0
 10
0.0
 20
0.0
 30
0.0
  3
*MODEL_SPACE
  1

  0
ENDBLK
  5
6
330
2
100
AcDbEntity
  8
0
100
AcDbBlockEnd
  0
BLOCK
  5
8
330
7
100
AcDbEntity
 67
     1
  8
0
100
AcDbBlockBegin
  2
*PAPER_SPACE
 70
     0
 10
0.0
 20
0.0
 30
0.0
  3
*PAPER_SPACE
  1

  0
ENDBLK
  5
9
330
7
100
AcDbEntity
 67
     1
  8
0
100
AcDbBlockEnd
  0
BLOCK
  5
89B
330
89A
100
AcDbEntity
  8
0
 62
     2
100
AcDbBlockBegin
  2
*D1
 70
     1
 10
0.0
 20
0.0
 30
0.0
  3
*D1
  1

  0
LINE
  5
8AB
330
89A
100
AcDbEntity
  8
P-00000000
  6
Continuous
 62
     2
440
 16777216
370
    -2
100
AcDbLine
 10
-1288.748934065164
 20
815.2251191696857
 30
0.0
 11
-1270.549169032196
 21
825.7021680263418
 31
0.0
  0
SOLID
  5
8AC
330
89A
100
AcDbEntity
  8
P-00000000
  6
Continuous
 62
     2
440
 16777216
100
AcDbTrace
 10
-1288.915236427968
 20
815.5140043289389
 30
0.0
 11
-1288.58263170236
 21
814.9362340104323
 31
0.0
 12
-1290.482245020685
 22
814.2273049928613
 32
0.0
 13
-1290.482245020685
 23
814.2273049928613
 33
0.0
  0
SOLID
  5
8AD
330
89A
100
AcDbEntity
  8
P-00000000
  6
Continuous
 62
     2
440
 16777216
100
AcDbTrace
 10
-1270.715471395
 20
825.9910531855952
 30
0.0
 11
-1270.382866669393
 21
825.4132828670886
 31
0.0
 12
-1268.815858076676
 22
826.6999822031662
 32
0.0
 13
-1268.815858076676
 23
826.6999822031662
 33
0.0
  0
MTEXT
  5
8AE
330
89A
100
AcDbEntity
  8
P-00000000
  6
Continuous
 62
     1
440
 16777216
100
AcDbMText
 10
-1280.646865725504
 20
822.1969545535344
 30
0.0
 40
2.0
 41
0.0
 46
0.0
 71
     5
 72
     1
  1
\A1;∅25
  7
Stile_Quota
 11
0.8666554777603673
 21
0.4989070884122107
 31
0.0
 73
     1
 44
1.0
  0
POINT
  5
8AF
330
89A
100
AcDbEntity
  8
Defpoints
  6
Continuous
 62
     0
440
 16777216
100
AcDbPoint
 10
-1268.815858076676
 20
826.6999822031662
 30
0.0
  0
POINT
  5
8B0
330
89A
100
AcDbEntity
  8
Defpoints
  6
Continuous
 62
     0
440
 16777216
100
AcDbPoint
 10
-1290.482245020685
 20
814.2273049928613
 30
0.0
  0
ENDBLK
  5
89C
330
89A
100
AcDbEntity
  8
0
 62
     2
100
AcDbBlockEnd
  0
BLOCK
  5
8B4
330
8B3
100
AcDbEntity
  8
0
 62
     2
100
AcDbBlockBegin
  2
*D2
 70
     1
 10
0.0
 20
0.0
 30
0.0
  3
*D2
  1

  0
LINE
  5
8C4
330
8B3
100
AcDbEntity
  8
P-00000000
  6
Continuous
 62
     2
440
 16777216
370
    -2
100
AcDbLine
 10
-1282.482392608967
 20
812.9821879618361
 30
0.0
 11
-1276.815710488392
 21
827.9450992341912
 31
0.0
  0
SOLID
  5
8C5
330
8B3
100
AcDbEntity
  8
P-00000000
  6
Continuous
 62
     2
440
 16777216
100
AcDbTrace
 10
-1282.794119927141
 20
813.1002438393482
 30
0.0
 11
-1282.170665290793
 21
812.8641320843241
 31
0.0
 12
-1283.190727874039
 22
811.1118240527918
 32
0.0
 13
-1283.190727874039
 23
811.1118240527918
 33
0.0
  0
SOLID
  5
8C6
330
8B3
100
AcDbEntity
  8
P-00000000
  6
Continuous
 62
     2
440
 16777216
100
AcDbTrace
 10
-1277.127437806566
 20
828.0631551117032
 30
0.0
 11
-1276.503983170218
 21
827.8270433566792
 31
0.0
 12
-1276.107375223321
 22
829.8154631432355
 32
0.0
 13
-1276.107375223321
 23
829.8154631432355
 33
0.0
  0
MTEXT
  5
8C7
330
8B3
100
AcDbEntity
  8
P-00000000
  6
Continuous
 62
     1
440
 16777216
100
AcDbMText
 10
-1281.519415457724
 20
821.1719788630853
 30
0.0
 40
2.0
 41
0.0
 46
0.0
 71
     5
 72
     1
  1
\A1;∅20
  7
Stile_Quota
 11
0.3541676325359023
 21
0.9351819545221744
 31
0.0
 73
     1
 44
1.0
  0
POINT
  5
8C8
330
8B3
100
AcDbEntity
  8
Defpoints
  6
Continuous
 62
     0
440
 16777216
100
AcDbPoint
 10
-1276.107375223321
 20
829.8154631432355
 30
0.0
  0
POINT
  5
8C9
330
8B3
100
AcDbEntity
  8
Defpoints
  6
Continuous
 62
     0
440
 16777216
100
AcDbPoint
 10
-1283.190727874039
 20
811.1118240527918
 30
0.0
  0
ENDBLK
  5
8B5
330
8B3
100
AcDbEntity
  8
0
 62
     2
100
AcDbBlockEnd
  0
BLOCK
  5
8D3
330
8D2
100
AcDbEntity
  8
0
100
AcDbBlockBegin
  2
block 2
 70
     0
 10
0.0
 20
0.0
 30
0.0
  3
block 2
  1

  0
SPLINE
  5
8D4
330
8D2
100
AcDbEntity
  8
Livello 1
 62
     0
370
     0
100
AcDbSpline
210
0.0
220
0.0
230
1.0
 70
     9
 71
     3
 72
    47
 73
    43
 74
     0
 42
0.000000001
 43
0.0000000001
 40
0.0
 40
0.0
 40
0.0
 40
0.0
 40
1.0
 40
1.0
 40
1.0
 40
2.0
 40
2.0
 40
2.0
 40
3.0
 40
3.0
 40
3.0
 40
4.0
 40
4.0
 40
4.0
 40
5.0
 40
5.0
 40
5.0
 40
6.0
 40
6.0
 40
6.0
 40
7.0
 40
7.0
 40
7.0
 40
8.0
 40
8.0
 40
8.0
 40
9.0
 40
9.0
 40
9.0
 40
10.0
 40
10.0
 40
10.0
 40
11.0
 40
11.0
 40
11.0
 40
12.0
 40
12.0
 40
12.0
 40
13.0
 40
13.0
 40
13.0
 40
14.0
 40
14.0
 40
14.0
 40
14.0
 10
103.9714401252453
 20
125.5795723517537
 30
0.0
 10
100.5730260452794
 20
125.5795723517537
 30
0.0
 10
98.28977777019664
 20
127.933975902799
 30
0.0
 10
98.28977777019664
 20
131.4379763689601
 30
0.0
 10
98.28977777019664
 20
134.9416240573523
 30
0.0
 10
100.5730260452794
 20
137.2956748306288
 30
0.0
 10
103.9714401252453
 20
137.2956748306288
 30
0.0
 10
106.9602086601066
 20
137.2805053865714
 30
0.0
 10
108.7733833061402
 20
135.6885251494084
 30
0.0
 10
109.0786038838396
 20
132.8125749450022
 30
0.0
 10
109.0786038838396
 20
132.8125749450022
 30
0.0
 10
109.1213252716386
 20
132.4108668996951
 30
0.0
 10
109.1213252716386
 20
132.4108668996951
 30
0.0
 10
109.1213252716386
 20
132.4108668996951
 30
0.0
 10
105.2614425923346
 20
132.4108668996951
 30
0.0
 10
105.2614425923346
 20
132.4108668996951
 30
0.0
 10
105.2614425923346
 20
132.4108668996951
 30
0.0
 10
105.2142409268722
 20
132.718841891838
 30
0.0
 10
105.2142409268722
 20
132.718841891838
 30
0.0
 10
105.1567055292665
 20
133.0902463268071
 30
0.0
 10
104.9127923234516
 20
133.9535640825598
 30
0.0
 10
103.8837395719272
 20
133.9535640825598
 30
0.0
 10
102.4082138632869
 20
133.9535640825598
 30
0.0
 10
102.2488968358577
 20
132.1945082941038
 30
0.0
 10
102.2488968358577
 20
131.4379763689601
 30
0.0
 10
102.2488968358577
 20
130.6814091660395
 30
0.0
 10
102.4082138632869
 20
128.9213303220539
 30
0.0
 10
103.8837395719272
 20
128.9213303220539
 30
0.0
 10
104.6304642750989
 20
128.9213303220539
 30
0.0
 10
105.0333717648199
 20
129.3560936442955
 30
0.0
 10
105.2311416403588
 20
130.3758330627242
 30
0.0
 10
105.2311416403588
 20
130.3758330627242
 30
0.0
 10
105.2879714805467
 20
130.6700497218848
 30
0.0
 10
105.2879714805467
 20
130.6700497218848
 30
0.0
 10
105.2879714805467
 20
130.6700497218848
 30
0.0
 10
109.1247824937726
 20
130.6700497218848
 30
0.0
 10
109.1247824937726
 20
130.6700497218848
 30
0.0
 10
109.1247824937726
 20
130.6700497218848
 30
0.0
 10
109.1247824937726
 20
130.3065860785343
 30
0.0
 10
109.1247824937726
 20
130.3065860785343
 30
0.0
 10
109.1247824937726
 20
127.9832236793204
 30
0.0
 10
107.1972400429483
 20
125.5795723517537
 30
0.0
 10
103.9714401252453
 20
125.5795723517537
 30
0.0
1001
TOP
1070
   256
  0
SPLINE
  5
8D5
330
8D2
100
AcDbEntity
  8
Livello 1
 62
     0
370
     0
100
AcDbSpline
210
0.0
220
0.0
230
1.0
 70
     9
 71
     3
 72
    35
 73
    31
 74
     0
 42
0.000000001
 43
0.0000000001
 40
0.0
 40
0.0
 40
0.0
 40
0.0
 40
1.0
 40
1.0
 40
1.0
 40
2.0
 40
2.0
 40
2.0
 40
3.0
 40
3.0
 40
3.0
 40
4.0
 40
4.0
 40
4.0
 40
5.0
 40
5.0
 40
5.0
 40
6.0
 40
6.0
 40
6.0
 40
7.0
 40
7.0
 40
7.0
 40
8.0
 40
8.0
 40
8.0
 40
9.0
 40
9.0
 40
9.0
 40
10.0
 40
10.0
 40
10.0
 40
10.0
 10
103.9695351252939
 20
136.5687444103022
 30
0.0
 10
100.9614343687036
 20
136.5687444103022
 30
0.0
 10
99.01635886277112
 20
134.5547360774727
 30
0.0
 10
99.01635886277112
 20
131.4379763689601
 30
0.0
 10
99.01635886277112
 20
128.3205145040487
 30
0.0
 10
100.9614343687036
 20
126.306506222097
 30
0.0
 10
103.9714401252453
 20
126.306506222097
 30
0.0
 10
106.6674031120211
 20
126.306506222097
 30
0.0
 10
108.1994138618391
 20
128.1186197869772
 30
0.0
 10
108.3799627905523
 20
129.9431511293184
 30
0.0
 10
108.3799627905523
 20
129.9431511293184
 30
0.0
 10
105.881555354292
 20
129.9431511293184
 30
0.0
 10
105.881555354292
 20
129.9431511293184
 30
0.0
 10
105.7237931360946
 20
129.2989083679767
 30
0.0
 10
105.294533147046
 20
128.1943964517107
 30
0.0
 10
103.8837395719272
 20
128.1943964517107
 30
0.0
 10
102.4051068318725
 20
128.1943964517107
 30
0.0
 10
101.5223157432833
 20
129.4070700318839
 30
0.0
 10
101.5223157432833
 20
131.4379763689601
 30
0.0
 10
101.5223157432833
 20
133.4681805221882
 30
0.0
 10
102.4051068318725
 20
134.6804979529031
 30
0.0
 10
103.8837395719272
 20
134.6804979529031
 30
0.0
 10
105.0351003758869
 20
134.6804979529031
 30
0.0
 10
105.6455823047566
 20
133.9304924164818
 30
0.0
 10
105.8660684102427
 20
133.1377654922615
 30
0.0
 10
105.8660684102427
 20
133.1377654922615
 30
0.0
 10
108.3013991814455
 20
133.1377654922615
 30
0.0
 10
108.3013991814455
 20
133.1377654922615
 30
0.0
 10
107.923468357754
 20
135.4025987678141
 30
0.0
 10
106.4679072837774
 20
136.5563584606015
 30
0.0
 10
103.9695351252939
 20
136.5687444103022
 30
0.0
1001
TOP
1070
   256
  0
SPLINE
  5
8D6
330
8D2
100
AcDbEntity
  8
Livello 1
 62
     0
370
     0
100
AcDbSpline
210
0.0
220
0.0
230
1.0
 70
    11
 71
     3
 72
    47
 73
    43
 74
     0
 42
0.000000001
 43
0.0000000001
 40
0.0
 40
0.0
 40
0.0
 40
0.0
 40
1.0
 40
1.0
 40
1.0
 40
2.0
 40
2.0
 40
2.0
 40
3.0
 40
3.0
 40
3.0
 40
4.0
 40
4.0
 40
4.0
 40
5.0
 40
5.0
 40
5.0
 40
6.0
 40
6.0
 40
6.0
 40
7.0
 40
7.0
 40
7.0
 40
8.0
 40
8.0
 40
8.0
 40
9.0
 40
9.0
 40
9.0
 40
10.0
 40
10.0
 40
10.0
 40
11.0
 40
11.0
 40
11.0
 40
12.0
 40
12.0
 40
12.0
 40
13.0
 40
13.0
 40
13.0
 40
14.0
 40
14.0
 40
14.0
 40
14.0
 10
123.1401140806562
 20
125.8290215120564
 30
0.0
 10
123.1401140806562
 20
125.8290215120564
 30
0.0
 10
115.7910476014798
 20
125.8290215120564
 30
0.0
 10
115.7910476014798
 20
125.8290215120564
 30
0.0
 10
115.7910476014798
 20
125.8290215120564
 30
0.0
 10
115.3500753905077
 20
127.3276214738239
 30
0.0
 10
115.3500753905077
 20
127.3276214738239
 30
0.0
 10
115.3500753905077
 20
127.3276214738239
 30
0.0
 10
112.5536765729609
 20
127.3276214738239
 30
0.0
 10
112.5536765729609
 20
127.3276214738239
 30
0.0
 10
112.5536765729609
 20
127.3276214738239
 30
0.0
 10
112.0834238071803
 20
125.8290215120564
 30
0.0
 10
112.0834238071803
 20
125.8290215120564
 30
0.0
 10
112.0834238071803
 20
125.8290215120564
 30
0.0
 10
108.0492336323233
 20
125.8290215120564
 30
0.0
 10
108.0492336323233
 20
125.8290215120564
 30
0.0
 10
108.0492336323233
 20
125.8290215120564
 30
0.0
 10
112.1802260269329
 20
137.0459081703342
 30
0.0
 10
112.1802260269329
 20
137.0459081703342
 30
0.0
 10
112.1802260269329
 20
137.0459081703342
 30
0.0
 10
115.8468570445004
 20
137.0459081703342
 30
0.0
 10
115.8468570445004
 20
137.0459081703342
 30
0.0
 10
115.8468570445004
 20
137.0459081703342
 30
0.0
 10
119.180995014995
 20
127.8898786817018
 30
0.0
 10
119.180995014995
 20
127.8898786817018
 30
0.0
 10
119.180995014995
 20
127.8898786817018
 30
0.0
 10
119.180995014995
 20
137.0459081703342
 30
0.0
 10
119.180995014995
 20
137.0459081703342
 30
0.0
 10
119.180995014995
 20
137.0459081703342
 30
0.0
 10
124.9512045900069
 20
137.0459081703342
 30
0.0
 10
124.9512045900069
 20
137.0459081703342
 30
0.0
 10
127.8454286828358
 20
137.0459081703342
 30
0.0
 10
129.1638650380886
 20
134.99916211144
 30
0.0
 10
129.1638650380886
 20
133.0978310488359
 30
0.0
 10
129.1638650380886
 20
130.5336305586985
 30
0.0
 10
127.4902167474536
 20
129.0026455977572
 30
0.0
 10
124.6866212634237
 20
129.0026455977572
 30
0.0
 10
124.6866212634237
 20
129.0026455977572
 30
0.0
 10
123.1401140806562
 20
129.0026455977572
 30
0.0
 10
123.1401140806562
 20
129.0026455977572
 30
0.0
 10
123.1401140806562
 20
129.0026455977572
 30
0.0
 10
123.1401140806562
 20
125.8290215120564
 30
0.0
 10
123.1401140806562
 20
125.8290215120564
 30
0.0
1001
TOP
1070
   256
  0
SPLINE
  5
8D7
330
8D2
100
AcDbEntity
  8
Livello 1
 62
     0
370
     0
100
AcDbSpline
210
0.0
220
0.0
230
1.0
 70
    11
 71
     3
 72
    26
 73
    22
 74
     0
 42
0.000000001
 43
0.0000000001
 40
0.0
 40
0.0
 40
0.0
 40
0.0
 40
1.0
 40
1.0
 40
1.0
 40
2.0
 40
2.0
 40
2.0
 40
3.0
 40
3.0
 40
3.0
 40
4.0
 40
4.0
 40
4.0
 40
5.0
 40
5.0
 40
5.0
 40
6.0
 40
6.0
 40
6.0
 40
7.0
 40
7.0
 40
7.0
 40
7.0
 10
119.9079288853383
 20
126.5559201046228
 30
0.0
 10
119.9079288853383
 20
126.5559201046228
 30
0.0
 10
122.4131833027299
 20
126.5559201046228
 30
0.0
 10
122.4131833027299
 20
126.5559201046228
 30
0.0
 10
122.4131833027299
 20
126.5559201046228
 30
0.0
 10
122.4131833027299
 20
129.7295441903236
 30
0.0
 10
122.4131833027299
 20
129.7295441903236
 30
0.0
 10
122.4131833027299
 20
129.7295441903236
 30
0.0
 10
124.6866212634237
 20
129.7295441903236
 30
0.0
 10
124.6866212634237
 20
129.7295441903236
 30
0.0
 10
126.0873959499092
 20
129.7295441903236
 30
0.0
 10
128.4369311677453
 20
130.1670591791616
 30
0.0
 10
128.4369311677453
 20
133.0978310488359
 30
0.0
 10
128.4369311677453
 20
134.2943121294222
 30
0.0
 10
127.702800630919
 20
136.3189777436978
 30
0.0
 10
124.9512045900069
 20
136.3189777436978
 30
0.0
 10
124.9512045900069
 20
136.3189777436978
 30
0.0
 10
119.9079288853383
 20
136.3189777436978
 30
0.0
 10
119.9079288853383
 20
136.3189777436978
 30
0.0
 10
119.9079288853383
 20
136.3189777436978
 30
0.0
 10
119.9079288853383
 20
126.5559201046228
 30
0.0
 10
119.9079288853383
 20
126.5559201046228
 30
0.0
1001
TOP
1070
   256
  0
POLYLINE
  5
8D8
330
8D2
100
AcDbEntity
  8
Livello 1
 62
     0
370
     0
100
AcDb2dPolyline
 66
     1
 10
0.0
 20
0.0
 30
0.0
1001
TOP
1070
   256
  0
VERTEX
  5
8D9
330
8D8
100
AcDbEntity
  8
Livello 1
 62
     0
370
     0
100
AcDbVertex
100
AcDb2dVertex
 10
116.3346781431662
 20
126.5559201046228
 30
0.0
  0
VERTEX
  5
8DA
330
8D8
100
AcDbEntity
  8
Livello 1
 62
     0
370
     0
100
AcDbVertex
100
AcDb2dVertex
 10
118.8933400223337
 20
126.5559201046228
 30
0.0
  0
VERTEX
  5
8DB
330
8D8
100
AcDbEntity
  8
Livello 1
 62
     0
370
     0
100
AcDbVertex
100
AcDb2dVertex
 10
115.3383631685843
 20
136.3189777436978
 30
0.0
  0
VERTEX
  5
8DC
330
8D8
100
AcDbEntity
  8
Livello 1
 62
     0
370
     0
100
AcDbVertex
100
AcDb2dVertex
 10
112.6873440695508
 20
136.3189777436978
 30
0.0
  0
VERTEX
  5
8DD
330
8D8
100
AcDbEntity
  8
Livello 1
 62
     0
370
     0
100
AcDbVertex
100
AcDb2dVertex
 10
109.0910216613006
 20
126.5559201046228
 30
0.0
  0
VERTEX
  5
8DE
330
8D8
100
AcDbEntity
  8
Livello 1
 62
     0
370
     0
100
AcDbVertex
100
AcDb2dVertex
 10
111.5501296541191
 20
126.5559201046228
 30
0.0
  0
VERTEX
  5
8DF
330
8D8
100
AcDbEntity
  8
Livello 1
 62
     0
370
     0
100
AcDbVertex
100
AcDb2dVertex
 10
112.0203824198997
 20
128.0545553441672
 30
0.0
  0
VERTEX
  5
8E0
330
8D8
100
AcDbEntity
  8
Livello 1
 62
     0
370
     0
100
AcDbVertex
100
AcDb2dVertex
 10
115.8937059321941
 20
128.0545553441672
 30
0.0
  0
VERTEX
  5
8E1
330
8D8
100
AcDbEntity
  8
Livello 1
 62
     0
370
     0
100
AcDbVertex
100
AcDb2dVertex
 10
116.3346781431662
 20
126.5559201046228
 30
0.0
  0
SEQEND
  5
8E2
330
8D8
100
AcDbEntity
  8
Livello 1
 62
     0
370
     0
  0
POLYLINE
  5
8E3
330
8D2
100
AcDbEntity
  8
Livello 1
 62
     0
370
     0
100
AcDb2dPolyline
 66
     1
 10
0.0
 20
0.0
 30
0.0
1001
TOP
1070
   256
  0
VERTEX
  5
8E4
330
8E3
100
AcDbEntity
  8
Livello 1
 62
     0
370
     0
100
AcDbVertex
100
AcDb2dVertex
 10
99.3488166320672
 20
125.8290215120564
 30
0.0
  0
VERTEX
  5
8E5
330
8E3
100
AcDbEntity
  8
Livello 1
 62
     0
370
     0
100
AcDbVertex
100
AcDb2dVertex
 10
95.2082992377006
 20
125.8290215120564
 30
0.0
  0
VERTEX
  5
8E6
330
8E3
100
AcDbEntity
  8
Livello 1
 62
     0
370
     0
100
AcDbVertex
100
AcDb2dVertex
 10
94.76732702672851
 20
127.3276214738239
 30
0.0
  0
VERTEX
  5
8E7
330
8E3
100
AcDbEntity
  8
Livello 1
 62
     0
370
     0
100
AcDbVertex
100
AcDb2dVertex
 10
91.97113987584296
 20
127.3276214738239
 30
0.0
  0
VERTEX
  5
8E8
330
8E3
100
AcDbEntity
  8
Livello 1
 62
     0
370
     0
100
AcDbVertex
100
AcDb2dVertex
 10
91.50088711006233
 20
125.8290215120564
 30
0.0
  0
VERTEX
  5
8E9
330
8E3
100
AcDbEntity
  8
Livello 1
 62
     0
370
     0
100
AcDbVertex
100
AcDb2dVertex
 10
84.45065867881753
 20
125.8290215120564
 30
0.0
  0
VERTEX
  5
8EA
330
8E3
100
AcDbEntity
  8
Livello 1
 62
     0
370
     0
100
AcDbVertex
100
AcDb2dVertex
 10
84.45065867881753
 20
130.2969519536256
 30
0.0
  0
VERTEX
  5
8EB
330
8E3
100
AcDbEntity
  8
Livello 1
 62
     0
370
     0
100
AcDbVertex
100
AcDb2dVertex
 10
83.24091315412516
 20
125.8290215120564
 30
0.0
  0
VERTEX
  5
8EC
330
8E3
100
AcDbEntity
  8
Livello 1
 62
     0
370
     0
100
AcDbVertex
100
AcDb2dVertex
 10
80.27535739644944
 20
125.8290215120564
 30
0.0
  0
VERTEX
  5
8ED
330
8E3
100
AcDbEntity
  8
Livello 1
 62
     0
370
     0
100
AcDbVertex
100
AcDb2dVertex
 10
79.06529437176518
 20
130.2983277869238
 30
0.0
  0
VERTEX
  5
8EE
330
8E3
100
AcDbEntity
  8
Livello 1
 62
     0
370
     0
100
AcDbVertex
100
AcDb2dVertex
 10
79.06529437176518
 20
125.8290215120564
 30
0.0
  0
VERTEX
  5
8EF
330
8E3
100
AcDbEntity
  8
Livello 1
 62
     0
370
     0
100
AcDbVertex
100
AcDb2dVertex
 10
75.28291696826167
 20
125.8290215120564
 30
0.0
  0
VERTEX
  5
8F0
330
8E3
100
AcDbEntity
  8
Livello 1
 62
     0
370
     0
100
AcDbVertex
100
AcDb2dVertex
 10
75.28291696826167
 20
137.0459081703342
 30
0.0
  0
VERTEX
  5
8F1
330
8E3
100
AcDbEntity
  8
Livello 1
 62
     0
370
     0
100
AcDbVertex
100
AcDb2dVertex
 10
80.53030988994507
 20
137.0459081703342
 30
0.0
  0
VERTEX
  5
8F2
330
8E3
100
AcDbEntity
  8
Livello 1
 62
     0
370
     0
100
AcDbVertex
100
AcDb2dVertex
 10
81.75797652529135
 20
131.9912377437341
 30
0.0
  0
VERTEX
  5
8F3
330
8E3
100
AcDbEntity
  8
Livello 1
 62
     0
370
     0
100
AcDbVertex
100
AcDb2dVertex
 10
82.98564316063764
 20
137.0459081703342
 30
0.0
  0
VERTEX
  5
8F4
330
8E3
100
AcDbEntity
  8
Livello 1
 62
     0
370
     0
100
AcDbVertex
100
AcDb2dVertex
 10
88.23338886008983
 20
137.0459081703342
 30
0.0
  0
VERTEX
  5
8F5
330
8E3
100
AcDbEntity
  8
Livello 1
 62
     0
370
     0
100
AcDbVertex
100
AcDb2dVertex
 10
88.23338886008983
 20
127.9122447922423
 30
0.0
  0
VERTEX
  5
8F6
330
8E3
100
AcDbEntity
  8
Livello 1
 62
     0
370
     0
100
AcDbVertex
100
AcDb2dVertex
 10
91.59769164376722
 20
137.0459081703342
 30
0.0
  0
VERTEX
  5
8F7
330
8E3
100
AcDbEntity
  8
Livello 1
 62
     0
370
     0
100
AcDbVertex
100
AcDb2dVertex
 10
95.26428506960561
 20
137.0459081703342
 30
0.0
  0
VERTEX
  5
8F8
330
8E3
100
AcDbEntity
  8
Livello 1
 62
     0
370
     0
100
AcDbVertex
100
AcDb2dVertex
 10
99.3488166320672
 20
125.8290215120564
 30
0.0
  0
SEQEND
  5
8F9
330
8E3
100
AcDbEntity
  8
Livello 1
 62
     0
370
     0
  0
POLYLINE
  5
8FA
330
8D2
100
AcDbEntity
  8
Livello 1
 62
     0
370
     0
100
AcDb2dPolyline
 66
     1
 10
0.0
 20
0.0
 30
0.0
1001
TOP
1070
   256
  0
VERTEX
  5
8FB
330
8FA
100
AcDbEntity
  8
Livello 1
 62
     0
370
     0
100
AcDbVertex
100
AcDb2dVertex
 10
95.75196505716386
 20
126.5559201046228
 30
0.0
  0
VERTEX
  5
8FC
330
8FA
100
AcDbEntity
  8
Livello 1
 62
     0
370
     0
100
AcDbVertex
100
AcDb2dVertex
 10
98.3108033252158
 20
126.5559201046228
 30
0.0
  0
VERTEX
  5
8FD
330
8FA
100
AcDbEntity
  8
Livello 1
 62
     0
370
     0
100
AcDbVertex
100
AcDb2dVertex
 10
94.7554384159207
 20
136.3189777436978
 30
0.0
  0
VERTEX
  5
8FE
330
8FA
100
AcDbEntity
  8
Livello 1
 62
     0
370
     0
100
AcDbVertex
100
AcDb2dVertex
 10
92.10445459466404
 20
136.3189777436978
 30
0.0
  0
VERTEX
  5
8FF
330
8FA
100
AcDbEntity
  8
Livello 1
 62
     0
370
     0
100
AcDbVertex
100
AcDb2dVertex
 10
88.50827329752139
 20
126.5559201046228
 30
0.0
  0
VERTEX
  5
900
330
8FA
100
AcDbEntity
  8
Livello 1
 62
     0
370
     0
100
AcDbVertex
100
AcDb2dVertex
 10
90.96724017923236
 20
126.5559201046228
 30
0.0
  0
VERTEX
  5
901
330
8FA
100
AcDbEntity
  8
Livello 1
 62
     0
370
     0
100
AcDbVertex
100
AcDb2dVertex
 10
91.43749294501299
 20
128.0545553441672
 30
0.0
  0
VERTEX
  5
902
330
8FA
100
AcDbEntity
  8
Livello 1
 62
     0
370
     0
100
AcDbVertex
100
AcDb2dVertex
 10
95.31099284619177
 20
128.0545553441672
 30
0.0
  0
VERTEX
  5
903
330
8FA
100
AcDbEntity
  8
Livello 1
 62
     0
370
     0
100
AcDbVertex
100
AcDb2dVertex
 10
95.75196505716386
 20
126.5559201046228
 30
0.0
  0
SEQEND
  5
904
330
8FA
100
AcDbEntity
  8
Livello 1
 62
     0
370
     0
  0
POLYLINE
  5
905
330
8D2
100
AcDbEntity
  8
Livello 1
 62
     0
370
     0
100
AcDb2dPolyline
 66
     1
 10
0.0
 20
0.0
 30
0.0
1001
TOP
1070
   256
  0
VERTEX
  5
906
330
905
100
AcDbEntity
  8
Livello 1
 62
     0
370
     0
100
AcDbVertex
100
AcDb2dVertex
 10
85.17723977139203
 20
126.5559201046228
 30
0.0
  0
VERTEX
  5
907
330
905
100
AcDbEntity
  8
Livello 1
 62
     0
370
     0
100
AcDbVertex
100
AcDb2dVertex
 10
87.50680776751535
 20
126.5559201046228
 30
0.0
  0
VERTEX
  5
908
330
905
100
AcDbEntity
  8
Livello 1
 62
     0
370
     0
100
AcDbVertex
100
AcDb2dVertex
 10
87.50680776751535
 20
136.3189777436978
 30
0.0
  0
VERTEX
  5
909
330
905
100
AcDbEntity
  8
Livello 1
 62
     0
370
     0
100
AcDbVertex
100
AcDb2dVertex
 10
83.55682775688867
 20
136.3189777436978
 30
0.0
  0
VERTEX
  5
90A
330
905
100
AcDbEntity
  8
Livello 1
 62
     0
370
     0
100
AcDbVertex
100
AcDb2dVertex
 10
82.05822775726314
 20
130.148467790747
 30
0.0
  0
VERTEX
  5
90B
330
905
100
AcDbEntity
  8
Livello 1
 62
     0
370
     0
100
AcDbVertex
100
AcDb2dVertex
 10
81.48700792109323
 20
130.148467790747
 30
0.0
  0
VERTEX
  5
90C
330
905
100
AcDbEntity
  8
Livello 1
 62
     0
370
     0
100
AcDbVertex
100
AcDb2dVertex
 10
81.39020570134064
 20
130.426139172552
 30
0.0
  0
VERTEX
  5
90D
330
905
100
AcDbEntity
  8
Livello 1
 62
     0
370
     0
100
AcDbVertex
100
AcDb2dVertex
 10
79.95912740451716
 20
136.3189777436978
 30
0.0
  0
VERTEX
  5
90E
330
905
100
AcDbEntity
  8
Livello 1
 62
     0
370
     0
100
AcDbVertex
100
AcDb2dVertex
 10
76.00949998099764
 20
136.3189777436978
 30
0.0
  0
VERTEX
  5
90F
330
905
100
AcDbEntity
  8
Livello 1
 62
     0
370
     0
100
AcDbVertex
100
AcDb2dVertex
 10
76.00949998099764
 20
126.5559201046228
 30
0.0
  0
VERTEX
  5
910
330
905
100
AcDbEntity
  8
Livello 1
 62
     0
370
     0
100
AcDbVertex
100
AcDb2dVertex
 10
78.33871327919069
 20
126.5559201046228
 30
0.0
  0
VERTEX
  5
911
330
905
100
AcDbEntity
  8
Livello 1
 62
     0
370
     0
100
AcDbVertex
100
AcDb2dVertex
 10
78.33871327919069
 20
133.2848738218418
 30
0.0
  0
VERTEX
  5
912
330
905
100
AcDbEntity
  8
Livello 1
 62
     0
370
     0
100
AcDbVertex
100
AcDb2dVertex
 10
78.98002798505162
 20
133.2848738218418
 30
0.0
  0
VERTEX
  5
913
330
905
100
AcDbEntity
  8
Livello 1
 62
     0
370
     0
100
AcDbVertex
100
AcDb2dVertex
 10
79.08233353799714
 20
133.0165157731326
 30
0.0
  0
VERTEX
  5
914
330
905
100
AcDbEntity
  8
Livello 1
 62
     0
370
     0
100
AcDbVertex
100
AcDb2dVertex
 10
80.83140571559681
 20
126.5559201046228
 30
0.0
  0
VERTEX
  5
915
330
905
100
AcDbEntity
  8
Livello 1
 62
     0
370
     0
100
AcDbVertex
100
AcDb2dVertex
 10
82.68486483497779
 20
126.5559201046228
 30
0.0
  0
VERTEX
  5
916
330
905
100
AcDbEntity
  8
Livello 1
 62
     0
370
     0
100
AcDbVertex
100
AcDb2dVertex
 10
84.50664451072254
 20
133.2848738218418
 30
0.0
  0
VERTEX
  5
917
330
905
100
AcDbEntity
  8
Livello 1
 62
     0
370
     0
100
AcDbVertex
100
AcDb2dVertex
 10
85.14795921658347
 20
133.2848738218418
 30
0.0
  0
VERTEX
  5
918
330
905
100
AcDbEntity
  8
Livello 1
 62
     0
370
     0
100
AcDbVertex
100
AcDb2dVertex
 10
85.17723977139203
 20
132.921442164447
 30
0.0
  0
VERTEX
  5
919
330
905
100
AcDbEntity
  8
Livello 1
 62
     0
370
     0
100
AcDbVertex
100
AcDb2dVertex
 10
85.17723977139203
 20
126.5559201046228
 30
0.0
  0
SEQEND
  5
91A
330
905
100
AcDbEntity
  8
Livello 1
 62
     0
370
     0
  0
POLYLINE
  5
91B
330
8D2
100
AcDbEntity
  8
Livello 1
 62
     0
370
     0
100
AcDb2dPolyline
 66
     1
 10
0.0
 20
0.0
 30
0.0
1001
TOP
1070
   256
  0
VERTEX
  5
91C
330
91B
100
AcDbEntity
  8
Livello 1
 62
     0
370
     0
100
AcDbVertex
100
AcDb2dVertex
 10
115.4596128877132
 20
129.5759094720209
 30
0.0
  0
VERTEX
  5
91D
330
91B
100
AcDbEntity
  8
Livello 1
 62
     0
370
     0
100
AcDbVertex
100
AcDb2dVertex
 10
112.4975143521715
 20
129.5759094720209
 30
0.0
  0
VERTEX
  5
91E
330
91B
100
AcDbEntity
  8
Livello 1
 62
     0
370
     0
100
AcDbVertex
100
AcDb2dVertex
 10
113.7387982093926
 20
133.5346404821364
 30
0.0
  0
VERTEX
  5
91F
330
91B
100
AcDbEntity
  8
Livello 1
 62
     0
370
     0
100
AcDbVertex
100
AcDb2dVertex
 10
114.2786540289531
 20
133.5346404821364
 30
0.0
  0
VERTEX
  5
920
330
91B
100
AcDbEntity
  8
Livello 1
 62
     0
370
     0
100
AcDbVertex
100
AcDb2dVertex
 10
114.3840640262638
 20
133.2728440999265
 30
0.0
  0
VERTEX
  5
921
330
91B
100
AcDbEntity
  8
Livello 1
 62
     0
370
     0
100
AcDbVertex
100
AcDb2dVertex
 10
115.4596128877132
 20
129.5759094720209
 30
0.0
  0
SEQEND
  5
922
330
91B
100
AcDbEntity
  8
Livello 1
 62
     0
370
     0
  0
POLYLINE
  5
923
330
8D2
100
AcDbEntity
  8
Livello 1
 62
     0
370
     0
100
AcDb2dPolyline
 66
     1
 10
0.0
 20
0.0
 30
0.0
1001
TOP
1070
   256
  0
VERTEX
  5
924
330
923
100
AcDbEntity
  8
Livello 1
 62
     0
370
     0
100
AcDbVertex
100
AcDb2dVertex
 10
113.4869501602622
 20
130.3028080645873
 30
0.0
  0
VERTEX
  5
925
330
923
100
AcDbEntity
  8
Livello 1
 62
     0
370
     0
100
AcDbVertex
100
AcDb2dVertex
 10
114.4915583047103
 20
130.3028080645873
 30
0.0
  0
VERTEX
  5
926
330
923
100
AcDbEntity
  8
Livello 1
 62
     0
370
     0
100
AcDbVertex
100
AcDb2dVertex
 10
114.0078618136393
 20
131.9640385777613
 30
0.0
  0
VERTEX
  5
927
330
923
100
AcDbEntity
  8
Livello 1
 62
     0
370
     0
100
AcDbVertex
100
AcDb2dVertex
 10
113.4869501602622
 20
130.3028080645873
 30
0.0
  0
SEQEND
  5
928
330
923
100
AcDbEntity
  8
Livello 1
 62
     0
370
     0
  0
POLYLINE
  5
929
330
8D2
100
AcDbEntity
  8
Livello 1
 62
     0
370
     0
100
AcDb2dPolyline
 66
     1
 10
0.0
 20
0.0
 30
0.0
1001
TOP
1070
   256
  0
VERTEX
  5
92A
330
929
100
AcDbEntity
  8
Livello 1
 62
     0
370
     0
100
AcDbVertex
100
AcDb2dVertex
 10
94.87707619059525
 20
129.5759094720209
 30
0.0
  0
VERTEX
  5
92B
330
929
100
AcDbEntity
  8
Livello 1
 62
     0
370
     0
100
AcDbVertex
100
AcDb2dVertex
 10
91.91480126616918
 20
129.5759094720209
 30
0.0
  0
VERTEX
  5
92C
330
929
100
AcDbEntity
  8
Livello 1
 62
     0
370
     0
100
AcDbVertex
100
AcDb2dVertex
 10
93.15622623449778
 20
133.5346404821364
 30
0.0
  0
VERTEX
  5
92D
330
929
100
AcDbEntity
  8
Livello 1
 62
     0
370
     0
100
AcDbVertex
100
AcDb2dVertex
 10
93.69572927628947
 20
133.5346404821364
 30
0.0
  0
VERTEX
  5
92E
330
929
100
AcDbEntity
  8
Livello 1
 62
     0
370
     0
100
AcDbVertex
100
AcDb2dVertex
 10
93.80117455137712
 20
133.2728440999265
 30
0.0
  0
VERTEX
  5
92F
330
929
100
AcDbEntity
  8
Livello 1
 62
     0
370
     0
100
AcDbVertex
100
AcDb2dVertex
 10
94.87707619059525
 20
129.5759094720209
 30
0.0
  0
SEQEND
  5
930
330
929
100
AcDbEntity
  8
Livello 1
 62
     0
370
     0
  0
POLYLINE
  5
931
330
8D2
100
AcDbEntity
  8
Livello 1
 62
     0
370
     0
100
AcDb2dPolyline
 66
     1
 10
0.0
 20
0.0
 30
0.0
1001
TOP
1070
   256
  0
VERTEX
  5
932
330
931
100
AcDbEntity
  8
Livello 1
 62
     0
370
     0
100
AcDbVertex
100
AcDb2dVertex
 10
92.9042370742599
 20
130.3028080645873
 30
0.0
  0
VERTEX
  5
933
330
931
100
AcDbEntity
  8
Livello 1
 62
     0
370
     0
100
AcDbVertex
100
AcDb2dVertex
 10
93.90866593752367
 20
130.3028080645873
 30
0.0
  0
VERTEX
  5
934
330
931
100
AcDbEntity
  8
Livello 1
 62
     0
370
     0
100
AcDbVertex
100
AcDb2dVertex
 10
93.4252898387445
 20
131.9640385777613
 30
0.0
  0
VERTEX
  5
935
330
931
100
AcDbEntity
  8
Livello 1
 62
     0
370
     0
100
AcDbVertex
100
AcDb2dVertex
 10
92.9042370742599
 20
130.3028080645873
 30
0.0
  0
SEQEND
  5
936
330
931
100
AcDbEntity
  8
Livello 1
 62
     0
370
     0
  0
SPLINE
  5
937
330
8D2
100
AcDbEntity
  8
Livello 1
 62
     0
370
     0
100
AcDbSpline
210
0.0
220
0.0
230
1.0
 70
     9
 71
     3
 72
    20
 73
    16
 74
     0
 42
0.000000001
 43
0.0000000001
 40
0.0
 40
0.0
 40
0.0
 40
0.0
 40
1.0
 40
1.0
 40
1.0
 40
2.0
 40
2.0
 40
2.0
 40
3.0
 40
3.0
 40
3.0
 40
4.0
 40
4.0
 40
4.0
 40
5.0
 40
5.0
 40
5.0
 40
5.0
 10
124.0255157247343
 20
131.4999947007112
 30
0.0
 10
124.0255157247343
 20
131.4999947007112
 30
0.0
 10
122.4131833027299
 20
131.4999947007112
 30
0.0
 10
122.4131833027299
 20
131.4999947007112
 30
0.0
 10
122.4131833027299
 20
131.4999947007112
 30
0.0
 10
122.4131833027299
 20
134.3573535167028
 30
0.0
 10
122.4131833027299
 20
134.3573535167028
 30
0.0
 10
122.4131833027299
 20
134.3573535167028
 30
0.0
 10
124.2167212754119
 20
134.3573535167028
 30
0.0
 10
124.2167212754119
 20
134.3573535167028
 30
0.0
 10
124.8778268141012
 20
134.3573535167028
 30
0.0
 10
126.1080687271596
 20
134.3573535167028
 30
0.0
 10
126.1080687271596
 20
132.980320774056
 30
0.0
 10
126.1080687271596
 20
131.4999947007112
 30
0.0
 10
124.7014379297123
 20
131.4999947007112
 30
0.0
 10
124.0255157247343
 20
131.4999947007112
 30
0.0
1001
TOP
1070
   256
  0
SPLINE
  5
938
330
8D2
100
AcDbEntity
  8
Livello 1
 62
     0
370
     0
100
AcDbSpline
210
0.0
220
0.0
230
1.0
 70
    11
 71
     3
 72
    20
 73
    16
 74
     0
 42
0.000000001
 43
0.0000000001
 40
0.0
 40
0.0
 40
0.0
 40
0.0
 40
1.0
 40
1.0
 40
1.0
 40
2.0
 40
2.0
 40
2.0
 40
3.0
 40
3.0
 40
3.0
 40
4.0
 40
4.0
 40
4.0
 40
5.0
 40
5.0
 40
5.0
 40
5.0
 10
123.1401140806562
 20
132.2268932932776
 30
0.0
 10
123.1401140806562
 20
132.2268932932776
 30
0.0
 10
124.0255157247343
 20
132.2268932932776
 30
0.0
 10
124.0255157247343
 20
132.2268932932776
 30
0.0
 10
125.0897083020606
 20
132.2268932932776
 30
0.0
 10
125.3811348568163
 20
132.3888182891465
 30
0.0
 10
125.3811348568163
 20
132.980320774056
 30
0.0
 10
125.3811348568163
 20
133.5029610385001
 30
0.0
 10
125.1527465293096
 20
133.6304196463595
 30
0.0
 10
124.2167212754119
 20
133.6304196463595
 30
0.0
 10
124.2167212754119
 20
133.6304196463595
 30
0.0
 10
123.1401140806562
 20
133.6304196463595
 30
0.0
 10
123.1401140806562
 20
133.6304196463595
 30
0.0
 10
123.1401140806562
 20
133.6304196463595
 30
0.0
 10
123.1401140806562
 20
132.2268932932776
 30
0.0
 10
123.1401140806562
 20
132.2268932932776
 30
0.0
1001
TOP
1070
   256
  0
HATCH
  5
939
330
8D2
100
AcDbEntity
  8
Livello 1
 62
     0
100
AcDbHatch
 10
0.0
 20
0.0
 30
0.0
210
0.0
220
0.0
230
1.0
  2
SOLID
 70
     1
 71
     0
 91
       14
 92
        1
 93
        1
 72
     4
 94
        3
 73
     0
 74
     0
 95
       47
 96
       43
 40
0.0
 40
0.0
 40
0.0
 40
0.0
 40
1.0
 40
1.0
 40
1.0
 40
2.0
 40
2.0
 40
2.0
 40
3.0
 40
3.0
 40
3.0
 40
4.0
 40
4.0
 40
4.0
 40
5.0
 40
5.0
 40
5.0
 40
6.0
 40
6.0
 40
6.0
 40
7.0
 40
7.0
 40
7.0
 40
8.0
 40
8.0
 40
8.0
 40
9.0
 40
9.0
 40
9.0
 40
10.0
 40
10.0
 40
10.0
 40
11.0
 40
11.0
 40
11.0
 40
12.0
 40
12.0
 40
12.0
 40
13.0
 40
13.0
 40
13.0
 40
14.0
 40
14.0
 40
14.0
 40
14.0
 10
103.9714401252453
 20
125.5795723517537
 10
100.5730260452794
 20
125.5795723517537
 10
98.28977777019664
 20
127.933975902799
 10
98.28977777019664
 20
131.4379763689601
 10
98.28977777019664
 20
134.9416240573523
 10
100.5730260452794
 20
137.2956748306288
 10
103.9714401252453
 20
137.2956748306288
 10
106.9602086601066
 20
137.2805053865714
 10
108.7733833061402
 20
135.6885251494084
 10
109.0786038838396
 20
132.8125749450022
 10
109.0786038838396
 20
132.8125749450022
 10
109.1213252716386
 20
132.4108668996951
 10
109.1213252716386
 20
132.4108668996951
 10
109.1213252716386
 20
132.4108668996951
 10
105.2614425923346
 20
132.4108668996951
 10
105.2614425923346
 20
132.4108668996951
 10
105.2614425923346
 20
132.4108668996951
 10
105.2142409268722
 20
132.718841891838
 10
105.2142409268722
 20
132.718841891838
 10
105.1567055292665
 20
133.0902463268071
 10
104.9127923234516
 20
133.9535640825598
 10
103.8837395719272
 20
133.9535640825598
 10
102.4082138632869
 20
133.9535640825598
 10
102.2488968358577
 20
132.1945082941038
 10
102.2488968358577
 20
131.4379763689601
 10
102.2488968358577
 20
130.6814091660395
 10
102.4082138632869
 20
128.9213303220539
 10
103.8837395719272
 20
128.9213303220539
 10
104.6304642750989
 20
128.9213303220539
 10
105.0333717648199
 20
129.3560936442955
 10
105.2311416403588
 20
130.3758330627242
 10
105.2311416403588
 20
130.3758330627242
 10
105.2879714805467
 20
130.6700497218848
 10
105.2879714805467
 20
130.6700497218848
 10
105.2879714805467
 20
130.6700497218848
 10
109.1247824937726
 20
130.6700497218848
 10
109.1247824937726
 20
130.6700497218848
 10
109.1247824937726
 20
130.6700497218848
 10
109.1247824937726
 20
130.3065860785343
 10
109.1247824937726
 20
130.3065860785343
 10
109.1247824937726
 20
127.9832236793204
 10
107.1972400429483
 20
125.5795723517537
 10
103.9714401252453
 20
125.5795723517537
 97
        0
 97
        0
 92
        1
 93
        1
 72
     4
 94
        3
 73
     0
 74
     0
 95
       35
 96
       31
 40
0.0
 40
0.0
 40
0.0
 40
0.0
 40
1.0
 40
1.0
 40
1.0
 40
2.0
 40
2.0
 40
2.0
 40
3.0
 40
3.0
 40
3.0
 40
4.0
 40
4.0
 40
4.0
 40
5.0
 40
5.0
 40
5.0
 40
6.0
 40
6.0
 40
6.0
 40
7.0
 40
7.0
 40
7.0
 40
8.0
 40
8.0
 40
8.0
 40
9.0
 40
9.0
 40
9.0
 40
10.0
 40
10.0
 40
10.0
 40
10.0
 10
103.9695351252939
 20
136.5687444103022
 10
100.9614343687036
 20
136.5687444103022
 10
99.01635886277112
 20
134.5547360774727
 10
99.01635886277112
 20
131.4379763689601
 10
99.01635886277112
 20
128.3205145040487
 10
100.9614343687036
 20
126.306506222097
 10
103.9714401252453
 20
126.306506222097
 10
106.6674031120211
 20
126.306506222097
 10
108.1994138618391
 20
128.1186197869772
 10
108.3799627905523
 20
129.9431511293184
 10
108.3799627905523
 20
129.9431511293184
 10
105.881555354292
 20
129.9431511293184
 10
105.881555354292
 20
129.9431511293184
 10
105.7237931360946
 20
129.2989083679767
 10
105.294533147046
 20
128.1943964517107
 10
103.8837395719272
 20
128.1943964517107
 10
102.4051068318725
 20
128.1943964517107
 10
101.5223157432833
 20
129.4070700318839
 10
101.5223157432833
 20
131.4379763689601
 10
101.5223157432833
 20
133.4681805221882
 10
102.4051068318725
 20
134.6804979529031
 10
103.8837395719272
 20
134.6804979529031
 10
105.0351003758869
 20
134.6804979529031
 10
105.6455823047566
 20
133.9304924164818
 10
105.8660684102427
 20
133.1377654922615
 10
105.8660684102427
 20
133.1377654922615
 10
108.3013991814455
 20
133.1377654922615
 10
108.3013991814455
 20
133.1377654922615
 10
107.923468357754
 20
135.4025987678141
 10
106.4679072837774
 20
136.5563584606015
 10
103.9695351252939
 20
136.5687444103022
 97
        0
 97
        0
 92
        1
 93
        1
 72
     4
 94
        3
 73
     0
 74
     0
 95
       47
 96
       43
 40
0.0
 40
0.0
 40
0.0
 40
0.0
 40
1.0
 40
1.0
 40
1.0
 40
2.0
 40
2.0
 40
2.0
 40
3.0
 40
3.0
 40
3.0
 40
4.0
 40
4.0
 40
4.0
 40
5.0
 40
5.0
 40
5.0
 40
6.0
 40
6.0
 40
6.0
 40
7.0
 40
7.0
 40
7.0
 40
8.0
 40
8.0
 40
8.0
 40
9.0
 40
9.0
 40
9.0
 40
10.0
 40
10.0
 40
10.0
 40
11.0
 40
11.0
 40
11.0
 40
12.0
 40
12.0
 40
12.0
 40
13.0
 40
13.0
 40
13.0
 40
14.0
 40
14.0
 40
14.0
 40
14.0
 10
123.1401140806562
 20
125.8290215120564
 10
123.1401140806562
 20
125.8290215120564
 10
115.7910476014798
 20
125.8290215120564
 10
115.7910476014798
 20
125.8290215120564
 10
115.7910476014798
 20
125.8290215120564
 10
115.3500753905077
 20
127.3276214738239
 10
115.3500753905077
 20
127.3276214738239
 10
115.3500753905077
 20
127.3276214738239
 10
112.5536765729609
 20
127.3276214738239
 10
112.5536765729609
 20
127.3276214738239
 10
112.5536765729609
 20
127.3276214738239
 10
112.0834238071803
 20
125.8290215120564
 10
112.0834238071803
 20
125.8290215120564
 10
112.0834238071803
 20
125.8290215120564
 10
108.0492336323233
 20
125.8290215120564
 10
108.0492336323233
 20
125.8290215120564
 10
108.0492336323233
 20
125.8290215120564
 10
112.1802260269329
 20
137.0459081703342
 10
112.1802260269329
 20
137.0459081703342
 10
112.1802260269329
 20
137.0459081703342
 10
115.8468570445004
 20
137.0459081703342
 10
115.8468570445004
 20
137.0459081703342
 10
115.8468570445004
 20
137.0459081703342
 10
119.180995014995
 20
127.8898786817018
 10
119.180995014995
 20
127.8898786817018
 10
119.180995014995
 20
127.8898786817018
 10
119.180995014995
 20
137.0459081703342
 10
119.180995014995
 20
137.0459081703342
 10
119.180995014995
 20
137.0459081703342
 10
124.9512045900069
 20
137.0459081703342
 10
124.9512045900069
 20
137.0459081703342
 10
127.8454286828358
 20
137.0459081703342
 10
129.1638650380886
 20
134.99916211144
 10
129.1638650380886
 20
133.0978310488359
 10
129.1638650380886
 20
130.5336305586985
 10
127.4902167474536
 20
129.0026455977572
 10
124.6866212634237
 20
129.0026455977572
 10
124.6866212634237
 20
129.0026455977572
 10
123.1401140806562
 20
129.0026455977572
 10
123.1401140806562
 20
129.0026455977572
 10
123.1401140806562
 20
129.0026455977572
 10
123.1401140806562
 20
125.8290215120564
 10
123.1401140806562
 20
125.8290215120564
 97
        0
 97
        0
 92
        1
 93
        1
 72
     4
 94
        3
 73
     0
 74
     0
 95
       26
 96
       22
 40
0.0
 40
0.0
 40
0.0
 40
0.0
 40
1.0
 40
1.0
 40
1.0
 40
2.0
 40
2.0
 40
2.0
 40
3.0
 40
3.0
 40
3.0
 40
4.0
 40
4.0
 40
4.0
 40
5.0
 40
5.0
 40
5.0
 40
6.0
 40
6.0
 40
6.0
 40
7.0
 40
7.0
 40
7.0
 40
7.0
 10
119.9079288853383
 20
126.5559201046228
 10
119.9079288853383
 20
126.5559201046228
 10
122.4131833027299
 20
126.5559201046228
 10
122.4131833027299
 20
126.5559201046228
 10
122.4131833027299
 20
126.5559201046228
 10
122.4131833027299
 20
129.7295441903236
 10
122.4131833027299
 20
129.7295441903236
 10
122.4131833027299
 20
129.7295441903236
 10
124.6866212634237
 20
129.7295441903236
 10
124.6866212634237
 20
129.7295441903236
 10
126.0873959499092
 20
129.7295441903236
 10
128.4369311677453
 20
130.1670591791616
 10
128.4369311677453
 20
133.0978310488359
 10
128.4369311677453
 20
134.2943121294222
 10
127.702800630919
 20
136.3189777436978
 10
124.9512045900069
 20
136.3189777436978
 10
124.9512045900069
 20
136.3189777436978
 10
119.9079288853383
 20
136.3189777436978
 10
119.9079288853383
 20
136.3189777436978
 10
119.9079288853383
 20
136.3189777436978
 10
119.9079288853383
 20
126.5559201046228
 10
119.9079288853383
 20
126.5559201046228
 97
        0
 97
        0
 92
        1
 93
        8
 72
     1
 10
116.3346781431662
 20
126.5559201046228
 11
118.8933400223337
 21
126.5559201046228
 72
     1
 10
118.8933400223337
 20
126.5559201046228
 11
115.3383631685843
 21
136.3189777436978
 72
     1
 10
115.3383631685843
 20
136.3189777436978
 11
112.6873440695508
 21
136.3189777436978
 72
     1
 10
112.6873440695508
 20
136.3189777436978
 11
109.0910216613006
 21
126.5559201046228
 72
     1
 10
109.0910216613006
 20
126.5559201046228
 11
111.5501296541191
 21
126.5559201046228
 72
     1
 10
111.5501296541191
 20
126.5559201046228
 11
112.0203824198997
 21
128.0545553441672
 72
     1
 10
112.0203824198997
 20
128.0545553441672
 11
115.8937059321941
 21
128.0545553441672
 72
     1
 10
115.8937059321941
 20
128.0545553441672
 11
116.3346781431662
 21
126.5559201046228
 97
        0
 92
        1
 93
       20
 72
     1
 10
99.3488166320672
 20
125.8290215120564
 11
95.2082992377006
 21
125.8290215120564
 72
     1
 10
95.2082992377006
 20
125.8290215120564
 11
94.76732702672851
 21
127.3276214738239
 72
     1
 10
94.76732702672851
 20
127.3276214738239
 11
91.97113987584296
 21
127.3276214738239
 72
     1
 10
91.97113987584296
 20
127.3276214738239
 11
91.50088711006233
 21
125.8290215120564
 72
     1
 10
91.50088711006233
 20
125.8290215120564
 11
84.45065867881753
 21
125.8290215120564
 72
     1
 10
84.45065867881753
 20
125.8290215120564
 11
84.45065867881753
 21
130.2969519536256
 72
     1
 10
84.45065867881753
 20
130.2969519536256
 11
83.24091315412516
 21
125.8290215120564
 72
     1
 10
83.24091315412516
 20
125.8290215120564
 11
80.27535739644944
 21
125.8290215120564
 72
     1
 10
80.27535739644944
 20
125.8290215120564
 11
79.06529437176518
 21
130.2983277869238
 72
     1
 10
79.06529437176518
 20
130.2983277869238
 11
79.06529437176518
 21
125.8290215120564
 72
     1
 10
79.06529437176518
 20
125.8290215120564
 11
75.28291696826167
 21
125.8290215120564
 72
     1
 10
75.28291696826167
 20
125.8290215120564
 11
75.28291696826167
 21
137.0459081703342
 72
     1
 10
75.28291696826167
 20
137.0459081703342
 11
80.53030988994507
 21
137.0459081703342
 72
     1
 10
80.53030988994507
 20
137.0459081703342
 11
81.75797652529135
 21
131.9912377437341
 72
     1
 10
81.75797652529135
 20
131.9912377437341
 11
82.98564316063764
 21
137.0459081703342
 72
     1
 10
82.98564316063764
 20
137.0459081703342
 11
88.23338886008983
 21
137.0459081703342
 72
     1
 10
88.23338886008983
 20
137.0459081703342
 11
88.23338886008983
 21
127.9122447922423
 72
     1
 10
88.23338886008983
 20
127.9122447922423
 11
91.59769164376722
 21
137.0459081703342
 72
     1
 10
91.59769164376722
 20
137.0459081703342
 11
95.26428506960561
 21
137.0459081703342
 72
     1
 10
95.26428506960561
 20
137.0459081703342
 11
99.3488166320672
 21
125.8290215120564
 97
        0
 92
        1
 93
        8
 72
     1
 10
95.75196505716386
 20
126.5559201046228
 11
98.3108033252158
 21
126.5559201046228
 72
     1
 10
98.3108033252158
 20
126.5559201046228
 11
94.7554384159207
 21
136.3189777436978
 72
     1
 10
94.7554384159207
 20
136.3189777436978
 11
92.10445459466404
 21
136.3189777436978
 72
     1
 10
92.10445459466404
 20
136.3189777436978
 11
88.50827329752139
 21
126.5559201046228
 72
     1
 10
88.50827329752139
 20
126.5559201046228
 11
90.96724017923236
 21
126.5559201046228
 72
     1
 10
90.96724017923236
 20
126.5559201046228
 11
91.43749294501299
 21
128.0545553441672
 72
     1
 10
91.43749294501299
 20
128.0545553441672
 11
95.31099284619177
 21
128.0545553441672
 72
     1
 10
95.31099284619177
 20
128.0545553441672
 11
95.75196505716386
 21
126.5559201046228
 97
        0
 92
        1
 93
       19
 72
     1
 10
85.17723977139203
 20
126.5559201046228
 11
87.50680776751535
 21
126.5559201046228
 72
     1
 10
87.50680776751535
 20
126.5559201046228
 11
87.50680776751535
 21
136.3189777436978
 72
     1
 10
87.50680776751535
 20
136.3189777436978
 11
83.55682775688867
 21
136.3189777436978
 72
     1
 10
83.55682775688867
 20
136.3189777436978
 11
82.05822775726314
 21
130.148467790747
 72
     1
 10
82.05822775726314
 20
130.148467790747
 11
81.48700792109323
 21
130.148467790747
 72
     1
 10
81.48700792109323
 20
130.148467790747
 11
81.39020570134064
 21
130.426139172552
 72
     1
 10
81.39020570134064
 20
130.426139172552
 11
79.95912740451716
 21
136.3189777436978
 72
     1
 10
79.95912740451716
 20
136.3189777436978
 11
76.00949998099764
 21
136.3189777436978
 72
     1
 10
76.00949998099764
 20
136.3189777436978
 11
76.00949998099764
 21
126.5559201046228
 72
     1
 10
76.00949998099764
 20
126.5559201046228
 11
78.33871327919069
 21
126.5559201046228
 72
     1
 10
78.33871327919069
 20
126.5559201046228
 11
78.33871327919069
 21
133.2848738218418
 72
     1
 10
78.33871327919069
 20
133.2848738218418
 11
78.98002798505162
 21
133.2848738218418
 72
     1
 10
78.98002798505162
 20
133.2848738218418
 11
79.08233353799714
 21
133.0165157731326
 72
     1
 10
79.08233353799714
 20
133.0165157731326
 11
80.83140571559681
 21
126.5559201046228
 72
     1
 10
80.83140571559681
 20
126.5559201046228
 11
82.68486483497779
 21
126.5559201046228
 72
     1
 10
82.68486483497779
 20
126.5559201046228
 11
84.50664451072254
 21
133.2848738218418
 72
     1
 10
84.50664451072254
 20
133.2848738218418
 11
85.14795921658347
 21
133.2848738218418
 72
     1
 10
85.14795921658347
 20
133.2848738218418
 11
85.17723977139203
 21
132.921442164447
 72
     1
 10
85.17723977139203
 20
132.921442164447
 11
85.17723977139203
 21
126.5559201046228
 97
        0
 92
        1
 93
        5
 72
     1
 10
115.4596128877132
 20
129.5759094720209
 11
112.4975143521715
 21
129.5759094720209
 72
     1
 10
112.4975143521715
 20
129.5759094720209
 11
113.7387982093926
 21
133.5346404821364
 72
     1
 10
113.7387982093926
 20
133.5346404821364
 11
114.2786540289531
 21
133.5346404821364
 72
     1
 10
114.2786540289531
 20
133.5346404821364
 11
114.3840640262638
 21
133.2728440999265
 72
     1
 10
114.3840640262638
 20
133.2728440999265
 11
115.4596128877132
 21
129.5759094720209
 97
        0
 92
        1
 93
        3
 72
     1
 10
113.4869501602622
 20
130.3028080645873
 11
114.4915583047103
 21
130.3028080645873
 72
     1
 10
114.4915583047103
 20
130.3028080645873
 11
114.0078618136393
 21
131.9640385777613
 72
     1
 10
114.0078618136393
 20
131.9640385777613
 11
113.4869501602622
 21
130.3028080645873
 97
        0
 92
        1
 93
        5
 72
     1
 10
94.87707619059525
 20
129.5759094720209
 11
91.91480126616918
 21
129.5759094720209
 72
     1
 10
91.91480126616918
 20
129.5759094720209
 11
93.15622623449778
 21
133.5346404821364
 72
     1
 10
93.15622623449778
 20
133.5346404821364
 11
93.69572927628947
 21
133.5346404821364
 72
     1
 10
93.69572927628947
 20
133.5346404821364
 11
93.80117455137712
 21
133.2728440999265
 72
     1
 10
93.80117455137712
 20
133.2728440999265
 11
94.87707619059525
 21
129.5759094720209
 97
        0
 92
        1
 93
        3
 72
     1
 10
92.9042370742599
 20
130.3028080645873
 11
93.90866593752367
 21
130.3028080645873
 72
     1
 10
93.90866593752367
 20
130.3028080645873
 11
93.4252898387445
 21
131.9640385777613
 72
     1
 10
93.4252898387445
 20
131.9640385777613
 11
92.9042370742599
 21
130.3028080645873
 97
        0
 92
        1
 93
        1
 72
     4
 94
        3
 73
     0
 74
     0
 95
       20
 96
       16
 40
0.0
 40
0.0
 40
0.0
 40
0.0
 40
1.0
 40
1.0
 40
1.0
 40
2.0
 40
2.0
 40
2.0
 40
3.0
 40
3.0
 40
3.0
 40
4.0
 40
4.0
 40
4.0
 40
5.0
 40
5.0
 40
5.0
 40
5.0
 10
124.0255157247343
 20
131.4999947007112
 10
124.0255157247343
 20
131.4999947007112
 10
122.4131833027299
 20
131.4999947007112
 10
122.4131833027299
 20
131.4999947007112
 10
122.4131833027299
 20
131.4999947007112
 10
122.4131833027299
 20
134.3573535167028
 10
122.4131833027299
 20
134.3573535167028
 10
122.4131833027299
 20
134.3573535167028
 10
124.2167212754119
 20
134.3573535167028
 10
124.2167212754119
 20
134.3573535167028
 10
124.8778268141012
 20
134.3573535167028
 10
126.1080687271596
 20
134.3573535167028
 10
126.1080687271596
 20
132.980320774056
 10
126.1080687271596
 20
131.4999947007112
 10
124.7014379297123
 20
131.4999947007112
 10
124.0255157247343
 20
131.4999947007112
 97
        0
 97
        0
 92
        1
 93
        1
 72
     4
 94
        3
 73
     0
 74
     0
 95
       20
 96
       16
 40
0.0
 40
0.0
 40
0.0
 40
0.0
 40
1.0
 40
1.0
 40
1.0
 40
2.0
 40
2.0
 40
2.0
 40
3.0
 40
3.0
 40
3.0
 40
4.0
 40
4.0
 40
4.0
 40
5.0
 40
5.0
 40
5.0
 40
5.0
 10
123.1401140806562
 20
132.2268932932776
 10
123.1401140806562
 20
132.2268932932776
 10
124.0255157247343
 20
132.2268932932776
 10
124.0255157247343
 20
132.2268932932776
 10
125.0897083020606
 20
132.2268932932776
 10
125.3811348568163
 20
132.3888182891465
 10
125.3811348568163
 20
132.980320774056
 10
125.3811348568163
 20
133.5029610385001
 10
125.1527465293096
 20
133.6304196463595
 10
124.2167212754119
 20
133.6304196463595
 10
124.2167212754119
 20
133.6304196463595
 10
123.1401140806562
 20
133.6304196463595
 10
123.1401140806562
 20
133.6304196463595
 10
123.1401140806562
 20
133.6304196463595
 10
123.1401140806562
 20
132.2268932932776
 10
123.1401140806562
 20
132.2268932932776
 97
        0
 97
        0
 75
     2
 76
     1
 98
        0
450
        0
451
        0
460
0.0
461
0.0
452
        1
462
0.0
453
        0
470

1001
TOP
1070
   156
  0
ENDBLK
  5
93A
330
8D2
100
AcDbEntity
  8
0
100
AcDbBlockEnd
  0
BLOCK
  5
A04
330
948
100
AcDbEntity
  8
0
 62
     7
100
AcDbBlockBegin
  2
TAB-A4
 70
     2
 10
0.0
 20
0.0
 30
0.0
  3
TAB-A4
  1

  0
LINE
  5
949
330
948
100
AcDbEntity
  8
0
  6
Continuous
 62
     0
100
AcDbLine
 10
100.0
 20
143.5
 30
0.0
 11
-100.0
 21
143.5
 31
0.0
1001
TOP
1070
     7
  0
LINE
  5
94A
330
948
100
AcDbEntity
  8
0
  6
Continuous
 62
     0
100
AcDbLine
 10
-100.0
 20
143.5
 30
0.0
 11
-100.0
 21
-143.5
 31
0.0
1001
TOP
1070
     7
  0
LINE
  5
94B
330
948
100
AcDbEntity
  8
0
  6
Continuous
 62
     0
100
AcDbLine
 10
-100.0
 20
-143.5
 30
0.0
 11
100.0
 21
-143.5
 31
0.0
1001
TOP
1070
     7
  0
LINE
  5
94C
330
948
100
AcDbEntity
  8
0
  6
Continuous
 62
     0
100
AcDbLine
 10
100.0
 20
-143.5
 30
0.0
 11
100.0
 21
143.5
 31
0.0
1001
TOP
1070
     7
  0
LINE
  5
94D
330
948
100
AcDbEntity
  8
0
  6
Continuous
 62
     0
100
AcDbLine
 10
105.0
 20
148.5
 30
0.0
 11
-105.0
 21
148.5
 31
0.0
1001
TOP
1070
     3
  0
LINE
  5
94E
330
948
100
AcDbEntity
  8
0
  6
Continuous
 62
     0
100
AcDbLine
 10
-105.0
 20
148.5
 30
0.0
 11
-105.0
 21
-148.5
 31
0.0
1001
TOP
1070
     3
  0
LINE
  5
94F
330
948
100
AcDbEntity
  8
0
  6
Continuous
 62
     0
100
AcDbLine
 10
-105.0
 20
-148.5
 30
0.0
 11
105.0
 21
-148.5
 31
0.0
1001
TOP
1070
     3
  0
LINE
  5
950
330
948
100
AcDbEntity
  8
0
  6
Continuous
 62
     0
100
AcDbLine
 10
105.0
 20
-148.5
 30
0.0
 11
105.0
 21
148.5
 31
0.0
1001
TOP
1070
     3
  0
LINE
  5
951
330
948
100
AcDbEntity
  8
0
 62
     0
 48
35.0
100
AcDbLine
 10
15.00000000000006
 20
142.5
 30
0.0
 11
98.00000000000004
 21
142.5
 31
0.0
1001
TOP
1070
     1
  0
LINE
  5
952
330
948
100
AcDbEntity
  8
0
 62
     0
100
AcDbLine
 10
15.00000000000006
 20
143.5
 30
0.0
 11
100.0
 21
143.5
 31
0.0
1001
TOP
1070
   256
  0
ARC
  5
953
330
948
100
AcDbEntity
  8
0
 62
     0
 48
35.0
100
AcDbCircle
 10
98.00000000000004
 20
141.5
 30
0.0
 40
1.0
100
AcDbArc
 50
0.0
 51
90.0
1001
TOP
1070
     1
  0
LINE
  5
954
330
948
100
AcDbEntity
  8
0
 62
     0
 48
35.0
100
AcDbLine
 10
99.00000000000003
 20
141.5
 30
0.0
 11
99.00000000000005
 21
117.5
 31
0.0
1001
TOP
1070
     1
  0
LINE
  5
955
330
948
100
AcDbEntity
  8
0
 62
     0
100
AcDbLine
 10
100.0
 20
143.5
 30
0.0
 11
100.0
 21
117.5
 31
0.0
1001
TOP
1070
   256
  0
ARC
  5
956
330
948
100
AcDbEntity
  8
0
 62
     0
 48
35.0
100
AcDbCircle
 10
98.00000000000006
 20
117.5
 30
0.0
 40
1.0
100
AcDbArc
 50
270.0
 51
0.0
1001
TOP
1070
     1
  0
ARC
  5
957
330
948
100
AcDbEntity
  8
0
 62
     0
100
AcDbCircle
 10
98.00000000000006
 20
117.5
 30
0.0
 40
2.0
100
AcDbArc
 50
270.0
 51
0.0
1001
TOP
1070
   256
  0
LINE
  5
958
330
948
100
AcDbEntity
  8
0
 62
     0
 48
35.0
100
AcDbLine
 10
98.00000000000006
 20
116.5
 30
0.0
 11
15.00000000000006
 21
116.5
 31
0.0
1001
TOP
1070
     1
  0
LINE
  5
959
330
948
100
AcDbEntity
  8
0
 62
     0
100
AcDbLine
 10
98.00000000000006
 20
115.5
 30
0.0
 11
15.00000000000006
 21
115.5
 31
0.0
1001
TOP
1070
   256
  0
ARC
  5
95A
330
948
100
AcDbEntity
  8
0
 62
     0
 48
35.0
100
AcDbCircle
 10
15.00000000000006
 20
117.5
 30
0.0
 40
1.0
100
AcDbArc
 50
180.0
 51
270.0
1001
TOP
1070
     1
  0
ARC
  5
95B
330
948
100
AcDbEntity
  8
0
 62
     0
100
AcDbCircle
 10
15.00000000000006
 20
117.5
 30
0.0
 40
2.0
100
AcDbArc
 50
180.0
 51
270.0
1001
TOP
1070
   256
  0
LINE
  5
95C
330
948
100
AcDbEntity
  8
0
 62
     0
 48
35.0
100
AcDbLine
 10
14.00000000000005
 20
117.5
 30
0.0
 11
14.00000000000005
 21
141.5
 31
0.0
1001
TOP
1070
     1
  0
LINE
  5
95D
330
948
100
AcDbEntity
  8
0
 62
     0
100
AcDbLine
 10
13.00000000000006
 20
117.5
 30
0.0
 11
13.00000000000006
 21
141.5
 31
0.0
1001
TOP
1070
   256
  0
ARC
  5
95E
330
948
100
AcDbEntity
  8
0
 62
     0
 48
35.0
100
AcDbCircle
 10
15.00000000000006
 20
141.5
 30
0.0
 40
1.0
100
AcDbArc
 50
90.0
 51
180.0
1001
TOP
1070
     1
  0
ARC
  5
95F
330
948
100
AcDbEntity
  8
0
 62
     0
100
AcDbCircle
 10
15.00000000000006
 20
141.5
 30
0.0
 40
2.0
100
AcDbArc
 50
90.0
 51
180.0
1001
TOP
1070
   256
  0
MTEXT
  5
960
330
948
100
AcDbEntity
  8
0
 62
     0
100
AcDbMText
 10
34.84667529519558
 20
137.7521514104921
 30
0.0
 40
6.0
 41
54.93080742428151
 46
16.87528517110266
 71
     1
 72
     5
  1
{\fVrinda|b0|i0|c0|p2;BAR CODE\PMontaggio}
 73
     1
 44
1.0
1001
TOP
1070
   256
  0
LINE
  5
961
330
948
100
AcDbEntity
  8
0
 62
     0
 48
35.0
100
AcDbLine
 10
100.0
 20
-138.5
 30
0.0
 11
-100.0
 21
-138.5
 31
0.0
1001
TOP
1070
     3
  0
MTEXT
  5
962
330
948
100
AcDbEntity
  8
0
 62
     0
 48
35.0
100
AcDbMText
 10
0.0
 20
-141.0
 30
0.0
 40
1.499624999999999
 41
190.3973187722231
 46
0.0
 71
     5
 72
     1
  1
{\C256;SI VIETA L'USO E LA RIPRODUZIONE O LA VISIONE A TERZI DEL PRESENTE DISEGNO SENZA ESPLICITA AUTORIZZAZIONE, \H1.333x;Dierre \H0.75x;TUTELERA' I PROPRI DIRITTI A NORMA DI LEGGE}
  7
Stile_Cart
 73
     1
 44
1.0
1001
TOP
1070
     3
  0
LINE
  5
963
330
948
100
AcDbEntity
  8
0
 62
     0
 48
35.0
100
AcDbLine
 10
-100.0
 20
-78.5
 30
0.0
 11
100.0
 21
-78.49999999999988
 31
0.0
1001
TOP
1070
     3
  0
LINE
  5
964
330
948
100
AcDbEntity
  8
0
 62
     0
 48
35.0
100
AcDbLine
 10
35.0
 20
-78.5
 30
0.0
 11
35.0
 21
-138.5
 31
0.0
1001
TOP
1070
     3
  0
LINE
  5
965
330
948
100
AcDbEntity
  8
0
 62
     0
 48
35.0
100
AcDbLine
 10
-100.0
 20
-130.5
 30
0.0
 11
35.0
 21
-130.5
 31
0.0
1001
TOP
1070
     1
  0
LINE
  5
966
330
948
100
AcDbEntity
  8
0
 62
     0
 48
35.0
100
AcDbLine
 10
-100.0
 20
-108.5
 30
0.0
 11
35.0
 21
-108.5
 31
0.0
1001
TOP
1070
     1
  0
LINE
  5
967
330
948
100
AcDbEntity
  8
0
 62
     0
 48
35.0
100
AcDbLine
 10
-66.25
 20
-130.5
 30
0.0
 11
-66.25
 21
-138.5
 31
0.0
1001
TOP
1070
     7
  0
LINE
  5
968
330
948
100
AcDbEntity
  8
0
  6
Continuous
 62
     0
100
AcDbLine
 10
-84.625
 20
-135.2853677388285
 30
0.0
 11
-83.125
 21
-138.2853677388285
 31
0.0
1001
TOP
1070
     2
  0
LINE
  5
969
330
948
100
AcDbEntity
  8
0
  6
Continuous
 62
     0
100
AcDbLine
 10
-42.18116244893059
 20
-138.3397943988076
 30
0.0
 11
-39.18116244893059
 21
-132.3397943988076
 31
0.0
1001
TOP
1070
     2
  0
LINE
  5
96A
330
948
100
AcDbEntity
  8
0
  6
Continuous
 62
     0
100
AcDbLine
 10
-58.06883755106941
 20
-135.3397943988076
 30
0.0
 11
-56.56883755106941
 21
-138.3397943988076
 31
0.0
1001
TOP
1070
     2
  0
LINE
  5
96B
330
948
100
AcDbEntity
  8
0
  6
Continuous
 62
     0
100
AcDbLine
 10
-83.125
 20
-138.2853677388285
 30
0.0
 11
-80.12500000000001
 21
-132.2853677388285
 31
0.0
1001
TOP
1070
     2
  0
LINE
  5
96C
330
948
100
AcDbEntity
  8
0
  6
Continuous
 62
     0
100
AcDbLine
 10
-55.0688375510694
 20
-135.3397943988076
 30
0.0
 11
-58.06883755106941
 21
-135.3397943988076
 31
0.0
1001
TOP
1070
     2
  0
LINE
  5
96D
330
948
100
AcDbEntity
  8
0
  6
Continuous
 62
     0
100
AcDbLine
 10
-56.56883755106941
 20
-138.3397943988076
 30
0.0
 11
-55.0688375510694
 21
-135.3397943988076
 31
0.0
1001
TOP
1070
     2
  0
LINE
  5
96E
330
948
100
AcDbEntity
  8
0
  6
Continuous
 62
     0
100
AcDbLine
 10
-21.65592583117933
 20
-135.2999430320282
 30
0.0
 11
-20.15592583117933
 21
-138.2999430320282
 31
0.0
1001
TOP
1070
     2
  0
CIRCLE
  5
96F
330
948
100
AcDbEntity
  8
0
  6
Continuous
 62
     0
100
AcDbCircle
 10
-83.125
 20
-136.1513931426129
 30
0.0
 40
0.8660254037843873
1001
TOP
1070
     2
  0
TEXT
  5
970
330
948
100
AcDbEntity
  8
0
 62
     0
 48
35.0
100
AcDbText
 10
-99.24333629514059
 20
-107.25
 30
0.0
 40
1.6
  1
COD. CLIENTE:
  7
STYLE1
100
AcDbText
1001
TOP
1070
     1
  0
LINE
  5
971
330
948
100
AcDbEntity
  8
0
  6
Continuous
 62
     0
100
AcDbLine
 10
-20.15592583117933
 20
-138.2999430320282
 30
0.0
 11
-18.65592583117933
 21
-135.2999430320282
 31
0.0
1001
TOP
1070
     2
  0
LINE
  5
972
330
948
100
AcDbEntity
  8
0
  6
Continuous
 62
     0
100
AcDbLine
 10
-18.65592583117933
 20
-135.2999430320282
 30
0.0
 11
-21.65592583117933
 21
-135.2999430320282
 31
0.0
1001
TOP
1070
     2
  0
TEXT
  5
973
330
948
100
AcDbEntity
  8
0
 62
     0
 48
35.0
100
AcDbText
 10
-26.74333629514058
 20
-107.25
 30
0.0
 40
1.6
  1
CC CLIENTE:
  7
STYLE1
100
AcDbText
1001
TOP
1070
     1
  0
LINE
  5
974
330
948
100
AcDbEntity
  8
0
  6
Continuous
 62
     0
100
AcDbLine
 10
-21.65592583117933
 20
-135.2999430320282
 30
0.0
 11
-23.15592583117933
 21
-138.2999430320282
 31
0.0
1001
TOP
1070
     2
  0
LINE
  5
975
330
948
100
AcDbEntity
  8
0
  6
Continuous
 62
     0
100
AcDbLine
 10
-23.15592583117933
 20
-138.2999430320282
 30
0.0
 11
-24.65592583117933
 21
-135.2999430320282
 31
0.0
1001
TOP
1070
     2
  0
LINE
  5
976
330
948
100
AcDbEntity
  8
0
  6
Continuous
 62
     0
100
AcDbLine
 10
-24.65592583117933
 20
-135.2999430320282
 30
0.0
 11
-21.65592583117933
 21
-135.2999430320282
 31
0.0
1001
TOP
1070
     2
  0
LINE
  5
977
330
948
100
AcDbEntity
  8
0
  6
Continuous
 62
     0
100
AcDbLine
 10
-11.09407416882067
 20
-135.2999430320282
 30
0.0
 11
-9.594074168820668
 21
-138.2999430320282
 31
0.0
1001
TOP
1070
     2
  0
LINE
  5
978
330
948
100
AcDbEntity
  8
0
  6
Continuous
 62
     0
100
AcDbLine
 10
-9.594074168820668
 20
-138.2999430320282
 30
0.0
 11
-6.594074168820668
 21
-132.2999430320282
 31
0.0
1001
TOP
1070
     2
  0
TEXT
  5
979
330
948
100
AcDbEntity
  8
0
  6
Continuous
 62
     0
100
AcDbText
 10
-11.93293672806237
 20
-134.7999430320282
 30
0.0
 40
2.0
  1
1,6
  7
seansi_ttf
 11
-11.93293672806237
 21
-132.7999430320282
 31
0.0
100
AcDbText
 73
     3
1001
TOP
1070
     2
  0
LINE
  5
97A
330
948
100
AcDbEntity
  8
0
  6
Continuous
 62
     0
100
AcDbLine
 10
14.18630267108199
 20
-135.2559419652411
 30
0.0
 11
15.68630267108199
 21
-138.2559419652411
 31
0.0
1001
TOP
1070
     2
  0
LINE
  5
97B
330
948
100
AcDbEntity
  8
0
  6
Continuous
 62
     0
100
AcDbLine
 10
15.68630267108199
 20
-138.2559419652411
 30
0.0
 11
17.18630267108199
 21
-135.2559419652411
 31
0.0
1001
TOP
1070
     2
  0
LINE
  5
97C
330
948
100
AcDbEntity
  8
0
  6
Continuous
 62
     0
100
AcDbLine
 10
17.18630267108199
 20
-135.2559419652411
 30
0.0
 11
14.18630267108199
 21
-135.2559419652411
 31
0.0
1001
TOP
1070
     2
  0
LINE
  5
97D
330
948
100
AcDbEntity
  8
0
  6
Continuous
 62
     0
100
AcDbLine
 10
14.18630267108199
 20
-135.2559419652411
 30
0.0
 11
12.68630267108199
 21
-138.2559419652411
 31
0.0
1001
TOP
1070
     2
  0
LINE
  5
97E
330
948
100
AcDbEntity
  8
0
  6
Continuous
 62
     0
100
AcDbLine
 10
12.68630267108199
 20
-138.2559419652411
 30
0.0
 11
11.18630267108199
 21
-135.2559419652411
 31
0.0
1001
TOP
1070
     2
  0
LINE
  5
97F
330
948
100
AcDbEntity
  8
0
  6
Continuous
 62
     0
100
AcDbLine
 10
11.18630267108199
 20
-135.2559419652411
 30
0.0
 11
14.18630267108199
 21
-135.2559419652411
 31
0.0
1001
TOP
1070
     2
  0
LINE
  5
980
330
948
100
AcDbEntity
  8
0
  6
Continuous
 62
     0
100
AcDbLine
 10
11.18630267108199
 20
-135.2559419652411
 30
0.0
 11
9.686302671081989
 21
-138.2559419652411
 31
0.0
1001
TOP
1070
     2
  0
LINE
  5
981
330
948
100
AcDbEntity
  8
0
  6
Continuous
 62
     0
100
AcDbLine
 10
9.686302671081989
 20
-138.2559419652411
 30
0.0
 11
8.186302671081989
 21
-135.2559419652411
 31
0.0
1001
TOP
1070
     2
  0
LINE
  5
982
330
948
100
AcDbEntity
  8
0
  6
Continuous
 62
     0
100
AcDbLine
 10
8.186302671081989
 20
-135.2559419652411
 30
0.0
 11
11.18630267108199
 21
-135.2559419652411
 31
0.0
1001
TOP
1070
     2
  0
LINE
  5
983
330
948
100
AcDbEntity
  8
0
  6
Continuous
 62
     0
100
AcDbLine
 10
22.04910490551333
 20
-135.2267571184318
 30
0.0
 11
23.54910490551333
 21
-138.2267571184318
 31
0.0
1001
TOP
1070
     2
  0
LINE
  5
984
330
948
100
AcDbEntity
  8
0
  6
Continuous
 62
     0
100
AcDbLine
 10
23.54910490551333
 20
-138.2267571184318
 30
0.0
 11
26.54910490551333
 21
-132.2267571184318
 31
0.0
1001
TOP
1070
     2
  0
TEXT
  5
985
330
948
100
AcDbEntity
  8
0
  6
Continuous
 62
     0
100
AcDbText
 10
21.21024234627169
 20
-134.7267571184318
 30
0.0
 40
2.0
  1
0,8
  7
seansi_ttf
 11
21.21024234627169
 21
-132.7267571184318
 31
0.0
100
AcDbText
 73
     3
1001
TOP
1070
     2
  0
LINE
  5
986
330
948
100
AcDbEntity
  8
0
 62
     0
 48
35.0
100
AcDbLine
 10
-100.0
 20
-98.50000000000001
 30
0.0
 11
35.0
 21
-98.50000000000001
 31
0.0
1001
TOP
1070
     1
  0
LINE
  5
987
330
948
100
AcDbEntity
  8
0
 62
     0
 48
35.0
100
AcDbLine
 10
-27.5
 20
-103.5
 30
0.0
 11
-27.5
 21
-108.5
 31
0.0
1001
TOP
1070
     1
  0
TEXT
  5
988
330
948
100
AcDbEntity
  8
0
 62
     0
 48
35.0
100
AcDbText
 10
-99.24333629514059
 20
-84.74999999999999
 30
0.0
 40
1.6
  1
DENOMINAZIONE:
  7
STYLE1
100
AcDbText
1001
TOP
1070
     1
  0
TEXT
  5
989
330
948
100
AcDbEntity
  8
0
 62
     0
 48
35.0
100
AcDbText
 10
-99.24333629514059
 20
-102.25
 30
0.0
 40
1.6
  1
CLIENTE:
  7
STYLE1
100
AcDbText
1001
TOP
1070
     1
  0
LINE
  5
98A
330
948
100
AcDbEntity
  8
0
 62
     0
 48
35.0
100
AcDbLine
 10
-100.0
 20
-103.4999999999999
 30
0.0
 11
35.00000000000091
 21
-103.5
 31
0.0
1001
TOP
1070
     1
  0
LINE
  5
98B
330
948
100
AcDbEntity
  8
0
 62
     0
 48
35.0
100
AcDbLine
 10
35.0
 20
-93.49999999999988
 30
0.0
 11
100.0
 21
-93.49999999999988
 31
0.0
1001
TOP
1070
     7
  0
LINE
  5
98C
330
948
100
AcDbEntity
  8
0
 62
     0
 48
35.0
100
AcDbLine
 10
35.0
 20
-85.99999999999988
 30
0.0
 11
100.0
 21
-85.99999999999988
 31
0.0
1001
TOP
1070
     7
  0
LINE
  5
98D
330
948
100
AcDbEntity
  8
0
 62
     0
 48
35.0
100
AcDbLine
 10
35.0
 20
-100.9999999999999
 30
0.0
 11
100.0
 21
-100.9999999999999
 31
0.0
1001
TOP
1070
     7
  0
TEXT
  5
98E
330
948
100
AcDbEntity
  8
0
 62
     0
 48
35.0
100
AcDbText
 10
35.75666370485942
 20
-90.74999999999988
 30
0.0
 40
1.6
  1
Diseg.:        
  7
STYLE1
100
AcDbText
1001
TOP
1070
     1
  0
TEXT
  5
98F
330
948
100
AcDbEntity
  8
0
 62
     0
 48
35.0
100
AcDbText
 10
35.75666370485942
 20
-83.99999999999989
 30
0.0
 40
1.6
  1
Data:
  7
STYLE1
100
AcDbText
1001
TOP
1070
     1
  0
TEXT
  5
990
330
948
100
AcDbEntity
  8
0
 62
     0
 48
35.0
100
AcDbText
 10
35.75666370485942
 20
-98.49999999999988
 30
0.0
 40
1.6
  1
Rifer. ordine:
  7
STYLE1
100
AcDbText
1001
TOP
1070
     1
  0
LINE
  5
991
330
948
100
AcDbEntity
  8
0
 62
     0
 48
35.0
100
AcDbLine
 10
72.0
 20
-78.49999999999988
 30
0.0
 11
72.0
 21
-93.49999999999999
 31
0.0
  0
TEXT
  5
992
330
948
100
AcDbEntity
  8
0
 62
     0
 48
35.0
100
AcDbText
 10
72.75666370485942
 20
-83.99999999999989
 30
0.0
 40
1.6
  1
Scala:
  7
STYLE1
100
AcDbText
1001
TOP
1070
     1
  0
TEXT
  5
993
330
948
100
AcDbEntity
  8
0
 62
     0
 48
35.0
100
AcDbText
 10
35.85819235127565
 20
-110.1249999999999
 30
0.0
 40
1.76
  1
Codice N
  7
STYLE1
100
AcDbText
1001
TOP
1070
     1
  0
TEXT
  5
994
330
948
100
AcDbEntity
  8
0
 62
     0
 48
35.0
100
AcDbText
 10
72.75666370485942
 20
-91.49999999999989
 30
0.0
 40
1.6
  1
Q.ta:
  7
STYLE1
100
AcDbText
1001
TOP
1070
     1
  0
LINE
  5
995
330
948
100
AcDbEntity
  8
0
 62
     0
 48
35.0
100
AcDbLine
 10
35.0
 20
-114.7499999999999
 30
0.0
 11
100.0
 21
-114.7499999999999
 31
0.0
1001
TOP
1070
     7
  0
LINE
  5
996
330
948
100
AcDbEntity
  8
0
 62
     0
 48
35.0
100
AcDbLine
 10
35.0
 20
-124.7499999999999
 30
0.0
 11
100.0
 21
-124.7499999999999
 31
0.0
1001
TOP
1070
     7
  0
LINE
  5
997
330
948
100
AcDbEntity
  8
0
 62
     0
 48
35.0
100
AcDbLine
 10
35.0
 20
-130.5
 30
0.0
 11
100.0
 21
-130.5
 31
0.0
1001
TOP
1070
     7
  0
CIRCLE
  5
998
330
948
100
AcDbEntity
  8
0
  6
Continuous
 62
     0
100
AcDbCircle
 10
94.1449550471707
 20
-134.5409172698267
 30
0.0
 40
3.0
1001
TOP
1070
     2
  0
LINE
  5
999
330
948
100
AcDbEntity
  8
0
  6
DASHDOT2
 62
     0
100
AcDbLine
 10
94.1449550471707
 20
-131.5409172698267
 30
0.0
 11
94.1449550471707
 21
-137.5409172698267
 31
0.0
1001
TOP
1070
     2
  0
CIRCLE
  5
99A
330
948
100
AcDbEntity
  8
0
  6
Continuous
 62
     0
100
AcDbCircle
 10
94.1449550471707
 20
-134.5409172698267
 30
0.0
 40
1.5
1001
TOP
1070
     2
  0
LINE
  5
99B
330
948
100
AcDbEntity
  8
0
  6
DASHDOT2
 62
     0
100
AcDbLine
 10
81.35716881113784
 20
-134.5409172698267
 30
0.0
 11
97.14495504717071
 21
-134.5409172698267
 31
0.0
1001
TOP
1070
     2
  0
LINE
  5
99C
330
948
100
AcDbEntity
  8
0
  6
Continuous
 62
     0
100
AcDbLine
 10
88.51173788868619
 20
-131.5409172698267
 30
0.0
 11
88.51173788868619
 21
-137.8298833532369
 31
0.0
1001
TOP
1070
     2
  0
LINE
  5
99D
330
948
100
AcDbEntity
  8
0
  6
Continuous
 62
     0
100
AcDbLine
 10
81.35716881113784
 20
-133.0409172698267
 30
0.0
 11
81.35716881113784
 21
-136.0409172698267
 31
0.0
1001
TOP
1070
     2
  0
TEXT
  5
99E
330
948
100
AcDbEntity
  8
0
  6
Continuous
 62
     0
100
AcDbText
 10
36.70159610234714
 20
-133.4356811538553
 30
0.0
 40
1.5
  1
Negli spigoli non quotati smussi 0,5 x 45°
  7
Stile_Cart
100
AcDbText
1001
TOP
1070
     7
  0
LINE
  5
99F
330
948
100
AcDbEntity
  8
0
  6
Continuous
 62
     0
100
AcDbLine
 10
81.35716881113784
 20
-136.0409172698267
 30
0.0
 11
88.51173788868619
 21
-137.8298833532369
 31
0.0
1001
TOP
1070
     2
  0
TEXT
  5
9A0
330
948
100
AcDbEntity
  8
0
  6
Continuous
 62
     0
100
AcDbText
 10
36.65725579953534
 20
-127.6856811538551
 30
0.0
 40
1.5
  1
Le QUOTE senza tolleranze si intendono h 11 / H 11
  7
Stile_Cart
100
AcDbText
1001
TOP
1070
     7
  0
TEXT
  5
9A1
330
948
100
AcDbEntity
  8
0
  6
Continuous
 62
     0
100
AcDbText
 10
36.5631678399102
 20
-136.7809056532263
 30
0.0
 40
1.5
  1
Smussi e raggi non quotati = 1 mm
  7
Stile_Cart
100
AcDbText
1001
TOP
1070
     7
  0
LINE
  5
9A2
330
948
100
AcDbEntity
  8
0
  6
Continuous
 62
     0
100
AcDbLine
 10
88.51173788868619
 20
-131.5409172698267
 30
0.0
 11
81.35716881113784
 21
-133.0409172698267
 31
0.0
1001
TOP
1070
     2
  0
LINE
  5
9A3
330
948
100
AcDbEntity
  8
0
 62
     0
 48
35.0
100
AcDbLine
 10
78.5
 20
-138.5
 30
0.0
 11
78.5
 21
-130.5
 31
0.0
  0
MTEXT
  5
9A4
330
948
100
AcDbEntity
  8
0
 62
     0
 48
35.0
100
AcDbMText
 10
36.70159610234714
 20
-116.147829675845
 30
0.0
 40
2.0
 41
187.0802
 46
0.0
 71
     1
 72
     5
  1
{\C256;LE TOLLERANZE SI INTENDONO SU PEZZO\PFINITO COMPLETO DI TRATTAMENTI SUPER.}
  7
Stile_Cart
 73
     1
 44
1.0
1001
TOP
1070
     3
  0
LINE
  5
9A5
330
948
100
AcDbEntity
  8
0
 62
     0
100
AcDbLine
 10
-100.0
 20
-71.0
 30
0.0
 11
99.99999999999909
 21
-71.00000000000012
 31
0.0
1001
TOP
1070
     3
  0
LINE
  5
9A6
330
948
100
AcDbEntity
  8
0
 62
     0
100
AcDbLine
 10
-100.0
 20
-67.0
 30
0.0
 11
99.99999999999909
 21
-67.0
 31
0.0
1001
TOP
1070
     3
  0
LINE
  5
9A7
330
948
100
AcDbEntity
  8
0
 62
     0
100
AcDbLine
 10
-100.0
 20
-62.0
 30
0.0
 11
99.99999999999909
 21
-61.99999999999988
 31
0.0
1001
TOP
1070
     3
  0
LINE
  5
9A8
330
948
100
AcDbEntity
  8
0
 62
     0
 48
35.0
100
AcDbLine
 10
-85.0
 20
-62.0
 30
0.0
 11
-85.0
 21
-78.5
 31
0.0
1001
TOP
1070
     1
  0
TEXT
  5
9A9
330
948
100
AcDbEntity
  8
0
 62
     0
 48
35.0
100
AcDbText
 10
-99.24333629514149
 20
-76.0
 30
0.0
 40
1.6
  1
POS.
  7
STYLE1
100
AcDbText
1001
TOP
1070
     1
  0
TEXT
  5
9AA
330
948
100
AcDbEntity
  8
0
 62
     0
 48
35.0
100
AcDbText
 10
-84.2433362951424
 20
-76.0
 30
0.0
 40
1.6
  1
MATERIALE:
  7
STYLE1
100
AcDbText
1001
TOP
1070
     1
  0
LINE
  5
9AB
330
948
100
AcDbEntity
  8
0
 62
     0
 48
35.0
100
AcDbLine
 10
14.99999999999909
 20
-71.00000000000022
 30
0.0
 11
15.0
 21
-78.5
 31
0.0
1001
TOP
1070
     1
  0
TEXT
  5
9AC
330
948
100
AcDbEntity
  8
0
 62
     0
 48
35.0
100
AcDbText
 10
15.75666370485669
 20
-76.0
 30
0.0
 40
1.6
  1
TRATTAMENTI:
  7
STYLE1
100
AcDbText
1001
TOP
1070
     1
  0
TEXT
  5
9AD
330
948
100
AcDbEntity
  8
0
 62
     0
 48
35.0
100
AcDbText
 10
-94.94297836942587
 20
-69.79763860700177
 30
0.0
 40
1.6
  1
Rev.
  7
STYLE1
100
AcDbText
1001
TOP
1070
     1
  0
LINE
  5
9AE
330
948
100
AcDbEntity
  8
0
 62
     0
 48
35.0
100
AcDbLine
 10
80.0
 20
-61.9999999999999
 30
0.0
 11
80.0000000000009
 21
-71.00000000000012
 31
0.0
1001
TOP
1070
     1
  0
LINE
  5
9AF
330
948
100
AcDbEntity
  8
0
 62
     0
 48
35.0
100
AcDbLine
 10
65.00000000000034
 20
-61.99999999999992
 30
0.0
 11
65.00000000000091
 21
-71.00000000000114
 31
0.0
1001
TOP
1070
     1
  0
TEXT
  5
9B0
330
948
100
AcDbEntity
  8
0
 62
     0
 48
35.0
100
AcDbText
 10
70.05702163057503
 20
-69.79763860700177
 30
0.0
 40
1.6
  1
Data
  7
STYLE1
100
AcDbText
1001
TOP
1070
     1
  0
TEXT
  5
9B1
330
948
100
AcDbEntity
  8
0
 62
     0
 48
35.0
100
AcDbText
 10
87.79240430569643
 20
-69.79763860700177
 30
0.0
 40
1.6
  1
Diseg.
  7
STYLE1
100
AcDbText
1001
TOP
1070
     1
  0
LINE
  5
9B2
330
948
100
AcDbEntity
  8
0
  6
Continuous
 62
     0
100
AcDbLine
 10
-43.68116244893059
 20
-135.3397943988076
 30
0.0
 11
-42.18116244893059
 21
-138.3397943988076
 31
0.0
1001
TOP
1070
     2
  0
LINE
  5
9B3
330
948
100
AcDbEntity
  8
0
 62
     0
 48
35.0
100
AcDbLine
 10
-32.5
 20
-130.5
 30
0.0
 11
-32.5
 21
-138.5
 31
0.0
1001
TOP
1070
     7
  0
LINE
  5
9B4
330
948
100
AcDbEntity
  8
0
 62
     0
 48
35.0
100
AcDbLine
 10
1.25
 20
-130.5
 30
0.0
 11
1.25
 21
-138.5
 31
0.0
1001
TOP
1070
     7
  0
TEXT
  5
9B5
330
948
100
AcDbEntity
  8
0
  6
Continuous
 62
     0
100
AcDbText
 10
-44.52002500817229
 20
-134.8397943988076
 30
0.0
 40
2.0
  1
6,3
  7
seansi_ttf
 11
-44.52002500817229
 21
-132.8397943988076
 31
0.0
100
AcDbText
 73
     3
1001
TOP
1070
     2
  0
LINE
  5
9B6
330
948
100
AcDbEntity
  8
0
  6
Continuous
 62
     0
100
AcDbLine
 10
-100.0
 20
-62.0
 30
0.0
 11
-100.0
 21
-143.5
 31
0.0
1001
TOP
1070
     3
  0
ATTDEF
  5
9B7
330
948
100
AcDbEntity
  8
0
 62
     0
 48
35.0
100
AcDbText
 10
89.96023144605635
 20
-65.49999999999994
 30
0.0
 40
2.0
  1

 41
0.8
  7
Stile_Cart
 72
     1
 11
89.96023144605635
 21
-64.49999999999994
 31
0.0
100
AcDbAttributeDefinition
280
     0
  3

  2
DISEGN_REV
 70
     4
 74
     2
280
     0
1001
TOP
1070
     7
  0
ATTDEF
  5
9B8
330
948
100
AcDbEntity
  8
0
 62
     0
 48
35.0
100
AcDbText
 10
72.50000000000034
 20
-65.74999999999994
 30
0.0
 40
2.5
  1

  7
Stile_Cart
 72
     1
 11
72.50000000000034
 21
-64.49999999999994
 31
0.0
100
AcDbAttributeDefinition
280
     0
  3

  2
DATA_REV
 70
     4
 74
     2
280
     0
1001
TOP
1070
     7
  0
ATTDEF
  5
9B9
330
948
100
AcDbEntity
  8
0
 62
     0
 48
35.0
100
AcDbText
 10
-83.0
 20
-65.75
 30
0.0
 40
2.5
  1

  7
Stile_Cart
 11
-83.0
 21
-64.5
 31
0.0
100
AcDbAttributeDefinition
280
     0
  3

  2
MOD_REV
 70
     4
 74
     2
280
     0
1001
TOP
1070
     7
  0
ATTDEF
  5
9BA
330
948
100
AcDbEntity
  8
0
 62
     0
 48
35.0
100
AcDbText
 10
-92.5
 20
-65.75
 30
0.0
 40
2.5
  1

  7
Stile_Cart
 72
     1
 11
-92.5
 21
-64.5
 31
0.0
100
AcDbAttributeDefinition
280
     0
  3

  2
REV
 70
     4
 74
     2
280
     0
1001
TOP
1070
     7
  0
ATTDEF
  5
9BB
330
948
100
AcDbEntity
  8
0
 62
     0
 48
35.0
100
AcDbText
 10
-89.96922082042067
 20
-76.0
 30
0.0
 40
2.5
  1

  7
Stile_Cart
 72
     1
 11
-89.96922082042067
 21
-74.75
 31
0.0
100
AcDbAttributeDefinition
280
     0
  3

  2
POS.
 70
     4
 74
     2
280
     0
1001
TOP
1070
     7
  0
ATTDEF
  5
9BC
330
948
100
AcDbEntity
  8
0
 62
     0
 48
35.0
100
AcDbText
 10
35.56280592835867
 20
-76.0
 30
0.0
 40
2.5
  1

  7
Stile_Cart
 11
35.56280592835867
 21
-74.75
 31
0.0
100
AcDbAttributeDefinition
280
     0
  3

  2
TRATTAMENTI
 70
     4
 74
     2
280
     0
1001
TOP
1070
     7
  0
ATTDEF
  5
9BD
330
948
100
AcDbEntity
  8
0
 62
     0
 48
35.0
100
AcDbText
 10
-67.95452598552799
 20
-76.0
 30
0.0
 40
2.5
  1

  7
Stile_Cart
 11
-67.95452598552799
 21
-74.75
 31
0.0
100
AcDbAttributeDefinition
280
     0
  3

  2
MATERIALE
 70
     4
 74
     2
280
     0
1001
TOP
1070
     7
  0
ATTDEF
  5
9BE
330
948
100
AcDbEntity
  8
0
 62
     0
 48
35.0
100
AcDbText
 10
-87.23964845993032
 20
-102.3459051978222
 30
0.0
 40
3.0
  1

  7
Stile_Cart
 11
-87.23964845993032
 21
-100.8459051978222
 31
0.0
100
AcDbAttributeDefinition
280
     0
  3

  2
CLIENTE
 70
     4
 74
     2
280
     0
1001
TOP
1070
     7
  0
ATTDEF
  5
9BF
330
948
100
AcDbEntity
  8
0
 62
     0
 48
35.0
100
AcDbText
 10
-10.18785708582345
 20
-107.25
 30
0.0
 40
2.5
  1

  7
Stile_Cart
 11
-10.18785708582345
 21
-106.0
 31
0.0
100
AcDbAttributeDefinition
280
     0
  3

  2
COMMESSA
 70
     4
 74
     2
280
     0
1001
TOP
1070
     7
  0
ATTDEF
  5
9C0
330
948
100
AcDbEntity
  8
0
 62
     0
 48
35.0
100
AcDbText
 10
-82.69837936479779
 20
-107.25
 30
0.0
 40
2.5
  1

  7
Stile_Cart
 11
-82.69837936479779
 21
-106.0
 31
0.0
100
AcDbAttributeDefinition
280
     0
  3

  2
COD_CLIENTE
 70
     4
 74
     2
280
     0
1001
TOP
1070
     7
  0
ATTDEF
  5
9C1
330
948
100
AcDbEntity
  8
0
 62
     0
 48
35.0
100
AcDbText
 10
50.29007657152305
 20
-110.1249999999999
 30
0.0
 40
4.5
  1

  7
Stile_Cart
 11
50.29007657152305
 21
-107.8749999999999
 31
0.0
100
AcDbAttributeDefinition
280
     0
  3

  2
CODICE
 70
     4
 74
     2
280
     0
1001
TOP
1070
     7
  0
ATTDEF
  5
9C2
330
948
100
AcDbEntity
  8
0
 62
     0
 48
35.0
100
AcDbText
 10
51.64776592404542
 20
-98.49999999999988
 30
0.0
 40
2.5
  1

  7
Stile_Cart
 11
51.64776592404542
 21
-97.24999999999988
 31
0.0
100
AcDbAttributeDefinition
280
     0
  3

  2
RIF_ORDINE
 70
     4
 74
     2
280
     0
1001
TOP
1070
     7
  0
ATTDEF
  5
9C3
330
948
100
AcDbEntity
  8
0
 62
     0
 48
35.0
100
AcDbText
 10
42.76829842361894
 20
-90.74999999999988
 30
0.0
 40
2.0
  1

  7
Stile_Cart
 11
42.76829842361894
 21
-89.74999999999988
 31
0.0
100
AcDbAttributeDefinition
280
     0
  3

  2
DISEGNATORE
 70
     4
 74
     2
280
     0
1001
TOP
1070
     7
  0
ATTDEF
  5
9C4
330
948
100
AcDbEntity
  8
0
 62
     0
 48
35.0
100
AcDbText
 10
79.15321575123653
 20
-91.49999999999989
 30
0.0
 40
3.5
  1

  7
Stile_Cart
 11
79.15321575123653
 21
-89.74999999999988
 31
0.0
100
AcDbAttributeDefinition
280
     0
  3

  2
QTA
 70
     4
 74
     2
280
     0
1001
TOP
1070
     7
  0
ATTDEF
  5
9C5
330
948
100
AcDbEntity
  8
0
 62
     0
 48
35.0
100
AcDbText
 10
79.15321575123653
 20
-83.99999999999989
 30
0.0
 40
3.5
  1

  7
Stile_Cart
 11
79.15321575123653
 21
-82.24999999999988
 31
0.0
100
AcDbAttributeDefinition
280
     0
  3

  2
SCALA
 70
     4
 74
     2
280
     0
1001
TOP
1070
     7
  0
ATTDEF
  5
9C6
330
948
100
AcDbEntity
  8
0
 62
     0
 48
35.0
100
AcDbText
 10
42.76829842361894
 20
-83.99999999999989
 30
0.0
 40
3.5
  1

  7
Stile_Cart
 11
42.76829842361894
 21
-82.2499999999999
 31
0.0
100
AcDbAttributeDefinition
280
     0
  3

  2
DATA
 70
     4
 74
     2
280
     0
1001
TOP
1070
     7
  0
ATTDEF
  5
9C7
330
948
100
AcDbEntity
  8
0
 62
     0
 48
35.0
100
AcDbText
 10
-76.25989897767704
 20
-94.74999999999999
 30
0.0
 40
2.5
  1

  7
Stile_Cart
 11
-76.25989897767704
 21
-93.49999999999999
 31
0.0
100
AcDbAttributeDefinition
280
     0
  3

  2
DESCRIZIONE3
 70
     4
 74
     2
280
     0
1001
TOP
1070
     7
  0
ATTDEF
  5
9C8
330
948
100
AcDbEntity
  8
0
 62
     0
 48
35.0
100
AcDbText
 10
-76.25989897767704
 20
-89.74999999999999
 30
0.0
 40
2.5
  1

  7
Stile_Cart
 11
-76.25989897767704
 21
-88.49999999999999
 31
0.0
100
AcDbAttributeDefinition
280
     0
  3

  2
DESCRIZIONE2
 70
     4
 74
     2
280
     0
1001
TOP
1070
     7
  0
ATTDEF
  5
9C9
330
948
100
AcDbEntity
  8
0
 62
     0
 48
35.0
100
AcDbText
 10
-76.25989897767704
 20
-84.74999999999999
 30
0.0
 40
2.5
  1

  7
Stile_Cart
 11
-76.25989897767704
 21
-83.49999999999999
 31
0.0
100
AcDbAttributeDefinition
280
     0
  3

  2
DESCRIZIONE
 70
     4
 74
     2
280
     0
1001
TOP
1070
     7
  0
TEXT
  5
9CA
330
948
100
AcDbEntity
  8
P-0000
  6
Continuous
 62
     0
 48
35.0
100
AcDbText
 10
-46.28135167661025
 20
-113.3527525052883
 30
0.0
 40
1.846799999999999
  1
Sedi operative: Fiorano Circ.le S. Giovanni Ev.,23   41042 Spezzano (MO)
  7
STYLE1
100
AcDbText
1001
TOP
1070
     7
  0
TEXT
  5
9CB
330
948
100
AcDbEntity
  8
P-0000
  6
Continuous
 62
     0
 48
35.0
100
AcDbText
 10
-6.340918626483244
 20
-117.0692022869476
 30
0.0
 40
1.846799999999999
  1
Tel. 0536 922911  Fax 0536 922999
  7
STYLE1
100
AcDbText
1001
TOP
1070
     7
  0
TEXT
  5
9CC
330
948
100
AcDbEntity
  8
P-0000
  6
Continuous
 62
     0
 48
35.0
100
AcDbText
 10
-29.75490795040491
 20
-120.7856520686069
 30
0.0
 40
1.846799999999999
  1
Bologna Via Del Selciatore, 12   40127 (BO) 
  7
STYLE1
100
AcDbText
1001
TOP
1070
     7
  0
TEXT
  5
9CD
330
948
100
AcDbEntity
  8
P-0000
  6
Continuous
 62
     0
 48
35.0
100
AcDbText
 10
-3.770224758554832
 20
-124.5021018502664
 30
0.0
 40
1.846799999999999
  1
Tel. 0536 922950  Fax 051 531297
  7
STYLE1
100
AcDbText
1001
TOP
1070
     7
  0
TEXT
  5
9CE
330
948
100
AcDbEntity
  8
P-0000
  6
Continuous
 62
     0
 48
35.0
100
AcDbText
 10
-29.75453034515999
 20
-128.1147363829751
 30
0.0
 40
1.5
  1
www.dierremacap.com . tecnico@dierremacap.com  
  7
STYLE1
100
AcDbText
1001
TOP
1070
     7
  0
INSERT
  5
9CF
330
948
100
AcDbEntity
  8
Livello 1
 62
     0
100
AcDbBlockReference
  2
block 2
 10
-110.5418937145124
 20
-178.6240849471967
 30
0.0
 41
0.4
 42
0.4
 43
0.4
1001
TOP
1070
   256
  0
POLYLINE
  5
9D0
330
948
100
AcDbEntity
  8
Livello 1
 62
     0
370
     0
100
AcDb2dPolyline
 66
     1
 10
0.0
 20
0.0
 30
0.0
1001
TOP
1070
   256
  0
VERTEX
  5
9D1
330
9D0
100
AcDbEntity
  8
Livello 1
 62
     0
370
     0
100
AcDbVertex
100
AcDb2dVertex
 10
-45.88764880842404
 20
-128.3470581187594
 30
0.0
  0
VERTEX
  5
9D2
330
9D0
100
AcDbEntity
  8
Livello 1
 62
     0
370
     0
100
AcDbVertex
100
AcDb2dVertex
 10
-45.80896525487588
 20
-128.3470581187594
 30
0.0
  0
VERTEX
  5
9D3
330
9D0
100
AcDbEntity
  8
Livello 1
 62
     0
370
     0
100
AcDbVertex
100
AcDb2dVertex
 10
-45.50014359608792
 20
-126.8670424898511
 30
0.0
  0
VERTEX
  5
9D4
330
9D0
100
AcDbEntity
  8
Livello 1
 62
     0
370
     0
100
AcDbVertex
100
AcDb2dVertex
 10
-45.57896826074357
 20
-126.8670424898511
 30
0.0
  0
VERTEX
  5
9D5
330
9D0
100
AcDbEntity
  8
Livello 1
 62
     0
370
     0
100
AcDbVertex
100
AcDb2dVertex
 10
-45.88764880842404
 20
-128.3470581187594
 30
0.0
  0
SEQEND
  5
9D6
330
9D0
100
AcDbEntity
  8
Livello 1
 62
     0
370
     0
  0
SPLINE
  5
9D7
330
948
100
AcDbEntity
  8
Livello 1
 62
     0
370
     0
100
AcDbSpline
210
0.0
220
0.0
230
1.0
 70
    11
 71
     3
 72
    38
 73
    34
 74
     0
 42
0.000000001
 43
0.0000000001
 40
0.0
 40
0.0
 40
0.0
 40
0.0
 40
1.0
 40
1.0
 40
1.0
 40
2.0
 40
2.0
 40
2.0
 40
3.0
 40
3.0
 40
3.0
 40
4.0
 40
4.0
 40
4.0
 40
5.0
 40
5.0
 40
5.0
 40
6.0
 40
6.0
 40
6.0
 40
7.0
 40
7.0
 40
7.0
 40
8.0
 40
8.0
 40
8.0
 40
9.0
 40
9.0
 40
9.0
 40
10.0
 40
10.0
 40
10.0
 40
11.0
 40
11.0
 40
11.0
 40
11.0
 10
-46.47661834895376
 20
-128.3470581187594
 30
0.0
 10
-46.47661834895376
 20
-128.3470581187594
 30
0.0
 10
-46.39779368429805
 20
-128.3470581187594
 30
0.0
 10
-46.39779368429805
 20
-128.3470581187594
 30
0.0
 10
-46.39779368429805
 20
-128.3470581187594
 30
0.0
 10
-46.30450513112248
 20
-127.9158649075379
 30
0.0
 10
-46.30450513112248
 20
-127.9158649075379
 30
0.0
 10
-46.25682368789449
 20
-127.6981304686483
 30
0.0
 10
-46.14907124619906
 20
-127.3351644779083
 30
0.0
 10
-45.8402495874111
 20
-127.3351644779083
 30
0.0
 10
-45.8195768101607
 20
-127.3351644779083
 30
0.0
 10
-45.79876292180284
 20
-127.3395671444626
 30
0.0
 10
-45.77588881127531
 20
-127.3435605888052
 30
0.0
 10
-45.77588881127531
 20
-127.3435605888052
 30
0.0
 10
-45.75329692296276
 20
-127.2608835909145
 30
0.0
 10
-45.75329692296276
 20
-127.2608835909145
 30
0.0
 10
-45.77588881127531
 20
-127.2588092576341
 30
0.0
 10
-45.79670269963315
 20
-127.2568901465719
 30
0.0
 10
-45.8195768101607
 20
-127.2568901465719
 30
0.0
 10
-46.01016147196514
 20
-127.2568901465719
 30
0.0
 10
-46.14493669074898
 20
-127.3767781435133
 30
0.0
 10
-46.22154591101673
 20
-127.5364876949943
 30
0.0
 10
-46.22154591101673
 20
-127.5364876949943
 30
0.0
 10
-46.22582157757432
 20
-127.5364876949943
 30
0.0
 10
-46.22582157757432
 20
-127.5364876949943
 30
0.0
 10
-46.22582157757432
 20
-127.5364876949943
 30
0.0
 10
-46.16766969016902
 20
-127.2816833681616
 30
0.0
 10
-46.16766969016902
 20
-127.2816833681616
 30
0.0
 10
-46.16766969016902
 20
-127.2816833681616
 30
0.0
 10
-46.24649435482467
 20
-127.2816833681616
 30
0.0
 10
-46.24649435482467
 20
-127.2816833681616
 30
0.0
 10
-46.24649435482467
 20
-127.2816833681616
 30
0.0
 10
-46.47661834895376
 20
-128.3470581187594
 30
0.0
 10
-46.47661834895376
 20
-128.3470581187594
 30
0.0
1001
TOP
1070
   256
  0
SPLINE
  5
9D8
330
948
100
AcDbEntity
  8
Livello 1
 62
     0
370
     0
100
AcDbSpline
210
0.0
220
0.0
230
1.0
 70
     9
 71
     3
 72
    59
 73
    55
 74
     0
 42
0.000000001
 43
0.0000000001
 40
0.0
 40
0.0
 40
0.0
 40
0.0
 40
1.0
 40
1.0
 40
1.0
 40
2.0
 40
2.0
 40
2.0
 40
3.0
 40
3.0
 40
3.0
 40
4.0
 40
4.0
 40
4.0
 40
5.0
 40
5.0
 40
5.0
 40
6.0
 40
6.0
 40
6.0
 40
7.0
 40
7.0
 40
7.0
 40
8.0
 40
8.0
 40
8.0
 40
9.0
 40
9.0
 40
9.0
 40
10.0
 40
10.0
 40
10.0
 40
11.0
 40
11.0
 40
11.0
 40
12.0
 40
12.0
 40
12.0
 40
13.0
 40
13.0
 40
13.0
 40
14.0
 40
14.0
 40
14.0
 40
15.0
 40
15.0
 40
15.0
 40
16.0
 40
16.0
 40
16.0
 40
17.0
 40
17.0
 40
17.0
 40
18.0
 40
18.0
 40
18.0
 40
18.0
 10
-47.41355376949496
 20
-127.984346128013
 30
0.0
 10
-47.41561399166466
 20
-128.0092945718209
 30
0.0
 10
-47.41561399166466
 20
-128.0320275712409
 30
0.0
 10
-47.41561399166466
 20
-128.0528414595988
 30
0.0
 10
-47.41561399166466
 20
-128.2893154535659
 30
0.0
 10
-47.23343955186783
 20
-128.3719924514566
 30
0.0
 10
-47.00745011318889
 20
-128.3719924514566
 30
0.0
 10
-46.81024734044217
 20
-128.3719924514566
 30
0.0
 10
-46.61139356773754
 20
-128.2642258986504
 30
0.0
 10
-46.61139356773754
 20
-128.0528414595988
 30
0.0
 10
-46.61139356773754
 20
-127.8848627972177
 30
0.0
 10
-46.7563711195944
 20
-127.8247776876395
 30
0.0
 10
-46.90587833800242
 20
-127.7728205778539
 30
0.0
 10
-47.05099700096678
 20
-127.7232200235637
 30
0.0
 10
-47.20036150812553
 20
-127.6755385803357
 30
0.0
 10
-47.20036150812553
 20
-127.5364876949943
 30
0.0
 10
-47.20036150812553
 20
-127.3767781435133
 30
0.0
 10
-47.02604855715884
 20
-127.3249621448352
 30
0.0
 10
-46.90161678255555
 20
-127.3249621448352
 30
0.0
 10
-46.74602767541387
 20
-127.3249621448352
 30
0.0
 10
-46.61538701208013
 20
-127.3955176985908
 30
0.0
 10
-46.61538701208013
 20
-127.5344274728247
 30
0.0
 10
-46.61538701208013
 20
-127.5550861389643
 30
0.0
 10
-46.61760245646803
 20
-127.5778332494951
 30
0.0
 10
-46.61952156753023
 20
-127.6027675821923
 30
0.0
 10
-46.61952156753023
 20
-127.6027675821923
 30
0.0
 10
-46.54112023619705
 20
-127.6027675821923
 30
0.0
 10
-46.54112023619705
 20
-127.6027675821923
 30
0.0
 10
-46.53890479180915
 20
-127.5674898053145
 30
0.0
 10
-46.53698568074696
 20
-127.5488913613445
 30
0.0
 10
-46.53698568074696
 20
-127.5239416266383
 30
0.0
 10
-46.53698568074696
 20
-127.3497694775357
 30
0.0
 10
-46.70455512091638
 20
-127.2568901465719
 30
0.0
 10
-46.90161678255555
 20
-127.2568901465719
 30
0.0
 10
-47.08214022239445
 20
-127.2568901465719
 30
0.0
 10
-47.27877855071113
 20
-127.3435605888052
 30
0.0
 10
-47.27877855071113
 20
-127.544615694787
 30
0.0
 10
-47.27877855071113
 20
-127.7189443570061
 30
0.0
 10
-47.13394210996177
 20
-127.7769538487973
 30
0.0
 10
-46.98883595262287
 20
-127.8267109098124
 30
0.0
 10
-46.84359189514703
 20
-127.8767194043279
 30
0.0
 10
-46.69007712128575
 20
-127.9222007962651
 30
0.0
 10
-46.69007712128575
 20
-128.0757155701264
 30
0.0
 10
-46.69007712128575
 20
-128.2228944552604
 30
0.0
 10
-46.86013011694734
 20
-128.3039204531933
 30
0.0
 10
-46.97630689176117
 20
-128.3039204531933
 30
0.0
 10
-47.19816177499007
 20
-128.3039204531933
 30
0.0
 10
-47.33721266033149
 20
-128.2333648994377
 30
0.0
 10
-47.33721266033149
 20
-128.0343700156256
 30
0.0
 10
-47.33721266033149
 20
-128.0175636827211
 30
0.0
 10
-47.33513832705108
 20
-128.0011665720283
 30
0.0
 10
-47.33513832705108
 20
-127.9844872391205
 30
0.0
 10
-47.33513832705108
 20
-127.9844872391205
 30
0.0
 10
-47.41355376949496
 20
-127.984346128013
 30
0.0
 10
-47.41355376949496
 20
-127.984346128013
 30
0.0
1001
TOP
1070
   256
  0
SPLINE
  5
9D9
330
948
100
AcDbEntity
  8
Livello 1
 62
     0
370
     0
100
AcDbSpline
210
0.0
220
0.0
230
1.0
 70
     9
 71
     3
 72
    17
 73
    13
 74
     0
 42
0.000000001
 43
0.0000000001
 40
0.0
 40
0.0
 40
0.0
 40
0.0
 40
1.0
 40
1.0
 40
1.0
 40
2.0
 40
2.0
 40
2.0
 40
3.0
 40
3.0
 40
3.0
 40
4.0
 40
4.0
 40
4.0
 40
4.0
 10
-48.71993218061096
 20
-128.2603735654153
 30
0.0
 10
-49.1347282811397
 20
-128.2603735654153
 30
0.0
 10
-49.38359183034624
 20
-127.8663913532444
 30
0.0
 10
-49.38359183034624
 20
-127.5304199173713
 30
0.0
 10
-49.38359183034624
 20
-127.0366721521901
 30
0.0
 10
-49.06003817193414
 20
-126.3027250598036
 30
0.0
 10
-48.43785107669629
 20
-126.3027250598036
 30
0.0
 10
-47.99812064347031
 20
-126.3027250598036
 30
0.0
 10
-47.78258595242443
 20
-126.617755607322
 30
0.0
 10
-47.78258595242443
 20
-127.0449412630903
 30
0.0
 10
-47.78258595242443
 20
-127.567630916422
 30
0.0
 10
-48.09361052992307
 20
-128.2603735654153
 30
0.0
 10
-48.71993218061096
 20
-128.2603735654153
 30
0.0
1001
TOP
1070
   256
  0
SPLINE
  5
9DA
330
948
100
AcDbEntity
  8
Livello 1
 62
     0
370
     0
100
AcDbSpline
210
0.0
220
0.0
230
1.0
 70
    11
 71
     3
 72
    38
 73
    34
 74
     0
 42
0.000000001
 43
0.0000000001
 40
0.0
 40
0.0
 40
0.0
 40
0.0
 40
1.0
 40
1.0
 40
1.0
 40
2.0
 40
2.0
 40
2.0
 40
3.0
 40
3.0
 40
3.0
 40
4.0
 40
4.0
 40
4.0
 40
5.0
 40
5.0
 40
5.0
 40
6.0
 40
6.0
 40
6.0
 40
7.0
 40
7.0
 40
7.0
 40
8.0
 40
8.0
 40
8.0
 40
9.0
 40
9.0
 40
9.0
 40
10.0
 40
10.0
 40
10.0
 40
11.0
 40
11.0
 40
11.0
 40
11.0
 10
-49.91373215015454
 20
-129.1097918770782
 30
0.0
 10
-49.91373215015454
 20
-129.1097918770782
 30
0.0
 10
-49.75622393195067
 20
-129.1097918770782
 30
0.0
 10
-49.75622393195067
 20
-129.1097918770782
 30
0.0
 10
-49.75622393195067
 20
-129.1097918770782
 30
0.0
 10
-49.46600071713271
 20
-127.7958357994889
 30
0.0
 10
-49.46600071713271
 20
-127.7958357994889
 30
0.0
 10
-49.46600071713271
 20
-127.7958357994889
 30
0.0
 10
-49.45773160623253
 20
-127.7958357994889
 30
0.0
 10
-49.45773160623253
 20
-127.7958357994889
 30
0.0
 10
-49.3627920530991
 20
-128.1526070126091
 30
0.0
 10
-49.09737617098153
 20
-128.3966586730495
 30
0.0
 10
-48.72834240261858
 20
-128.3966586730495
 30
0.0
 10
-48.01892042071745
 20
-128.3966586730495
 30
0.0
 10
-47.62548854186582
 20
-127.6838076912359
 30
0.0
 10
-47.62548854186582
 20
-127.0492169296479
 30
0.0
 10
-47.62548854186582
 20
-126.5474681646708
 30
0.0
 10
-47.85300039685125
 20
-126.1664399521694
 30
0.0
 10
-48.41717829944593
 20
-126.1664399521694
 30
0.0
 10
-48.77380840145867
 20
-126.1664399521694
 30
0.0
 10
-49.08069683807372
 20
-126.3732806135591
 30
0.0
 10
-49.21767339013474
 20
-126.6304260713061
 30
0.0
 10
-49.21767339013474
 20
-126.6304260713061
 30
0.0
 10
-49.22594250103486
 20
-126.6304260713061
 30
0.0
 10
-49.22594250103486
 20
-126.6304260713061
 30
0.0
 10
-49.22594250103486
 20
-126.6304260713061
 30
0.0
 10
-49.1347282811397
 20
-126.2161957286778
 30
0.0
 10
-49.1347282811397
 20
-126.2161957286778
 30
0.0
 10
-49.1347282811397
 20
-126.2161957286778
 30
0.0
 10
-49.29223649934357
 20
-126.2161957286778
 30
0.0
 10
-49.29223649934357
 20
-126.2161957286778
 30
0.0
 10
-49.29223649934357
 20
-126.2161957286778
 30
0.0
 10
-49.91373215015454
 20
-129.1097918770782
 30
0.0
 10
-49.91373215015454
 20
-129.1097918770782
 30
0.0
1001
TOP
1070
   256
  0
SPLINE
  5
9DB
330
948
100
AcDbEntity
  8
Livello 1
 62
     0
370
     0
100
AcDbSpline
210
0.0
220
0.0
230
1.0
 70
    11
 71
     3
 72
    50
 73
    46
 74
     0
 42
0.000000001
 43
0.0000000001
 40
0.0
 40
0.0
 40
0.0
 40
0.0
 40
1.0
 40
1.0
 40
1.0
 40
2.0
 40
2.0
 40
2.0
 40
3.0
 40
3.0
 40
3.0
 40
4.0
 40
4.0
 40
4.0
 40
5.0
 40
5.0
 40
5.0
 40
6.0
 40
6.0
 40
6.0
 40
7.0
 40
7.0
 40
7.0
 40
8.0
 40
8.0
 40
8.0
 40
9.0
 40
9.0
 40
9.0
 40
10.0
 40
10.0
 40
10.0
 40
11.0
 40
11.0
 40
11.0
 40
12.0
 40
12.0
 40
12.0
 40
13.0
 40
13.0
 40
13.0
 40
14.0
 40
14.0
 40
14.0
 40
15.0
 40
15.0
 40
15.0
 40
15.0
 10
-49.84798848516516
 20
-126.2161957286778
 30
0.0
 10
-49.84798848516516
 20
-126.2161957286778
 30
0.0
 10
-50.00550928520209
 20
-126.2161957286778
 30
0.0
 10
-50.00550928520209
 20
-126.2161957286778
 30
0.0
 10
-50.00550928520209
 20
-126.2161957286778
 30
0.0
 10
-50.21703484070474
 20
-127.2195380364137
 30
0.0
 10
-50.21703484070474
 20
-127.2195380364137
 30
0.0
 10
-50.31653380654489
 20
-127.6964794686904
 30
0.0
 10
-50.63155024295259
 20
-128.2603735654153
 30
0.0
 10
-51.14582817380593
 20
-128.2603735654153
 30
0.0
 10
-51.46512177724196
 20
-128.2603735654153
 30
0.0
 10
-51.64757843925378
 20
-128.0737823479535
 30
0.0
 10
-51.64757843925378
 20
-127.8042460214966
 30
0.0
 10
-51.64757843925378
 20
-127.6799412468901
 30
0.0
 10
-51.6018302181987
 20
-127.4558709192733
 30
0.0
 10
-51.58529199639838
 20
-127.3771860711196
 30
0.0
 10
-51.58529199639838
 20
-127.3771860711196
 30
0.0
 10
-51.3241517808384
 20
-126.2161957286778
 30
0.0
 10
-51.3241517808384
 20
-126.2161957286778
 30
0.0
 10
-51.3241517808384
 20
-126.2161957286778
 30
0.0
 10
-51.48165999904228
 20
-126.2161957286778
 30
0.0
 10
-51.48165999904228
 20
-126.2161957286778
 30
0.0
 10
-51.48165999904228
 20
-126.2161957286778
 30
0.0
 10
-51.74251799238724
 20
-127.3811808100677
 30
0.0
 10
-51.74251799238724
 20
-127.3811808100677
 30
0.0
 10
-51.76333039587382
 20
-127.4765436965236
 30
0.0
 10
-51.80453484030786
 20
-127.7047485795905
 30
0.0
 10
-51.80453484030786
 20
-127.8083805769467
 30
0.0
 10
-51.80453484030786
 20
-128.1774143453096
 30
0.0
 10
-51.52313255353977
 20
-128.3966586730495
 30
0.0
 10
-51.1997058951244
 20
-128.3966586730495
 30
0.0
 10
-50.77252023935614
 20
-128.3966586730495
 30
0.0
 10
-50.55286668940443
 20
-128.2104907889102
 30
0.0
 10
-50.36627547194257
 20
-127.8913397970524
 30
0.0
 10
-50.36627547194257
 20
-127.8913397970524
 30
0.0
 10
-50.35800484066948
 20
-127.8996089079526
 30
0.0
 10
-50.35800484066948
 20
-127.8996089079526
 30
0.0
 10
-50.35800484066948
 20
-127.8996089079526
 30
0.0
 10
-50.45750380294845
 20
-128.3469170076519
 30
0.0
 10
-50.45750380294845
 20
-128.3469170076519
 30
0.0
 10
-50.45750380294845
 20
-128.3469170076519
 30
0.0
 10
-50.29999558474457
 20
-128.3469170076519
 30
0.0
 10
-50.29999558474457
 20
-128.3469170076519
 30
0.0
 10
-50.29999558474457
 20
-128.3469170076519
 30
0.0
 10
-49.84798848516516
 20
-126.2161957286778
 30
0.0
 10
-49.84798848516516
 20
-126.2161957286778
 30
0.0
1001
TOP
1070
   256
  0
SPLINE
  5
9DC
330
948
100
AcDbEntity
  8
Livello 1
 62
     0
370
     0
100
AcDbSpline
210
0.0
220
0.0
230
1.0
 70
     9
 71
     3
 72
    17
 73
    13
 74
     0
 42
0.000000001
 43
0.0000000001
 40
0.0
 40
0.0
 40
0.0
 40
0.0
 40
1.0
 40
1.0
 40
1.0
 40
2.0
 40
2.0
 40
2.0
 40
3.0
 40
3.0
 40
3.0
 40
4.0
 40
4.0
 40
4.0
 40
4.0
 10
-52.88698551874498
 20
-126.1664399521694
 30
0.0
 10
-53.60865594477809
 20
-126.1664399521694
 30
0.0
 10
-54.0353053783378
 20
-126.8543566012859
 30
0.0
 10
-54.0353053783378
 20
-127.5013510292241
 30
0.0
 10
-54.0353053783378
 20
-128.0404377932486
 30
0.0
 10
-53.7580361631893
 20
-128.3966586730495
 30
0.0
 10
-53.18147028900984
 20
-128.3966586730495
 30
0.0
 10
-52.43071686371871
 20
-128.3966586730495
 30
0.0
 10
-52.04555261802548
 20
-127.6548658030854
 30
0.0
 10
-52.04555261802548
 20
-127.0035957085895
 30
0.0
 10
-52.04555261802548
 20
-126.4810471663653
 30
0.0
 10
-52.36429586541323
 20
-126.1664399521694
 30
0.0
 10
-52.88698551874498
 20
-126.1664399521694
 30
0.0
1001
TOP
1070
   256
  0
SPLINE
  5
9DD
330
948
100
AcDbEntity
  8
Livello 1
 62
     0
370
     0
100
AcDbSpline
210
0.0
220
0.0
230
1.0
 70
     9
 71
     3
 72
    17
 73
    13
 74
     0
 42
0.000000001
 43
0.0000000001
 40
0.0
 40
0.0
 40
0.0
 40
0.0
 40
1.0
 40
1.0
 40
1.0
 40
2.0
 40
2.0
 40
2.0
 40
3.0
 40
3.0
 40
3.0
 40
4.0
 40
4.0
 40
4.0
 40
4.0
 10
-52.85376796403688
 20
-126.3027250598036
 30
0.0
 10
-52.4140375308109
 20
-126.3151287261538
 30
0.0
 10
-52.20251198065179
 20
-126.5888137191715
 30
0.0
 10
-52.20251198065179
 20
-127.0078713751471
 30
0.0
 10
-52.20251198065179
 20
-127.5636374720795
 30
0.0
 10
-52.53434886107481
 20
-128.2603735654153
 30
0.0
 10
-53.1856048444599
 20
-128.2603735654153
 30
0.0
 10
-53.6708153876367
 20
-128.2603735654153
 30
0.0
 10
-53.87820638234572
 20
-127.9161330186421
 30
0.0
 10
-53.87820638234572
 20
-127.4889460710916
 30
0.0
 10
-53.87820638234572
 20
-126.9289055993839
 30
0.0
 10
-53.50503805853271
 20
-126.286200949114
 30
0.0
 10
-52.85376796403688
 20
-126.3027250598036
 30
0.0
1001
TOP
1070
   256
  0
SPLINE
  5
9DE
330
948
100
AcDbEntity
  8
Livello 1
 62
     0
370
     0
100
AcDbSpline
210
0.0
220
0.0
230
1.0
 70
    11
 71
     3
 72
    38
 73
    34
 74
     0
 42
0.000000001
 43
0.0000000001
 40
0.0
 40
0.0
 40
0.0
 40
0.0
 40
1.0
 40
1.0
 40
1.0
 40
2.0
 40
2.0
 40
2.0
 40
3.0
 40
3.0
 40
3.0
 40
4.0
 40
4.0
 40
4.0
 40
5.0
 40
5.0
 40
5.0
 40
6.0
 40
6.0
 40
6.0
 40
7.0
 40
7.0
 40
7.0
 40
8.0
 40
8.0
 40
8.0
 40
9.0
 40
9.0
 40
9.0
 40
10.0
 40
10.0
 40
10.0
 40
11.0
 40
11.0
 40
11.0
 40
11.0
 10
-55.29992901274122
 20
-128.3469170076519
 30
0.0
 10
-55.29992901274122
 20
-128.3469170076519
 30
0.0
 10
-55.14242079453737
 20
-128.3469170076519
 30
0.0
 10
-55.14242079453737
 20
-128.3469170076519
 30
0.0
 10
-55.14242079453737
 20
-128.3469170076519
 30
0.0
 10
-54.95596928396455
 20
-127.484403585212
 30
0.0
 10
-54.95596928396455
 20
-127.484403585212
 30
0.0
 10
-54.86060780172701
 20
-127.0490758185403
 30
0.0
 10
-54.64508880722537
 20
-126.3233978370539
 30
0.0
 10
-54.02744548964943
 20
-126.3233978370539
 30
0.0
 10
-53.98597150642903
 20
-126.3233978370539
 30
0.0
 10
-53.94462595088384
 20
-126.3318080590616
 30
0.0
 10
-53.89900615959286
 20
-126.3399360588542
 30
0.0
 10
-53.89900615959286
 20
-126.3399360588542
 30
0.0
 10
-53.85339904964528
 20
-126.174567951962
 30
0.0
 10
-53.85339904964528
 20
-126.174567951962
 30
0.0
 10
-53.89900615959286
 20
-126.1704333965119
 30
0.0
 10
-53.9403517140936
 20
-126.1664399521694
 30
0.0
 10
-53.98597150642903
 20
-126.1664399521694
 30
0.0
 10
-54.3674103698651
 20
-126.1664399521694
 30
0.0
 10
-54.63667858521771
 20
-126.4063570571597
 30
0.0
 10
-54.79019335907901
 20
-126.725649160125
 30
0.0
 10
-54.79019335907901
 20
-126.725649160125
 30
0.0
 10
-54.79846246997914
 20
-126.725649160125
 30
0.0
 10
-54.79846246997914
 20
-126.725649160125
 30
0.0
 10
-54.79846246997914
 20
-126.725649160125
 30
0.0
 10
-54.68242680627279
 20
-126.2161957286778
 30
0.0
 10
-54.68242680627279
 20
-126.2161957286778
 30
0.0
 10
-54.68242680627279
 20
-126.2161957286778
 30
0.0
 10
-54.83993502447663
 20
-126.2161957286778
 30
0.0
 10
-54.83993502447663
 20
-126.2161957286778
 30
0.0
 10
-54.83993502447663
 20
-126.2161957286778
 30
0.0
 10
-55.29992901274122
 20
-128.3469170076519
 30
0.0
 10
-55.29992901274122
 20
-128.3469170076519
 30
0.0
1001
TOP
1070
   256
  0
SPLINE
  5
9DF
330
948
100
AcDbEntity
  8
Livello 1
 62
     0
370
     0
100
AcDbSpline
210
0.0
220
0.0
230
1.0
 70
     9
 71
     3
 72
    53
 73
    49
 74
     0
 42
0.000000001
 43
0.0000000001
 40
0.0
 40
0.0
 40
0.0
 40
0.0
 40
1.0
 40
1.0
 40
1.0
 40
2.0
 40
2.0
 40
2.0
 40
3.0
 40
3.0
 40
3.0
 40
4.0
 40
4.0
 40
4.0
 40
5.0
 40
5.0
 40
5.0
 40
6.0
 40
6.0
 40
6.0
 40
7.0
 40
7.0
 40
7.0
 40
8.0
 40
8.0
 40
8.0
 40
9.0
 40
9.0
 40
9.0
 40
10.0
 40
10.0
 40
10.0
 40
11.0
 40
11.0
 40
11.0
 40
12.0
 40
12.0
 40
12.0
 40
13.0
 40
13.0
 40
13.0
 40
14.0
 40
14.0
 40
14.0
 40
15.0
 40
15.0
 40
15.0
 40
16.0
 40
16.0
 40
16.0
 40
16.0
 10
-55.4123804543168
 20
-126.2823345047682
 30
0.0
 10
-55.44971706161885
 20
-125.6062711886827
 30
0.0
 10
-55.92624928372174
 20
-125.3163301960797
 30
0.0
 10
-56.55243120300946
 20
-125.3163301960797
 30
0.0
 10
-57.6016615055253
 20
-125.3163301960797
 30
0.0
 10
-58.15687860652104
 20
-126.3196866149264
 30
0.0
 10
-58.15687860652104
 20
-127.1652525933542
 30
0.0
 10
-58.15687860652104
 20
-128.0944538487179
 30
0.0
 10
-57.56019028841049
 20
-128.4174725614074
 30
0.0
 10
-56.97120663677003
 20
-128.4174725614074
 30
0.0
 10
-56.39478187369809
 20
-128.4174725614074
 30
0.0
 10
-56.058810437825
 20
-128.1607350124018
 30
0.0
 10
-55.78927411136811
 20
-127.7376839120836
 30
0.0
 10
-55.78927411136811
 20
-127.7376839120836
 30
0.0
 10
-55.7727358895678
 20
-127.7376839120836
 30
0.0
 10
-55.7727358895678
 20
-127.7376839120836
 30
0.0
 10
-55.7727358895678
 20
-127.7376839120836
 30
0.0
 10
-55.90998055273306
 20
-128.3469170076519
 30
0.0
 10
-55.90998055273306
 20
-128.3469170076519
 30
0.0
 10
-55.90998055273306
 20
-128.3469170076519
 30
0.0
 10
-55.77314372820459
 20
-128.3469170076519
 30
0.0
 10
-55.77314372820459
 20
-128.3469170076519
 30
0.0
 10
-55.77314372820459
 20
-128.3469170076519
 30
0.0
 10
-55.46639778627201
 20
-126.8961113779984
 30
0.0
 10
-55.46639778627201
 20
-126.8961113779984
 30
0.0
 10
-55.46639778627201
 20
-126.8961113779984
 30
0.0
 10
-56.71020753231758
 20
-126.8961113779984
 30
0.0
 10
-56.71020753231758
 20
-126.8961113779984
 30
0.0
 10
-56.71020753231758
 20
-126.8961113779984
 30
0.0
 10
-56.74342372796203
 20
-127.0532103739904
 30
0.0
 10
-56.74342372796203
 20
-127.0532103739904
 30
0.0
 10
-56.74342372796203
 20
-127.0532103739904
 30
0.0
 10
-55.65710944807324
 20
-127.0532103739904
 30
0.0
 10
-55.65710944807324
 20
-127.0532103739904
 30
0.0
 10
-55.7727358895678
 20
-127.6257828038273
 30
0.0
 10
-56.14590421338082
 20
-128.2603735654153
 30
0.0
 10
-56.95466706124247
 20
-128.2603735654153
 30
0.0
 10
-57.55192117751033
 20
-128.2603735654153
 30
0.0
 10
-57.97497227782852
 20
-127.9037434634026
 30
0.0
 10
-57.97497227782852
 20
-127.1779243708087
 30
0.0
 10
-57.97497227782852
 20
-126.3443528365193
 30
0.0
 10
-57.44415462470414
 20
-125.4734291920718
 30
0.0
 10
-56.54829664755936
 20
-125.4734291920718
 30
0.0
 10
-55.93024410777167
 20
-125.4734291920718
 30
0.0
 10
-55.63575933750681
 20
-125.7555102959864
 30
0.0
 10
-55.59427267189855
 20
-126.2820663936639
 30
0.0
 10
-55.59427267189855
 20
-126.2820663936639
 30
0.0
 10
-55.4123804543168
 20
-126.2823345047682
 30
0.0
 10
-55.4123804543168
 20
-126.2823345047682
 30
0.0
1001
TOP
1070
   256
  0
HATCH
  5
9E0
330
948
100
AcDbEntity
  8
Livello 1
 62
     0
100
AcDbHatch
 10
0.0
 20
0.0
 30
0.0
210
0.0
220
0.0
230
1.0
  2
SOLID
 70
     1
 71
     0
 91
       10
 92
        1
 93
        4
 72
     1
 10
-45.88764880842404
 20
-128.3470581187594
 11
-45.80896525487587
 21
-128.3470581187594
 72
     1
 10
-45.80896525487588
 20
-128.3470581187594
 11
-45.50014359608792
 21
-126.8670424898511
 72
     1
 10
-45.50014359608792
 20
-126.8670424898511
 11
-45.5789682607436
 21
-126.8670424898511
 72
     1
 10
-45.57896826074357
 20
-126.8670424898511
 11
-45.88764880842403
 21
-128.3470581187594
 97
        0
 92
        1
 93
        1
 72
     4
 94
        3
 73
     0
 74
     0
 95
       38
 96
       34
 40
0.0
 40
0.0
 40
0.0
 40
0.0
 40
1.0
 40
1.0
 40
1.0
 40
2.0
 40
2.0
 40
2.0
 40
3.0
 40
3.0
 40
3.0
 40
4.0
 40
4.0
 40
4.0
 40
5.0
 40
5.0
 40
5.0
 40
6.0
 40
6.0
 40
6.0
 40
7.0
 40
7.0
 40
7.0
 40
8.0
 40
8.0
 40
8.0
 40
9.0
 40
9.0
 40
9.0
 40
10.0
 40
10.0
 40
10.0
 40
11.0
 40
11.0
 40
11.0
 40
11.0
 10
-46.47661834895376
 20
-128.3470581187594
 10
-46.47661834895376
 20
-128.3470581187594
 10
-46.39779368429805
 20
-128.3470581187594
 10
-46.39779368429805
 20
-128.3470581187594
 10
-46.39779368429805
 20
-128.3470581187594
 10
-46.30450513112248
 20
-127.9158649075379
 10
-46.30450513112248
 20
-127.9158649075379
 10
-46.25682368789449
 20
-127.6981304686483
 10
-46.14907124619906
 20
-127.3351644779083
 10
-45.8402495874111
 20
-127.3351644779083
 10
-45.8195768101607
 20
-127.3351644779083
 10
-45.79876292180284
 20
-127.3395671444626
 10
-45.77588881127531
 20
-127.3435605888052
 10
-45.77588881127531
 20
-127.3435605888052
 10
-45.75329692296276
 20
-127.2608835909145
 10
-45.75329692296276
 20
-127.2608835909145
 10
-45.77588881127531
 20
-127.2588092576341
 10
-45.79670269963315
 20
-127.2568901465719
 10
-45.8195768101607
 20
-127.2568901465719
 10
-46.01016147196514
 20
-127.2568901465719
 10
-46.14493669074898
 20
-127.3767781435133
 10
-46.22154591101673
 20
-127.5364876949943
 10
-46.22154591101673
 20
-127.5364876949943
 10
-46.22582157757432
 20
-127.5364876949943
 10
-46.22582157757432
 20
-127.5364876949943
 10
-46.22582157757432
 20
-127.5364876949943
 10
-46.16766969016902
 20
-127.2816833681616
 10
-46.16766969016902
 20
-127.2816833681616
 10
-46.16766969016902
 20
-127.2816833681616
 10
-46.24649435482467
 20
-127.2816833681616
 10
-46.24649435482467
 20
-127.2816833681616
 10
-46.24649435482467
 20
-127.2816833681616
 10
-46.47661834895376
 20
-128.3470581187594
 10
-46.47661834895376
 20
-128.3470581187594
 97
        0
 97
        0
 92
        1
 93
        1
 72
     4
 94
        3
 73
     0
 74
     0
 95
       59
 96
       55
 40
0.0
 40
0.0
 40
0.0
 40
0.0
 40
1.0
 40
1.0
 40
1.0
 40
2.0
 40
2.0
 40
2.0
 40
3.0
 40
3.0
 40
3.0
 40
4.0
 40
4.0
 40
4.0
 40
5.0
 40
5.0
 40
5.0
 40
6.0
 40
6.0
 40
6.0
 40
7.0
 40
7.0
 40
7.0
 40
8.0
 40
8.0
 40
8.0
 40
9.0
 40
9.0
 40
9.0
 40
10.0
 40
10.0
 40
10.0
 40
11.0
 40
11.0
 40
11.0
 40
12.0
 40
12.0
 40
12.0
 40
13.0
 40
13.0
 40
13.0
 40
14.0
 40
14.0
 40
14.0
 40
15.0
 40
15.0
 40
15.0
 40
16.0
 40
16.0
 40
16.0
 40
17.0
 40
17.0
 40
17.0
 40
18.0
 40
18.0
 40
18.0
 40
18.0
 10
-47.41355376949496
 20
-127.984346128013
 10
-47.41561399166466
 20
-128.0092945718209
 10
-47.41561399166466
 20
-128.0320275712409
 10
-47.41561399166466
 20
-128.0528414595988
 10
-47.41561399166466
 20
-128.2893154535659
 10
-47.23343955186783
 20
-128.3719924514566
 10
-47.00745011318889
 20
-128.3719924514566
 10
-46.81024734044217
 20
-128.3719924514566
 10
-46.61139356773754
 20
-128.2642258986504
 10
-46.61139356773754
 20
-128.0528414595988
 10
-46.61139356773754
 20
-127.8848627972177
 10
-46.7563711195944
 20
-127.8247776876395
 10
-46.90587833800242
 20
-127.7728205778539
 10
-47.05099700096678
 20
-127.7232200235637
 10
-47.20036150812553
 20
-127.6755385803357
 10
-47.20036150812553
 20
-127.5364876949943
 10
-47.20036150812553
 20
-127.3767781435133
 10
-47.02604855715884
 20
-127.3249621448352
 10
-46.90161678255555
 20
-127.3249621448352
 10
-46.74602767541387
 20
-127.3249621448352
 10
-46.61538701208013
 20
-127.3955176985908
 10
-46.61538701208013
 20
-127.5344274728247
 10
-46.61538701208013
 20
-127.5550861389643
 10
-46.61760245646803
 20
-127.5778332494951
 10
-46.61952156753023
 20
-127.6027675821923
 10
-46.61952156753023
 20
-127.6027675821923
 10
-46.54112023619705
 20
-127.6027675821923
 10
-46.54112023619705
 20
-127.6027675821923
 10
-46.53890479180915
 20
-127.5674898053145
 10
-46.53698568074696
 20
-127.5488913613445
 10
-46.53698568074696
 20
-127.5239416266383
 10
-46.53698568074696
 20
-127.3497694775357
 10
-46.70455512091638
 20
-127.2568901465719
 10
-46.90161678255555
 20
-127.2568901465719
 10
-47.08214022239445
 20
-127.2568901465719
 10
-47.27877855071113
 20
-127.3435605888052
 10
-47.27877855071113
 20
-127.544615694787
 10
-47.27877855071113
 20
-127.7189443570061
 10
-47.13394210996177
 20
-127.7769538487973
 10
-46.98883595262287
 20
-127.8267109098124
 10
-46.84359189514703
 20
-127.8767194043279
 10
-46.69007712128575
 20
-127.9222007962651
 10
-46.69007712128575
 20
-128.0757155701264
 10
-46.69007712128575
 20
-128.2228944552604
 10
-46.86013011694734
 20
-128.3039204531933
 10
-46.97630689176117
 20
-128.3039204531933
 10
-47.19816177499007
 20
-128.3039204531933
 10
-47.33721266033149
 20
-128.2333648994377
 10
-47.33721266033149
 20
-128.0343700156256
 10
-47.33721266033149
 20
-128.0175636827211
 10
-47.33513832705108
 20
-128.0011665720283
 10
-47.33513832705108
 20
-127.9844872391205
 10
-47.33513832705108
 20
-127.9844872391205
 10
-47.41355376949496
 20
-127.984346128013
 10
-47.41355376949496
 20
-127.984346128013
 97
        0
 97
        0
 92
        1
 93
        1
 72
     4
 94
        3
 73
     0
 74
     0
 95
       38
 96
       34
 40
0.0
 40
0.0
 40
0.0
 40
0.0
 40
1.0
 40
1.0
 40
1.0
 40
2.0
 40
2.0
 40
2.0
 40
3.0
 40
3.0
 40
3.0
 40
4.0
 40
4.0
 40
4.0
 40
5.0
 40
5.0
 40
5.0
 40
6.0
 40
6.0
 40
6.0
 40
7.0
 40
7.0
 40
7.0
 40
8.0
 40
8.0
 40
8.0
 40
9.0
 40
9.0
 40
9.0
 40
10.0
 40
10.0
 40
10.0
 40
11.0
 40
11.0
 40
11.0
 40
11.0
 10
-49.91373215015454
 20
-129.1097918770782
 10
-49.91373215015454
 20
-129.1097918770782
 10
-49.75622393195067
 20
-129.1097918770782
 10
-49.75622393195067
 20
-129.1097918770782
 10
-49.75622393195067
 20
-129.1097918770782
 10
-49.46600071713271
 20
-127.7958357994889
 10
-49.46600071713271
 20
-127.7958357994889
 10
-49.46600071713271
 20
-127.7958357994889
 10
-49.45773160623253
 20
-127.7958357994889
 10
-49.45773160623253
 20
-127.7958357994889
 10
-49.3627920530991
 20
-128.1526070126091
 10
-49.09737617098153
 20
-128.3966586730495
 10
-48.72834240261858
 20
-128.3966586730495
 10
-48.01892042071745
 20
-128.3966586730495
 10
-47.62548854186582
 20
-127.6838076912359
 10
-47.62548854186582
 20
-127.0492169296479
 10
-47.62548854186582
 20
-126.5474681646708
 10
-47.85300039685125
 20
-126.1664399521694
 10
-48.41717829944593
 20
-126.1664399521694
 10
-48.77380840145867
 20
-126.1664399521694
 10
-49.08069683807372
 20
-126.3732806135591
 10
-49.21767339013474
 20
-126.6304260713061
 10
-49.21767339013474
 20
-126.6304260713061
 10
-49.22594250103486
 20
-126.6304260713061
 10
-49.22594250103486
 20
-126.6304260713061
 10
-49.22594250103486
 20
-126.6304260713061
 10
-49.1347282811397
 20
-126.2161957286778
 10
-49.1347282811397
 20
-126.2161957286778
 10
-49.1347282811397
 20
-126.2161957286778
 10
-49.29223649934357
 20
-126.2161957286778
 10
-49.29223649934357
 20
-126.2161957286778
 10
-49.29223649934357
 20
-126.2161957286778
 10
-49.91373215015454
 20
-129.1097918770782
 10
-49.91373215015454
 20
-129.1097918770782
 97
        0
 97
        0
 92
        1
 93
        1
 72
     4
 94
        3
 73
     0
 74
     0
 95
       50
 96
       46
 40
0.0
 40
0.0
 40
0.0
 40
0.0
 40
1.0
 40
1.0
 40
1.0
 40
2.0
 40
2.0
 40
2.0
 40
3.0
 40
3.0
 40
3.0
 40
4.0
 40
4.0
 40
4.0
 40
5.0
 40
5.0
 40
5.0
 40
6.0
 40
6.0
 40
6.0
 40
7.0
 40
7.0
 40
7.0
 40
8.0
 40
8.0
 40
8.0
 40
9.0
 40
9.0
 40
9.0
 40
10.0
 40
10.0
 40
10.0
 40
11.0
 40
11.0
 40
11.0
 40
12.0
 40
12.0
 40
12.0
 40
13.0
 40
13.0
 40
13.0
 40
14.0
 40
14.0
 40
14.0
 40
15.0
 40
15.0
 40
15.0
 40
15.0
 10
-49.84798848516516
 20
-126.2161957286778
 10
-49.84798848516516
 20
-126.2161957286778
 10
-50.00550928520209
 20
-126.2161957286778
 10
-50.00550928520209
 20
-126.2161957286778
 10
-50.00550928520209
 20
-126.2161957286778
 10
-50.21703484070474
 20
-127.2195380364137
 10
-50.21703484070474
 20
-127.2195380364137
 10
-50.31653380654489
 20
-127.6964794686904
 10
-50.63155024295259
 20
-128.2603735654153
 10
-51.14582817380593
 20
-128.2603735654153
 10
-51.46512177724196
 20
-128.2603735654153
 10
-51.64757843925378
 20
-128.0737823479535
 10
-51.64757843925378
 20
-127.8042460214966
 10
-51.64757843925378
 20
-127.6799412468901
 10
-51.6018302181987
 20
-127.4558709192733
 10
-51.58529199639838
 20
-127.3771860711196
 10
-51.58529199639838
 20
-127.3771860711196
 10
-51.3241517808384
 20
-126.2161957286778
 10
-51.3241517808384
 20
-126.2161957286778
 10
-51.3241517808384
 20
-126.2161957286778
 10
-51.48165999904228
 20
-126.2161957286778
 10
-51.48165999904228
 20
-126.2161957286778
 10
-51.48165999904228
 20
-126.2161957286778
 10
-51.74251799238724
 20
-127.3811808100677
 10
-51.74251799238724
 20
-127.3811808100677
 10
-51.76333039587382
 20
-127.4765436965236
 10
-51.80453484030786
 20
-127.7047485795905
 10
-51.80453484030786
 20
-127.8083805769467
 10
-51.80453484030786
 20
-128.1774143453096
 10
-51.52313255353977
 20
-128.3966586730495
 10
-51.1997058951244
 20
-128.3966586730495
 10
-50.77252023935614
 20
-128.3966586730495
 10
-50.55286668940443
 20
-128.2104907889102
 10
-50.36627547194257
 20
-127.8913397970524
 10
-50.36627547194257
 20
-127.8913397970524
 10
-50.35800484066948
 20
-127.8996089079526
 10
-50.35800484066948
 20
-127.8996089079526
 10
-50.35800484066948
 20
-127.8996089079526
 10
-50.45750380294845
 20
-128.3469170076519
 10
-50.45750380294845
 20
-128.3469170076519
 10
-50.45750380294845
 20
-128.3469170076519
 10
-50.29999558474457
 20
-128.3469170076519
 10
-50.29999558474457
 20
-128.3469170076519
 10
-50.29999558474457
 20
-128.3469170076519
 10
-49.84798848516516
 20
-126.2161957286778
 10
-49.84798848516516
 20
-126.2161957286778
 97
        0
 97
        0
 92
        1
 93
        1
 72
     4
 94
        3
 73
     0
 74
     0
 95
       38
 96
       34
 40
0.0
 40
0.0
 40
0.0
 40
0.0
 40
1.0
 40
1.0
 40
1.0
 40
2.0
 40
2.0
 40
2.0
 40
3.0
 40
3.0
 40
3.0
 40
4.0
 40
4.0
 40
4.0
 40
5.0
 40
5.0
 40
5.0
 40
6.0
 40
6.0
 40
6.0
 40
7.0
 40
7.0
 40
7.0
 40
8.0
 40
8.0
 40
8.0
 40
9.0
 40
9.0
 40
9.0
 40
10.0
 40
10.0
 40
10.0
 40
11.0
 40
11.0
 40
11.0
 40
11.0
 10
-55.29992901274122
 20
-128.3469170076519
 10
-55.29992901274122
 20
-128.3469170076519
 10
-55.14242079453737
 20
-128.3469170076519
 10
-55.14242079453737
 20
-128.3469170076519
 10
-55.14242079453737
 20
-128.3469170076519
 10
-54.95596928396455
 20
-127.484403585212
 10
-54.95596928396455
 20
-127.484403585212
 10
-54.86060780172701
 20
-127.0490758185403
 10
-54.64508880722537
 20
-126.3233978370539
 10
-54.02744548964943
 20
-126.3233978370539
 10
-53.98597150642903
 20
-126.3233978370539
 10
-53.94462595088384
 20
-126.3318080590616
 10
-53.89900615959286
 20
-126.3399360588542
 10
-53.89900615959286
 20
-126.3399360588542
 10
-53.85339904964528
 20
-126.174567951962
 10
-53.85339904964528
 20
-126.174567951962
 10
-53.89900615959286
 20
-126.1704333965119
 10
-53.9403517140936
 20
-126.1664399521694
 10
-53.98597150642903
 20
-126.1664399521694
 10
-54.3674103698651
 20
-126.1664399521694
 10
-54.63667858521771
 20
-126.4063570571597
 10
-54.79019335907901
 20
-126.725649160125
 10
-54.79019335907901
 20
-126.725649160125
 10
-54.79846246997914
 20
-126.725649160125
 10
-54.79846246997914
 20
-126.725649160125
 10
-54.79846246997914
 20
-126.725649160125
 10
-54.68242680627279
 20
-126.2161957286778
 10
-54.68242680627279
 20
-126.2161957286778
 10
-54.68242680627279
 20
-126.2161957286778
 10
-54.83993502447663
 20
-126.2161957286778
 10
-54.83993502447663
 20
-126.2161957286778
 10
-54.83993502447663
 20
-126.2161957286778
 10
-55.29992901274122
 20
-128.3469170076519
 10
-55.29992901274122
 20
-128.3469170076519
 97
        0
 97
        0
 92
        1
 93
        1
 72
     4
 94
        3
 73
     0
 74
     0
 95
       53
 96
       49
 40
0.0
 40
0.0
 40
0.0
 40
0.0
 40
1.0
 40
1.0
 40
1.0
 40
2.0
 40
2.0
 40
2.0
 40
3.0
 40
3.0
 40
3.0
 40
4.0
 40
4.0
 40
4.0
 40
5.0
 40
5.0
 40
5.0
 40
6.0
 40
6.0
 40
6.0
 40
7.0
 40
7.0
 40
7.0
 40
8.0
 40
8.0
 40
8.0
 40
9.0
 40
9.0
 40
9.0
 40
10.0
 40
10.0
 40
10.0
 40
11.0
 40
11.0
 40
11.0
 40
12.0
 40
12.0
 40
12.0
 40
13.0
 40
13.0
 40
13.0
 40
14.0
 40
14.0
 40
14.0
 40
15.0
 40
15.0
 40
15.0
 40
16.0
 40
16.0
 40
16.0
 40
16.0
 10
-55.4123804543168
 20
-126.2823345047682
 10
-55.44971706161885
 20
-125.6062711886827
 10
-55.92624928372174
 20
-125.3163301960797
 10
-56.55243120300946
 20
-125.3163301960797
 10
-57.6016615055253
 20
-125.3163301960797
 10
-58.15687860652104
 20
-126.3196866149264
 10
-58.15687860652104
 20
-127.1652525933542
 10
-58.15687860652104
 20
-128.0944538487179
 10
-57.56019028841049
 20
-128.4174725614074
 10
-56.97120663677003
 20
-128.4174725614074
 10
-56.39478187369809
 20
-128.4174725614074
 10
-56.058810437825
 20
-128.1607350124018
 10
-55.78927411136811
 20
-127.7376839120836
 10
-55.78927411136811
 20
-127.7376839120836
 10
-55.7727358895678
 20
-127.7376839120836
 10
-55.7727358895678
 20
-127.7376839120836
 10
-55.7727358895678
 20
-127.7376839120836
 10
-55.90998055273306
 20
-128.3469170076519
 10
-55.90998055273306
 20
-128.3469170076519
 10
-55.90998055273306
 20
-128.3469170076519
 10
-55.77314372820459
 20
-128.3469170076519
 10
-55.77314372820459
 20
-128.3469170076519
 10
-55.77314372820459
 20
-128.3469170076519
 10
-55.46639778627201
 20
-126.8961113779984
 10
-55.46639778627201
 20
-126.8961113779984
 10
-55.46639778627201
 20
-126.8961113779984
 10
-56.71020753231758
 20
-126.8961113779984
 10
-56.71020753231758
 20
-126.8961113779984
 10
-56.71020753231758
 20
-126.8961113779984
 10
-56.74342372796203
 20
-127.0532103739904
 10
-56.74342372796203
 20
-127.0532103739904
 10
-56.74342372796203
 20
-127.0532103739904
 10
-55.65710944807324
 20
-127.0532103739904
 10
-55.65710944807324
 20
-127.0532103739904
 10
-55.7727358895678
 20
-127.6257828038273
 10
-56.14590421338082
 20
-128.2603735654153
 10
-56.95466706124247
 20
-128.2603735654153
 10
-57.55192117751033
 20
-128.2603735654153
 10
-57.97497227782852
 20
-127.9037434634026
 10
-57.97497227782852
 20
-127.1779243708087
 10
-57.97497227782852
 20
-126.3443528365193
 10
-57.44415462470414
 20
-125.4734291920718
 10
-56.54829664755936
 20
-125.4734291920718
 10
-55.93024410777167
 20
-125.4734291920718
 10
-55.63575933750681
 20
-125.7555102959864
 10
-55.59427267189855
 20
-126.2820663936639
 10
-55.59427267189855
 20
-126.2820663936639
 10
-55.4123804543168
 20
-126.2823345047682
 10
-55.4123804543168
 20
-126.2823345047682
 97
        0
 97
        0
 92
        1
 93
        2
 72
     4
 94
        3
 73
     0
 74
     0
 95
       17
 96
       13
 40
0.0
 40
0.0
 40
0.0
 40
0.0
 40
0.3527777776895833
 40
0.3527777776895833
 40
0.3527777776895833
 40
0.7055555553791667
 40
0.7055555553791667
 40
0.7055555553791667
 40
1.05833333306875
 40
1.05833333306875
 40
1.05833333306875
 40
1.411111110758333
 40
1.411111110758333
 40
1.411111110758333
 40
1.411111110758333
 10
-48.71993218061096
 20
-128.2603735654153
 10
-49.1347282811397
 20
-128.2603735654153
 10
-49.38359183034624
 20
-127.8663913532444
 10
-49.38359183034624
 20
-127.5304199173713
 10
-49.38359183034624
 20
-127.0366721521901
 10
-49.06003817193414
 20
-126.3027250598036
 10
-48.43785107669629
 20
-126.3027250598036
 10
-47.99812064347031
 20
-126.3027250598036
 10
-47.78258595242443
 20
-126.617755607322
 10
-47.78258595242443
 20
-127.0449412630903
 10
-47.78258595242443
 20
-127.567630916422
 10
-48.09361052992307
 20
-128.2603735654153
 10
-48.71993218061096
 20
-128.2603735654153
 97
        0
 72
     1
 10
-48.71993218061096
 20
-128.2603735654153
 11
-48.71993218061096
 21
-128.2603735654153
 97
        0
 92
        1
 93
        2
 72
     4
 94
        3
 73
     0
 74
     0
 95
       17
 96
       13
 40
0.0
 40
0.0
 40
0.0
 40
0.0
 40
0.3527777776895833
 40
0.3527777776895833
 40
0.3527777776895833
 40
0.7055555553791667
 40
0.7055555553791667
 40
0.7055555553791667
 40
1.05833333306875
 40
1.05833333306875
 40
1.05833333306875
 40
1.411111110758333
 40
1.411111110758333
 40
1.411111110758333
 40
1.411111110758333
 10
-52.88698551874498
 20
-126.1664399521694
 10
-53.60865594477809
 20
-126.1664399521694
 10
-54.0353053783378
 20
-126.8543566012859
 10
-54.0353053783378
 20
-127.5013510292241
 10
-54.0353053783378
 20
-128.0404377932486
 10
-53.7580361631893
 20
-128.3966586730495
 10
-53.18147028900984
 20
-128.3966586730495
 10
-52.43071686371871
 20
-128.3966586730495
 10
-52.04555261802548
 20
-127.6548658030854
 10
-52.04555261802548
 20
-127.0035957085895
 10
-52.04555261802548
 20
-126.4810471663653
 10
-52.36429586541323
 20
-126.1664399521694
 10
-52.88698551874498
 20
-126.1664399521694
 97
        0
 72
     1
 10
-52.88698551874498
 20
-126.1664399521694
 11
-52.88698551874498
 21
-126.1664399521694
 97
        0
 92
        1
 93
        2
 72
     4
 94
        3
 73
     0
 74
     0
 95
       17
 96
       13
 40
0.0
 40
0.0
 40
0.0
 40
0.0
 40
0.3527777776895833
 40
0.3527777776895833
 40
0.3527777776895833
 40
0.7055555553791667
 40
0.7055555553791667
 40
0.7055555553791667
 40
1.05833333306875
 40
1.05833333306875
 40
1.05833333306875
 40
1.411111110758333
 40
1.411111110758333
 40
1.411111110758333
 40
1.411111110758333
 10
-52.85376796403688
 20
-126.3027250598036
 10
-52.4140375308109
 20
-126.3151287261538
 10
-52.20251198065179
 20
-126.5888137191715
 10
-52.20251198065179
 20
-127.0078713751471
 10
-52.20251198065179
 20
-127.5636374720795
 10
-52.53434886107481
 20
-128.2603735654153
 10
-53.1856048444599
 20
-128.2603735654153
 10
-53.6708153876367
 20
-128.2603735654153
 10
-53.87820638234572
 20
-127.9161330186421
 10
-53.87820638234572
 20
-127.4889460710916
 10
-53.87820638234572
 20
-126.9289055993839
 10
-53.50503805853271
 20
-126.286200949114
 10
-52.85376796403688
 20
-126.3027250598036
 97
        0
 72
     1
 10
-52.85376796403688
 20
-126.3027250598036
 11
-52.85376796403688
 21
-126.3027250598036
 97
        0
 75
     2
 76
     1
 98
        0
450
        0
451
        0
460
0.0
461
0.0
452
        1
462
0.0
453
        0
470

1001
TOP
1070
   116
  0
SPLINE
  5
9E1
330
948
100
AcDbEntity
  8
Livello 1
 62
     0
370
     0
100
AcDbSpline
210
0.0
220
0.0
230
1.0
 70
     9
 71
     3
 72
    26
 73
    22
 74
     0
 42
0.000000001
 43
0.0000000001
 40
0.0
 40
0.0
 40
0.0
 40
0.0
 40
1.0
 40
1.0
 40
1.0
 40
2.0
 40
2.0
 40
2.0
 40
3.0
 40
3.0
 40
3.0
 40
4.0
 40
4.0
 40
4.0
 40
5.0
 40
5.0
 40
5.0
 40
6.0
 40
6.0
 40
6.0
 40
7.0
 40
7.0
 40
7.0
 40
7.0
 10
-85.09338036375806
 20
-115.8319845491566
 30
0.0
 10
-85.09338036375806
 20
-115.8319845491566
 30
0.0
 10
-86.78754620942518
 20
-117.5662400604676
 30
0.0
 10
-86.78754620942518
 20
-117.5662400604676
 30
0.0
 10
-85.62400046133195
 20
-118.6929260732906
 30
0.0
 10
-84.97356292237043
 20
-120.2261279926083
 30
0.0
 10
-84.97356292237043
 20
-121.8952183944707
 30
0.0
 10
-84.97356292237043
 20
-125.3722794049541
 30
0.0
 10
-87.37053263899639
 20
-128.1570237902743
 30
0.0
 10
-91.18713654162673
 20
-128.1570237902743
 30
0.0
 10
-92.57847795057509
 20
-128.1570237902743
 30
0.0
 10
-93.32578826484294
 20
-127.9669894617891
 30
0.0
 10
-95.31532788075223
 20
-126.8561487123512
 30
0.0
 10
-94.11050713371199
 20
-128.0682790147605
 30
0.0
 10
-92.22032384860126
 20
-128.8078705514475
 30
0.0
 10
-90.44768611604723
 20
-128.8078705514475
 30
0.0
 10
-86.33514399874471
 20
-128.8078705514475
 30
0.0
 10
-83.00111186158074
 20
-125.358494195004
 30
0.0
 10
-83.00111186158074
 20
-121.1033860726879
 30
0.0
 10
-83.00111186158074
 20
-119.0640356889224
 30
0.0
 10
-83.84330528453904
 20
-117.2100897362205
 30
0.0
 10
-85.09338036375806
 20
-115.8319845491566
 30
0.0
1001
TOP
1070
   256
  0
SPLINE
  5
9E2
330
948
100
AcDbEntity
  8
Livello 1
 62
     0
370
     0
100
AcDbSpline
210
0.0
220
0.0
230
1.0
 70
     9
 71
     3
 72
    26
 73
    22
 74
     0
 42
0.000000001
 43
0.0000000001
 40
0.0
 40
0.0
 40
0.0
 40
0.0
 40
1.0
 40
1.0
 40
1.0
 40
2.0
 40
2.0
 40
2.0
 40
3.0
 40
3.0
 40
3.0
 40
4.0
 40
4.0
 40
4.0
 40
5.0
 40
5.0
 40
5.0
 40
6.0
 40
6.0
 40
6.0
 40
7.0
 40
7.0
 40
7.0
 40
7.0
 10
-87.24974153096693
 20
-117.8784327401609
 30
0.0
 10
-87.24974153096693
 20
-117.8784327401609
 30
0.0
 10
-88.29339928211878
 20
-118.9467018030269
 30
0.0
 10
-88.29339928211878
 20
-118.9467018030269
 30
0.0
 10
-87.57654074485182
 20
-119.6407426742094
 30
0.0
 10
-87.17581342174188
 20
-120.5852557612239
 30
0.0
 10
-87.17581342174188
 20
-121.6134054016603
 30
0.0
 10
-87.17581342174188
 20
-123.7551460720252
 30
0.0
 10
-88.65237182851618
 20
-125.4702541921528
 30
0.0
 10
-91.00331110187207
 20
-125.4702541921528
 30
0.0
 10
-91.86044819111577
 20
-125.4702541921528
 30
0.0
 10
-92.32085140159213
 20
-125.3534000840229
 30
0.0
 10
-93.54627437032901
 20
-124.6692087681447
 30
0.0
 10
-92.80405816704229
 20
-125.4158276379857
 30
0.0
 10
-91.63976453007922
 20
-125.8714048485852
 30
0.0
 10
-90.5479314468231
 20
-125.8714048485852
 30
0.0
 10
-88.01454962256617
 20
-125.8714048485852
 30
0.0
 10
-85.96100200828988
 20
-123.7466102361266
 30
0.0
 10
-85.96100200828988
 20
-121.1255843029946
 30
0.0
 10
-85.96100200828988
 20
-119.8694978905955
 30
0.0
 10
-86.47969821727903
 20
-118.7273869197332
 30
0.0
 10
-87.24974153096693
 20
-117.8784327401609
 30
0.0
1001
TOP
1070
   256
  0
SPLINE
  5
9E3
330
948
100
AcDbEntity
  8
Livello 1
 62
     0
370
     0
100
AcDbSpline
210
0.0
220
0.0
230
1.0
 70
     9
 71
     3
 72
    26
 73
    22
 74
     0
 42
0.000000001
 43
0.0000000001
 40
0.0
 40
0.0
 40
0.0
 40
0.0
 40
1.0
 40
1.0
 40
1.0
 40
2.0
 40
2.0
 40
2.0
 40
3.0
 40
3.0
 40
3.0
 40
4.0
 40
4.0
 40
4.0
 40
5.0
 40
5.0
 40
5.0
 40
6.0
 40
6.0
 40
6.0
 40
7.0
 40
7.0
 40
7.0
 40
7.0
 10
-96.00489552982658
 20
-126.5000689436578
 30
0.0
 10
-96.00489552982658
 20
-126.5000689436578
 30
0.0
 10
-94.31067323971644
 20
-124.7656723212393
 30
0.0
 10
-94.31067323971644
 20
-124.7656723212393
 30
0.0
 10
-95.47428954336345
 20
-123.6391259055354
 30
0.0
 10
-96.12465652677123
 20
-122.1056432779912
 30
0.0
 10
-96.12465652677123
 20
-120.4365669872395
 30
0.0
 10
-96.12465652677123
 20
-116.9597727426066
 30
0.0
 10
-93.72775736569897
 20
-114.175100258094
 30
0.0
 10
-89.91115346306864
 20
-114.175100258094
 30
0.0
 10
-88.5198114977957
 20
-114.175100258094
 30
0.0
 10
-87.77243118429868
 20
-114.3649934754716
 30
0.0
 10
-85.78296149847986
 20
-115.4758342249095
 30
0.0
 10
-86.98771231542963
 20
-114.2637039225001
 30
0.0
 10
-88.87789560054036
 20
-113.5241123858131
 30
0.0
 10
-90.65053333309439
 20
-113.5241123858131
 30
0.0
 10
-94.76307545039693
 20
-113.5241123858131
 30
0.0
 10
-98.0971072731792
 20
-116.9736157422534
 30
0.0
 10
-98.0971072731792
 20
-121.2286518559206
 30
0.0
 10
-98.0971072731792
 20
-123.2680178038921
 30
0.0
 10
-97.25512549561191
 20
-125.1218932010402
 30
0.0
 10
-96.00489552982658
 20
-126.5000689436578
 30
0.0
1001
TOP
1070
   256
  0
SPLINE
  5
9E4
330
948
100
AcDbEntity
  8
Livello 1
 62
     0
370
     0
100
AcDbSpline
210
0.0
220
0.0
230
1.0
 70
     9
 71
     3
 72
    26
 73
    22
 74
     0
 42
0.000000001
 43
0.0000000001
 40
0.0
 40
0.0
 40
0.0
 40
0.0
 40
1.0
 40
1.0
 40
1.0
 40
2.0
 40
2.0
 40
2.0
 40
3.0
 40
3.0
 40
3.0
 40
4.0
 40
4.0
 40
4.0
 40
5.0
 40
5.0
 40
5.0
 40
6.0
 40
6.0
 40
6.0
 40
7.0
 40
7.0
 40
7.0
 40
7.0
 10
-93.84854847372844
 20
-124.4535486625355
 30
0.0
 10
-93.84854847372844
 20
-124.4535486625355
 30
0.0
 10
-92.8048907225766
 20
-123.3852811342338
 30
0.0
 10
-92.8048907225766
 20
-123.3852811342338
 30
0.0
 10
-93.52167870428983
 20
-122.6913094056244
 30
0.0
 10
-93.9224765829535
 20
-121.746656620483
 30
0.0
 10
-93.9224765829535
 20
-120.7186480911541
 30
0.0
 10
-93.9224765829535
 20
-118.5769624791264
 30
0.0
 10
-92.44590406506844
 20
-116.8617271848596
 30
0.0
 10
-90.09497890282332
 20
-116.8617271848596
 30
0.0
 10
-89.23784181357959
 20
-116.8617271848596
 30
0.0
 10
-88.77756560310002
 20
-116.9785828532378
 30
0.0
 10
-87.5520156343664
 20
-117.6629858357772
 30
0.0
 10
-88.29423183765308
 20
-116.9163669659362
 30
0.0
 10
-89.45852547461615
 20
-116.460719199783
 30
0.0
 10
-90.55034444676152
 20
-116.460719199783
 30
0.0
 10
-93.08366982657545
 20
-116.460719199783
 30
0.0
 10
-95.13728799640551
 20
-118.5855843677954
 30
0.0
 10
-95.13728799640551
 20
-121.2064691898199
 30
0.0
 10
-95.13728799640551
 20
-122.4625556022189
 30
0.0
 10
-94.61859178741633
 20
-123.6045395730845
 30
0.0
 10
-93.84854847372844
 20
-124.4535486625355
 30
0.0
1001
TOP
1070
   256
  0
SPLINE
  5
9E5
330
948
100
AcDbEntity
  8
Livello 1
 62
     0
370
     0
100
AcDbSpline
210
0.0
220
0.0
230
1.0
 70
    11
 71
     3
 72
    35
 73
    31
 74
     0
 42
0.000000001
 43
0.0000000001
 40
0.0
 40
0.0
 40
0.0
 40
0.0
 40
1.0
 40
1.0
 40
1.0
 40
2.0
 40
2.0
 40
2.0
 40
3.0
 40
3.0
 40
3.0
 40
4.0
 40
4.0
 40
4.0
 40
5.0
 40
5.0
 40
5.0
 40
6.0
 40
6.0
 40
6.0
 40
7.0
 40
7.0
 40
7.0
 40
8.0
 40
8.0
 40
8.0
 40
9.0
 40
9.0
 40
9.0
 40
10.0
 40
10.0
 40
10.0
 40
10.0
 10
-61.57137229718782
 20
-116.2123213172312
 30
0.0
 10
-61.57137229718782
 20
-116.2123213172312
 30
0.0
 10
-59.2759743557483
 20
-116.2123213172312
 30
0.0
 10
-59.2759743557483
 20
-116.2123213172312
 30
0.0
 10
-59.2759743557483
 20
-116.2123213172312
 30
0.0
 10
-59.2759743557483
 20
-117.223664624763
 30
0.0
 10
-59.2759743557483
 20
-117.223664624763
 30
0.0
 10
-59.2759743557483
 20
-117.223664624763
 30
0.0
 10
-58.68411203751463
 20
-116.2732389823437
 30
0.0
 10
-58.05613938686889
 20
-116.1159283196904
 30
0.0
 10
-57.99206083294811
 20
-116.1000815423169
 30
0.0
 10
-56.88425261681567
 20
-116.0198175443646
 30
0.0
 10
-56.819482616832
 20
-116.1323959859369
 30
0.0
 10
-56.75650608669196
 20
-116.2447768719587
 30
0.0
 10
-56.80406052992319
 20
-118.2509252652221
 30
0.0
 10
-56.80406052992319
 20
-118.2509252652221
 30
0.0
 10
-56.80406052992319
 20
-118.2509252652221
 30
0.0
 10
-58.69816670382272
 20
-117.54467828324
 30
0.0
 10
-59.09958547135946
 20
-119.1496760200708
 30
0.0
 10
-59.09958547135946
 20
-119.1496760200708
 30
0.0
 10
-59.17951080265374
 20
-119.663347184159
 30
0.0
 10
-59.17951080265374
 20
-119.663347184159
 30
0.0
 10
-59.17951080265374
 20
-119.663347184159
 30
0.0
 10
-59.19619013556155
 20
-122.4396814916913
 30
0.0
 10
-59.19619013556155
 20
-122.4396814916913
 30
0.0
 10
-59.19619013556155
 20
-122.4396814916913
 30
0.0
 10
-61.58736018566884
 20
-122.4396814916913
 30
0.0
 10
-61.58736018566884
 20
-122.4396814916913
 30
0.0
 10
-61.58736018566884
 20
-122.4396814916913
 30
0.0
 10
-61.57137229718782
 20
-116.2123213172312
 30
0.0
 10
-61.57137229718782
 20
-116.2123213172312
 30
0.0
1001
TOP
1070
   256
  0
HATCH
  5
9E6
330
948
100
AcDbEntity
  8
Livello 1
 62
     0
100
AcDbHatch
 10
0.0
 20
0.0
 30
0.0
210
0.0
220
0.0
230
1.0
  2
SOLID
 70
     1
 71
     0
 91
        1
 92
        1
 93
        1
 72
     4
 94
        3
 73
     0
 74
     0
 95
       35
 96
       31
 40
0.0
 40
0.0
 40
0.0
 40
0.0
 40
1.0
 40
1.0
 40
1.0
 40
2.0
 40
2.0
 40
2.0
 40
3.0
 40
3.0
 40
3.0
 40
4.0
 40
4.0
 40
4.0
 40
5.0
 40
5.0
 40
5.0
 40
6.0
 40
6.0
 40
6.0
 40
7.0
 40
7.0
 40
7.0
 40
8.0
 40
8.0
 40
8.0
 40
9.0
 40
9.0
 40
9.0
 40
10.0
 40
10.0
 40
10.0
 40
10.0
 10
-61.57137229718782
 20
-116.2123213172312
 10
-61.57137229718782
 20
-116.2123213172312
 10
-59.2759743557483
 20
-116.2123213172312
 10
-59.2759743557483
 20
-116.2123213172312
 10
-59.2759743557483
 20
-116.2123213172312
 10
-59.2759743557483
 20
-117.223664624763
 10
-59.2759743557483
 20
-117.223664624763
 10
-59.2759743557483
 20
-117.223664624763
 10
-58.68411203751463
 20
-116.2732389823437
 10
-58.05613938686889
 20
-116.1159283196904
 10
-57.99206083294811
 20
-116.1000815423169
 10
-56.88425261681567
 20
-116.0198175443646
 10
-56.819482616832
 20
-116.1323959859369
 10
-56.75650608669196
 20
-116.2447768719587
 10
-56.80406052992319
 20
-118.2509252652221
 10
-56.80406052992319
 20
-118.2509252652221
 10
-56.80406052992319
 20
-118.2509252652221
 10
-58.69816670382272
 20
-117.54467828324
 10
-59.09958547135946
 20
-119.1496760200708
 10
-59.09958547135946
 20
-119.1496760200708
 10
-59.17951080265374
 20
-119.663347184159
 10
-59.17951080265374
 20
-119.663347184159
 10
-59.17951080265374
 20
-119.663347184159
 10
-59.19619013556155
 20
-122.4396814916913
 10
-59.19619013556155
 20
-122.4396814916913
 10
-59.19619013556155
 20
-122.4396814916913
 10
-61.58736018566884
 20
-122.4396814916913
 10
-61.58736018566884
 20
-122.4396814916913
 10
-61.58736018566884
 20
-122.4396814916913
 10
-61.57137229718782
 20
-116.2123213172312
 10
-61.57137229718782
 20
-116.2123213172312
 97
        0
 97
        0
 75
     2
 76
     1
 98
        0
450
        0
451
        0
460
0.0
461
0.0
452
        1
462
0.0
453
        0
470

1001
TOP
1070
   156
  0
SPLINE
  5
9E7
330
948
100
AcDbEntity
  8
Livello 1
 62
     0
370
     0
100
AcDbSpline
210
0.0
220
0.0
230
1.0
 70
    11
 71
     3
 72
    35
 73
    31
 74
     0
 42
0.000000001
 43
0.0000000001
 40
0.0
 40
0.0
 40
0.0
 40
0.0
 40
1.0
 40
1.0
 40
1.0
 40
2.0
 40
2.0
 40
2.0
 40
3.0
 40
3.0
 40
3.0
 40
4.0
 40
4.0
 40
4.0
 40
5.0
 40
5.0
 40
5.0
 40
6.0
 40
6.0
 40
6.0
 40
7.0
 40
7.0
 40
7.0
 40
8.0
 40
8.0
 40
8.0
 40
9.0
 40
9.0
 40
9.0
 40
10.0
 40
10.0
 40
10.0
 40
10.0
 10
-56.49978264879706
 20
-116.1799363180574
 30
0.0
 10
-56.49978264879706
 20
-116.1799363180574
 30
0.0
 10
-54.20424359625005
 20
-116.1799363180574
 30
0.0
 10
-54.20424359625005
 20
-116.1799363180574
 30
0.0
 10
-54.20424359625005
 20
-116.1799363180574
 30
0.0
 10
-54.20424359625005
 20
-117.1912796255892
 30
0.0
 10
-54.20424359625005
 20
-117.1912796255892
 30
0.0
 10
-54.20424359625005
 20
-117.1912796255892
 30
0.0
 10
-53.61183094469708
 20
-116.2409245387237
 30
0.0
 10
-52.98399940515884
 20
-116.0843053204972
 30
0.0
 10
-52.91977974013057
 20
-116.0677670986969
 30
0.0
 10
-51.81238210171597
 20
-115.9875031007446
 30
0.0
 10
-51.74830354779519
 20
-116.1000815423169
 30
0.0
 10
-51.68354766055836
 20
-116.2122507616774
 30
0.0
 10
-51.73190643710239
 20
-118.2191611549214
 30
0.0
 10
-51.73190643710239
 20
-118.2191611549214
 30
0.0
 10
-51.73190643710239
 20
-118.2191611549214
 30
0.0
 10
-53.62588561100517
 20
-117.5125755062812
 30
0.0
 10
-54.02744548964943
 20
-119.1179824653239
 30
0.0
 10
-54.02744548964943
 20
-119.1179824653239
 30
0.0
 10
-54.1086125986898
 20
-119.6311047855663
 30
0.0
 10
-54.1086125986898
 20
-119.6311047855663
 30
0.0
 10
-54.1086125986898
 20
-119.6311047855663
 30
0.0
 10
-54.12362682052895
 20
-122.4086638501394
 30
0.0
 10
-54.12362682052895
 20
-122.4086638501394
 30
0.0
 10
-54.12362682052895
 20
-122.4086638501394
 30
0.0
 10
-56.51562942617056
 20
-122.4086638501394
 30
0.0
 10
-56.51562942617056
 20
-122.4086638501394
 30
0.0
 10
-56.51562942617056
 20
-122.4086638501394
 30
0.0
 10
-56.49978264879706
 20
-116.1799363180574
 30
0.0
 10
-56.49978264879706
 20
-116.1799363180574
 30
0.0
1001
TOP
1070
   256
  0
HATCH
  5
9E8
330
948
100
AcDbEntity
  8
Livello 1
 62
     0
100
AcDbHatch
 10
0.0
 20
0.0
 30
0.0
210
0.0
220
0.0
230
1.0
  2
SOLID
 70
     1
 71
     0
 91
        1
 92
        1
 93
        1
 72
     4
 94
        3
 73
     0
 74
     0
 95
       35
 96
       31
 40
0.0
 40
0.0
 40
0.0
 40
0.0
 40
1.0
 40
1.0
 40
1.0
 40
2.0
 40
2.0
 40
2.0
 40
3.0
 40
3.0
 40
3.0
 40
4.0
 40
4.0
 40
4.0
 40
5.0
 40
5.0
 40
5.0
 40
6.0
 40
6.0
 40
6.0
 40
7.0
 40
7.0
 40
7.0
 40
8.0
 40
8.0
 40
8.0
 40
9.0
 40
9.0
 40
9.0
 40
10.0
 40
10.0
 40
10.0
 40
10.0
 10
-56.49978264879706
 20
-116.1799363180574
 10
-56.49978264879706
 20
-116.1799363180574
 10
-54.20424359625005
 20
-116.1799363180574
 10
-54.20424359625005
 20
-116.1799363180574
 10
-54.20424359625005
 20
-116.1799363180574
 10
-54.20424359625005
 20
-117.1912796255892
 10
-54.20424359625005
 20
-117.1912796255892
 10
-54.20424359625005
 20
-117.1912796255892
 10
-53.61183094469708
 20
-116.2409245387237
 10
-52.98399940515884
 20
-116.0843053204972
 10
-52.91977974013057
 20
-116.0677670986969
 10
-51.81238210171597
 20
-115.9875031007446
 10
-51.74830354779519
 20
-116.1000815423169
 10
-51.68354766055836
 20
-116.2122507616774
 10
-51.73190643710239
 20
-118.2191611549214
 10
-51.73190643710239
 20
-118.2191611549214
 10
-51.73190643710239
 20
-118.2191611549214
 10
-53.62588561100517
 20
-117.5125755062812
 10
-54.02744548964943
 20
-119.1179824653239
 10
-54.02744548964943
 20
-119.1179824653239
 10
-54.1086125986898
 20
-119.6311047855663
 10
-54.1086125986898
 20
-119.6311047855663
 10
-54.1086125986898
 20
-119.6311047855663
 10
-54.12362682052895
 20
-122.4086638501394
 10
-54.12362682052895
 20
-122.4086638501394
 10
-54.12362682052895
 20
-122.4086638501394
 10
-56.51562942617056
 20
-122.4086638501394
 10
-56.51562942617056
 20
-122.4086638501394
 10
-56.51562942617056
 20
-122.4086638501394
 10
-56.49978264879706
 20
-116.1799363180574
 10
-56.49978264879706
 20
-116.1799363180574
 97
        0
 97
        0
 75
     2
 76
     1
 98
        0
450
        0
451
        0
460
0.0
461
0.0
452
        1
462
0.0
453
        0
470

1001
TOP
1070
   156
  0
SPLINE
  5
9E9
330
948
100
AcDbEntity
  8
Livello 1
 62
     0
370
     0
100
AcDbSpline
210
0.0
220
0.0
230
1.0
 70
    11
 71
     3
 72
    32
 73
    28
 74
     0
 42
0.000000001
 43
0.0000000001
 40
0.0
 40
0.0
 40
0.0
 40
0.0
 40
1.0
 40
1.0
 40
1.0
 40
2.0
 40
2.0
 40
2.0
 40
3.0
 40
3.0
 40
3.0
 40
4.0
 40
4.0
 40
4.0
 40
5.0
 40
5.0
 40
5.0
 40
6.0
 40
6.0
 40
6.0
 40
7.0
 40
7.0
 40
7.0
 40
8.0
 40
8.0
 40
8.0
 40
9.0
 40
9.0
 40
9.0
 40
9.0
 10
-66.54720394802154
 20
-119.7115804501799
 30
0.0
 10
-66.54720394802154
 20
-119.7115804501799
 30
0.0
 10
-66.56317772539182
 20
-120.9154260727348
 30
0.0
 10
-65.40811275485999
 20
-120.8826333091927
 30
0.0
 10
-64.2519330065788
 20
-120.851490087765
 30
0.0
 10
-64.28349956132902
 20
-120.4981605172838
 30
0.0
 10
-64.28349956132902
 20
-120.4981605172838
 30
0.0
 10
-64.28349956132902
 20
-120.4981605172838
 30
0.0
 10
-62.06871839561057
 20
-120.4981605172838
 30
0.0
 10
-62.06871839561057
 20
-120.4981605172838
 30
0.0
 10
-62.67821960228312
 20
-122.1349943883535
 30
0.0
 10
-64.28349956132902
 20
-122.3603064937164
 30
0.0
 10
-64.28349956132902
 20
-122.3603064937164
 30
0.0
 10
-67.86295213667625
 20
-123.0331948098829
 30
0.0
 10
-68.58531400713616
 20
-120.4016984325735
 30
0.0
 10
-68.58531400713616
 20
-120.4016984325735
 30
0.0
 10
-69.54877831588948
 20
-116.9987758527226
 30
0.0
 10
-66.56635272531082
 20
-116.0883693203935
 30
0.0
 10
-66.56635272531082
 20
-116.0883693203935
 30
0.0
 10
-61.50991840986674
 20
-115.0274819030145
 30
0.0
 10
-61.94042017666152
 20
-119.745191628583
 30
0.0
 10
-61.94042017666152
 20
-119.745191628583
 30
0.0
 10
-61.94042017666152
 20
-119.745191628583
 30
0.0
 10
-66.48905206061624
 20
-119.7300377830424
 30
0.0
 10
-66.48905206061624
 20
-119.7300377830424
 30
0.0
 10
-66.48905206061624
 20
-119.7300377830424
 30
0.0
 10
-66.54720394802154
 20
-119.7115804501799
 30
0.0
 10
-66.54720394802154
 20
-119.7115804501799
 30
0.0
1001
TOP
1070
   256
  0
SPLINE
  5
9EA
330
948
100
AcDbEntity
  8
Livello 1
 62
     0
370
     0
100
AcDbSpline
210
0.0
220
0.0
230
1.0
 70
    11
 71
     3
 72
    17
 73
    13
 74
     0
 42
0.000000001
 43
0.0000000001
 40
0.0
 40
0.0
 40
0.0
 40
0.0
 40
1.0
 40
1.0
 40
1.0
 40
2.0
 40
2.0
 40
2.0
 40
3.0
 40
3.0
 40
3.0
 40
4.0
 40
4.0
 40
4.0
 40
4.0
 10
-66.57902450276532
 20
-118.3314714853894
 30
0.0
 10
-66.57902450276532
 20
-118.3314714853894
 30
0.0
 10
-64.30003778312931
 20
-118.3314714853894
 30
0.0
 10
-64.30003778312931
 20
-118.3314714853894
 30
0.0
 10
-64.30003778312931
 20
-118.3314714853894
 30
0.0
 10
-64.31588456050281
 20
-117.2876726231301
 30
0.0
 10
-65.43980630960695
 20
-117.2876726231301
 30
0.0
 10
-66.56305072539504
 20
-117.2876726231301
 30
0.0
 10
-66.56305072539504
 20
-118.2191611549214
 30
0.0
 10
-66.56305072539504
 20
-118.2191611549214
 30
0.0
 10
-66.56305072539504
 20
-118.2191611549214
 30
0.0
 10
-66.57902450276532
 20
-118.3314714853894
 30
0.0
 10
-66.57902450276532
 20
-118.3314714853894
 30
0.0
1001
TOP
1070
   256
  0
HATCH
  5
9EB
330
948
100
AcDbEntity
  8
Livello 1
 62
     0
100
AcDbHatch
 10
0.0
 20
0.0
 30
0.0
210
0.0
220
0.0
230
1.0
  2
SOLID
 70
     1
 71
     0
 91
        2
 92
        1
 93
        1
 72
     4
 94
        3
 73
     0
 74
     0
 95
       32
 96
       28
 40
0.0
 40
0.0
 40
0.0
 40
0.0
 40
1.0
 40
1.0
 40
1.0
 40
2.0
 40
2.0
 40
2.0
 40
3.0
 40
3.0
 40
3.0
 40
4.0
 40
4.0
 40
4.0
 40
5.0
 40
5.0
 40
5.0
 40
6.0
 40
6.0
 40
6.0
 40
7.0
 40
7.0
 40
7.0
 40
8.0
 40
8.0
 40
8.0
 40
9.0
 40
9.0
 40
9.0
 40
9.0
 10
-66.54720394802154
 20
-119.7115804501799
 10
-66.54720394802154
 20
-119.7115804501799
 10
-66.56317772539182
 20
-120.9154260727348
 10
-65.40811275485999
 20
-120.8826333091927
 10
-64.2519330065788
 20
-120.851490087765
 10
-64.28349956132902
 20
-120.4981605172838
 10
-64.28349956132902
 20
-120.4981605172838
 10
-64.28349956132902
 20
-120.4981605172838
 10
-62.06871839561057
 20
-120.4981605172838
 10
-62.06871839561057
 20
-120.4981605172838
 10
-62.67821960228312
 20
-122.1349943883535
 10
-64.28349956132902
 20
-122.3603064937164
 10
-64.28349956132902
 20
-122.3603064937164
 10
-67.86295213667625
 20
-123.0331948098829
 10
-68.58531400713616
 20
-120.4016984325735
 10
-68.58531400713616
 20
-120.4016984325735
 10
-69.54877831588948
 20
-116.9987758527226
 10
-66.56635272531082
 20
-116.0883693203935
 10
-66.56635272531082
 20
-116.0883693203935
 10
-61.50991840986674
 20
-115.0274819030145
 10
-61.94042017666152
 20
-119.745191628583
 10
-61.94042017666152
 20
-119.745191628583
 10
-61.94042017666152
 20
-119.745191628583
 10
-66.48905206061624
 20
-119.7300377830424
 10
-66.48905206061624
 20
-119.7300377830424
 10
-66.48905206061624
 20
-119.7300377830424
 10
-66.54720394802154
 20
-119.7115804501799
 10
-66.54720394802154
 20
-119.7115804501799
 97
        0
 97
        0
 92
        1
 93
        1
 72
     4
 94
        3
 73
     0
 74
     0
 95
       17
 96
       13
 40
0.0
 40
0.0
 40
0.0
 40
0.0
 40
1.0
 40
1.0
 40
1.0
 40
2.0
 40
2.0
 40
2.0
 40
3.0
 40
3.0
 40
3.0
 40
4.0
 40
4.0
 40
4.0
 40
4.0
 10
-66.57902450276532
 20
-118.3314714853894
 10
-66.57902450276532
 20
-118.3314714853894
 10
-64.30003778312931
 20
-118.3314714853894
 10
-64.30003778312931
 20
-118.3314714853894
 10
-64.30003778312931
 20
-118.3314714853894
 10
-64.31588456050281
 20
-117.2876726231301
 10
-65.43980630960695
 20
-117.2876726231301
 10
-66.56305072539504
 20
-117.2876726231301
 10
-66.56305072539504
 20
-118.2191611549214
 10
-66.56305072539504
 20
-118.2191611549214
 10
-66.56305072539504
 20
-118.2191611549214
 10
-66.57902450276532
 20
-118.3314714853894
 10
-66.57902450276532
 20
-118.3314714853894
 97
        0
 97
        0
 75
     2
 76
     1
 98
        0
450
        0
451
        0
460
0.0
461
0.0
452
        1
462
0.0
453
        0
470

1001
TOP
1070
   156
  0
SPLINE
  5
9EC
330
948
100
AcDbEntity
  8
Livello 1
 62
     0
370
     0
100
AcDbSpline
210
0.0
220
0.0
230
1.0
 70
    11
 71
     3
 72
    32
 73
    28
 74
     0
 42
0.000000001
 43
0.0000000001
 40
0.0
 40
0.0
 40
0.0
 40
0.0
 40
1.0
 40
1.0
 40
1.0
 40
2.0
 40
2.0
 40
2.0
 40
3.0
 40
3.0
 40
3.0
 40
4.0
 40
4.0
 40
4.0
 40
5.0
 40
5.0
 40
5.0
 40
6.0
 40
6.0
 40
6.0
 40
7.0
 40
7.0
 40
7.0
 40
8.0
 40
8.0
 40
8.0
 40
9.0
 40
9.0
 40
9.0
 40
9.0
 10
-49.40467382980841
 20
-119.7267357831266
 30
0.0
 10
-49.40467382980841
 20
-119.7267357831266
 30
0.0
 10
-49.42121205160868
 20
-120.9314154190593
 30
0.0
 10
-48.26545563665002
 20
-120.8990304198855
 30
0.0
 10
-47.10927588836887
 20
-120.867195754031
 30
0.0
 10
-47.14235233196944
 20
-120.5138676519341
 30
0.0
 10
-47.14235233196944
 20
-120.5138676519341
 30
0.0
 10
-47.14235233196944
 20
-120.5138676519341
 30
0.0
 10
-44.92661161071993
 20
-120.5138676519341
 30
0.0
 10
-44.92661161071993
 20
-120.5138676519341
 30
0.0
 10
-45.53694373076353
 20
-122.151123387942
 30
0.0
 10
-47.14235233196944
 20
-122.3756029377706
 30
0.0
 10
-47.14235233196944
 20
-122.3756029377706
 30
0.0
 10
-50.72098646289311
 20
-123.0497316277568
 30
0.0
 10
-51.44308022224874
 20
-120.4180955432663
 30
0.0
 10
-51.44308022224874
 20
-120.4180955432663
 30
0.0
 10
-52.40605064212576
 20
-117.0146226300961
 30
0.0
 10
-49.42383671820841
 20
-116.1038068755552
 30
0.0
 10
-49.42383671820841
 20
-116.1038068755552
 30
0.0
 10
-44.3672612916568
 20
-115.043610902603
 30
0.0
 10
-44.7979041695591
 20
-119.7617313377893
 30
0.0
 10
-44.7979041695591
 20
-119.7617313377893
 30
0.0
 10
-44.7979041695591
 20
-119.7617313377893
 30
0.0
 10
-49.34707227572238
 20
-119.7458845604159
 30
0.0
 10
-49.34707227572238
 20
-119.7458845604159
 30
0.0
 10
-49.34707227572238
 20
-119.7458845604159
 30
0.0
 10
-49.40467382980841
 20
-119.7267357831266
 30
0.0
 10
-49.40467382980841
 20
-119.7267357831266
 30
0.0
1001
TOP
1070
   256
  0
SPLINE
  5
9ED
330
948
100
AcDbEntity
  8
Livello 1
 62
     0
370
     0
100
AcDbSpline
210
0.0
220
0.0
230
1.0
 70
    11
 71
     3
 72
    17
 73
    13
 74
     0
 42
0.000000001
 43
0.0000000001
 40
0.0
 40
0.0
 40
0.0
 40
0.0
 40
1.0
 40
1.0
 40
1.0
 40
2.0
 40
2.0
 40
2.0
 40
3.0
 40
3.0
 40
3.0
 40
4.0
 40
4.0
 40
4.0
 40
4.0
 10
-49.43705882898218
 20
-118.3473182627629
 30
0.0
 10
-49.43705882898218
 20
-118.3473182627629
 30
0.0
 10
-47.15805799823544
 20
-118.3473182627629
 30
0.0
 10
-47.15805799823544
 20
-118.3473182627629
 30
0.0
 10
-47.15805799823544
 20
-118.3473182627629
 30
0.0
 10
-47.17335444228962
 20
-117.3039427338261
 30
0.0
 10
-48.29714919139701
 20
-117.3039427338261
 30
0.0
 10
-49.42121205160868
 20
-117.3039427338261
 30
0.0
 10
-49.42121205160868
 20
-118.2350079322949
 30
0.0
 10
-49.42121205160868
 20
-118.2350079322949
 30
0.0
 10
-49.42121205160868
 20
-118.2350079322949
 30
0.0
 10
-49.43705882898218
 20
-118.3473182627629
 30
0.0
 10
-49.43705882898218
 20
-118.3473182627629
 30
0.0
1001
TOP
1070
   256
  0
HATCH
  5
9EE
330
948
100
AcDbEntity
  8
Livello 1
 62
     0
100
AcDbHatch
 10
0.0
 20
0.0
 30
0.0
210
0.0
220
0.0
230
1.0
  2
SOLID
 70
     1
 71
     0
 91
        2
 92
        1
 93
        1
 72
     4
 94
        3
 73
     0
 74
     0
 95
       32
 96
       28
 40
0.0
 40
0.0
 40
0.0
 40
0.0
 40
1.0
 40
1.0
 40
1.0
 40
2.0
 40
2.0
 40
2.0
 40
3.0
 40
3.0
 40
3.0
 40
4.0
 40
4.0
 40
4.0
 40
5.0
 40
5.0
 40
5.0
 40
6.0
 40
6.0
 40
6.0
 40
7.0
 40
7.0
 40
7.0
 40
8.0
 40
8.0
 40
8.0
 40
9.0
 40
9.0
 40
9.0
 40
9.0
 10
-49.40467382980841
 20
-119.7267357831266
 10
-49.40467382980841
 20
-119.7267357831266
 10
-49.42121205160868
 20
-120.9314154190593
 10
-48.26545563665002
 20
-120.8990304198855
 10
-47.10927588836887
 20
-120.867195754031
 10
-47.14235233196944
 20
-120.5138676519341
 10
-47.14235233196944
 20
-120.5138676519341
 10
-47.14235233196944
 20
-120.5138676519341
 10
-44.92661161071993
 20
-120.5138676519341
 10
-44.92661161071993
 20
-120.5138676519341
 10
-45.53694373076353
 20
-122.151123387942
 10
-47.14235233196944
 20
-122.3756029377706
 10
-47.14235233196944
 20
-122.3756029377706
 10
-50.72098646289311
 20
-123.0497316277568
 10
-51.44308022224874
 20
-120.4180955432663
 10
-51.44308022224874
 20
-120.4180955432663
 10
-52.40605064212576
 20
-117.0146226300961
 10
-49.42383671820841
 20
-116.1038068755552
 10
-49.42383671820841
 20
-116.1038068755552
 10
-44.3672612916568
 20
-115.043610902603
 10
-44.7979041695591
 20
-119.7617313377893
 10
-44.7979041695591
 20
-119.7617313377893
 10
-44.7979041695591
 20
-119.7617313377893
 10
-49.34707227572238
 20
-119.7458845604159
 10
-49.34707227572238
 20
-119.7458845604159
 10
-49.34707227572238
 20
-119.7458845604159
 10
-49.40467382980841
 20
-119.7267357831266
 10
-49.40467382980841
 20
-119.7267357831266
 97
        0
 97
        0
 92
        1
 93
        1
 72
     4
 94
        3
 73
     0
 74
     0
 95
       17
 96
       13
 40
0.0
 40
0.0
 40
0.0
 40
0.0
 40
1.0
 40
1.0
 40
1.0
 40
2.0
 40
2.0
 40
2.0
 40
3.0
 40
3.0
 40
3.0
 40
4.0
 40
4.0
 40
4.0
 40
4.0
 10
-49.43705882898218
 20
-118.3473182627629
 10
-49.43705882898218
 20
-118.3473182627629
 10
-47.15805799823544
 20
-118.3473182627629
 10
-47.15805799823544
 20
-118.3473182627629
 10
-47.15805799823544
 20
-118.3473182627629
 10
-47.17335444228962
 20
-117.3039427338261
 10
-48.29714919139701
 20
-117.3039427338261
 10
-49.42121205160868
 20
-117.3039427338261
 10
-49.42121205160868
 20
-118.2350079322949
 10
-49.42121205160868
 20
-118.2350079322949
 10
-49.42121205160868
 20
-118.2350079322949
 10
-49.43705882898218
 20
-118.3473182627629
 10
-49.43705882898218
 20
-118.3473182627629
 97
        0
 97
        0
 75
     2
 76
     1
 98
        0
450
        0
451
        0
460
0.0
461
0.0
452
        1
462
0.0
453
        0
470

1001
TOP
1070
   156
  0
SPLINE
  5
9EF
330
948
100
AcDbEntity
  8
Livello 1
 62
     0
370
     0
100
AcDbSpline
210
0.0
220
0.0
230
1.0
 70
    11
 71
     3
 72
    23
 73
    19
 74
     0
 42
0.000000001
 43
0.0000000001
 40
0.0
 40
0.0
 40
0.0
 40
0.0
 40
1.0
 40
1.0
 40
1.0
 40
2.0
 40
2.0
 40
2.0
 40
3.0
 40
3.0
 40
3.0
 40
4.0
 40
4.0
 40
4.0
 40
5.0
 40
5.0
 40
5.0
 40
6.0
 40
6.0
 40
6.0
 40
6.0
 10
-80.3765017063179
 20
-113.8489924886359
 30
0.0
 10
-80.3765017063179
 20
-113.8489924886359
 30
0.0
 10
-75.48990871987417
 20
-113.8797829322948
 30
0.0
 10
-75.48990871987417
 20
-113.8797829322948
 30
0.0
 10
-75.48990871987417
 20
-113.8797829322948
 30
0.0
 10
-72.36927891059917
 20
-114.0798784827455
 30
0.0
 10
-72.2008063593417
 20
-117.599456073564
 30
0.0
 10
-72.2008063593417
 20
-117.599456073564
 30
0.0
 10
-71.58158259736163
 20
-121.5733016249057
 30
0.0
 10
-75.24399439281461
 20
-122.3027049396304
 30
0.0
 10
-75.32061772419314
 20
-122.3171688281502
 30
0.0
 10
-75.99737248470546
 20
-122.410330381329
 30
0.0
 10
-75.99737248470546
 20
-122.410330381329
 30
0.0
 10
-75.99737248470546
 20
-122.410330381329
 30
0.0
 10
-80.36196726224426
 20
-122.4250764920639
 30
0.0
 10
-80.36196726224426
 20
-122.4250764920639
 30
0.0
 10
-80.36196726224426
 20
-122.4250764920639
 30
0.0
 10
-80.3765017063179
 20
-113.8489924886359
 30
0.0
 10
-80.3765017063179
 20
-113.8489924886359
 30
0.0
1001
TOP
1070
   256
  0
SPLINE
  5
9F0
330
948
100
AcDbEntity
  8
Livello 1
 62
     0
370
     0
100
AcDbSpline
210
0.0
220
0.0
230
1.0
 70
    11
 71
     3
 72
    20
 73
    16
 74
     0
 42
0.000000001
 43
0.0000000001
 40
0.0
 40
0.0
 40
0.0
 40
0.0
 40
1.0
 40
1.0
 40
1.0
 40
2.0
 40
2.0
 40
2.0
 40
3.0
 40
3.0
 40
3.0
 40
4.0
 40
4.0
 40
4.0
 40
5.0
 40
5.0
 40
5.0
 40
5.0
 10
-77.73279921820881
 20
-115.9449863240515
 30
0.0
 10
-77.73279921820881
 20
-115.9449863240515
 30
0.0
 10
-77.72005688520057
 20
-120.1101049618253
 30
0.0
 10
-77.72005688520057
 20
-120.1101049618253
 30
0.0
 10
-77.72005688520057
 20
-120.1101049618253
 30
0.0
 10
-76.28979703280063
 20
-120.0979694062726
 30
0.0
 10
-76.28979703280063
 20
-120.0979694062726
 30
0.0
 10
-76.28979703280063
 20
-120.0979694062726
 30
0.0
 10
-74.79792807086139
 20
-119.9735391101635
 30
0.0
 10
-74.79792807086139
 20
-117.9842111609154
 30
0.0
 10
-74.79792807086139
 20
-117.9842111609154
 30
0.0
 10
-74.59997740924484
 20
-116.2681307602518
 30
0.0
 10
-76.50228213849079
 20
-115.9449863240515
 30
0.0
 10
-76.50228213849079
 20
-115.9449863240515
 30
0.0
 10
-77.73279921820881
 20
-115.9449863240515
 30
0.0
 10
-77.73279921820881
 20
-115.9449863240515
 30
0.0
1001
TOP
1070
   256
  0
HATCH
  5
9F1
330
948
100
AcDbEntity
  8
Livello 1
 62
     0
100
AcDbHatch
 10
0.0
 20
0.0
 30
0.0
210
0.0
220
0.0
230
1.0
  2
SOLID
 70
     1
 71
     0
 91
        2
 92
        1
 93
        1
 72
     4
 94
        3
 73
     0
 74
     0
 95
       23
 96
       19
 40
0.0
 40
0.0
 40
0.0
 40
0.0
 40
1.0
 40
1.0
 40
1.0
 40
2.0
 40
2.0
 40
2.0
 40
3.0
 40
3.0
 40
3.0
 40
4.0
 40
4.0
 40
4.0
 40
5.0
 40
5.0
 40
5.0
 40
6.0
 40
6.0
 40
6.0
 40
6.0
 10
-80.3765017063179
 20
-113.8489924886359
 10
-80.3765017063179
 20
-113.8489924886359
 10
-75.48990871987417
 20
-113.8797829322948
 10
-75.48990871987417
 20
-113.8797829322948
 10
-75.48990871987417
 20
-113.8797829322948
 10
-72.36927891059917
 20
-114.0798784827455
 10
-72.2008063593417
 20
-117.599456073564
 10
-72.2008063593417
 20
-117.599456073564
 10
-71.58158259736163
 20
-121.5733016249057
 10
-75.24399439281461
 20
-122.3027049396304
 10
-75.32061772419314
 20
-122.3171688281502
 10
-75.99737248470546
 20
-122.410330381329
 10
-75.99737248470546
 20
-122.410330381329
 10
-75.99737248470546
 20
-122.410330381329
 10
-80.36196726224426
 20
-122.4250764920639
 10
-80.36196726224426
 20
-122.4250764920639
 10
-80.36196726224426
 20
-122.4250764920639
 10
-80.3765017063179
 20
-113.8489924886359
 10
-80.3765017063179
 20
-113.8489924886359
 97
        0
 97
        0
 92
        1
 93
        1
 72
     4
 94
        3
 73
     0
 74
     0
 95
       20
 96
       16
 40
0.0
 40
0.0
 40
0.0
 40
0.0
 40
1.0
 40
1.0
 40
1.0
 40
2.0
 40
2.0
 40
2.0
 40
3.0
 40
3.0
 40
3.0
 40
4.0
 40
4.0
 40
4.0
 40
5.0
 40
5.0
 40
5.0
 40
5.0
 10
-77.73279921820881
 20
-115.9449863240515
 10
-77.73279921820881
 20
-115.9449863240515
 10
-77.72005688520057
 20
-120.1101049618253
 10
-77.72005688520057
 20
-120.1101049618253
 10
-77.72005688520057
 20
-120.1101049618253
 10
-76.28979703280063
 20
-120.0979694062726
 10
-76.28979703280063
 20
-120.0979694062726
 10
-76.28979703280063
 20
-120.0979694062726
 10
-74.79792807086139
 20
-119.9735391101635
 10
-74.79792807086139
 20
-117.9842111609154
 10
-74.79792807086139
 20
-117.9842111609154
 10
-74.59997740924484
 20
-116.2681307602518
 10
-76.50228213849079
 20
-115.9449863240515
 10
-76.50228213849079
 20
-115.9449863240515
 10
-77.73279921820881
 20
-115.9449863240515
 10
-77.73279921820881
 20
-115.9449863240515
 97
        0
 97
        0
 75
     2
 76
     1
 98
        0
450
        0
451
        0
460
0.0
461
0.0
452
        1
462
0.0
453
        0
470

1001
TOP
1070
   156
  0
POLYLINE
  5
9F2
330
948
100
AcDbEntity
  8
Livello 1
 62
     0
370
     0
100
AcDb2dPolyline
 66
     1
 10
0.0
 20
0.0
 30
0.0
1001
TOP
1070
   256
  0
VERTEX
  5
9F3
330
9F2
100
AcDbEntity
  8
Livello 1
 62
     0
370
     0
100
AcDbVertex
100
AcDb2dVertex
 10
-69.3109203914868
 20
-122.358514382651
 30
0.0
  0
VERTEX
  5
9F4
330
9F2
100
AcDbEntity
  8
Livello 1
 62
     0
370
     0
100
AcDbVertex
100
AcDb2dVertex
 10
-71.60328548569686
 20
-122.358514382651
 30
0.0
  0
VERTEX
  5
9F5
330
9F2
100
AcDbEntity
  8
Livello 1
 62
     0
370
     0
100
AcDbVertex
100
AcDb2dVertex
 10
-71.60328548569686
 20
-116.0806505428126
 30
0.0
  0
VERTEX
  5
9F6
330
9F2
100
AcDbEntity
  8
Livello 1
 62
     0
370
     0
100
AcDbVertex
100
AcDb2dVertex
 10
-69.3109203914868
 20
-116.0806505428126
 30
0.0
  0
VERTEX
  5
9F7
330
9F2
100
AcDbEntity
  8
Livello 1
 62
     0
370
     0
100
AcDbVertex
100
AcDb2dVertex
 10
-69.3109203914868
 20
-122.358514382651
 30
0.0
  0
SEQEND
  5
9F8
330
9F2
100
AcDbEntity
  8
Livello 1
 62
     0
370
     0
  0
HATCH
  5
9F9
330
948
100
AcDbEntity
  8
Livello 1
 62
     0
100
AcDbHatch
 10
0.0
 20
0.0
 30
0.0
210
0.0
220
0.0
230
1.0
  2
SOLID
 70
     1
 71
     0
 91
        1
 92
        1
 93
        4
 72
     1
 10
-69.3109203914868
 20
-122.358514382651
 11
-71.60328548569684
 21
-122.358514382651
 72
     1
 10
-71.60328548569686
 20
-122.358514382651
 11
-71.60328548569686
 21
-116.0806505428126
 72
     1
 10
-71.60328548569686
 20
-116.0806505428126
 11
-69.31092039148682
 21
-116.0806505428126
 72
     1
 10
-69.3109203914868
 20
-116.0806505428126
 11
-69.3109203914868
 21
-122.358514382651
 97
        0
 75
     2
 76
     1
 98
        0
450
        0
451
        0
460
0.0
461
0.0
452
        1
462
0.0
453
        0
470

1001
TOP
1070
   156
  0
POLYLINE
  5
9FA
330
948
100
AcDbEntity
  8
Livello 1
 62
     0
370
     0
100
AcDb2dPolyline
 66
     1
 10
0.0
 20
0.0
 30
0.0
1001
TOP
1070
   256
  0
VERTEX
  5
9FB
330
9FA
100
AcDbEntity
  8
Livello 1
 62
     0
370
     0
100
AcDbVertex
100
AcDb2dVertex
 10
-69.28804732254127
 20
-115.505114779718
 30
0.0
  0
VERTEX
  5
9FC
330
9FA
100
AcDbEntity
  8
Livello 1
 62
     0
370
     0
100
AcDbVertex
100
AcDb2dVertex
 10
-71.61582927979944
 20
-115.505114779718
 30
0.0
  0
VERTEX
  5
9FD
330
9FA
100
AcDbEntity
  8
Livello 1
 62
     0
370
     0
100
AcDbVertex
100
AcDb2dVertex
 10
-71.61582927979944
 20
-113.88288737666
 30
0.0
  0
VERTEX
  5
9FE
330
9FA
100
AcDbEntity
  8
Livello 1
 62
     0
370
     0
100
AcDbVertex
100
AcDb2dVertex
 10
-69.28804732254127
 20
-113.88288737666
 30
0.0
  0
VERTEX
  5
9FF
330
9FA
100
AcDbEntity
  8
Livello 1
 62
     0
370
     0
100
AcDbVertex
100
AcDb2dVertex
 10
-69.28804732254127
 20
-115.505114779718
 30
0.0
  0
SEQEND
  5
A00
330
9FA
100
AcDbEntity
  8
Livello 1
 62
     0
370
     0
  0
HATCH
  5
A01
330
948
100
AcDbEntity
  8
Livello 1
 62
     0
100
AcDbHatch
 10
0.0
 20
0.0
 30
0.0
210
0.0
220
0.0
230
1.0
  2
SOLID
 70
     1
 71
     0
 91
        1
 92
        1
 93
        4
 72
     1
 10
-69.28804732254127
 20
-115.505114779718
 11
-71.61582927979944
 21
-115.505114779718
 72
     1
 10
-71.61582927979944
 20
-115.505114779718
 11
-71.61582927979944
 21
-113.88288737666
 72
     1
 10
-71.61582927979944
 20
-113.88288737666
 11
-69.28804732254127
 21
-113.88288737666
 72
     1
 10
-69.28804732254127
 20
-113.88288737666
 11
-69.28804732254127
 21
-115.505114779718
 97
        0
 75
     2
 76
     1
 98
        0
450
        0
451
        0
460
0.0
461
0.0
452
        1
462
0.0
453
        0
470

1001
TOP
1070
   116
  0
ENDBLK
  5
A05
330
948
100
AcDbEntity
  8
0
 62
     7
100
AcDbBlockEnd
  0
ENDSEC
  0
SECTION
  2
ENTITIES
  0
CIRCLE
  5
8CB
330
2
100
AcDbEntity
  8
P-00000000
  6
Continuous
 62
     7
100
AcDbCircle
 10
-1268.731503311581
 20
829.1911212530903
 30
0.0
 40
12.5
  0
CIRCLE
  5
8CC
330
2
100
AcDbEntity
  8
P-00000000
  6
Continuous
 62
     7
100
AcDbCircle
 10
-1268.731503311581
 20
829.1911212530903
 30
0.0
 40
11.0
  0
ENDSEC
  0
SECTION
  2
OBJECTS
  0
DICTIONARY
  5
1A
330
0
100
AcDbDictionary
281
     1
  3
ACAD_CIP_PREVIOUS_PRODUCT_INFO
350
815
  3
ACAD_COLOR
350
2C5
  3
ACAD_DETAILVIEWSTYLE
350
80D
  3
ACAD_GROUP
350
18
  3
ACAD_LAYOUT
350
45
  3
ACAD_MATERIAL
350
2B0
  3
ACAD_MLEADERSTYLE
350
354
  3
ACAD_MLINESTYLE
350
19
  3
ACAD_PLOTSETTINGS
350
46
  3
ACAD_PLOTSTYLENAME
350
43
  3
ACAD_SCALELIST
350
332
  3
ACAD_SECTIONVIEWSTYLE
350
80B
  3
ACAD_TABLESTYLE
350
2C6
  3
ACAD_VISUALSTYLE
350
2B4
  3
ACDB_RECOMPOSE_DATA
350
A45
  3
AcDbVariableDictionary
350
2AA
  3
AEC_PROPERTY_SET_DEFS
350
893
  3
ASE_INDEX_DICTIONARY
350
A1F
  3
qs_topprt_diz
350
882
  3
QSCATDICT
350
880
  3
QsPallStyleDict
350
8CD
  3
TopSpotLight
350
886
  0
DICTIONARY
  5
300
330
12
100
AcDbDictionary
280
     1
281
     1
  0
DICTIONARY
  5
74C
330
A
100
AcDbDictionary
280
     1
281
     1
  3
ACAD_LAYERSTATES
360
74D
  0
DICTIONARY
  5
37B
330
4
100
AcDbDictionary
280
     1
281
     1
  3
ADSK_XREC_LAYER_RECONCILED
360
83C
  0
DICTIONARY
  5
A02
330
948
100
AcDbDictionary
280
     1
281
     1
  3
ACAD_SORTENTS
360
A03
  0
XRECORD
  5
815
102
{ACAD_REACTORS
330
1A
102
}
330
1A
100
AcDbXrecord
280
     1
300
AMECH_PP
300
2014
300
PDSS_F_S
  0
DICTIONARY
  5
2C5
102
{ACAD_REACTORS
330
1A
102
}
330
1A
100
AcDbDictionary
281
     1
  0
DICTIONARY
  5
80D
102
{ACAD_REACTORS
330
1A
102
}
330
1A
100
AcDbDictionary
281
     1
  3
Imperial24
350
947
  3
Metric50
350
80E
  0
DICTIONARY
  5
18
102
{ACAD_REACTORS
330
1A
102
}
330
1A
100
AcDbDictionary
281
     1
  0
DICTIONARY
  5
45
102
{ACAD_REACTORS
330
1A
102
}
330
1A
100
AcDbDictionary
281
     1
  3
Layout1
350
48
  3
Model
350
47
  0
DICTIONARY
  5
2B0
102
{ACAD_REACTORS
330
1A
102
}
330
1A
100
AcDbDictionary
281
     1
  3
ByBlock
350
2B2
  3
ByLayer
350
2B1
  3
Global
350
2B3
  0
DICTIONARY
  5
354
102
{ACAD_REACTORS
330
1A
102
}
330
1A
100
AcDbDictionary
281
     1
  3
QS_LEADER
350
7CD
  3
Standard
350
355
  0
DICTIONARY
  5
19
102
{ACAD_REACTORS
330
1A
102
}
330
1A
100
AcDbDictionary
281
     1
  3
STANDARD
350
1C
  0
DICTIONARY
  5
46
102
{ACAD_REACTORS
330
1A
102
}
330
1A
100
AcDbDictionary
281
     1
  3
HP 5200 A3
350
888
  3
HP 5200 A4
350
889
  3
Kyocera_1010 OR
350
944
  3
Kyocera_1010 VER
350
945
  3
LASER MACAP A3
350
88A
  3
LASER MACAP A4
350
88B
  3
Olivetti_200 A3
350
88C
  3
Olivetti_200 A4
350
88D
  3
PLOTTER
350
88E
  3
PLOTTER MACAP
350
88F
  0
ACDBDICTIONARYWDFLT
  5
43
102
{ACAD_REACTORS
330
1A
102
}
330
1A
100
AcDbDictionary
281
     1
  3
Normal
350
44
100
AcDbDictionaryWithDefault
340
44
  0
DICTIONARY
  5
332
102
{ACAD_REACTORS
330
1A
102
}
330
1A
100
AcDbDictionary
281
     1
  3
A0
350
333
  3
A1
350
334
  3
A2
350
335
  3
A3
350
336
  3
A4
350
337
  3
A5
350
338
  3
A6
350
339
  3
A7
350
33A
  3
A8
350
33B
  3
A9
350
33C
  3
B0
350
33D
  3
B1
350
33E
  3
B2
350
33F
  3
B3
350
340
  3
B4
350
341
  3
B5
350
342
  3
B6
350
343
  3
B7
350
344
  3
B8
350
345
  3
B9
350
346
  3
C0
350
347
  3
C1
350
348
  3
C2
350
349
  3
C3
350
34A
  3
C4
350
34B
  3
C5
350
34C
  3
C6
350
34D
  3
C7
350
34E
  3
C8
350
34F
  3
C9
350
350
  3
D0
350
351
  3
D1
350
352
  3
D2
350
353
  0
DICTIONARY
  5
80B
102
{ACAD_REACTORS
330
1A
102
}
330
1A
100
AcDbDictionary
281
     1
  3
Imperial24
350
946
  3
Metric50
350
80C
  0
DICTIONARY
  5
2C6
102
{ACAD_REACTORS
330
1A
102
}
330
1A
100
AcDbDictionary
281
     1
  3
QSTABFORI
350
31A
  3
QSTABPALL
350
7CA
  3
QSTABREGION
350
2CC
  3
QSTABREV
350
7CF
  3
Standard
350
2C7
  0
DICTIONARY
  5
2B4
102
{ACAD_REACTORS
330
1A
102
}
330
1A
100
AcDbDictionary
281
     1
  3
2dWireframe
350
2BA
  3
3D Hidden
350
2BC
  3
3dWireframe
350
2BB
  3
Basic
350
2B9
  3
Brighten
350
2C0
  3
ColorChange
350
2C4
  3
Conceptual
350
2BD
  3
Dim
350
2BF
  3
EdgeColorOff
350
6DD
  3
Facepattern
350
2C3
  3
Flat
350
2B5
  3
FlatWithEdges
350
2B6
  3
Gouraud
350
2B7
  3
GouraudWithEdges
350
2B8
  3
Hidden
350
6D5
  3
JitterOff
350
6DB
  3
Linepattern
350
2C2
  3
OverhangOff
350
6DC
  3
Realistic
350
2BE
  3
Shaded
350
6DA
  3
Shaded with edges
350
6D9
  3
Shades of Gray
350
6D6
  3
Sketchy
350
6D7
  3
Thicken
350
2C1
  3
Wireframe
350
6D4
  3
X-Ray
350
6D8
  0
XRECORD
  5
A45
102
{ACAD_REACTORS
330
1A
102
}
330
1A
100
AcDbXrecord
280
     1
 90
        1
330
2C7
330
2CC
330
31A
330
7CA
330
7CF
330
80C
330
80E
330
946
330
947
  0
DICTIONARY
  5
2AA
102
{ACAD_REACTORS
330
1A
102
}
330
1A
100
AcDbDictionary
281
     1
  3
CANNOSCALE
350
36B
  3
CMLEADERSTYLE
350
369
  3
CTABLESTYLE
350
312
  3
CVIEWDETAILSTYLE
350
833
  3
CVIEWSECTIONSTYLE
350
834
  3
DIMASSOC
350
2AB
  3
DRAWORDERCTL
350
A22
  3
INDEXCTL
350
314
  3
LAYEREVAL
350
754
  3
LAYERNOTIFY
350
755
  3
LIGHTINGUNITS
350
36C
  3
MSLTSCALE
350
36A
  3
SORTENTS
350
313
  0
DICTIONARY
  5
893
102
{ACAD_REACTORS
330
1A
102
}
330
1A
100
AcDbDictionary
281
     1
  0
DICTIONARY
  5
A1F
102
{ACAD_REACTORS
330
1A
102
}
330
1A
100
AcDbDictionary
281
     1
  3
ASEBlockHierarchyIndexRecord
350
A21
1001
DCO15
1040
1836993104.327
  0
DICTIONARY
  5
882
102
{ACAD_REACTORS
330
1A
102
}
330
1A
100
AcDbDictionary
281
     1
  3
UCNT
350
883
  0
DICTIONARY
  5
880
102
{ACAD_REACTORS
330
1A
102
}
330
1A
100
AcDbDictionary
281
     1
  3
DEFAULT
350
881
  0
DICTIONARY
  5
8CD
102
{ACAD_REACTORS
330
1A
102
}
330
1A
100
AcDbDictionary
281
     1
  3
DEFAULT
350
8CE
  0
DICTIONARY
  5
886
102
{ACAD_REACTORS
330
1A
102
}
330
1A
100
AcDbDictionary
281
     1
  3
colors
350
887
  0
DICTIONARY
  5
74D
102
{ACAD_REACTORS
330
74C
102
}
330
74C
100
AcDbDictionary
281
     1
  0
XRECORD
  5
83C
102
{ACAD_REACTORS
330
37B
102
}
330
37B
100
AcDbXrecord
280
     1
290
     1
  0
SORTENTSTABLE
  5
A03
102
{ACAD_REACTORS
330
A02
102
}
330
A02
100
AcDbSortentsTable
330
948
331
949
  5
94D
331
94A
  5
94E
331
94B
  5
94F
331
94C
  5
950
331
94D
  5
949
331
94E
  5
94A
331
94F
  5
94B
331
950
  5
94C
  0
ACDBDETAILVIEWSTYLE
  5
947
102
{ACAD_XDICTIONARY
360
A43
102
}
102
{ACAD_REACTORS
330
80D
102
}
330
80D
100
AcDbModelDocViewStyle
 70
     0
  3
Imperial24
290
     0
100
AcDbDetailViewStyle
 70
     0
 71
     0
 90
        3
 71
     1
340
C
 62
   256
 40
0.24
340
0
 62
   256
 40
0.24
300

 40
0.36
280
     3
 71
     2
340
5
 90
       25
 62
   256
 71
     3
340
C
 62
   256
 40
0.24
 90
        1
 40
0.75
 90
        1
300
%<\AcVar ViewType \f "%tc1">% %<\AcVar ViewDetailId>%\PSCALA %<\AcVar ViewScale \f "%sn">%
 71
     4
340
5
 90
       25
 62
   256
340
5
 90
       25
 62
   256
280
     0
  0
ACDBDETAILVIEWSTYLE
  5
80E
102
{ACAD_XDICTIONARY
360
A3F
102
}
102
{ACAD_REACTORS
330
80D
102
}
330
80D
100
AcDbModelDocViewStyle
 70
     0
  3
Metric50
290
     0
100
AcDbDetailViewStyle
 70
     0
 71
     0
 90
        3
 71
     1
340
C
 62
   256
 40
5.0
340
0
 62
   256
 40
5.0
300

 40
0.0
280
     1
 71
     2
340
5
 90
       25
 62
   256
 71
     3
340
C
 62
   256
 40
5.0
 90
        0
 40
15.0
 90
        1
300
%<\AcVar ViewDetailId>% (%<\AcVar ViewScale \f "%sn">%)
 71
     4
340
5
 90
       25
 62
   256
340
5
 90
       25
 62
   256
280
     0
  0
LAYOUT
  5
48
102
{ACAD_REACTORS
330
45
102
}
330
45
100
AcDbPlotSettings
  1

  2
RICOH Aficio 270 PCL 6 A4
  4

  6

 40
0.0
 41
0.0
 42
0.0
 43
0.0
 44
0.0
 45
0.0
 46
0.0
 47
0.0
 48
0.0
 49
0.0
140
0.0
141
0.0
142
1.0
143
1.0
 70
   688
 72
     0
 73
     0
 74
     5
  7
DIERRE BN.ctb
 75
    16
147
1.0
 76
     0
 77
     2
 78
   300
148
0.0
149
0.0
100
AcDbLayout
  1
Layout1
 70
     1
 71
     1
 10
0.0
 20
0.0
 11
12.0
 21
9.0
 12
0.0
 22
0.0
 32
0.0
 14
1.000000000000000E+20
 24
1.000000000000000E+20
 34
1.000000000000000E+20
 15
-1.000000000000000E+20
 25
-1.000000000000000E+20
 35
-1.000000000000000E+20
146
0.0
 13
0.0
 23
0.0
 33
0.0
 16
1.0
 26
0.0
 36
0.0
 17
0.0
 27
1.0
 37
0.0
 76
     0
330
7
  0
LAYOUT
  5
47
102
{ACAD_XDICTIONARY
360
752
102
}
102
{ACAD_REACTORS
330
45
102
}
330
45
100
AcDbPlotSettings
  1
LASER MACAP A3
  2
LASER A3-A4.pc3
  4
A3
  6

 40
6.011333465576171
 41
4.233311176300048
 42
6.0113525390625
 43
4.23333740234375
 44
296.9683227539062
 45
419.9889831542968
 46
0.0
 47
58.94753607902547
 48
0.0
 49
0.0
140
0.0
141
0.0
142
1.0
143
2.529068101288332
 70
 11956
 72
     1
 73
     1
 74
     1
  7
DIERRE BN.ctb
 75
     0
147
0.3954025593421505
 76
     0
 77
     2
 78
   300
148
2124.722435913432
149
-1096.700850755539
100
AcDbLayout
  1
Model
 70
     1
 71
     0
 10
0.0
 20
0.0
 11
12.0
 21
9.0
 12
0.0
 22
0.0
 32
0.0
 14
0.0
 24
0.0
 34
0.0
 15
0.0
 25
0.0
 35
0.0
146
0.0
 13
0.0
 23
0.0
 33
0.0
 16
1.0
 26
0.0
 36
0.0
 17
0.0
 27
1.0
 37
0.0
 76
     0
330
2
331
2AE
1001
ACAD_PSEXT
1000
LASER A3-A4.pc3
1000
HP LaserJet 5200 PCL 5e
1000
IP_192.168.0.59
1000

1070
     0
  0
MATERIAL
  5
2B2
102
{ACAD_REACTORS
330
2B0
102
}
330
2B0
100
AcDbMaterial
  1
ByBlock
 73
     1
 78
     1
172
     1
176
     1
270
     1
274
     1
 94
       63
  0
MATERIAL
  5
2B1
102
{ACAD_REACTORS
330
2B0
102
}
330
2B0
100
AcDbMaterial
  1
ByLayer
 73
     1
 78
     1
172
     1
176
     1
270
     1
274
     1
 94
       63
  0
MATERIAL
  5
2B3
102
{ACAD_REACTORS
330
2B0
102
}
330
2B0
100
AcDbMaterial
  1
Global
 73
     1
 78
     1
172
     1
176
     1
270
     1
274
     1
 94
       63
  0
MLEADERSTYLE
  5
7CD
102
{ACAD_REACTORS
330
354
102
}
330
354
100
AcDbMLeaderStyle
179
     2
170
     2
171
     1
172
     0
 90
        3
 40
0.0
 41
0.0
173
     1
 91
-1023410174
340
5
 92
       -2
290
     1
 42
1.5
291
     1
 43
2.0
  3
Standard
 44
3.5
300

342
35C
174
     5
178
     5
175
     1
176
     0
 93
-1023410175
 45
3.5
292
     0
297
     0
 46
4.0
 94
-1056964608
 47
1.0
 49
1.0
140
1.0
293
     1
141
0.0
294
     1
177
     0
142
1.0
295
     0
296
     0
143
1.0
271
     0
272
     9
273
     9
298
     1
  0
MLEADERSTYLE
  5
355
102
{ACAD_REACTORS
330
354
102
}
330
354
100
AcDbMLeaderStyle
179
     2
170
     2
171
     1
172
     0
 90
        2
 40
0.0
 41
0.0
173
     1
 91
-1056964608
340
E
 92
       -2
290
     1
 42
2.0
291
     1
 43
0.36
  3
Standard
 44
4.0
300

342
C
174
     1
178
     6
175
     1
176
     0
 93
-1056964608
 45
4.0
292
     0
297
     0
 46
4.0
 94
-1056964608
 47
1.0
 49
1.0
140
1.0
293
     1
141
0.0
294
     1
177
     0
142
1.0
295
     0
296
     0
143
0.125
271
     0
272
     9
273
     9
298
     1
  0
MLINESTYLE
  5
1C
102
{ACAD_REACTORS
330
19
102
}
330
19
100
AcDbMlineStyle
  2
STANDARD
 70
     0
  3

 62
     0
 51
90.0
 52
90.0
 71
     2
 49
0.5
 62
   256
  6
BYLAYER
 49
-0.5
 62
   256
  6
BYLAYER
  0
PLOTSETTINGS
  5
888
102
{ACAD_REACTORS
330
46
102
}
330
46
100
AcDbPlotSettings
  1
HP 5200 A3
  2
HP LaserJet 5200 PCL 6.pc3
  4
A3
  6

 40
6.011333465576171
 41
4.233311176300048
 42
6.0113525390625
 43
4.23333740234375
 44
296.9683227539062
 45
419.9889831542968
 46
0.8490915718880103
 47
0.0
 48
0.0
 49
0.0
140
0.0
141
0.0
142
1.0
143
0.5049198555318521
 70
 11956
 72
     1
 73
     1
 74
     1
  7
DIERRE BN.ctb
 75
     0
147
1.980512330905784
 76
     0
 77
     2
 78
   300
148
-26.56781961135493
149
-854.2304114103949
1001
ACAD_PSEXT
1000
HP LaserJet 5200 PCL 6.pc3
1000
HP LaserJet 5200 PCL 6
1000
USB001
1000

1070
     0
  0
PLOTSETTINGS
  5
889
102
{ACAD_REACTORS
330
46
102
}
330
46
100
AcDbPlotSettings
  1
HP 5200 A4
  2
HP LaserJet 5200 PCL 6.pc3
  4
A4
  6

 40
4.233333110809326
 41
5.757328510284423
 42
4.233322143554687
 43
4.23333740234375
 44
209.9733276367187
 45
296.9683227539062
 46
0.0
 47
74.14113202443619
 48
0.0
 49
0.0
140
0.0
141
0.0
142
1.0
143
1.031160880508214
 70
 11956
 72
     1
 73
     0
 74
     1
  7
DIERRE BN.ctb
 75
     0
147
0.9697807770860579
 76
     0
 77
     2
 78
   300
148
-26.56781961135493
149
-854.2304114103949
1001
ACAD_PSEXT
1000
HP LaserJet 5200 PCL 6.pc3
1000
HP LaserJet 5200 PCL 6
1000
USB001
1000

1070
     0
  0
PLOTSETTINGS
  5
944
102
{ACAD_REACTORS
330
46
102
}
330
46
100
AcDbPlotSettings
  1
Kyocera_1010 OR
  2
Kyocera_1010.pc3
  4
A4
  6

 40
4.984749794006347
 41
5.154074668884277
 42
5.111740112304687
 43
4.9847412109375
 44
210.0156707763672
 45
297.0106506347656
 46
0.0
 47
109.7870247470818
 48
0.0
 49
0.0
140
0.0
141
0.0
142
1.0
143
0.6770771918566143
 70
 11956
 72
     1
 73
     1
 74
     1
  7
DIERRE BN.ctb
 75
     0
147
1.476936473458659
 76
     0
 77
     2
 78
   300
148
-222.4649060220283
149
-239.0808115236937
1001
ACAD_PSEXT
1000
Kyocera_1010.pc3
1000
Kyocera Mita FS-1010 KX
1000
\\PC5
1000

1070
     0
  0
PLOTSETTINGS
  5
945
102
{ACAD_REACTORS
330
46
102
}
330
46
100
AcDbPlotSettings
  1
Kyocera_1010 VER
  2
Kyocera_1010.pc3
  4
A4
  6

 40
4.984749794006347
 41
5.154074668884277
 42
5.111740112304687
 43
4.9847412109375
 44
210.0156707763672
 45
297.0106506347656
 46
51.67548120477697
 47
0.0
 48
0.0
 49
0.0
140
0.0
141
0.0
142
1.0
143
0.4718508448115938
 70
 11956
 72
     1
 73
     0
 74
     1
  7
DIERRE BN.ctb
 75
     0
147
2.119313785268927
 76
     0
 77
     2
 78
   300
148
-222.4649060220283
149
-239.0808115236937
1001
ACAD_PSEXT
1000
Kyocera_1010.pc3
1000
Kyocera Mita FS-1010 KX
1000
\\PC5
1000

1070
     0
  0
PLOTSETTINGS
  5
88A
102
{ACAD_REACTORS
330
46
102
}
330
46
100
AcDbPlotSettings
  1
LASER MACAP A3
  2
LASER A3-A4.pc3
  4
A3
  6

 40
6.011333465576171
 41
4.233311176300048
 42
6.0113525390625
 43
4.23333740234375
 44
296.9683227539062
 45
419.9889831542968
 46
0.0
 47
58.94753607902547
 48
0.0
 49
0.0
140
0.0
141
0.0
142
1.0
143
2.529068101288332
 70
 11956
 72
     1
 73
     1
 74
     1
  7
DIERRE BN.ctb
 75
     0
147
0.3954025593421505
 76
     0
 77
     2
 78
   300
148
2124.722435913432
149
-1096.700850755539
1001
ACAD_PSEXT
1000
LASER A3-A4.pc3
1000
HP LaserJet 5200 PCL 5e
1000
IP_192.168.0.59
1000

1070
     0
  0
PLOTSETTINGS
  5
88B
102
{ACAD_REACTORS
330
46
102
}
330
46
100
AcDbPlotSettings
  1
LASER MACAP A4
  2
LASER A3-A4.pc3
  4
A4
  6

 40
6.011333465576171
 41
4.233341693878173
 42
6.011322021484375
 43
4.23333740234375
 44
209.9733276367187
 45
296.9683227539062
 46
-0.0000000000000142
 47
48.20187212265074
 48
0.0
 49
0.0
140
0.0
141
0.0
142
1.0
143
3.751456537048481
 70
 11956
 72
     1
 73
     0
 74
     1
  7
DIERRE BN.ctb
 75
     0
147
0.2665631309130843
 76
     0
 77
     2
 78
   300
148
2124.722435913432
149
-1096.700850755539
1001
ACAD_PSEXT
1000
LASER A3-A4.pc3
1000
HP LaserJet 5200 PCL 5e
1000
IP_192.168.0.59
1000

1070
     0
  0
PLOTSETTINGS
  5
88C
102
{ACAD_REACTORS
330
46
102
}
330
46
100
AcDbPlotSettings
  1
Olivetti_200 A3
  2
Olivetti_200.pc3
  4
A3
  6

 40
4.984749794006347
 41
5.111746788024902
 42
5.154083251953125
 43
4.9847412109375
 44
297.0106506347656
 45
419.9889831542968
 46
0.0
 47
156.6621412366913
 48
0.0
 49
0.0
140
0.0
141
0.0
142
1.0
143
0.4718508730467012
 70
 11956
 72
     1
 73
     1
 74
     1
  7
DIERRE BN.ctb
 75
     0
147
2.119313658451206
 76
     0
 77
     2
 78
   300
148
-222.4649060220283
149
-239.0808115236937
1001
ACAD_PSEXT
1000
Olivetti_200.pc3
1000
Olivetti d-Copia 200MF KX
1000
IP_192.168.1.151
1000

1070
     0
  0
PLOTSETTINGS
  5
88D
102
{ACAD_REACTORS
330
46
102
}
330
46
100
AcDbPlotSettings
  1
Olivetti_200 A4
  2
Olivetti_200.pc3
  4
A4
  6

 40
4.984749794006347
 41
5.154074668884277
 42
5.111740112304687
 43
4.9847412109375
 44
210.0156707763672
 45
297.0106506347656
 46
51.67548120477697
 47
0.0
 48
0.0
 49
0.0
140
0.0
141
0.0
142
1.0
143
0.4718508448115938
 70
 11956
 72
     1
 73
     0
 74
     1
  7
DIERRE BN.ctb
 75
     0
147
2.119313785268927
 76
     0
 77
     2
 78
   300
148
-222.4649060220283
149
-239.0808115236937
1001
ACAD_PSEXT
1000
Olivetti_200.pc3
1000
Olivetti d-Copia 200MF KX
1000
IP_192.168.1.151
1000

1070
     0
  0
PLOTSETTINGS
  5
88E
102
{ACAD_REACTORS
330
46
102
}
330
46
100
AcDbPlotSettings
  1
PLOTTER
  2
PLOTTER.pc3
  4
User622
  6

 40
0.0
 41
0.0
 42
0.0
 43
0.0
 44
841.0
 45
1189.0
 46
0.0
 47
0.0
 48
0.0
 49
0.0
140
0.0
141
0.0
142
1.0
143
1.0
 70
 11936
 72
     1
 73
     0
 74
     1
  7
DIERRE BN.ctb
 75
     0
147
2.194137304425714
 76
     0
 77
     2
 78
   300
148
-222.4649060220283
149
-239.0808115236937
1001
ACAD_PSEXT
1000
PLOTTER.pc3
1000
HP DesignJet 430 (E/A0) by HP
1000
\\SERVER2003
1000

1070
     0
  0
PLOTSETTINGS
  5
88F
102
{ACAD_REACTORS
330
46
102
}
330
46
100
AcDbPlotSettings
  1
PLOTTER MACAP
  2
PLOTTER.pc3
  4
User257
  6

 40
4.995333194732666
 41
16.93336677551269
 42
4.99530029296875
 43
16.933349609375
 44
607.9066772460937
 45
2999.82470703125
 46
0.0
 47
0.0
 48
0.0
 49
0.0
140
4038.210129173388
141
2123.783599303598
142
1.0
143
10.0
 70
 11936
 72
     1
 73
     1
 74
     4
  7
DIERRE BN.ctb
 75
     0
147
1.511986973949682
 76
     0
 77
     2
 78
   300
148
0.0
149
0.0
1001
ACAD_PSEXT
1000
PLOTTER.pc3
1000
HP Designjet 500 plus 24
1000
\\Mcp-server1
1000

1070
     0
  0
ACDBPLACEHOLDER
  5
44
102
{ACAD_REACTORS
330
43
102
}
330
43
  0
SCALE
  5
333
102
{ACAD_REACTORS
330
332
102
}
330
332
100
AcDbScale
 70
     0
300
1:1
140
1.0
141
1.0
290
     1
  0
SCALE
  5
334
102
{ACAD_REACTORS
330
332
102
}
330
332
100
AcDbScale
 70
     0
300
1:2
140
1.0
141
2.0
290
     0
  0
SCALE
  5
335
102
{ACAD_REACTORS
330
332
102
}
330
332
100
AcDbScale
 70
     0
300
1:4
140
1.0
141
4.0
290
     0
  0
SCALE
  5
336
102
{ACAD_REACTORS
330
332
102
}
330
332
100
AcDbScale
 70
     0
300
1:5
140
1.0
141
5.0
290
     0
  0
SCALE
  5
337
102
{ACAD_REACTORS
330
332
102
}
330
332
100
AcDbScale
 70
     0
300
1:8
140
1.0
141
8.0
290
     0
  0
SCALE
  5
338
102
{ACAD_REACTORS
330
332
102
}
330
332
100
AcDbScale
 70
     0
300
1:10
140
1.0
141
10.0
290
     0
  0
SCALE
  5
339
102
{ACAD_REACTORS
330
332
102
}
330
332
100
AcDbScale
 70
     0
300
1:16
140
1.0
141
16.0
290
     0
  0
SCALE
  5
33A
102
{ACAD_REACTORS
330
332
102
}
330
332
100
AcDbScale
 70
     0
300
1:20
140
1.0
141
20.0
290
     0
  0
SCALE
  5
33B
102
{ACAD_REACTORS
330
332
102
}
330
332
100
AcDbScale
 70
     0
300
1:30
140
1.0
141
30.0
290
     0
  0
SCALE
  5
33C
102
{ACAD_REACTORS
330
332
102
}
330
332
100
AcDbScale
 70
     0
300
1:40
140
1.0
141
40.0
290
     0
  0
SCALE
  5
33D
102
{ACAD_REACTORS
330
332
102
}
330
332
100
AcDbScale
 70
     0
300
1:50
140
1.0
141
50.0
290
     0
  0
SCALE
  5
33E
102
{ACAD_REACTORS
330
332
102
}
330
332
100
AcDbScale
 70
     0
300
1:100
140
1.0
141
100.0
290
     0
  0
SCALE
  5
33F
102
{ACAD_REACTORS
330
332
102
}
330
332
100
AcDbScale
 70
     0
300
2:1
140
2.0
141
1.0
290
     0
  0
SCALE
  5
340
102
{ACAD_REACTORS
330
332
102
}
330
332
100
AcDbScale
 70
     0
300
4:1
140
4.0
141
1.0
290
     0
  0
SCALE
  5
341
102
{ACAD_REACTORS
330
332
102
}
330
332
100
AcDbScale
 70
     0
300
8:1
140
8.0
141
1.0
290
     0
  0
SCALE
  5
342
102
{ACAD_REACTORS
330
332
102
}
330
332
100
AcDbScale
 70
     0
300
10:1
140
10.0
141
1.0
290
     0
  0
SCALE
  5
343
102
{ACAD_REACTORS
330
332
102
}
330
332
100
AcDbScale
 70
     0
300
100:1
140
100.0
141
1.0
290
     0
  0
SCALE
  5
344
102
{ACAD_REACTORS
330
332
102
}
330
332
100
AcDbScale
 70
     0
300
1/128" = 1'-0"
140
0.0078125
141
12.0
290
     0
  0
SCALE
  5
345
102
{ACAD_REACTORS
330
332
102
}
330
332
100
AcDbScale
 70
     0
300
1/64" = 1'-0"
140
0.015625
141
12.0
290
     0
  0
SCALE
  5
346
102
{ACAD_REACTORS
330
332
102
}
330
332
100
AcDbScale
 70
     0
300
1/32" = 1'-0"
140
0.03125
141
12.0
290
     0
  0
SCALE
  5
347
102
{ACAD_REACTORS
330
332
102
}
330
332
100
AcDbScale
 70
     0
300
1/16" = 1'-0"
140
0.0625
141
12.0
290
     0
  0
SCALE
  5
348
102
{ACAD_REACTORS
330
332
102
}
330
332
100
AcDbScale
 70
     0
300
3/32" = 1'-0"
140
0.09375
141
12.0
290
     0
  0
SCALE
  5
349
102
{ACAD_REACTORS
330
332
102
}
330
332
100
AcDbScale
 70
     0
300
1/8" = 1'-0"
140
0.125
141
12.0
290
     0
  0
SCALE
  5
34A
102
{ACAD_REACTORS
330
332
102
}
330
332
100
AcDbScale
 70
     0
300
3/16" = 1'-0"
140
0.1875
141
12.0
290
     0
  0
SCALE
  5
34B
102
{ACAD_REACTORS
330
332
102
}
330
332
100
AcDbScale
 70
     0
300
1/4" = 1'-0"
140
0.25
141
12.0
290
     0
  0
SCALE
  5
34C
102
{ACAD_REACTORS
330
332
102
}
330
332
100
AcDbScale
 70
     0
300
3/8" = 1'-0"
140
0.375
141
12.0
290
     0
  0
SCALE
  5
34D
102
{ACAD_REACTORS
330
332
102
}
330
332
100
AcDbScale
 70
     0
300
1/2" = 1'-0"
140
0.5
141
12.0
290
     0
  0
SCALE
  5
34E
102
{ACAD_REACTORS
330
332
102
}
330
332
100
AcDbScale
 70
     0
300
3/4" = 1'-0"
140
0.75
141
12.0
290
     0
  0
SCALE
  5
34F
102
{ACAD_REACTORS
330
332
102
}
330
332
100
AcDbScale
 70
     0
300
1" = 1'-0"
140
1.0
141
12.0
290
     0
  0
SCALE
  5
350
102
{ACAD_REACTORS
330
332
102
}
330
332
100
AcDbScale
 70
     0
300
1-1/2" = 1'-0"
140
1.5
141
12.0
290
     0
  0
SCALE
  5
351
102
{ACAD_REACTORS
330
332
102
}
330
332
100
AcDbScale
 70
     0
300
3" = 1'-0"
140
3.0
141
12.0
290
     0
  0
SCALE
  5
352
102
{ACAD_REACTORS
330
332
102
}
330
332
100
AcDbScale
 70
     0
300
6" = 1'-0"
140
6.0
141
12.0
290
     0
  0
SCALE
  5
353
102
{ACAD_REACTORS
330
332
102
}
330
332
100
AcDbScale
 70
     0
300
1'-0" = 1'-0"
140
12.0
141
12.0
290
     0
  0
ACDBSECTIONVIEWSTYLE
  5
946
102
{ACAD_XDICTIONARY
360
A41
102
}
102
{ACAD_REACTORS
330
80B
102
}
330
80B
100
AcDbModelDocViewStyle
 70
     0
  3
Imperial24
290
     0
100
AcDbSectionViewStyle
 70
     0
 71
     0
 90
       78
 71
     1
340
C
 62
   256
 40
0.24
340
0
340
0
 62
   256
 40
0.24
300
I, O, Q, S, X, Z
 40
0.48
 90
        3
 40
0.18
 90
        1
 71
     2
340
5
 90
       25
 62
   256
340
5
 90
       50
 62
   256
 40
0.24
 40
0.0
 40
0.24
 71
     3
340
C
 62
   256
 40
0.24
 90
        1
 40
0.75
 90
        1
300
%<\AcVar ViewType \f "%tc1">% %<\AcVar ViewSectionStartId>%-%<\AcVar ViewSectionEndId>%\PSCALA %<\AcVar ViewScale \f "%sn">%
 71
     4
 62
   256
 62
   257
300
ANSI31
 40
1.0
 90
        0
290
     0
290
     0
 90
        6
 40
0.0
 40
1.570796326794896
 40
0.2617993877991494
 40
1.308996938995747
 40
-0.2617993877991494
 40
1.832595714594046
  0
ACDBSECTIONVIEWSTYLE
  5
80C
102
{ACAD_XDICTIONARY
360
A3D
102
}
102
{ACAD_REACTORS
330
80B
102
}
330
80B
100
AcDbModelDocViewStyle
 70
     0
  3
Metric50
290
     0
100
AcDbSectionViewStyle
 70
     0
 71
     0
 90
      102
 71
     1
340
C
 62
   256
 40
5.0
340
0
340
0
 62
   256
 40
5.0
300
I, O, Q, S, X, Z
 40
10.0
 90
        0
 40
2.5
 90
        0
 71
     2
340
5
 90
       25
 62
   256
340
5
 90
       50
 62
   256
 40
5.0
 40
2.5
 40
5.0
 71
     3
340
C
 62
   256
 40
5.0
 90
        0
 40
15.0
 90
        1
300
%<\AcVar ViewSectionStartId>%-%<\AcVar ViewSectionEndId>% (%<\AcVar ViewScale \f "%sn">%)
 71
     4
 62
   256
 62
   257
300
ANSI31
 40
1.0
 90
        0
290
     0
290
     0
 90
        6
 40
0.0
 40
1.570796326794896
 40
0.2617993877991494
 40
1.308996938995747
 40
-0.2617993877991494
 40
1.832595714594046
  0
TABLESTYLE
  5
31A
102
{ACAD_XDICTIONARY
360
366
102
}
102
{ACAD_REACTORS
330
2C6
102
}
330
2C6
100
AcDbTableStyle
280
     0
  3
Standard
 70
     1
 71
     0
 40
1.5
 41
1.5
280
     0
281
     0
  7
ROMANS
140
3.0
170
     5
 62
     7
 63
     7
283
     0
 90
      512
 91
        0
  1

274
    -2
284
     1
 64
     0
275
    -2
285
     1
 65
     0
276
    -2
286
     1
 66
     0
277
    -2
287
     1
 67
     0
278
    -2
288
     1
 68
     0
279
    -2
289
     1
 69
     0
  7
ROMANS
140
6.0
170
     5
 62
     1
 63
     7
283
     0
 90
      512
 91
        0
  1

274
    -2
284
     1
 64
     0
275
    -2
285
     1
 65
     0
276
    -2
286
     1
 66
     0
277
    -2
287
     1
 67
     0
278
    -2
288
     1
 68
     0
279
    -2
289
     1
 69
     0
  7
ROMANS
140
3.5
170
     5
 62
     3
 63
     7
283
     0
 90
      512
 91
        0
  1

274
    -2
284
     1
 64
     0
275
    -2
285
     1
 65
     0
276
    -2
286
     1
 66
     0
277
    -2
287
     1
 67
     0
278
    -2
288
     1
 68
     0
279
    -2
289
     1
 69
     0
  0
TABLESTYLE
  5
7CA
102
{ACAD_XDICTIONARY
360
7CB
102
}
102
{ACAD_REACTORS
330
2C6
102
}
330
2C6
100
AcDbTableStyle
280
     0
  3
Standard
 70
     1
 71
     0
 40
1.0
 41
1.0
280
     0
281
     0
  7
SS-TABPALL
140
2.5
170
     4
 62
     7
 63
     7
283
     0
 90
      512
 91
        0
  1

274
    -2
284
     1
 64
     3
275
    -2
285
     1
 65
     3
276
    -2
286
     1
 66
     3
277
    -2
287
     1
 67
     3
278
    -2
288
     1
 68
     1
279
    -2
289
     1
 69
     1
  7
SS-TABPALL
140
2.5
170
     5
 62
     1
 63
     7
283
     0
 90
      512
 91
        0
  1

274
    -2
284
     1
 64
     3
275
    -2
285
     1
 65
     3
276
    -2
286
     1
 66
     3
277
    -2
287
     1
 67
     3
278
    -2
288
     1
 68
     3
279
    -2
289
     1
 69
     3
  7
SS-TABPALL
140
2.5
170
     5
 62
     1
 63
     7
283
     0
 90
      512
 91
        0
  1

274
    -2
284
     1
 64
     3
275
    -2
285
     1
 65
     3
276
    -2
286
     1
 66
     3
277
    -2
287
     1
 67
     3
278
    -2
288
     1
 68
     1
279
    -2
289
     1
 69
     1
  0
TABLESTYLE
  5
2CC
102
{ACAD_XDICTIONARY
360
364
102
}
102
{ACAD_REACTORS
330
2C6
102
}
330
2C6
100
AcDbTableStyle
280
     0
  3
Standard
 70
     0
 71
     0
 40
1.5
 41
1.5
280
     0
281
     0
  7
ROMANS
140
4.5
170
     5
 62
     7
 63
     7
283
     0
 90
      512
 91
        0
  1

274
    -2
284
     1
 64
     0
275
    -2
285
     1
 65
     0
276
    -2
286
     1
 66
     0
277
    -2
287
     1
 67
     0
278
    -2
288
     1
 68
     0
279
    -2
289
     1
 69
     0
  7
ROMANS
140
6.0
170
     5
 62
     1
 63
     7
283
     0
 90
      512
 91
        0
  1

274
    -2
284
     1
 64
     0
275
    -2
285
     1
 65
     0
276
    -2
286
     1
 66
     0
277
    -2
287
     1
 67
     0
278
    -2
288
     1
 68
     0
279
    -2
289
     1
 69
     0
  7
ROMANS
140
5.0
170
     5
 62
     3
 63
     7
283
     0
 90
      512
 91
        0
  1

274
    -2
284
     1
 64
     0
275
    -2
285
     1
 65
     0
276
    -2
286
     1
 66
     0
277
    -2
287
     1
 67
     0
278
    -2
288
     1
 68
     0
279
    -2
289
     1
 69
     0
  0
TABLESTYLE
  5
7CF
102
{ACAD_XDICTIONARY
360
7D0
102
}
102
{ACAD_REACTORS
330
2C6
102
}
330
2C6
100
AcDbTableStyle
280
     0
  3
Standard
 70
     1
 71
     0
 40
1.5
 41
1.5
280
     0
281
     0
  7
SS-TABPALL
140
2.5
170
     4
 62
     2
 63
     7
283
     0
 90
      512
 91
        0
  1

274
    -2
284
     1
 64
     3
275
    -2
285
     1
 65
     3
276
    -2
286
     1
 66
     3
277
    -2
287
     1
 67
     3
278
    -2
288
     1
 68
     3
279
    -2
289
     1
 69
     3
  7
SS-TABPALL
140
2.5
170
     5
 62
     7
 63
     7
283
     0
 90
      512
 91
        0
  1

274
    -2
284
     1
 64
     3
275
    -2
285
     1
 65
     3
276
    -2
286
     1
 66
     3
277
    -2
287
     1
 67
     3
278
    -2
288
     1
 68
     3
279
    -2
289
     1
 69
     3
  7
SS-TABPALL
140
1.75
170
     5
 62
     7
 63
     7
283
     0
 90
      512
 91
        0
  1

274
    -2
284
     1
 64
     3
275
    -2
285
     1
 65
     3
276
    -2
286
     1
 66
     3
277
    -2
287
     1
 67
     3
278
    -2
288
     1
 68
     3
279
    -2
289
     1
 69
     3
  0
TABLESTYLE
  5
2C7
102
{ACAD_XDICTIONARY
360
362
102
}
102
{ACAD_REACTORS
330
2C6
102
}
330
2C6
100
AcDbTableStyle
280
     0
  3
Standard
 70
     0
 71
     0
 40
1.5
 41
1.5
280
     0
281
     0
  7
STANDARD
140
4.5
170
     2
 62
     0
 63
     7
283
     0
 90
      512
 91
        0
  1

274
    -2
284
     1
 64
     0
275
    -2
285
     1
 65
     0
276
    -2
286
     1
 66
     0
277
    -2
287
     1
 67
     0
278
    -2
288
     1
 68
     0
279
    -2
289
     1
 69
     0
  7
STANDARD
140
6.0
170
     5
 62
     0
 63
     7
283
     0
 90
      512
 91
        0
  1

274
    -2
284
     1
 64
     0
275
    -2
285
     1
 65
     0
276
    -2
286
     1
 66
     0
277
    -2
287
     1
 67
     0
278
    -2
288
     1
 68
     0
279
    -2
289
     1
 69
     0
  7
STANDARD
140
4.5
170
     5
 62
     0
 63
     7
283
     0
 90
      512
 91
        0
  1

274
    -2
284
     1
 64
     0
275
    -2
285
     1
 65
     0
276
    -2
286
     1
 66
     0
277
    -2
287
     1
 67
     0
278
    -2
288
     1
 68
     0
279
    -2
289
     1
 69
     0
  0
VISUALSTYLE
  5
2BA
102
{ACAD_REACTORS
330
2B4
102
}
330
2B4
100
AcDbVisualStyle
  2
2dWireframe
 70
     4
177
     3
291
     0
 70
    58
 90
        0
176
     1
 90
        2
176
     1
 90
        0
176
     1
 90
        0
176
     1
 40
0.6
176
     1
 40
30.0
176
     1
 62
     7
176
     1
 90
        1
176
     1
 90
        4
176
     1
 62
     7
176
     1
 62
   257
176
     1
 90
        1
176
     1
 90
        1
176
     1
 40
1.0
176
     1
 90
        0
176
     1
 62
   257
176
     1
 40
1.0
176
     1
 90
        1
176
     1
 90
        6
176
     1
 90
        2
176
     1
 62
     7
176
     1
 90
        5
176
     1
 90
        0
176
     1
 90
        0
176
     1
290
     0
176
     1
 90
        1
176
     1
 40
0.0
176
     1
 90
        0
176
     1
290
     1
176
     1
290
     1
176
     1
290
     0
176
     1
290
     0
176
     1
290
     0
176
     1
290
     0
176
     1
290
     0
176
     1
290
     0
176
     1
290
     0
176
     1
 90
       50
176
     1
 40
0.0
176
     1
 40
1.0
176
     1
 90
        0
176
     1
 62
    18
420
        0
176
     1
 90
       50
176
     1
 90
        3
176
     1
 62
     5
420
      255
176
     1
290
     0
176
     1
 90
       50
176
     1
 90
       50
176
     1
 90
       50
176
     1
290
     0
176
     1
 90
       50
176
     1
 62
   256
176
     0
 40
1.0
176
     0
 90
        2
176
     1
  1
strokes_ogs.tif
176
     1
290
     0
176
     1
 40
1.0
176
     1
 40
1.0
176
     1
  0
VISUALSTYLE
  5
2BC
102
{ACAD_REACTORS
330
2B4
102
}
330
2B4
100
AcDbVisualStyle
  2
3D Hidden
 70
     6
177
     3
291
     0
 70
    58
 90
        1
176
     1
 90
        2
176
     1
 90
        2
176
     1
 90
        0
176
     1
 40
0.6
176
     1
 40
30.0
176
     1
 62
     7
176
     1
 90
        2
176
     1
 90
        2
176
     1
 62
     7
176
     1
 62
   257
176
     1
 90
        2
176
     1
 90
        1
176
     1
 40
40.0
176
     1
 90
        0
176
     1
 62
   257
176
     1
 40
1.0
176
     1
 90
        1
176
     1
 90
        6
176
     1
 90
        2
176
     1
 62
     7
176
     1
 90
        3
176
     1
 90
        0
176
     1
 90
        0
176
     1
290
     0
176
     1
 90
        1
176
     1
 40
0.0
176
     1
 90
        0
176
     1
290
     0
176
     1
290
     1
176
     1
290
     1
176
     1
290
     0
176
     1
290
     0
176
     1
290
     0
176
     1
290
     0
176
     1
290
     0
176
     1
290
     0
176
     1
 90
       50
176
     1
 40
0.0
176
     1
 40
1.0
176
     1
 90
        0
176
     1
 62
    18
420
        0
176
     1
 90
       50
176
     1
 90
        3
176
     1
 62
     5
420
      255
176
     1
290
     0
176
     1
 90
       50
176
     1
 90
       50
176
     1
 90
       50
176
     1
290
     0
176
     1
 90
       50
176
     1
 62
   256
176
     0
 40
1.0
176
     0
 90
        2
176
     1
  1
strokes_ogs.tif
176
     1
290
     0
176
     1
 40
1.0
176
     1
 40
1.0
176
     1
  0
VISUALSTYLE
  5
2BB
102
{ACAD_REACTORS
330
2B4
102
}
330
2B4
100
AcDbVisualStyle
  2
3dWireframe
 70
     5
177
     3
291
     0
 70
    58
 90
        0
176
     1
 90
        2
176
     1
 90
        0
176
     1
 90
        0
176
     1
 40
0.6
176
     1
 40
30.0
176
     1
 62
     7
176
     1
 90
        1
176
     1
 90
        4
176
     1
 62
     7
176
     1
 62
   257
176
     1
 90
        1
176
     1
 90
        1
176
     1
 40
1.0
176
     1
 90
        0
176
     1
 62
   257
176
     1
 40
1.0
176
     1
 90
        1
176
     1
 90
        6
176
     1
 90
        2
176
     1
 62
     7
176
     1
 90
        5
176
     1
 90
        0
176
     1
 90
        0
176
     1
290
     0
176
     1
 90
        1
176
     1
 40
0.0
176
     1
 90
        0
176
     1
290
     0
176
     1
290
     1
176
     1
290
     1
176
     1
290
     0
176
     1
290
     0
176
     1
290
     0
176
     1
290
     0
176
     1
290
     0
176
     1
290
     0
176
     1
 90
       50
176
     1
 40
0.0
176
     1
 40
1.0
176
     1
 90
        0
176
     1
 62
    18
420
        0
176
     1
 90
       50
176
     1
 90
        3
176
     1
 62
     5
420
      255
176
     1
290
     0
176
     1
 90
       50
176
     1
 90
       50
176
     1
 90
       50
176
     1
290
     0
176
     1
 90
       50
176
     1
 62
   256
176
     0
 40
1.0
176
     0
 90
        2
176
     1
  1
strokes_ogs.tif
176
     1
290
     0
176
     1
 40
1.0
176
     1
 40
1.0
176
     1
  0
VISUALSTYLE
  5
2B9
102
{ACAD_REACTORS
330
2B4
102
}
330
2B4
100
AcDbVisualStyle
  2
Basic
 70
     7
177
     3
291
     1
 70
    58
 90
        1
176
     1
 90
        0
176
     1
 90
        1
176
     1
 90
        0
176
     1
 40
0.6
176
     1
 40
30.0
176
     1
 62
     7
176
     1
 90
        0
176
     1
 90
        4
176
     1
 62
     7
176
     1
 62
   257
176
     1
 90
        1
176
     1
 90
        1
176
     1
 40
1.0
176
     1
 90
        8
176
     1
 62
     7
176
     1
 40
1.0
176
     1
 90
        1
176
     1
 90
        6
176
     1
 90
        2
176
     1
 62
     7
176
     1
 90
        5
176
     1
 90
        0
176
     1
 90
        0
176
     1
290
     0
176
     1
 90
        1
176
     1
 40
0.0
176
     1
 90
        0
176
     1
290
     0
176
     1
290
     1
176
     1
290
     1
176
     1
290
     0
176
     1
290
     0
176
     1
290
     0
176
     1
290
     0
176
     1
290
     0
176
     1
290
     0
176
     1
 90
       50
176
     1
 40
0.0
176
     1
 40
1.0
176
     1
 90
        0
176
     1
 62
    18
420
        0
176
     1
 90
       50
176
     1
 90
        3
176
     1
 62
     5
420
      255
176
     1
290
     0
176
     1
 90
       50
176
     1
 90
       50
176
     1
 90
       50
176
     1
290
     0
176
     1
 90
       50
176
     1
 62
   256
176
     0
 40
1.0
176
     0
 90
        2
176
     1
  1
strokes_ogs.tif
176
     1
290
     0
176
     1
 40
1.0
176
     1
 40
1.0
176
     1
  0
VISUALSTYLE
  5
2C0
102
{ACAD_REACTORS
330
2B4
102
}
330
2B4
100
AcDbVisualStyle
  2
Brighten
 70
    12
177
     3
291
     1
 70
    58
 90
        2
176
     1
 90
        2
176
     1
 90
        0
176
     1
 90
        0
176
     1
 40
0.6
176
     1
 40
30.0
176
     1
 62
     7
176
     1
 90
        1
176
     1
 90
        4
176
     1
 62
     7
176
     1
 62
   257
176
     1
 90
        1
176
     1
 90
        1
176
     1
 40
1.0
176
     1
 90
        8
176
     1
 62
     7
176
     1
 40
1.0
176
     1
 90
        1
176
     1
 90
        6
176
     1
 90
        2
176
     1
 62
     7
176
     1
 90
        5
176
     1
 90
        0
176
     1
 90
        0
176
     1
290
     0
176
     1
 90
        1
176
     1
 40
50.0
176
     1
 90
        0
176
     1
290
     0
176
     1
290
     1
176
     1
290
     1
176
     1
290
     0
176
     1
290
     0
176
     1
290
     0
176
     1
290
     0
176
     1
290
     0
176
     1
290
     0
176
     1
 90
       50
176
     1
 40
0.0
176
     1
 40
1.0
176
     1
 90
        0
176
     1
 62
    18
420
        0
176
     1
 90
       50
176
     1
 90
        3
176
     1
 62
     5
420
      255
176
     1
290
     0
176
     1
 90
       50
176
     1
 90
       50
176
     1
 90
       50
176
     1
290
     0
176
     1
 90
       50
176
     1
 62
   256
176
     0
 40
1.0
176
     0
 90
        2
176
     1
  1
strokes_ogs.tif
176
     1
290
     0
176
     1
 40
1.0
176
     1
 40
1.0
176
     1
  0
VISUALSTYLE
  5
2C4
102
{ACAD_REACTORS
330
2B4
102
}
330
2B4
100
AcDbVisualStyle
  2
ColorChange
 70
    16
177
     3
291
     1
 70
    58
 90
        2
176
     1
 90
        2
176
     1
 90
        3
176
     1
 90
        0
176
     1
 40
0.6
176
     1
 40
30.0
176
     1
 62
     8
176
     1
 90
        1
176
     1
 90
        4
176
     1
 62
     7
176
     1
 62
   257
176
     1
 90
        1
176
     1
 90
        1
176
     1
 40
1.0
176
     1
 90
        8
176
     1
 62
     8
176
     1
 40
1.0
176
     1
 90
        1
176
     1
 90
        6
176
     1
 90
        2
176
     1
 62
     7
176
     1
 90
        5
176
     1
 90
        0
176
     1
 90
        0
176
     1
290
     0
176
     1
 90
        1
176
     1
 40
0.0
176
     1
 90
        0
176
     1
290
     0
176
     1
290
     1
176
     1
290
     1
176
     1
290
     0
176
     1
290
     0
176
     1
290
     0
176
     1
290
     0
176
     1
290
     0
176
     1
290
     0
176
     1
 90
       50
176
     1
 40
0.0
176
     1
 40
1.0
176
     1
 90
        0
176
     1
 62
    18
420
        0
176
     1
 90
       50
176
     1
 90
        3
176
     1
 62
     5
420
      255
176
     1
290
     0
176
     1
 90
       50
176
     1
 90
       50
176
     1
 90
       50
176
     1
290
     0
176
     1
 90
       50
176
     1
 62
   256
176
     0
 40
1.0
176
     0
 90
        2
176
     1
  1
strokes_ogs.tif
176
     1
290
     0
176
     1
 40
1.0
176
     1
 40
1.0
176
     1
  0
VISUALSTYLE
  5
2BD
102
{ACAD_REACTORS
330
2B4
102
}
330
2B4
100
AcDbVisualStyle
  2
Conceptual
 70
     9
177
     3
291
     0
 70
    58
 90
        3
176
     1
 90
        2
176
     1
 90
        0
176
     1
 90
        0
176
     1
 40
0.6
176
     1
 40
30.0
176
     1
 62
     7
176
     1
 90
        2
176
     1
 90
        2
176
     1
 62
     7
176
     1
 62
   257
176
     1
 90
        1
176
     1
 90
        1
176
     1
 40
40.0
176
     1
 90
        8
176
     1
 62
     7
176
     1
 40
1.0
176
     1
 90
        1
176
     1
 90
        6
176
     1
 90
        2
176
     1
 62
     7
176
     1
 90
        3
176
     1
 90
        0
176
     1
 90
        0
176
     1
290
     0
176
     1
 90
        1
176
     1
 40
0.0
176
     1
 90
        0
176
     1
290
     0
176
     1
290
     1
176
     1
290
     1
176
     1
290
     0
176
     1
290
     0
176
     1
290
     0
176
     1
290
     0
176
     1
290
     0
176
     1
290
     0
176
     1
 90
       50
176
     1
 40
0.0
176
     1
 40
1.0
176
     1
 90
        0
176
     1
 62
    18
420
        0
176
     1
 90
       50
176
     1
 90
        3
176
     1
 62
     5
420
      255
176
     1
290
     0
176
     1
 90
       50
176
     1
 90
       50
176
     1
 90
       50
176
     1
290
     0
176
     1
 90
       50
176
     1
 62
   256
176
     0
 40
1.0
176
     0
 90
        2
176
     1
  1
strokes_ogs.tif
176
     1
290
     0
176
     1
 40
1.0
176
     1
 40
1.0
176
     1
  0
VISUALSTYLE
  5
2BF
102
{ACAD_REACTORS
330
2B4
102
}
330
2B4
100
AcDbVisualStyle
  2
Dim
 70
    11
177
     3
291
     1
 70
    58
 90
        2
176
     1
 90
        2
176
     1
 90
        0
176
     1
 90
        0
176
     1
 40
0.6
176
     1
 40
30.0
176
     1
 62
     7
176
     1
 90
        1
176
     1
 90
        4
176
     1
 62
     7
176
     1
 62
   257
176
     1
 90
        1
176
     1
 90
        1
176
     1
 40
1.0
176
     1
 90
        8
176
     1
 62
     7
176
     1
 40
1.0
176
     1
 90
        1
176
     1
 90
        6
176
     1
 90
        2
176
     1
 62
     7
176
     1
 90
        5
176
     1
 90
        0
176
     1
 90
        0
176
     1
290
     0
176
     1
 90
        1
176
     1
 40
-50.0
176
     1
 90
        0
176
     1
290
     0
176
     1
290
     1
176
     1
290
     1
176
     1
290
     0
176
     1
290
     0
176
     1
290
     0
176
     1
290
     0
176
     1
290
     0
176
     1
290
     0
176
     1
 90
       50
176
     1
 40
0.0
176
     1
 40
1.0
176
     1
 90
        0
176
     1
 62
    18
420
        0
176
     1
 90
       50
176
     1
 90
        3
176
     1
 62
     5
420
      255
176
     1
290
     0
176
     1
 90
       50
176
     1
 90
       50
176
     1
 90
       50
176
     1
290
     0
176
     1
 90
       50
176
     1
 62
   256
176
     0
 40
1.0
176
     0
 90
        2
176
     1
  1
strokes_ogs.tif
176
     1
290
     0
176
     1
 40
1.0
176
     1
 40
1.0
176
     1
  0
VISUALSTYLE
  5
6DD
102
{ACAD_REACTORS
330
2B4
102
}
330
2B4
100
AcDbVisualStyle
  2
EdgeColorOff
 70
    22
177
     3
291
     1
 70
    58
 90
        2
176
     0
 90
        2
176
     0
 90
        0
176
     0
 90
        0
176
     0
 40
0.6
176
     0
 40
30.0
176
     0
 62
     7
420
 16777215
176
     0
 90
        1
176
     0
 90
        4
176
     0
 62
     7
176
     0
 62
   257
176
     0
 90
        1
176
     0
 90
        1
176
     0
 40
1.0
176
     0
 90
        8
176
     2
 62
     7
176
     0
 40
1.0
176
     0
 90
        1
176
     0
 90
        6
176
     0
 90
        2
176
     0
 62
     7
176
     0
 90
        5
176
     0
 90
        0
176
     0
 90
        0
176
     0
290
     0
176
     0
 90
        1
176
     0
 40
0.0
176
     0
 90
        0
176
     0
290
     0
176
     1
290
     1
176
     1
290
     1
176
     1
290
     0
176
     1
290
     0
176
     1
290
     0
176
     1
290
     0
176
     1
290
     0
176
     1
290
     0
176
     1
 90
       50
176
     1
 40
0.0
176
     1
 40
1.0
176
     1
 90
        0
176
     1
 62
    18
420
        0
176
     1
 90
       50
176
     1
 90
        3
176
     1
 62
     5
420
      255
176
     1
290
     0
176
     1
 90
       50
176
     1
 90
       50
176
     1
 90
       50
176
     1
290
     0
176
     1
 90
       50
176
     1
 62
   256
176
     0
 40
1.0
176
     0
 90
        2
176
     1
  1
strokes_ogs.tif
176
     1
290
     0
176
     1
 40
1.0
176
     1
 40
1.0
176
     1
  0
VISUALSTYLE
  5
2C3
102
{ACAD_REACTORS
330
2B4
102
}
330
2B4
100
AcDbVisualStyle
  2
Facepattern
 70
    15
177
     3
291
     1
 70
    58
 90
        2
176
     1
 90
        2
176
     1
 90
        0
176
     1
 90
        0
176
     1
 40
0.6
176
     1
 40
30.0
176
     1
 62
     7
176
     1
 90
        1
176
     1
 90
        4
176
     1
 62
     7
176
     1
 62
   257
176
     1
 90
        1
176
     1
 90
        1
176
     1
 40
1.0
176
     1
 90
        8
176
     1
 62
     7
176
     1
 40
1.0
176
     1
 90
        1
176
     1
 90
        6
176
     1
 90
        2
176
     1
 62
     7
176
     1
 90
        5
176
     1
 90
        0
176
     1
 90
        0
176
     1
290
     0
176
     1
 90
        1
176
     1
 40
0.0
176
     1
 90
        0
176
     1
290
     0
176
     1
290
     1
176
     1
290
     1
176
     1
290
     0
176
     1
290
     0
176
     1
290
     0
176
     1
290
     0
176
     1
290
     0
176
     1
290
     0
176
     1
 90
       50
176
     1
 40
0.0
176
     1
 40
1.0
176
     1
 90
        0
176
     1
 62
    18
420
        0
176
     1
 90
       50
176
     1
 90
        3
176
     1
 62
     5
420
      255
176
     1
290
     0
176
     1
 90
       50
176
     1
 90
       50
176
     1
 90
       50
176
     1
290
     0
176
     1
 90
       50
176
     1
 62
   256
176
     0
 40
1.0
176
     0
 90
        2
176
     1
  1
strokes_ogs.tif
176
     1
290
     0
176
     1
 40
1.0
176
     1
 40
1.0
176
     1
  0
VISUALSTYLE
  5
2B5
102
{ACAD_REACTORS
330
2B4
102
}
330
2B4
100
AcDbVisualStyle
  2
Flat
 70
     0
177
     3
291
     1
 70
    58
 90
        2
176
     1
 90
        1
176
     1
 90
        1
176
     1
 90
        2
176
     1
 40
0.6
176
     1
 40
30.0
176
     1
 62
     7
176
     1
 90
        0
176
     1
 90
        4
176
     1
 62
     7
176
     1
 62
   257
176
     1
 90
        1
176
     1
 90
        1
176
     1
 40
1.0
176
     1
 90
        8
176
     1
 62
     7
176
     1
 40
1.0
176
     1
 90
        1
176
     1
 90
        6
176
     1
 90
        2
176
     1
 62
     7
176
     1
 90
        5
176
     1
 90
        0
176
     1
 90
        0
176
     1
290
     0
176
     1
 90
       13
176
     1
 40
0.0
176
     1
 90
        0
176
     1
290
     0
176
     1
290
     1
176
     1
290
     1
176
     1
290
     0
176
     1
290
     0
176
     1
290
     0
176
     1
290
     0
176
     1
290
     0
176
     1
290
     0
176
     1
 90
       50
176
     1
 40
0.0
176
     1
 40
1.0
176
     1
 90
        0
176
     1
 62
    18
420
        0
176
     1
 90
       50
176
     1
 90
        3
176
     1
 62
     5
420
      255
176
     1
290
     0
176
     1
 90
       50
176
     1
 90
       50
176
     1
 90
       50
176
     1
290
     0
176
     1
 90
       50
176
     1
 62
   256
176
     0
 40
1.0
176
     0
 90
        2
176
     1
  1
strokes_ogs.tif
176
     1
290
     0
176
     1
 40
1.0
176
     1
 40
1.0
176
     1
  0
VISUALSTYLE
  5
2B6
102
{ACAD_REACTORS
330
2B4
102
}
330
2B4
100
AcDbVisualStyle
  2
FlatWithEdges
 70
     1
177
     3
291
     1
 70
    58
 90
        2
176
     1
 90
        1
176
     1
 90
        1
176
     1
 90
        2
176
     1
 40
0.6
176
     1
 40
30.0
176
     1
 62
     7
176
     1
 90
        1
176
     1
 90
        4
176
     1
 62
     7
176
     1
 62
   257
176
     1
 90
        1
176
     1
 90
        1
176
     1
 40
1.0
176
     1
 90
        0
176
     1
 62
   257
176
     1
 40
1.0
176
     1
 90
        1
176
     1
 90
        6
176
     1
 90
        2
176
     1
 62
     7
176
     1
 90
        5
176
     1
 90
        0
176
     1
 90
        0
176
     1
290
     0
176
     1
 90
       13
176
     1
 40
0.0
176
     1
 90
        0
176
     1
290
     0
176
     1
290
     1
176
     1
290
     1
176
     1
290
     0
176
     1
290
     0
176
     1
290
     0
176
     1
290
     0
176
     1
290
     0
176
     1
290
     0
176
     1
 90
       50
176
     1
 40
0.0
176
     1
 40
1.0
176
     1
 90
        0
176
     1
 62
    18
420
        0
176
     1
 90
       50
176
     1
 90
        3
176
     1
 62
     5
420
      255
176
     1
290
     0
176
     1
 90
       50
176
     1
 90
       50
176
     1
 90
       50
176
     1
290
     0
176
     1
 90
       50
176
     1
 62
   256
176
     0
 40
1.0
176
     0
 90
        2
176
     1
  1
strokes_ogs.tif
176
     1
290
     0
176
     1
 40
1.0
176
     1
 40
1.0
176
     1
  0
VISUALSTYLE
  5
2B7
102
{ACAD_REACTORS
330
2B4
102
}
330
2B4
100
AcDbVisualStyle
  2
Gouraud
 70
     2
177
     3
291
     1
 70
    58
 90
        2
176
     1
 90
        2
176
     1
 90
        1
176
     1
 90
        2
176
     1
 40
0.6
176
     1
 40
30.0
176
     1
 62
     7
176
     1
 90
        0
176
     1
 90
        4
176
     1
 62
     7
176
     1
 62
   257
176
     1
 90
        1
176
     1
 90
        1
176
     1
 40
1.0
176
     1
 90
        0
176
     1
 62
     7
176
     1
 40
1.0
176
     1
 90
        1
176
     1
 90
        6
176
     1
 90
        2
176
     1
 62
     7
176
     1
 90
        5
176
     1
 90
        0
176
     1
 90
        0
176
     1
290
     0
176
     1
 90
       13
176
     1
 40
0.0
176
     1
 90
        0
176
     1
290
     0
176
     1
290
     1
176
     1
290
     1
176
     1
290
     0
176
     1
290
     0
176
     1
290
     0
176
     1
290
     0
176
     1
290
     0
176
     1
290
     0
176
     1
 90
       50
176
     1
 40
0.0
176
     1
 40
1.0
176
     1
 90
        0
176
     1
 62
    18
420
        0
176
     1
 90
       50
176
     1
 90
        3
176
     1
 62
     5
420
      255
176
     1
290
     0
176
     1
 90
       50
176
     1
 90
       50
176
     1
 90
       50
176
     1
290
     0
176
     1
 90
       50
176
     1
 62
   256
176
     0
 40
1.0
176
     0
 90
        2
176
     1
  1
strokes_ogs.tif
176
     1
290
     0
176
     1
 40
1.0
176
     1
 40
1.0
176
     1
  0
VISUALSTYLE
  5
2B8
102
{ACAD_REACTORS
330
2B4
102
}
330
2B4
100
AcDbVisualStyle
  2
GouraudWithEdges
 70
     3
177
     3
291
     1
 70
    58
 90
        2
176
     1
 90
        2
176
     1
 90
        1
176
     1
 90
        2
176
     1
 40
0.6
176
     1
 40
30.0
176
     1
 62
     7
176
     1
 90
        1
176
     1
 90
        4
176
     1
 62
     7
176
     1
 62
   257
176
     1
 90
        1
176
     1
 90
        1
176
     1
 40
1.0
176
     1
 90
        0
176
     1
 62
   257
176
     1
 40
1.0
176
     1
 90
        1
176
     1
 90
        6
176
     1
 90
        2
176
     1
 62
     7
176
     1
 90
        5
176
     1
 90
        0
176
     1
 90
        0
176
     1
290
     0
176
     1
 90
       13
176
     1
 40
0.0
176
     1
 90
        0
176
     1
290
     0
176
     1
290
     1
176
     1
290
     1
176
     1
290
     0
176
     1
290
     0
176
     1
290
     0
176
     1
290
     0
176
     1
290
     0
176
     1
290
     0
176
     1
 90
       50
176
     1
 40
0.0
176
     1
 40
1.0
176
     1
 90
        0
176
     1
 62
    18
420
        0
176
     1
 90
       50
176
     1
 90
        3
176
     1
 62
     5
420
      255
176
     1
290
     0
176
     1
 90
       50
176
     1
 90
       50
176
     1
 90
       50
176
     1
290
     0
176
     1
 90
       50
176
     1
 62
   256
176
     0
 40
1.0
176
     0
 90
        2
176
     1
  1
strokes_ogs.tif
176
     1
290
     0
176
     1
 40
1.0
176
     1
 40
1.0
176
     1
  0
VISUALSTYLE
  5
6D5
102
{ACAD_REACTORS
330
2B4
102
}
330
2B4
100
AcDbVisualStyle
  2
Hidden
 70
     6
177
     3
291
     0
 70
    58
 90
        1
176
     1
 90
        2
176
     1
 90
        2
176
     1
 90
        0
176
     1
 40
0.6
176
     1
 40
30.0
176
     1
 62
     7
420
 16777215
176
     1
 90
        2
176
     1
 90
        2
176
     1
 62
     7
176
     1
 62
   257
176
     1
 90
        2
176
     1
 90
        1
176
     1
 40
40.0
176
     1
 90
        0
176
     1
 62
   257
176
     1
 40
1.0
176
     1
 90
        1
176
     1
 90
        6
176
     1
 90
        2
176
     1
 62
     7
176
     1
 90
        3
176
     1
 90
        0
176
     1
 90
        0
176
     1
290
     0
176
     1
 90
        1
176
     1
 40
0.0
176
     1
 90
        0
176
     1
290
     0
176
     1
290
     1
176
     1
290
     1
176
     1
290
     0
176
     1
290
     0
176
     1
290
     0
176
     1
290
     0
176
     1
290
     0
176
     1
290
     0
176
     1
 90
       50
176
     1
 40
0.0
176
     1
 40
1.0
176
     1
 90
        0
176
     1
 62
    18
420
        0
176
     1
 90
       50
176
     1
 90
        3
176
     1
 62
     5
420
      255
176
     1
290
     0
176
     1
 90
       50
176
     1
 90
       50
176
     1
 90
       50
176
     1
290
     0
176
     1
 90
       50
176
     1
 62
   256
176
     0
 40
1.0
176
     0
 90
        2
176
     1
  1
strokes_ogs.tif
176
     1
290
     0
176
     1
 40
1.0
176
     1
 40
1.0
176
     1
  0
VISUALSTYLE
  5
6DB
102
{ACAD_REACTORS
330
2B4
102
}
330
2B4
100
AcDbVisualStyle
  2
JitterOff
 70
    20
177
     3
291
     1
 70
    58
 90
        2
176
     0
 90
        2
176
     0
 90
        0
176
     0
 90
        0
176
     0
 40
0.6
176
     0
 40
30.0
176
     0
 62
     7
420
 16777215
176
     0
 90
        1
176
     0
 90
        4
176
     0
 62
     7
176
     0
 62
   257
176
     0
 90
        1
176
     0
 90
        1
176
     0
 40
1.0
176
     0
 90
       10
176
     2
 62
     7
176
     0
 40
1.0
176
     0
 90
        1
176
     0
 90
        6
176
     0
 90
        2
176
     0
 62
     7
176
     0
 90
        5
176
     0
 90
        0
176
     0
 90
        0
176
     0
290
     0
176
     0
 90
        1
176
     0
 40
0.0
176
     0
 90
        0
176
     0
290
     0
176
     1
290
     1
176
     1
290
     1
176
     1
290
     0
176
     1
290
     0
176
     1
290
     0
176
     1
290
     0
176
     1
290
     0
176
     1
290
     0
176
     1
 90
       50
176
     1
 40
0.0
176
     1
 40
1.0
176
     1
 90
        0
176
     1
 62
    18
420
        0
176
     1
 90
       50
176
     1
 90
        3
176
     1
 62
     5
420
      255
176
     1
290
     0
176
     1
 90
       50
176
     1
 90
       50
176
     1
 90
       50
176
     1
290
     0
176
     1
 90
       50
176
     1
 62
   256
176
     0
 40
1.0
176
     0
 90
        2
176
     1
  1
strokes_ogs.tif
176
     1
290
     0
176
     1
 40
1.0
176
     1
 40
1.0
176
     1
  0
VISUALSTYLE
  5
2C2
102
{ACAD_REACTORS
330
2B4
102
}
330
2B4
100
AcDbVisualStyle
  2
Linepattern
 70
    14
177
     3
291
     1
 70
    58
 90
        2
176
     1
 90
        2
176
     1
 90
        0
176
     1
 90
        0
176
     1
 40
0.6
176
     1
 40
30.0
176
     1
 62
     7
176
     1
 90
        1
176
     1
 90
        4
176
     1
 62
     7
176
     1
 62
   257
176
     1
 90
        7
176
     1
 90
        7
176
     1
 40
1.0
176
     1
 90
        8
176
     1
 62
     7
176
     1
 40
1.0
176
     1
 90
        1
176
     1
 90
        6
176
     1
 90
        2
176
     1
 62
     7
176
     1
 90
        5
176
     1
 90
        0
176
     1
 90
        0
176
     1
290
     0
176
     1
 90
        1
176
     1
 40
0.0
176
     1
 90
        0
176
     1
290
     0
176
     1
290
     1
176
     1
290
     1
176
     1
290
     0
176
     1
290
     0
176
     1
290
     0
176
     1
290
     0
176
     1
290
     0
176
     1
290
     0
176
     1
 90
       50
176
     1
 40
0.0
176
     1
 40
1.0
176
     1
 90
        0
176
     1
 62
    18
420
        0
176
     1
 90
       50
176
     1
 90
        3
176
     1
 62
     5
420
      255
176
     1
290
     0
176
     1
 90
       50
176
     1
 90
       50
176
     1
 90
       50
176
     1
290
     0
176
     1
 90
       50
176
     1
 62
   256
176
     0
 40
1.0
176
     0
 90
        2
176
     1
  1
strokes_ogs.tif
176
     1
290
     0
176
     1
 40
1.0
176
     1
 40
1.0
176
     1
  0
VISUALSTYLE
  5
6DC
102
{ACAD_REACTORS
330
2B4
102
}
330
2B4
100
AcDbVisualStyle
  2
OverhangOff
 70
    21
177
     3
291
     1
 70
    58
 90
        2
176
     0
 90
        2
176
     0
 90
        0
176
     0
 90
        0
176
     0
 40
0.6
176
     0
 40
30.0
176
     0
 62
     7
420
 16777215
176
     0
 90
        1
176
     0
 90
        4
176
     0
 62
     7
176
     0
 62
   257
176
     0
 90
        1
176
     0
 90
        1
176
     0
 40
1.0
176
     0
 90
        9
176
     2
 62
     7
176
     0
 40
1.0
176
     0
 90
        1
176
     0
 90
        6
176
     0
 90
        2
176
     0
 62
     7
176
     0
 90
        5
176
     0
 90
        0
176
     0
 90
        0
176
     0
290
     0
176
     0
 90
        1
176
     0
 40
0.0
176
     0
 90
        0
176
     0
290
     0
176
     1
290
     1
176
     1
290
     1
176
     1
290
     0
176
     1
290
     0
176
     1
290
     0
176
     1
290
     0
176
     1
290
     0
176
     1
290
     0
176
     1
 90
       50
176
     1
 40
0.0
176
     1
 40
1.0
176
     1
 90
        0
176
     1
 62
    18
420
        0
176
     1
 90
       50
176
     1
 90
        3
176
     1
 62
     5
420
      255
176
     1
290
     0
176
     1
 90
       50
176
     1
 90
       50
176
     1
 90
       50
176
     1
290
     0
176
     1
 90
       50
176
     1
 62
   256
176
     0
 40
1.0
176
     0
 90
        2
176
     1
  1
strokes_ogs.tif
176
     1
290
     0
176
     1
 40
1.0
176
     1
 40
1.0
176
     1
  0
VISUALSTYLE
  5
2BE
102
{ACAD_REACTORS
330
2B4
102
}
330
2B4
100
AcDbVisualStyle
  2
Realistic
 70
     8
177
     3
291
     0
 70
    58
 90
        2
176
     1
 90
        2
176
     1
 90
        0
176
     1
 90
        0
176
     1
 40
0.6
176
     1
 40
30.0
176
     1
 62
     7
176
     1
 90
        1
176
     1
 90
        0
176
     1
 62
     7
176
     1
 62
   257
176
     1
 90
        1
176
     1
 90
        1
176
     1
 40
1.0
176
     1
 90
        8
176
     1
 62
     8
176
     1
 40
1.0
176
     1
 90
        1
176
     1
 90
        6
176
     1
 90
        2
176
     1
 62
     7
176
     1
 90
        5
176
     1
 90
        0
176
     1
 90
        0
176
     1
290
     0
176
     1
 90
       13
176
     1
 40
0.0
176
     1
 90
        0
176
     1
290
     0
176
     1
290
     1
176
     1
290
     1
176
     1
290
     0
176
     1
290
     0
176
     1
290
     0
176
     1
290
     0
176
     1
290
     0
176
     1
290
     0
176
     1
 90
       50
176
     1
 40
0.0
176
     1
 40
1.0
176
     1
 90
        0
176
     1
 62
    18
420
        0
176
     1
 90
       50
176
     1
 90
        3
176
     1
 62
     5
420
      255
176
     1
290
     0
176
     1
 90
       50
176
     1
 90
       50
176
     1
 90
       50
176
     1
290
     0
176
     1
 90
       50
176
     1
 62
   256
176
     0
 40
1.0
176
     0
 90
        2
176
     1
  1
strokes_ogs.tif
176
     1
290
     0
176
     1
 40
1.0
176
     1
 40
1.0
176
     1
  0
VISUALSTYLE
  5
6DA
102
{ACAD_REACTORS
330
2B4
102
}
330
2B4
100
AcDbVisualStyle
  2
Shaded
 70
    27
177
     3
291
     0
 70
    58
 90
        2
176
     1
 90
        2
176
     1
 90
        1
176
     1
 90
        2
176
     1
 40
0.6
176
     1
 40
30.0
176
     1
 62
     7
420
 16777215
176
     1
 90
        0
176
     1
 90
        4
176
     1
 62
     7
176
     1
 62
   257
176
     1
 90
        1
176
     1
 90
        1
176
     1
 40
1.0
176
     1
 90
        8
176
     1
 62
   257
176
     1
 40
1.0
176
     1
 90
        1
176
     1
 90
        6
176
     1
 90
        2
176
     1
 62
     8
420
  7895160
176
     1
 90
        3
176
     1
 90
        0
176
     1
 90
        0
176
     1
290
     0
176
     1
 90
        5
176
     1
 40
0.0
176
     1
 90
        0
176
     1
290
     0
176
     1
290
     1
176
     1
290
     1
176
     1
290
     0
176
     1
290
     0
176
     1
290
     0
176
     1
290
     0
176
     1
290
     0
176
     1
290
     0
176
     1
 90
       50
176
     1
 40
0.0
176
     1
 40
1.0
176
     1
 90
        0
176
     1
 62
    18
420
        0
176
     1
 90
       50
176
     1
 90
        3
176
     1
 62
     5
420
      255
176
     1
290
     0
176
     1
 90
       50
176
     1
 90
       50
176
     1
 90
       50
176
     1
290
     0
176
     1
 90
       50
176
     1
 62
   256
176
     0
 40
1.0
176
     0
 90
        2
176
     1
  1
strokes_ogs.tif
176
     1
290
     0
176
     1
 40
1.0
176
     1
 40
1.0
176
     1
  0
VISUALSTYLE
  5
6D9
102
{ACAD_REACTORS
330
2B4
102
}
330
2B4
100
AcDbVisualStyle
  2
Shaded with edges
 70
    26
177
     3
291
     0
 70
    58
 90
        2
176
     1
 90
        2
176
     1
 90
        1
176
     1
 90
        2
176
     1
 40
0.6
176
     1
 40
30.0
176
     1
 62
     7
420
 16777215
176
     1
 90
        1
176
     1
 90
       10
176
     1
 62
     7
176
     1
 62
   257
176
     1
 90
        2
176
     1
 90
        1
176
     1
 40
1.0
176
     1
 90
        8
176
     1
 62
   257
176
     1
 40
1.0
176
     1
 90
        1
176
     1
 90
        6
176
     1
 90
        2
176
     1
 62
     7
176
     1
 90
        3
176
     1
 90
        0
176
     1
 90
        0
176
     1
290
     0
176
     1
 90
        5
176
     1
 40
0.0
176
     1
 90
        0
176
     1
290
     0
176
     1
290
     1
176
     1
290
     1
176
     1
290
     0
176
     1
290
     0
176
     1
290
     0
176
     1
290
     0
176
     1
290
     0
176
     1
290
     0
176
     1
 90
       50
176
     1
 40
0.0
176
     1
 40
1.0
176
     1
 90
        0
176
     1
 62
    18
420
        0
176
     1
 90
       50
176
     1
 90
        3
176
     1
 62
     5
420
      255
176
     1
290
     0
176
     1
 90
       50
176
     1
 90
       50
176
     1
 90
       50
176
     1
290
     0
176
     1
 90
       50
176
     1
 62
   256
176
     0
 40
1.0
176
     0
 90
        2
176
     1
  1
strokes_ogs.tif
176
     1
290
     0
176
     1
 40
1.0
176
     1
 40
1.0
176
     1
  0
VISUALSTYLE
  5
6D6
102
{ACAD_REACTORS
330
2B4
102
}
330
2B4
100
AcDbVisualStyle
  2
Shades of Gray
 70
    23
177
     3
291
     0
 70
    58
 90
        2
176
     1
 90
        2
176
     1
 90
        3
176
     1
 90
        0
176
     1
 40
0.6
176
     1
 40
30.0
176
     1
 62
     7
420
 16777215
176
     1
 90
        2
176
     1
 90
        2
176
     1
 62
     7
176
     1
 62
     7
176
     1
 90
        1
176
     1
 90
        1
176
     1
 40
40.0
176
     1
 90
        8
176
     1
 62
     7
176
     1
 40
1.0
176
     1
 90
        1
176
     1
 90
        6
176
     1
 90
        2
176
     1
 62
     7
176
     1
 90
        3
176
     1
 90
        0
176
     1
 90
        0
176
     1
290
     0
176
     1
 90
        1
176
     1
 40
0.0
176
     1
 90
        0
176
     1
290
     0
176
     1
290
     1
176
     1
290
     1
176
     1
290
     0
176
     1
290
     0
176
     1
290
     0
176
     1
290
     0
176
     1
290
     0
176
     1
290
     0
176
     1
 90
       50
176
     1
 40
0.0
176
     1
 40
1.0
176
     1
 90
        0
176
     1
 62
    18
420
        0
176
     1
 90
       50
176
     1
 90
        3
176
     1
 62
     5
420
      255
176
     1
290
     0
176
     1
 90
       50
176
     1
 90
       50
176
     1
 90
       50
176
     1
290
     0
176
     1
 90
       50
176
     1
 62
   256
176
     0
 40
1.0
176
     0
 90
        2
176
     1
  1
strokes_ogs.tif
176
     1
290
     0
176
     1
 40
1.0
176
     1
 40
1.0
176
     1
  0
VISUALSTYLE
  5
6D7
102
{ACAD_REACTORS
330
2B4
102
}
330
2B4
100
AcDbVisualStyle
  2
Sketchy
 70
    24
177
     3
291
     0
 70
    58
 90
        1
176
     1
 90
        2
176
     1
 90
        2
176
     1
 90
        0
176
     1
 40
0.6
176
     1
 40
30.0
176
     1
 62
     7
420
 16777215
176
     1
 90
        2
176
     1
 90
        2
176
     1
 62
     7
176
     1
 62
     7
176
     1
 90
        1
176
     1
 90
        1
176
     1
 40
40.0
176
     1
 90
       11
176
     1
 62
     7
176
     1
 40
1.0
176
     1
 90
        1
176
     1
 90
        6
176
     1
 90
        2
176
     1
 62
     7
176
     1
 90
        6
176
     1
 90
        0
176
     1
 90
        0
176
     1
290
     0
176
     1
 90
        1
176
     1
 40
0.0
176
     1
 90
        0
176
     1
290
     0
176
     1
290
     1
176
     1
290
     1
176
     1
290
     0
176
     1
290
     0
176
     1
290
     0
176
     1
290
     0
176
     1
290
     0
176
     1
290
     0
176
     1
 90
       50
176
     1
 40
0.0
176
     1
 40
1.0
176
     1
 90
        0
176
     1
 62
    18
420
        0
176
     1
 90
       50
176
     1
 90
        3
176
     1
 62
     5
420
      255
176
     1
290
     0
176
     1
 90
       50
176
     1
 90
       50
176
     1
 90
       50
176
     1
290
     0
176
     1
 90
       50
176
     1
 62
   256
176
     0
 40
1.0
176
     0
 90
        2
176
     1
  1
strokes_ogs.tif
176
     1
290
     0
176
     1
 40
1.0
176
     1
 40
1.0
176
     1
  0
VISUALSTYLE
  5
2C1
102
{ACAD_REACTORS
330
2B4
102
}
330
2B4
100
AcDbVisualStyle
  2
Thicken
 70
    13
177
     3
291
     1
 70
    58
 90
        2
176
     1
 90
        2
176
     1
 90
        0
176
     1
 90
        0
176
     1
 40
0.6
176
     1
 40
30.0
176
     1
 62
     7
176
     1
 90
        1
176
     1
 90
        4
176
     1
 62
     7
176
     1
 62
   257
176
     1
 90
        1
176
     1
 90
        1
176
     1
 40
1.0
176
     1
 90
       12
176
     1
 62
     7
176
     1
 40
1.0
176
     1
 90
        1
176
     1
 90
        6
176
     1
 90
        2
176
     1
 62
     7
176
     1
 90
        5
176
     1
 90
        0
176
     1
 90
        0
176
     1
290
     0
176
     1
 90
        1
176
     1
 40
0.0
176
     1
 90
        0
176
     1
290
     0
176
     1
290
     1
176
     1
290
     1
176
     1
290
     0
176
     1
290
     0
176
     1
290
     0
176
     1
290
     0
176
     1
290
     0
176
     1
290
     0
176
     1
 90
       50
176
     1
 40
0.0
176
     1
 40
1.0
176
     1
 90
        0
176
     1
 62
    18
420
        0
176
     1
 90
       50
176
     1
 90
        3
176
     1
 62
     5
420
      255
176
     1
290
     0
176
     1
 90
       50
176
     1
 90
       50
176
     1
 90
       50
176
     1
290
     0
176
     1
 90
       50
176
     1
 62
   256
176
     0
 40
1.0
176
     0
 90
        2
176
     1
  1
strokes_ogs.tif
176
     1
290
     0
176
     1
 40
1.0
176
     1
 40
1.0
176
     1
  0
VISUALSTYLE
  5
6D4
102
{ACAD_REACTORS
330
2B4
102
}
330
2B4
100
AcDbVisualStyle
  2
Wireframe
 70
     5
177
     3
291
     0
 70
    58
 90
        0
176
     1
 90
        2
176
     1
 90
        0
176
     1
 90
        0
176
     1
 40
0.6
176
     1
 40
30.0
176
     1
 62
     7
420
 16777215
176
     1
 90
        1
176
     1
 90
        4
176
     1
 62
     7
176
     1
 62
   257
176
     1
 90
        1
176
     1
 90
        1
176
     1
 40
1.0
176
     1
 90
        0
176
     1
 62
   257
176
     1
 40
1.0
176
     1
 90
        1
176
     1
 90
        6
176
     1
 90
        2
176
     1
 62
     7
176
     1
 90
        3
176
     1
 90
        0
176
     1
 90
        0
176
     1
290
     0
176
     1
 90
        1
176
     1
 40
0.0
176
     1
 90
        0
176
     1
290
     0
176
     1
290
     1
176
     1
290
     1
176
     1
290
     0
176
     1
290
     0
176
     1
290
     0
176
     1
290
     0
176
     1
290
     0
176
     1
290
     0
176
     1
 90
       50
176
     1
 40
0.0
176
     1
 40
1.0
176
     1
 90
        0
176
     1
 62
    18
420
        0
176
     1
 90
       50
176
     1
 90
        3
176
     1
 62
     5
420
      255
176
     1
290
     0
176
     1
 90
       50
176
     1
 90
       50
176
     1
 90
       50
176
     1
290
     0
176
     1
 90
       50
176
     1
 62
   256
176
     0
 40
1.0
176
     0
 90
        2
176
     1
  1
strokes_ogs.tif
176
     1
290
     0
176
     1
 40
1.0
176
     1
 40
1.0
176
     1
  0
VISUALSTYLE
  5
6D8
102
{ACAD_REACTORS
330
2B4
102
}
330
2B4
100
AcDbVisualStyle
  2
X-Ray
 70
    25
177
     3
291
     0
 70
    58
 90
        2
176
     1
 90
        2
176
     1
 90
        1
176
     1
 90
        1
176
     1
 40
0.5
176
     1
 40
30.0
176
     1
 62
     7
420
 16777215
176
     1
 90
        1
176
     1
 90
        0
176
     1
 62
     7
176
     1
 62
   257
176
     1
 90
        1
176
     1
 90
        1
176
     1
 40
1.0
176
     1
 90
        8
176
     1
 62
     7
176
     1
 40
1.0
176
     1
 90
        1
176
     1
 90
        6
176
     1
 90
        2
176
     1
 62
     7
176
     1
 90
        3
176
     1
 90
        0
176
     1
 90
        0
176
     1
290
     0
176
     1
 90
       13
176
     1
 40
0.0
176
     1
 90
        0
176
     1
290
     0
176
     1
290
     1
176
     1
290
     1
176
     1
290
     0
176
     1
290
     0
176
     1
290
     0
176
     1
290
     0
176
     1
290
     0
176
     1
290
     0
176
     1
 90
       50
176
     1
 40
0.0
176
     1
 40
1.0
176
     1
 90
        0
176
     1
 62
    18
420
        0
176
     1
 90
       50
176
     1
 90
        3
176
     1
 62
     5
420
      255
176
     1
290
     0
176
     1
 90
       50
176
     1
 90
       50
176
     1
 90
       50
176
     1
290
     0
176
     1
 90
       50
176
     1
 62
   256
176
     0
 40
1.0
176
     0
 90
        2
176
     1
  1
strokes_ogs.tif
176
     1
290
     0
176
     1
 40
1.0
176
     1
 40
1.0
176
     1
  0
DICTIONARYVAR
  5
36B
102
{ACAD_REACTORS
330
2AA
102
}
330
2AA
100
DictionaryVariables
280
     0
  1
1:1
  0
DICTIONARYVAR
  5
369
102
{ACAD_REACTORS
330
2AA
102
}
330
2AA
100
DictionaryVariables
280
     0
  1
QS_LEADER
  0
DICTIONARYVAR
  5
312
102
{ACAD_REACTORS
330
2AA
102
}
330
2AA
100
DictionaryVariables
280
     0
  1
QSTABPALL
  0
DICTIONARYVAR
  5
833
102
{ACAD_REACTORS
330
2AA
102
}
330
2AA
100
DictionaryVariables
280
     0
  1
Metric50
  0
DICTIONARYVAR
  5
834
102
{ACAD_REACTORS
330
2AA
102
}
330
2AA
100
DictionaryVariables
280
     0
  1
Metric50
  0
DICTIONARYVAR
  5
2AB
102
{ACAD_REACTORS
330
2AA
102
}
330
2AA
100
DictionaryVariables
280
     0
  1
2
  0
DICTIONARYVAR
  5
A22
102
{ACAD_REACTORS
330
2AA
102
}
330
2AA
100
DictionaryVariables
280
     0
  1
0
  0
DICTIONARYVAR
  5
314
102
{ACAD_REACTORS
330
2AA
102
}
330
2AA
100
DictionaryVariables
280
     0
  1
0
  0
DICTIONARYVAR
  5
754
102
{ACAD_REACTORS
330
2AA
102
}
330
2AA
100
DictionaryVariables
280
     0
  1
1
  0
DICTIONARYVAR
  5
755
102
{ACAD_REACTORS
330
2AA
102
}
330
2AA
100
DictionaryVariables
280
     0
  1
15
  0
DICTIONARYVAR
  5
36C
102
{ACAD_REACTORS
330
2AA
102
}
330
2AA
100
DictionaryVariables
280
     0
  1
0
  0
DICTIONARYVAR
  5
36A
102
{ACAD_REACTORS
330
2AA
102
}
330
2AA
100
DictionaryVariables
280
     0
  1
0
  0
DICTIONARYVAR
  5
313
102
{ACAD_REACTORS
330
2AA
102
}
330
2AA
100
DictionaryVariables
280
     0
  1
127
  0
XRECORD
  5
A21
102
{ACAD_REACTORS
330
A1F
102
}
330
A1F
100
AcDbXrecord
280
     1
  0
XRECORD
  5
883
102
{ACAD_REACTORS
330
882
102
}
330
882
100
AcDbXrecord
280
     1
 91
       14
  0
ACDBQSCATEGORY
  5
881
102
{ACAD_REACTORS
330
880
102
}
330
880
100
AcQsCategory
 70
     1
300
DEFAULT
290
     1
291
     1
 90
        0
  0
ACDBQSPALLSTYLE
  5
8CE
102
{ACAD_XDICTIONARY
360
8CF
102
}
102
{ACAD_REACTORS
330
8CD
102
}
330
8CD
  0
XRECORD
  5
887
102
{ACAD_REACTORS
330
886
102
}
330
886
100
AcDbXrecord
280
     1
 90
      202
 91
      144
  0
DICTIONARY
  5
A43
330
947
100
AcDbDictionary
280
     1
281
     1
  3
ACAD_XREC_ROUNDTRIP
360
A44
  0
DICTIONARY
  5
A3F
330
80E
100
AcDbDictionary
280
     1
281
     1
  3
ACAD_XREC_ROUNDTRIP
360
A40
  0
DICTIONARY
  5
752
330
47
100
AcDbDictionary
280
     1
281
     1
  0
DICTIONARY
  5
A41
330
946
100
AcDbDictionary
280
     1
281
     1
  3
ACAD_XREC_ROUNDTRIP
360
A42
  0
DICTIONARY
  5
A3D
330
80C
100
AcDbDictionary
280
     1
281
     1
  3
ACAD_XREC_ROUNDTRIP
360
A3E
  0
DICTIONARY
  5
366
330
31A
100
AcDbDictionary
280
     1
281
     1
  3
ACAD_ROUNDTRIP_2008_TABLESTYLE_CELLSTYLEMAP
360
A3A
  0
DICTIONARY
  5
7CB
330
7CA
100
AcDbDictionary
280
     1
281
     1
  3
ACAD_ROUNDTRIP_2008_TABLESTYLE_CELLSTYLEMAP
360
A3B
  0
DICTIONARY
  5
364
330
2CC
100
AcDbDictionary
280
     1
281
     1
  3
ACAD_ROUNDTRIP_2008_TABLESTYLE_CELLSTYLEMAP
360
A39
  0
DICTIONARY
  5
7D0
330
7CF
100
AcDbDictionary
280
     1
281
     1
  3
ACAD_ROUNDTRIP_2008_TABLESTYLE_CELLSTYLEMAP
360
A3C
  0
DICTIONARY
  5
362
330
2C7
100
AcDbDictionary
280
     1
281
     1
  3
ACAD_ROUNDTRIP_2008_TABLESTYLE_CELLSTYLEMAP
360
A38
  0
DICTIONARY
  5
8CF
330
8CE
100
AcDbDictionary
280
     1
281
     1
  3
XTRA_PROP
360
8D0
  0
XRECORD
  5
A44
102
{ACAD_REACTORS
330
A43
102
}
330
A43
100
AcDbXrecord
280
     1
102
DISPLAYNAME
  1
Imperial24
102
FLAGS
 90
        0
  0
XRECORD
  5
A40
102
{ACAD_REACTORS
330
A3F
102
}
330
A3F
100
AcDbXrecord
280
     1
102
DISPLAYNAME
  1
Metric50
102
FLAGS
 90
        0
  0
XRECORD
  5
A42
102
{ACAD_REACTORS
330
A41
102
}
330
A41
100
AcDbXrecord
280
     1
102
DISPLAYNAME
  1
Imperial24
102
FLAGS
 90
        0
  0
XRECORD
  5
A3E
102
{ACAD_REACTORS
330
A3D
102
}
330
A3D
100
AcDbXrecord
280
     1
102
DISPLAYNAME
  1
Metric50
102
FLAGS
 90
        0
  0
CELLSTYLEMAP
  5
A3A
102
{ACAD_REACTORS
330
366
102
}
330
366
100
AcDbCellStyleMap
 90
        3
300
CELLSTYLE
  1
TABLEFORMAT_BEGIN
 90
        5
170
     1
 91
        0
 92
    32768
 62
   257
 93
        1
300
CONTENTFORMAT
  1
CONTENTFORMAT_BEGIN
 90
        0
 91
        0
 92
      512
 93
        0
300

 40
0.0
140
1.0
 94
        5
 62
     1
340
1B
144
6.0
309
CONTENTFORMAT_END
171
     1
301
MARGIN
  1
CELLMARGIN_BEGIN
 40
1.5
 40
1.5
 40
1.5
 40
1.5
 40
0.18
 40
0.18
309
CELLMARGIN_END
 94
        6
 95
        1
302
GRIDFORMAT
  1
GRIDFORMAT_BEGIN
 90
        0
 91
        1
 62
     0
 92
       -2
340
0
 93
        0
 40
0.045
309
GRIDFORMAT_END
 95
        2
302
GRIDFORMAT
  1
GRIDFORMAT_BEGIN
 90
        0
 91
        1
 62
     0
 92
       -2
340
0
 93
        0
 40
0.045
309
GRIDFORMAT_END
 95
        4
302
GRIDFORMAT
  1
GRIDFORMAT_BEGIN
 90
        0
 91
        1
 62
     0
 92
       -2
340
0
 93
        0
 40
0.045
309
GRIDFORMAT_END
 95
        8
302
GRIDFORMAT
  1
GRIDFORMAT_BEGIN
 90
        0
 91
        1
 62
     0
 92
       -2
340
0
 93
        0
 40
0.045
309
GRIDFORMAT_END
 95
       16
302
GRIDFORMAT
  1
GRIDFORMAT_BEGIN
 90
        0
 91
        1
 62
     0
 92
       -2
340
0
 93
        0
 40
0.045
309
GRIDFORMAT_END
 95
       32
302
GRIDFORMAT
  1
GRIDFORMAT_BEGIN
 90
        0
 91
        1
 62
     0
 92
       -2
340
0
 93
        0
 40
0.045
309
GRIDFORMAT_END
309
TABLEFORMAT_END
  1
CELLSTYLE_BEGIN
 90
        1
 91
        1
300
_TITLE
309
CELLSTYLE_END
300
CELLSTYLE
  1
TABLEFORMAT_BEGIN
 90
        5
170
     1
 91
        0
 92
        0
 62
   257
 93
        1
300
CONTENTFORMAT
  1
CONTENTFORMAT_BEGIN
 90
        0
 91
        0
 92
      512
 93
        0
300

 40
0.0
140
1.0
 94
        5
 62
     3
340
1B
144
3.5
309
CONTENTFORMAT_END
171
     1
301
MARGIN
  1
CELLMARGIN_BEGIN
 40
1.5
 40
1.5
 40
1.5
 40
1.5
 40
0.18
 40
0.18
309
CELLMARGIN_END
 94
        6
 95
        1
302
GRIDFORMAT
  1
GRIDFORMAT_BEGIN
 90
        0
 91
        1
 62
     0
 92
       -2
340
0
 93
        0
 40
0.045
309
GRIDFORMAT_END
 95
        2
302
GRIDFORMAT
  1
GRIDFORMAT_BEGIN
 90
        0
 91
        1
 62
     0
 92
       -2
340
0
 93
        0
 40
0.045
309
GRIDFORMAT_END
 95
        4
302
GRIDFORMAT
  1
GRIDFORMAT_BEGIN
 90
        0
 91
        1
 62
     0
 92
       -2
340
0
 93
        0
 40
0.045
309
GRIDFORMAT_END
 95
        8
302
GRIDFORMAT
  1
GRIDFORMAT_BEGIN
 90
        0
 91
        1
 62
     0
 92
       -2
340
0
 93
        0
 40
0.045
309
GRIDFORMAT_END
 95
       16
302
GRIDFORMAT
  1
GRIDFORMAT_BEGIN
 90
        0
 91
        1
 62
     0
 92
       -2
340
0
 93
        0
 40
0.045
309
GRIDFORMAT_END
 95
       32
302
GRIDFORMAT
  1
GRIDFORMAT_BEGIN
 90
        0
 91
        1
 62
     0
 92
       -2
340
0
 93
        0
 40
0.045
309
GRIDFORMAT_END
309
TABLEFORMAT_END
  1
CELLSTYLE_BEGIN
 90
        2
 91
        1
300
_HEADER
309
CELLSTYLE_END
300
CELLSTYLE
  1
TABLEFORMAT_BEGIN
 90
        5
170
     1
 91
        0
 92
        0
 62
   257
 93
        1
300
CONTENTFORMAT
  1
CONTENTFORMAT_BEGIN
 90
        0
 91
        0
 92
      512
 93
        0
300

 40
0.0
140
1.0
 94
        5
 62
     7
340
1B
144
3.0
309
CONTENTFORMAT_END
171
     1
301
MARGIN
  1
CELLMARGIN_BEGIN
 40
1.5
 40
1.5
 40
1.5
 40
1.5
 40
0.18
 40
0.18
309
CELLMARGIN_END
 94
        6
 95
        1
302
GRIDFORMAT
  1
GRIDFORMAT_BEGIN
 90
        0
 91
        1
 62
     0
 92
       -2
340
0
 93
        0
 40
0.045
309
GRIDFORMAT_END
 95
        2
302
GRIDFORMAT
  1
GRIDFORMAT_BEGIN
 90
        0
 91
        1
 62
     0
 92
       -2
340
0
 93
        0
 40
0.045
309
GRIDFORMAT_END
 95
        4
302
GRIDFORMAT
  1
GRIDFORMAT_BEGIN
 90
        0
 91
        1
 62
     0
 92
       -2
340
0
 93
        0
 40
0.045
309
GRIDFORMAT_END
 95
        8
302
GRIDFORMAT
  1
GRIDFORMAT_BEGIN
 90
        0
 91
        1
 62
     0
 92
       -2
340
0
 93
        0
 40
0.045
309
GRIDFORMAT_END
 95
       16
302
GRIDFORMAT
  1
GRIDFORMAT_BEGIN
 90
        0
 91
        1
 62
     0
 92
       -2
340
0
 93
        0
 40
0.045
309
GRIDFORMAT_END
 95
       32
302
GRIDFORMAT
  1
GRIDFORMAT_BEGIN
 90
        0
 91
        1
 62
     0
 92
       -2
340
0
 93
        0
 40
0.045
309
GRIDFORMAT_END
309
TABLEFORMAT_END
  1
CELLSTYLE_BEGIN
 90
        3
 91
        2
300
_DATA
309
CELLSTYLE_END
  0
CELLSTYLEMAP
  5
A3B
102
{ACAD_REACTORS
330
7CB
102
}
330
7CB
100
AcDbCellStyleMap
 90
        3
300
CELLSTYLE
  1
TABLEFORMAT_BEGIN
 90
        5
170
     1
 91
        0
 92
    32768
 62
   257
 93
        1
300
CONTENTFORMAT
  1
CONTENTFORMAT_BEGIN
 90
        0
 91
        0
 92
      512
 93
        0
300

 40
0.0
140
1.0
 94
        5
 62
     1
340
7CC
144
2.5
309
CONTENTFORMAT_END
171
     1
301
MARGIN
  1
CELLMARGIN_BEGIN
 40
1.0
 40
1.0
 40
1.5
 40
1.5
 40
0.18
 40
0.18
309
CELLMARGIN_END
 94
        6
 95
        1
302
GRIDFORMAT
  1
GRIDFORMAT_BEGIN
 90
        0
 91
        1
 62
     3
 92
       -2
340
5
 93
        0
 40
0.045
309
GRIDFORMAT_END
 95
        2
302
GRIDFORMAT
  1
GRIDFORMAT_BEGIN
 90
        0
 91
        1
 62
     3
 92
       -2
340
5
 93
        0
 40
0.045
309
GRIDFORMAT_END
 95
        4
302
GRIDFORMAT
  1
GRIDFORMAT_BEGIN
 90
        0
 91
        1
 62
     3
 92
       -2
340
5
 93
        0
 40
0.045
309
GRIDFORMAT_END
 95
        8
302
GRIDFORMAT
  1
GRIDFORMAT_BEGIN
 90
        0
 91
        1
 62
     3
 92
       -2
340
5
 93
        0
 40
0.045
309
GRIDFORMAT_END
 95
       16
302
GRIDFORMAT
  1
GRIDFORMAT_BEGIN
 90
        0
 91
        1
 62
     3
 92
       -2
340
5
 93
        0
 40
0.045
309
GRIDFORMAT_END
 95
       32
302
GRIDFORMAT
  1
GRIDFORMAT_BEGIN
 90
        0
 91
        1
 62
     3
 92
       -2
340
5
 93
        0
 40
0.045
309
GRIDFORMAT_END
309
TABLEFORMAT_END
  1
CELLSTYLE_BEGIN
 90
        1
 91
        1
300
_TITLE
309
CELLSTYLE_END
300
CELLSTYLE
  1
TABLEFORMAT_BEGIN
 90
        5
170
     1
 91
        0
 92
        0
 62
   257
 93
        1
300
CONTENTFORMAT
  1
CONTENTFORMAT_BEGIN
 90
        0
 91
        0
 92
      512
 93
        0
300

 40
0.0
140
1.0
 94
        5
 62
     1
340
7CC
144
2.5
309
CONTENTFORMAT_END
171
     1
301
MARGIN
  1
CELLMARGIN_BEGIN
 40
1.0
 40
1.0
 40
1.5
 40
1.5
 40
0.18
 40
0.18
309
CELLMARGIN_END
 94
        6
 95
        1
302
GRIDFORMAT
  1
GRIDFORMAT_BEGIN
 90
        0
 91
        1
 62
     3
 92
       -2
340
5
 93
        0
 40
0.045
309
GRIDFORMAT_END
 95
        2
302
GRIDFORMAT
  1
GRIDFORMAT_BEGIN
 90
        0
 91
        1
 62
     3
 92
       -2
340
5
 93
        0
 40
0.045
309
GRIDFORMAT_END
 95
        4
302
GRIDFORMAT
  1
GRIDFORMAT_BEGIN
 90
        0
 91
        1
 62
     3
 92
       -2
340
5
 93
        0
 40
0.045
309
GRIDFORMAT_END
 95
        8
302
GRIDFORMAT
  1
GRIDFORMAT_BEGIN
 90
        0
 91
        1
 62
     3
 92
       -2
340
5
 93
        0
 40
0.045
309
GRIDFORMAT_END
 95
       16
302
GRIDFORMAT
  1
GRIDFORMAT_BEGIN
 90
        0
 91
        1
 62
     1
 92
       -2
340
5
 93
        0
 40
0.045
309
GRIDFORMAT_END
 95
       32
302
GRIDFORMAT
  1
GRIDFORMAT_BEGIN
 90
        0
 91
        1
 62
     1
 92
       -2
340
5
 93
        0
 40
0.045
309
GRIDFORMAT_END
309
TABLEFORMAT_END
  1
CELLSTYLE_BEGIN
 90
        2
 91
        1
300
_HEADER
309
CELLSTYLE_END
300
CELLSTYLE
  1
TABLEFORMAT_BEGIN
 90
        5
170
     1
 91
        0
 92
        0
 62
   257
 93
        1
300
CONTENTFORMAT
  1
CONTENTFORMAT_BEGIN
 90
        0
 91
        0
 92
      512
 93
        0
300

 40
0.0
140
1.0
 94
        4
 62
     7
340
7CC
144
2.5
309
CONTENTFORMAT_END
171
     1
301
MARGIN
  1
CELLMARGIN_BEGIN
 40
1.0
 40
1.0
 40
1.5
 40
1.5
 40
0.18
 40
0.18
309
CELLMARGIN_END
 94
        6
 95
        1
302
GRIDFORMAT
  1
GRIDFORMAT_BEGIN
 90
        0
 91
        1
 62
     3
 92
       -2
340
5
 93
        0
 40
0.045
309
GRIDFORMAT_END
 95
        2
302
GRIDFORMAT
  1
GRIDFORMAT_BEGIN
 90
        0
 91
        1
 62
     3
 92
       -2
340
5
 93
        0
 40
0.045
309
GRIDFORMAT_END
 95
        4
302
GRIDFORMAT
  1
GRIDFORMAT_BEGIN
 90
        0
 91
        1
 62
     3
 92
       -2
340
5
 93
        0
 40
0.045
309
GRIDFORMAT_END
 95
        8
302
GRIDFORMAT
  1
GRIDFORMAT_BEGIN
 90
        0
 91
        1
 62
     3
 92
       -2
340
5
 93
        0
 40
0.045
309
GRIDFORMAT_END
 95
       16
302
GRIDFORMAT
  1
GRIDFORMAT_BEGIN
 90
        0
 91
        1
 62
     1
 92
       -2
340
5
 93
        0
 40
0.045
309
GRIDFORMAT_END
 95
       32
302
GRIDFORMAT
  1
GRIDFORMAT_BEGIN
 90
        0
 91
        1
 62
     1
 92
       -2
340
5
 93
        0
 40
0.045
309
GRIDFORMAT_END
309
TABLEFORMAT_END
  1
CELLSTYLE_BEGIN
 90
        3
 91
        2
300
_DATA
309
CELLSTYLE_END
  0
CELLSTYLEMAP
  5
A39
102
{ACAD_REACTORS
330
364
102
}
330
364
100
AcDbCellStyleMap
 90
        3
300
CELLSTYLE
  1
TABLEFORMAT_BEGIN
 90
        5
170
     1
 91
        0
 92
    32768
 62
   257
 93
        1
300
CONTENTFORMAT
  1
CONTENTFORMAT_BEGIN
 90
        0
 91
        0
 92
      512
 93
        0
300

 40
0.0
140
1.0
 94
        5
 62
     1
340
1B
144
6.0
309
CONTENTFORMAT_END
171
     1
301
MARGIN
  1
CELLMARGIN_BEGIN
 40
1.5
 40
1.5
 40
1.5
 40
1.5
 40
0.18
 40
0.18
309
CELLMARGIN_END
 94
        6
 95
        1
302
GRIDFORMAT
  1
GRIDFORMAT_BEGIN
 90
        0
 91
        1
 62
     0
 92
       -2
340
0
 93
        0
 40
0.045
309
GRIDFORMAT_END
 95
        2
302
GRIDFORMAT
  1
GRIDFORMAT_BEGIN
 90
        0
 91
        1
 62
     0
 92
       -2
340
0
 93
        0
 40
0.045
309
GRIDFORMAT_END
 95
        4
302
GRIDFORMAT
  1
GRIDFORMAT_BEGIN
 90
        0
 91
        1
 62
     0
 92
       -2
340
0
 93
        0
 40
0.045
309
GRIDFORMAT_END
 95
        8
302
GRIDFORMAT
  1
GRIDFORMAT_BEGIN
 90
        0
 91
        1
 62
     0
 92
       -2
340
0
 93
        0
 40
0.045
309
GRIDFORMAT_END
 95
       16
302
GRIDFORMAT
  1
GRIDFORMAT_BEGIN
 90
        0
 91
        1
 62
     0
 92
       -2
340
0
 93
        0
 40
0.045
309
GRIDFORMAT_END
 95
       32
302
GRIDFORMAT
  1
GRIDFORMAT_BEGIN
 90
        0
 91
        1
 62
     0
 92
       -2
340
0
 93
        0
 40
0.045
309
GRIDFORMAT_END
309
TABLEFORMAT_END
  1
CELLSTYLE_BEGIN
 90
        1
 91
        1
300
_TITLE
309
CELLSTYLE_END
300
CELLSTYLE
  1
TABLEFORMAT_BEGIN
 90
        5
170
     1
 91
        0
 92
        0
 62
   257
 93
        1
300
CONTENTFORMAT
  1
CONTENTFORMAT_BEGIN
 90
        0
 91
        0
 92
      512
 93
        0
300

 40
0.0
140
1.0
 94
        5
 62
     3
340
1B
144
5.0
309
CONTENTFORMAT_END
171
     1
301
MARGIN
  1
CELLMARGIN_BEGIN
 40
1.5
 40
1.5
 40
1.5
 40
1.5
 40
0.18
 40
0.18
309
CELLMARGIN_END
 94
        6
 95
        1
302
GRIDFORMAT
  1
GRIDFORMAT_BEGIN
 90
        0
 91
        1
 62
     0
 92
       -2
340
0
 93
        0
 40
0.045
309
GRIDFORMAT_END
 95
        2
302
GRIDFORMAT
  1
GRIDFORMAT_BEGIN
 90
        0
 91
        1
 62
     0
 92
       -2
340
0
 93
        0
 40
0.045
309
GRIDFORMAT_END
 95
        4
302
GRIDFORMAT
  1
GRIDFORMAT_BEGIN
 90
        0
 91
        1
 62
     0
 92
       -2
340
0
 93
        0
 40
0.045
309
GRIDFORMAT_END
 95
        8
302
GRIDFORMAT
  1
GRIDFORMAT_BEGIN
 90
        0
 91
        1
 62
     0
 92
       -2
340
0
 93
        0
 40
0.045
309
GRIDFORMAT_END
 95
       16
302
GRIDFORMAT
  1
GRIDFORMAT_BEGIN
 90
        0
 91
        1
 62
     0
 92
       -2
340
0
 93
        0
 40
0.045
309
GRIDFORMAT_END
 95
       32
302
GRIDFORMAT
  1
GRIDFORMAT_BEGIN
 90
        0
 91
        1
 62
     0
 92
       -2
340
0
 93
        0
 40
0.045
309
GRIDFORMAT_END
309
TABLEFORMAT_END
  1
CELLSTYLE_BEGIN
 90
        2
 91
        1
300
_HEADER
309
CELLSTYLE_END
300
CELLSTYLE
  1
TABLEFORMAT_BEGIN
 90
        5
170
     1
 91
        0
 92
        0
 62
   257
 93
        1
300
CONTENTFORMAT
  1
CONTENTFORMAT_BEGIN
 90
        0
 91
        0
 92
      512
 93
        0
300

 40
0.0
140
1.0
 94
        5
 62
     7
340
1B
144
4.5
309
CONTENTFORMAT_END
171
     1
301
MARGIN
  1
CELLMARGIN_BEGIN
 40
1.5
 40
1.5
 40
1.5
 40
1.5
 40
0.18
 40
0.18
309
CELLMARGIN_END
 94
        6
 95
        1
302
GRIDFORMAT
  1
GRIDFORMAT_BEGIN
 90
        0
 91
        1
 62
     0
 92
       -2
340
0
 93
        0
 40
0.045
309
GRIDFORMAT_END
 95
        2
302
GRIDFORMAT
  1
GRIDFORMAT_BEGIN
 90
        0
 91
        1
 62
     0
 92
       -2
340
0
 93
        0
 40
0.045
309
GRIDFORMAT_END
 95
        4
302
GRIDFORMAT
  1
GRIDFORMAT_BEGIN
 90
        0
 91
        1
 62
     0
 92
       -2
340
0
 93
        0
 40
0.045
309
GRIDFORMAT_END
 95
        8
302
GRIDFORMAT
  1
GRIDFORMAT_BEGIN
 90
        0
 91
        1
 62
     0
 92
       -2
340
0
 93
        0
 40
0.045
309
GRIDFORMAT_END
 95
       16
302
GRIDFORMAT
  1
GRIDFORMAT_BEGIN
 90
        0
 91
        1
 62
     0
 92
       -2
340
0
 93
        0
 40
0.045
309
GRIDFORMAT_END
 95
       32
302
GRIDFORMAT
  1
GRIDFORMAT_BEGIN
 90
        0
 91
        1
 62
     0
 92
       -2
340
0
 93
        0
 40
0.045
309
GRIDFORMAT_END
309
TABLEFORMAT_END
  1
CELLSTYLE_BEGIN
 90
        3
 91
        2
300
_DATA
309
CELLSTYLE_END
  0
CELLSTYLEMAP
  5
A3C
102
{ACAD_REACTORS
330
7D0
102
}
330
7D0
100
AcDbCellStyleMap
 90
        3
300
CELLSTYLE
  1
TABLEFORMAT_BEGIN
 90
        5
170
     1
 91
        0
 92
    32768
 62
   257
 93
        1
300
CONTENTFORMAT
  1
CONTENTFORMAT_BEGIN
 90
        0
 91
        0
 92
      512
 93
        0
300

 40
0.0
140
1.0
 94
        5
 62
     7
340
7CC
144
2.5
309
CONTENTFORMAT_END
171
     1
301
MARGIN
  1
CELLMARGIN_BEGIN
 40
1.5
 40
1.5
 40
1.5
 40
1.5
 40
0.18
 40
0.18
309
CELLMARGIN_END
 94
        6
 95
        1
302
GRIDFORMAT
  1
GRIDFORMAT_BEGIN
 90
        0
 91
        1
 62
     3
 92
       -2
340
5
 93
        0
 40
0.045
309
GRIDFORMAT_END
 95
        2
302
GRIDFORMAT
  1
GRIDFORMAT_BEGIN
 90
        0
 91
        1
 62
     3
 92
       -2
340
5
 93
        0
 40
0.045
309
GRIDFORMAT_END
 95
        4
302
GRIDFORMAT
  1
GRIDFORMAT_BEGIN
 90
        0
 91
        1
 62
     3
 92
       -2
340
5
 93
        0
 40
0.045
309
GRIDFORMAT_END
 95
        8
302
GRIDFORMAT
  1
GRIDFORMAT_BEGIN
 90
        0
 91
        1
 62
     3
 92
       -2
340
5
 93
        0
 40
0.045
309
GRIDFORMAT_END
 95
       16
302
GRIDFORMAT
  1
GRIDFORMAT_BEGIN
 90
        0
 91
        1
 62
     3
 92
       -2
340
5
 93
        0
 40
0.045
309
GRIDFORMAT_END
 95
       32
302
GRIDFORMAT
  1
GRIDFORMAT_BEGIN
 90
        0
 91
        1
 62
     3
 92
       -2
340
5
 93
        0
 40
0.045
309
GRIDFORMAT_END
309
TABLEFORMAT_END
  1
CELLSTYLE_BEGIN
 90
        1
 91
        1
300
_TITLE
309
CELLSTYLE_END
300
CELLSTYLE
  1
TABLEFORMAT_BEGIN
 90
        5
170
     1
 91
        0
 92
        0
 62
   257
 93
        1
300
CONTENTFORMAT
  1
CONTENTFORMAT_BEGIN
 90
        0
 91
        0
 92
      512
 93
        0
300

 40
0.0
140
1.0
 94
        5
 62
     7
340
7CC
144
1.75
309
CONTENTFORMAT_END
171
     1
301
MARGIN
  1
CELLMARGIN_BEGIN
 40
1.5
 40
1.5
 40
1.5
 40
1.5
 40
0.18
 40
0.18
309
CELLMARGIN_END
 94
        6
 95
        1
302
GRIDFORMAT
  1
GRIDFORMAT_BEGIN
 90
        0
 91
        1
 62
     3
 92
       -2
340
5
 93
        0
 40
0.045
309
GRIDFORMAT_END
 95
        2
302
GRIDFORMAT
  1
GRIDFORMAT_BEGIN
 90
        0
 91
        1
 62
     3
 92
       -2
340
5
 93
        0
 40
0.045
309
GRIDFORMAT_END
 95
        4
302
GRIDFORMAT
  1
GRIDFORMAT_BEGIN
 90
        0
 91
        1
 62
     3
 92
       -2
340
5
 93
        0
 40
0.045
309
GRIDFORMAT_END
 95
        8
302
GRIDFORMAT
  1
GRIDFORMAT_BEGIN
 90
        0
 91
        1
 62
     3
 92
       -2
340
5
 93
        0
 40
0.045
309
GRIDFORMAT_END
 95
       16
302
GRIDFORMAT
  1
GRIDFORMAT_BEGIN
 90
        0
 91
        1
 62
     3
 92
       -2
340
5
 93
        0
 40
0.045
309
GRIDFORMAT_END
 95
       32
302
GRIDFORMAT
  1
GRIDFORMAT_BEGIN
 90
        0
 91
        1
 62
     3
 92
       -2
340
5
 93
        0
 40
0.045
309
GRIDFORMAT_END
309
TABLEFORMAT_END
  1
CELLSTYLE_BEGIN
 90
        2
 91
        1
300
_HEADER
309
CELLSTYLE_END
300
CELLSTYLE
  1
TABLEFORMAT_BEGIN
 90
        5
170
     1
 91
        0
 92
        0
 62
   257
 93
        1
300
CONTENTFORMAT
  1
CONTENTFORMAT_BEGIN
 90
        0
 91
        0
 92
      512
 93
        0
300

 40
0.0
140
1.0
 94
        4
 62
     2
340
7CC
144
2.5
309
CONTENTFORMAT_END
171
     1
301
MARGIN
  1
CELLMARGIN_BEGIN
 40
1.5
 40
1.5
 40
1.5
 40
1.5
 40
0.18
 40
0.18
309
CELLMARGIN_END
 94
        6
 95
        1
302
GRIDFORMAT
  1
GRIDFORMAT_BEGIN
 90
        0
 91
        1
 62
     3
 92
       -2
340
5
 93
        0
 40
0.045
309
GRIDFORMAT_END
 95
        2
302
GRIDFORMAT
  1
GRIDFORMAT_BEGIN
 90
        0
 91
        1
 62
     3
 92
       -2
340
5
 93
        0
 40
0.045
309
GRIDFORMAT_END
 95
        4
302
GRIDFORMAT
  1
GRIDFORMAT_BEGIN
 90
        0
 91
        1
 62
     3
 92
       -2
340
5
 93
        0
 40
0.045
309
GRIDFORMAT_END
 95
        8
302
GRIDFORMAT
  1
GRIDFORMAT_BEGIN
 90
        0
 91
        1
 62
     3
 92
       -2
340
5
 93
        0
 40
0.045
309
GRIDFORMAT_END
 95
       16
302
GRIDFORMAT
  1
GRIDFORMAT_BEGIN
 90
        0
 91
        1
 62
     3
 92
       -2
340
5
 93
        0
 40
0.045
309
GRIDFORMAT_END
 95
       32
302
GRIDFORMAT
  1
GRIDFORMAT_BEGIN
 90
        0
 91
        1
 62
     3
 92
       -2
340
5
 93
        0
 40
0.045
309
GRIDFORMAT_END
309
TABLEFORMAT_END
  1
CELLSTYLE_BEGIN
 90
        3
 91
        2
300
_DATA
309
CELLSTYLE_END
  0
CELLSTYLEMAP
  5
A38
102
{ACAD_REACTORS
330
362
102
}
330
362
100
AcDbCellStyleMap
 90
        3
300
CELLSTYLE
  1
TABLEFORMAT_BEGIN
 90
        5
170
     1
 91
        0
 92
    32768
 62
   257
 93
        1
300
CONTENTFORMAT
  1
CONTENTFORMAT_BEGIN
 90
        0
 91
        0
 92
      512
 93
        0
300

 40
0.0
140
1.0
 94
        5
 62
     0
340
C
144
6.0
309
CONTENTFORMAT_END
171
     1
301
MARGIN
  1
CELLMARGIN_BEGIN
 40
1.5
 40
1.5
 40
1.5
 40
1.5
 40
0.18
 40
0.18
309
CELLMARGIN_END
 94
        6
 95
        1
302
GRIDFORMAT
  1
GRIDFORMAT_BEGIN
 90
        0
 91
        1
 62
     0
 92
       -2
340
0
 93
        0
 40
0.045
309
GRIDFORMAT_END
 95
        2
302
GRIDFORMAT
  1
GRIDFORMAT_BEGIN
 90
        0
 91
        1
 62
     0
 92
       -2
340
0
 93
        0
 40
0.045
309
GRIDFORMAT_END
 95
        4
302
GRIDFORMAT
  1
GRIDFORMAT_BEGIN
 90
        0
 91
        1
 62
     0
 92
       -2
340
0
 93
        0
 40
0.045
309
GRIDFORMAT_END
 95
        8
302
GRIDFORMAT
  1
GRIDFORMAT_BEGIN
 90
        0
 91
        1
 62
     0
 92
       -2
340
0
 93
        0
 40
0.045
309
GRIDFORMAT_END
 95
       16
302
GRIDFORMAT
  1
GRIDFORMAT_BEGIN
 90
        0
 91
        1
 62
     0
 92
       -2
340
0
 93
        0
 40
0.045
309
GRIDFORMAT_END
 95
       32
302
GRIDFORMAT
  1
GRIDFORMAT_BEGIN
 90
        0
 91
        1
 62
     0
 92
       -2
340
0
 93
        0
 40
0.045
309
GRIDFORMAT_END
309
TABLEFORMAT_END
  1
CELLSTYLE_BEGIN
 90
        1
 91
        1
300
_TITLE
309
CELLSTYLE_END
300
CELLSTYLE
  1
TABLEFORMAT_BEGIN
 90
        5
170
     1
 91
        0
 92
        0
 62
   257
 93
        1
300
CONTENTFORMAT
  1
CONTENTFORMAT_BEGIN
 90
        0
 91
        0
 92
      512
 93
        0
300

 40
0.0
140
1.0
 94
        5
 62
     0
340
C
144
4.5
309
CONTENTFORMAT_END
171
     1
301
MARGIN
  1
CELLMARGIN_BEGIN
 40
1.5
 40
1.5
 40
1.5
 40
1.5
 40
0.18
 40
0.18
309
CELLMARGIN_END
 94
        6
 95
        1
302
GRIDFORMAT
  1
GRIDFORMAT_BEGIN
 90
        0
 91
        1
 62
     0
 92
       -2
340
0
 93
        0
 40
0.045
309
GRIDFORMAT_END
 95
        2
302
GRIDFORMAT
  1
GRIDFORMAT_BEGIN
 90
        0
 91
        1
 62
     0
 92
       -2
340
0
 93
        0
 40
0.045
309
GRIDFORMAT_END
 95
        4
302
GRIDFORMAT
  1
GRIDFORMAT_BEGIN
 90
        0
 91
        1
 62
     0
 92
       -2
340
0
 93
        0
 40
0.045
309
GRIDFORMAT_END
 95
        8
302
GRIDFORMAT
  1
GRIDFORMAT_BEGIN
 90
        0
 91
        1
 62
     0
 92
       -2
340
0
 93
        0
 40
0.045
309
GRIDFORMAT_END
 95
       16
302
GRIDFORMAT
  1
GRIDFORMAT_BEGIN
 90
        0
 91
        1
 62
     0
 92
       -2
340
0
 93
        0
 40
0.045
309
GRIDFORMAT_END
 95
       32
302
GRIDFORMAT
  1
GRIDFORMAT_BEGIN
 90
        0
 91
        1
 62
     0
 92
       -2
340
0
 93
        0
 40
0.045
309
GRIDFORMAT_END
309
TABLEFORMAT_END
  1
CELLSTYLE_BEGIN
 90
        2
 91
        1
300
_HEADER
309
CELLSTYLE_END
300
CELLSTYLE
  1
TABLEFORMAT_BEGIN
 90
        5
170
     1
 91
        0
 92
        0
 62
   257
 93
        1
300
CONTENTFORMAT
  1
CONTENTFORMAT_BEGIN
 90
        0
 91
        0
 92
      512
 93
        0
300

 40
0.0
140
1.0
 94
        2
 62
     0
340
C
144
4.5
309
CONTENTFORMAT_END
171
     1
301
MARGIN
  1
CELLMARGIN_BEGIN
 40
1.5
 40
1.5
 40
1.5
 40
1.5
 40
0.18
 40
0.18
309
CELLMARGIN_END
 94
        6
 95
        1
302
GRIDFORMAT
  1
GRIDFORMAT_BEGIN
 90
        0
 91
        1
 62
     0
 92
       -2
340
0
 93
        0
 40
0.045
309
GRIDFORMAT_END
 95
        2
302
GRIDFORMAT
  1
GRIDFORMAT_BEGIN
 90
        0
 91
        1
 62
     0
 92
       -2
340
0
 93
        0
 40
0.045
309
GRIDFORMAT_END
 95
        4
302
GRIDFORMAT
  1
GRIDFORMAT_BEGIN
 90
        0
 91
        1
 62
     0
 92
       -2
340
0
 93
        0
 40
0.045
309
GRIDFORMAT_END
 95
        8
302
GRIDFORMAT
  1
GRIDFORMAT_BEGIN
 90
        0
 91
        1
 62
     0
 92
       -2
340
0
 93
        0
 40
0.045
309
GRIDFORMAT_END
 95
       16
302
GRIDFORMAT
  1
GRIDFORMAT_BEGIN
 90
        0
 91
        1
 62
     0
 92
       -2
340
0
 93
        0
 40
0.045
309
GRIDFORMAT_END
 95
       32
302
GRIDFORMAT
  1
GRIDFORMAT_BEGIN
 90
        0
 91
        1
 62
     0
 92
       -2
340
0
 93
        0
 40
0.045
309
GRIDFORMAT_END
309
TABLEFORMAT_END
  1
CELLSTYLE_BEGIN
 90
        3
 91
        2
300
_DATA
309
CELLSTYLE_END
  0
XRECORD
  5
8D0
102
{ACAD_REACTORS
330
8CF
102
}
330
8CF
100
AcDbXrecord
280
     1
102
qsTableStyle
  1
QS
102
usesAcadTableStyle
 90
        0
102
sommaQtaSoloPrtConStessoPos
 90
        0
102
ricalcolaPosAttrDaAttrRaggruppamento
 90
        0
102
azionePallinaParte
 90
        1
102
posMask
  1
{POS.}
102
tableFitCellText
 90
        1
102
attrSortTab
  1
POS.
102
simplifyPallOnStretch
 90
        1
102
distPall
 40
15.0
102
sortByTree
 90
        0
  0
ENDSEC
  0
SECTION
  2
ACDSDATA
 70
     2
 71
     6
  0
ACDSSCHEMA
 90
        0
  1
AcDb_Thumbnail_Schema
  2
AcDbDs::ID
280
    10
 91
        8
  2
Thumbnail_Data
280
    15
 91
        0
101
ACDSRECORD
 95
        0
 90
        1
  2
AcDbDs::TreatedAsObjectData
280
     1
291
     1
101
ACDSRECORD
 95
        0
 90
        2
  2
AcDbDs::Legacy
280
     1
291
     1
101
ACDSRECORD
  1
AcDbDs::ID
 90
        3
  2
AcDs:Indexable
280
     1
291
     1
101
ACDSRECORD
  1
AcDbDs::ID
 90
        4
  2
AcDbDs::HandleAttribute
280
     7
282
     1
  0
ACDSSCHEMA
 90
        1
  1
AcDbDs::TreatedAsObjectDataSchema
  2
AcDbDs::TreatedAsObjectData
280
     1
 91
        0
  0
ACDSSCHEMA
 90
        2
  1
AcDbDs::LegacySchema
  2
AcDbDs::Legacy
280
     1
 91
        0
  0
ACDSSCHEMA
 90
        3
  1
AcDbDs::IndexedPropertySchema
  2
AcDs:Indexable
280
     1
 91
        0
  0
ACDSSCHEMA
 90
        4
  1
AcDbDs::HandleAttributeSchema
  2
AcDbDs::HandleAttribute
280
     7
 91
        1
284
     1
  0
ACDSRECORD
 90
        0
  2
AcDbDs::ID
280
    10
320
47
  2
Thumbnail_Data
280
    15
 94
     1324
310
89504E470D0A1A0A0000000D49484452000001000000007108030000000DA58D8400000300504C5445000000000000C8C8C80000000000000000000000000000000000000000000000000000330000660000990000CC0000FF0033000033330033660033990033CC0033FF0066000066330066660066990066CC0066FF0099
310
000099330099660099990099CC0099FF00CC0000CC3300CC6600CC9900CCCC00CCFF00FF0000FF3300FF6600FF9900FFCC00FFFF3300003300333300663300993300CC3300FF3333003333333333663333993333CC3333FF3366003366333366663366993366CC3366FF3399003399333399663399993399CC3399FF33CC00
310
33CC3333CC6633CC9933CCCC33CCFF33FF0033FF3333FF6633FF9933FFCC33FFFF6600006600336600666600996600CC6600FF6633006633336633666633996633CC6633FF6666006666336666666666996666CC6666FF6699006699336699666699996699CC6699FF66CC0066CC3366CC6666CC9966CCCC66CCFF66FF0066
310
FF3366FF6666FF9966FFCC66FFFF9900009900339900669900999900CC9900FF9933009933339933669933999933CC9933FF9966009966339966669966999966CC9966FF9999009999339999669999999999CC9999FF99CC0099CC3399CC6699CC9999CCCC99CCFF99FF0099FF3399FF6699FF9999FFCC99FFFFCC0000CC00
310
33CC0066CC0099CC00CCCC00FFCC3300CC3333CC3366CC3399CC33CCCC33FFCC6600CC6633CC6666CC6699CC66CCCC66FFCC9900CC9933CC9966CC9999CC99CCCC99FFCCCC00CCCC33CCCC66CCCC99CCCCCCCCCCFFCCFF00CCFF33CCFF66CCFF99CCFFCCCCFFFFFF0000FF0033FF0066FF0099FF00CCFF00FFFF3300FF3333
310
FF3366FF3399FF33CCFF33FFFF6600FF6633FF6666FF6699FF66CCFF66FFFF9900FF9933FF9966FF9999FF99CCFF99FFFFCC00FFCC33FFCC66FFCC99FFCCCCFFCCFFFFFF00FFFF33FFFF66FFFF99FFFFCCFFFFFF0000000D0D0D1A1A1A2828283535354343435050505D5D5D6B6B6B787878868686939393A1A1A1AEAEAEBB
310
BBBBC9C9C9D6D6D6E4E4E4F1F1F1FFFFFF00000000000000000000000000000000000000000000000000000000000008F1915C000001E74944415478DAED9DD1B282301043FBFFFF9BF7FBA08E56855BB05B369BF4110726395DC0D16EDADA8503B7D1F446EF1C522076AC2A50F8DF60690463E6CA2218375612C13153E510
310
6C18DA7D2216B7FFF4BEF50EAC830023F3FEED600D04BD8BFD57FDC7A72836FD2353FA06AC92FFD18A06CADC06AFEA8F38E9119498FEA313D9A1E3F77FA68E01F2DBE0A9FAACFE5704D4D37FF14588FD131398269C9500A6C906258099AA1909CCD5CC4760B6623602F3F5721188504B4500115AC10320482A0D81B0626521
310
10A6930440E0D38A8340A04A79008F6B42D53F4509C46ACC5F02C17394BF04A2158204009A2880F8124D4E205E9E3C80FBB521EB3F77091880012CD00603480B604D7526BE070CC00096288301188001A404B0EAE994F629B86C66600006600006901680F05BC05F840CC0000CC0BF0718803200FF2C6E000BAAD37F8D1940
310
6200F2EB03BC42447E8D90FC2A31AF135CB352D46B85550150340CA8F70BB86344BE6748BE6BCC7D83F29DA3EE1D76F7B87C7E8013249C21E21419E70839494A3E4BCC6972BFC629F6E7B1272AFE9C28D948877AA6E8B950DD0FFB6572754FE60A37F2A19E2CFD6EE158B678C574F5B61524FFED602B3206F617183CAB1482
310
A6B3C3C47143E2DBAC886FB423BED592C0665BD27B8D756F7DCDDDE6B6395C33FE005A2C32DB45B407060000000049454E44AE426082
  0
ENDSEC
  0
EOF
