  0
SECTION
  2
HEADER
  9
$ACADVER
  1
AC1024
  9
$ACADMAINTVER
 70
   206
  9
$DWGCODEPAGE
  3
ANSI_1252
  9
$AUTHOR
  1
fzagni
  9
$REVISIONNUMBER
  1
A
  9
$CUSTOMPROPERTYTAG
  1
Responsabile
  9
$CUSTOMPROPERTY
  1

  9
$CUSTOMPROPERTYTAG
  1
Società
  9
$CUSTOMPROPERTY
  1

  9
$CUSTOMPROPERTYTAG
  1
Categoria
  9
$CUSTOMPROPERTY
  1

  9
$CUSTOMPROPERTYTAG
  1
Numero parte
  9
$CUSTOMPROPERTY
  1

  9
$CUSTOMPROPERTYTAG
  1
Descrizione
  9
$CUSTOMPROPERTY
  1

  9
$CUSTOMPROPERTYTAG
  1
Progetto
  9
$CUSTOMPROPERTY
  1

  9
$CUSTOMPROPERTYTAG
  1
Progettista
  9
$CUSTOMPROPERTY
  1
fzagni
  9
$CUSTOMPROPERTYTAG
  1
Ingegnere
  9
$CUSTOMPROPERTY
  1

  9
$CUSTOMPROPERTYTAG
  1
Autorità
  9
$CUSTOMPROPERTY
  1

  9
$CUSTOMPROPERTYTAG
  1
Centro gestione costi
  9
$CUSTOMPROPERTY
  1

  9
$CUSTOMPROPERTYTAG
  1
Costo
  9
$CUSTOMPROPERTY
  1

  9
$CUSTOMPROPERTYTAG
  1
Fornitore
  9
$CUSTOMPROPERTY
  1

  9
$CUSTOMPROPERTYTAG
  1
Stato utente
  9
$CUSTOMPROPERTY
  1

  9
$CUSTOMPROPERTYTAG
  1
Stato progetto
  9
$CUSTOMPROPERTY
  1
In corso
  9
$CUSTOMPROPERTYTAG
  1
Verificato da
  9
$CUSTOMPROPERTY
  1

  9
$CUSTOMPROPERTYTAG
  1
Progett. approvata da
  9
$CUSTOMPROPERTY
  1

  9
$CUSTOMPROPERTYTAG
  1
Prod. approvata da
  9
$CUSTOMPROPERTY
  1

  9
$CUSTOMPROPERTYTAG
  1
Data creazione
  9
$CUSTOMPROPERTY
  1
07/13/2017
  9
$CUSTOMPROPERTYTAG
  1
Numero di magazzino
  9
$CUSTOMPROPERTY
  1

  9
$CUSTOMPROPERTYTAG
  1
Codice Articolo
  9
$CUSTOMPROPERTY
  1

  9
$CUSTOMPROPERTYTAG
  1
PRMT_ClassIntName
  9
$CUSTOMPROPERTY
  1
DR_Albero_RI
  9
$CUSTOMPROPERTYTAG
  1
CLIENTE
  9
$CUSTOMPROPERTY
  1

  9
$CUSTOMPROPERTYTAG
  1
COD_CLIENTE
  9
$CUSTOMPROPERTY
  1

  9
$CUSTOMPROPERTYTAG
  1
CODICE_MATERIALE
  9
$CUSTOMPROPERTY
  1

  9
$CUSTOMPROPERTYTAG
  1
DESCRIZIONE2
  9
$CUSTOMPROPERTY
  1

  9
$CUSTOMPROPERTYTAG
  1
DIM1
  9
$CUSTOMPROPERTY
  1

  9
$CUSTOMPROPERTYTAG
  1
DIM2
  9
$CUSTOMPROPERTY
  1

  9
$CUSTOMPROPERTYTAG
  1
MOD_REV
  9
$CUSTOMPROPERTY
  1

  9
$CUSTOMPROPERTYTAG
  1
PESO
  9
$CUSTOMPROPERTY
  1

  9
$CUSTOMPROPERTYTAG
  1
REV
  9
$CUSTOMPROPERTY
  1
A
  9
$CUSTOMPROPERTYTAG
  1
RIF_ORDINE
  9
$CUSTOMPROPERTY
  1

  9
$CUSTOMPROPERTYTAG
  1
SOVRAMETALLO
  9
$CUSTOMPROPERTY
  1

  9
$CUSTOMPROPERTYTAG
  1
SPECIFICHE_TAGLIO
  9
$CUSTOMPROPERTY
  1

  9
$CUSTOMPROPERTYTAG
  1
TIPO_MAT
  9
$CUSTOMPROPERTY
  1

  9
$CUSTOMPROPERTYTAG
  1
TRATT_TERM
  9
$CUSTOMPROPERTY
  1

  9
$CUSTOMPROPERTYTAG
  1
TRATTAMENTI
  9
$CUSTOMPROPERTY
  1

  9
$CUSTOMPROPERTYTAG
  1
UM
  9
$CUSTOMPROPERTY
  1

  9
$CUSTOMPROPERTYTAG
  1
D_Bollatura
  9
$CUSTOMPROPERTY
  1
 - x
  9
$INSBASE
 10
0.0
 20
0.0
 30
0.0
  9
$EXTMIN
 10
0.0
 20
0.0
 30
0.0
  9
$EXTMAX
 10
420.0
 20
297.0
 30
0.0
  9
$LIMMIN
 10
0.0
 20
0.0
  9
$LIMMAX
 10
420.0
 20
297.0
  9
$ORTHOMODE
 70
     0
  9
$REGENMODE
 70
     1
  9
$FILLMODE
 70
     1
  9
$QTEXTMODE
 70
     0
  9
$MIRRTEXT
 70
     0
  9
$LTSCALE
 40
1.0
  9
$ATTMODE
 70
     1
  9
$TEXTSIZE
 40
0.2
  9
$TRACEWID
 40
0.05
  9
$TEXTSTYLE
  7
Standard
  9
$CLAYER
  8
0
  9
$CELTYPE
  6
ByLayer
  9
$CECOLOR
 62
   256
  9
$CELTSCALE
 40
1.0
  9
$DISPSILH
 70
     0
  9
$DIMSCALE
 40
1.0
  9
$DIMASZ
 40
1.799999999999999
  9
$DIMEXO
 40
0.0625
  9
$DIMDLI
 40
0.38
  9
$DIMRND
 40
0.0
  9
$DIMDLE
 40
0.0
  9
$DIMEXE
 40
0.18
  9
$DIMTP
 40
0.0
  9
$DIMTM
 40
0.0
  9
$DIMTXT
 40
0.3000000119209289
  9
$DIMCEN
 40
0.09
  9
$DIMTSZ
 40
0.0
  9
$DIMTOL
 70
     0
  9
$DIMLIM
 70
     0
  9
$DIMTIH
 70
     1
  9
$DIMTOH
 70
     1
  9
$DIMSE1
 70
     0
  9
$DIMSE2
 70
     0
  9
$DIMTAD
 70
     0
  9
$DIMZIN
 70
     0
  9
$DIMBLK
  1

  9
$DIMASO
 70
     1
  9
$DIMSHO
 70
     1
  9
$DIMPOST
  1

  9
$DIMAPOST
  1

  9
$DIMALT
 70
     0
  9
$DIMALTD
 70
     2
  9
$DIMALTF
 40
25.4
  9
$DIMLFAC
 40
1.0
  9
$DIMTOFL
 70
     0
  9
$DIMTVP
 40
0.0
  9
$DIMTIX
 70
     0
  9
$DIMSOXD
 70
     0
  9
$DIMSAH
 70
     0
  9
$DIMBLK1
  1

  9
$DIMBLK2
  1

  9
$DIMSTYLE
  2
Standard
  9
$DIMCLRD
 70
     0
  9
$DIMCLRE
 70
     0
  9
$DIMCLRT
 70
     0
  9
$DIMTFAC
 40
1.0
  9
$DIMGAP
 40
0.09
  9
$DIMJUST
 70
     0
  9
$DIMSD1
 70
     0
  9
$DIMSD2
 70
     0
  9
$DIMTOLJ
 70
     1
  9
$DIMTZIN
 70
     0
  9
$DIMALTZ
 70
     0
  9
$DIMALTTZ
 70
     0
  9
$DIMUPT
 70
     0
  9
$DIMDEC
 70
     4
  9
$DIMTDEC
 70
     4
  9
$DIMALTU
 70
     2
  9
$DIMALTTD
 70
     2
  9
$DIMTXSTY
  7
Standard
  9
$DIMAUNIT
 70
     0
  9
$DIMADEC
 70
     0
  9
$DIMALTRND
 40
0.0
  9
$DIMAZIN
 70
     0
  9
$DIMDSEP
 70
    46
  9
$DIMATFIT
 70
     3
  9
$DIMFRAC
 70
     0
  9
$DIMLDRBLK
  1

  9
$DIMLUNIT
 70
     2
  9
$DIMLWD
 70
    -2
  9
$DIMLWE
 70
    -2
  9
$DIMTMOVE
 70
     0
  9
$DIMFXL
 40
1.0
  9
$DIMFXLON
 70
     0
  9
$DIMJOGANG
 40
0.7853981633974483
  9
$DIMTFILL
 70
     0
  9
$DIMTFILLCLR
 70
     0
  9
$DIMARCSYM
 70
     0
  9
$DIMLTYPE
  6

  9
$DIMLTEX1
  6

  9
$DIMLTEX2
  6

  9
$DIMTXTDIRECTION
 70
     0
  9
$LUNITS
 70
     2
  9
$LUPREC
 70
     4
  9
$SKETCHINC
 40
0.1
  9
$FILLETRAD
 40
0.0
  9
$AUNITS
 70
     0
  9
$AUPREC
 70
     0
  9
$MENU
  1
.
  9
$ELEVATION
 40
0.0
  9
$PELEVATION
 40
0.0
  9
$THICKNESS
 40
0.0
  9
$LIMCHECK
 70
     0
  9
$CHAMFERA
 40
0.0
  9
$CHAMFERB
 40
0.0
  9
$CHAMFERC
 40
0.0
  9
$CHAMFERD
 40
0.0
  9
$SKPOLY
 70
     0
  9
$TDCREATE
 40
2457948.774571377
  9
$TDUCREATE
 40
2457948.691238044
  9
$TDUPDATE
 40
2457948.774571377
  9
$TDUUPDATE
 40
2457948.691238044
  9
$TDINDWG
 40
0.0000089236
  9
$TDUSRTIMER
 40
0.0000089236
  9
$USRTIMER
 70
     1
  9
$ANGBASE
 50
0.0
  9
$ANGDIR
 70
     0
  9
$PDMODE
 70
     0
  9
$PDSIZE
 40
0.0
  9
$PLINEWID
 40
0.0
  9
$SPLFRAME
 70
     0
  9
$SPLINETYPE
 70
     6
  9
$SPLINESEGS
 70
     8
  9
$HANDSEED
  5
3B3
  9
$SURFTAB1
 70
     6
  9
$SURFTAB2
 70
     6
  9
$SURFTYPE
 70
     6
  9
$SURFU
 70
     6
  9
$SURFV
 70
     6
  9
$UCSBASE
  2

  9
$UCSNAME
  2

  9
$UCSORG
 10
0.0
 20
0.0
 30
0.0
  9
$UCSXDIR
 10
1.0
 20
0.0
 30
0.0
  9
$UCSYDIR
 10
0.0
 20
1.0
 30
0.0
  9
$UCSORTHOREF
  2

  9
$UCSORTHOVIEW
 70
     0
  9
$UCSORGTOP
 10
0.0
 20
0.0
 30
0.0
  9
$UCSORGBOTTOM
 10
0.0
 20
0.0
 30
0.0
  9
$UCSORGLEFT
 10
0.0
 20
0.0
 30
0.0
  9
$UCSORGRIGHT
 10
0.0
 20
0.0
 30
0.0
  9
$UCSORGFRONT
 10
0.0
 20
0.0
 30
0.0
  9
$UCSORGBACK
 10
0.0
 20
0.0
 30
0.0
  9
$PUCSBASE
  2

  9
$PUCSNAME
  2

  9
$PUCSORG
 10
0.0
 20
0.0
 30
0.0
  9
$PUCSXDIR
 10
1.0
 20
0.0
 30
0.0
  9
$PUCSYDIR
 10
0.0
 20
1.0
 30
0.0
  9
$PUCSORTHOREF
  2

  9
$PUCSORTHOVIEW
 70
     0
  9
$PUCSORGTOP
 10
0.0
 20
0.0
 30
0.0
  9
$PUCSORGBOTTOM
 10
0.0
 20
0.0
 30
0.0
  9
$PUCSORGLEFT
 10
0.0
 20
0.0
 30
0.0
  9
$PUCSORGRIGHT
 10
0.0
 20
0.0
 30
0.0
  9
$PUCSORGFRONT
 10
0.0
 20
0.0
 30
0.0
  9
$PUCSORGBACK
 10
0.0
 20
0.0
 30
0.0
  9
$USERI1
 70
     0
  9
$USERI2
 70
     0
  9
$USERI3
 70
     0
  9
$USERI4
 70
     0
  9
$USERI5
 70
     0
  9
$USERR1
 40
0.0
  9
$USERR2
 40
0.0
  9
$USERR3
 40
0.0
  9
$USERR4
 40
0.0
  9
$USERR5
 40
0.0
  9
$WORLDVIEW
 70
     1
  9
$SHADEDGE
 70
     3
  9
$SHADEDIF
 70
    70
  9
$TILEMODE
 70
     1
  9
$MAXACTVP
 70
    64
  9
$PINSBASE
 10
0.0
 20
0.0
 30
0.0
  9
$PLIMCHECK
 70
     0
  9
$PEXTMIN
 10
0.0
 20
0.0
 30
0.0
  9
$PEXTMAX
 10
420.0
 20
297.0
 30
0.0
  9
$PLIMMIN
 10
0.0
 20
0.0
  9
$PLIMMAX
 10
420.0
 20
297.0
  9
$UNITMODE
 70
     0
  9
$VISRETAIN
 70
     1
  9
$PLINEGEN
 70
     0
  9
$PSLTSCALE
 70
     1
  9
$TREEDEPTH
 70
  3020
  9
$CMLSTYLE
  2
Standard
  9
$CMLJUST
 70
     0
  9
$CMLSCALE
 40
1.0
  9
$PROXYGRAPHICS
 70
     1
  9
$MEASUREMENT
 70
     1
  9
$CELWEIGHT
370
    -1
  9
$ENDCAPS
280
     0
  9
$JOINSTYLE
280
     0
  9
$LWDISPLAY
290
     0
  9
$INSUNITS
 70
     4
  9
$HYPERLINKBASE
  1

  9
$STYLESHEET
  1

  9
$XEDIT
290
     1
  9
$CEPSNTYPE
380
     0
  9
$PSTYLEMODE
290
     1
  9
$FINGERPRINTGUID
  2
{74230A53-724B-4B88-9D0B-3105EEBDFE0A}
  9
$VERSIONGUID
  2
{2914090F-209D-4DFA-AA1F-1F0A440BB898}
  9
$EXTNAMES
290
     1
  9
$PSVPSCALE
 40
0.0
  9
$OLESTARTUP
290
     0
  9
$SORTENTS
280
   127
  9
$INDEXCTL
280
     0
  9
$HIDETEXT
280
     1
  9
$XCLIPFRAME
280
     2
  9
$HALOGAP
280
     0
  9
$OBSCOLOR
 70
   257
  9
$OBSLTYPE
280
     0
  9
$INTERSECTIONDISPLAY
280
     0
  9
$INTERSECTIONCOLOR
 70
   257
  9
$DIMASSOC
280
     1
  9
$PROJECTNAME
  1

  9
$CAMERADISPLAY
290
     0
  9
$LENSLENGTH
 40
50.0
  9
$CAMERAHEIGHT
 40
0.0
  9
$STEPSPERSEC
 40
2.0
  9
$STEPSIZE
 40
6.0
  9
$3DDWFPREC
 40
2.0
  9
$PSOLWIDTH
 40
0.25
  9
$PSOLHEIGHT
 40
4.0
  9
$LOFTANG1
 40
1.570796326794896
  9
$LOFTANG2
 40
1.570796326794896
  9
$LOFTMAG1
 40
0.0
  9
$LOFTMAG2
 40
0.0
  9
$LOFTPARAM
 70
     7
  9
$LOFTNORMALS
280
     1
  9
$LATITUDE
 40
37.795
  9
$LONGITUDE
 40
-122.394
  9
$NORTHDIRECTION
 40
0.0
  9
$TIMEZONE
 70
 -8000
  9
$LIGHTGLYPHDISPLAY
280
     1
  9
$TILEMODELIGHTSYNCH
280
     1
  9
$CMATERIAL
347
11
  9
$SOLIDHIST
280
     0
  9
$SHOWHIST
280
     1
  9
$DWFFRAME
280
     2
  9
$DGNFRAME
280
     0
  9
$REALWORLDSCALE
290
     1
  9
$INTERFERECOLOR
 62
     1
  9
$INTERFEREOBJVS
345
33
  9
$INTERFEREVPVS
346
30
  9
$CSHADOW
280
     0
  9
$SHADOWPLANELOCATION
 40
0.0
  0
ENDSEC
  0
SECTION
  2
CLASSES
  0
CLASS
  1
ACDBDICTIONARYWDFLT
  2
AcDbDictionaryWithDefault
  3
ObjectDBX Classes
 90
        0
 91
        1
280
     0
281
     0
  0
CLASS
  1
MATERIAL
  2
AcDbMaterial
  3
ObjectDBX Classes
 90
     1153
 91
        3
280
     0
281
     0
  0
CLASS
  1
VISUALSTYLE
  2
AcDbVisualStyle
  3
ObjectDBX Classes
 90
     4095
 91
       24
280
     0
281
     0
  0
CLASS
  1
SCALE
  2
AcDbScale
  3
ObjectDBX Classes
 90
     1153
 91
       17
280
     0
281
     0
  0
CLASS
  1
TABLESTYLE
  2
AcDbTableStyle
  3
ObjectDBX Classes
 90
     4095
 91
        1
280
     0
281
     0
  0
CLASS
  1
MLEADERSTYLE
  2
AcDbMLeaderStyle
  3
ACDB_MLEADERSTYLE_CLASS
 90
     4095
 91
        1
280
     0
281
     0
  0
CLASS
  1
ACDBSECTIONVIEWSTYLE
  2
AcDbSectionViewStyle
  3
ObjectDBX Classes
 90
     1025
 91
        1
280
     0
281
     0
  0
CLASS
  1
ACDBDETAILVIEWSTYLE
  2
AcDbDetailViewStyle
  3
ObjectDBX Classes
 90
     1025
 91
        1
280
     0
281
     0
  0
CLASS
  1
DICTIONARYVAR
  2
AcDbDictionaryVar
  3
ObjectDBX Classes
 90
        0
 91
        5
280
     0
281
     0
  0
CLASS
  1
CELLSTYLEMAP
  2
AcDbCellStyleMap
  3
ObjectDBX Classes
 90
     1152
 91
        1
280
     0
281
     0
  0
ENDSEC
  0
SECTION
  2
TABLES
  0
TABLE
  2
VPORT
  5
8
330
0
100
AcDbSymbolTable
 70
     1
  0
VPORT
  5
57
330
8
100
AcDbSymbolTableRecord
100
AcDbViewportTableRecord
  2
*Active
 70
     0
 10
0.0
 20
0.0
 11
1.0
 21
1.0
 12
210.0
 22
148.5
 13
0.0
 23
0.0
 14
1.0
 24
1.0
 15
0.0
 25
0.0
 16
0.0
 26
0.0
 36
1.0
 17
0.0
 27
0.0
 37
0.0
 40
297.0
 41
1.414141414141414
 42
50.0
 43
0.0
 44
0.0
 50
0.0
 51
0.0
 71
     0
 72
   100
 73
     1
 74
     1
 75
     0
 76
     0
 77
     0
 78
     0
281
     0
 65
     1
110
0.0
120
0.0
130
0.0
111
1.0
121
0.0
131
0.0
112
0.0
122
1.0
132
0.0
 79
     0
146
0.0
 60
     3
 61
     5
292
     1
282
     1
141
0.0
142
0.0
 63
   250
421
  3355443
  0
ENDTAB
  0
TABLE
  2
LTYPE
  5
5
330
0
100
AcDbSymbolTable
 70
     1
  0
LTYPE
  5
5B
330
5
100
AcDbSymbolTableRecord
100
AcDbLinetypeTableRecord
  2
ByBlock
 70
     0
  3

 72
    65
 73
     0
 40
0.0
  0
LTYPE
  5
5C
330
5
100
AcDbSymbolTableRecord
100
AcDbLinetypeTableRecord
  2
ByLayer
 70
     0
  3

 72
    65
 73
     0
 40
0.0
  0
LTYPE
  5
5D
330
5
100
AcDbSymbolTableRecord
100
AcDbLinetypeTableRecord
  2
Continuous
 70
     0
  3
Solid line
 72
    65
 73
     0
 40
0.0
  0
ENDTAB
  0
TABLE
  2
LAYER
  5
2
330
0
100
AcDbSymbolTable
 70
    36
  0
LAYER
  5
54
330
2
100
AcDbSymbolTableRecord
100
AcDbLayerTableRecord
  2
0
 70
     0
 62
     7
  6
Continuous
370
    25
390
F
347
21
  0
LAYER
  5
7B
330
2
100
AcDbSymbolTableRecord
100
AcDbLayerTableRecord
  2
CAMPITURE
 70
     0
 62
     1
420
 16711680
  6
Continuous
370
    15
390
F
347
21
  0
LAYER
  5
80
330
2
100
AcDbSymbolTableRecord
100
AcDbLayerTableRecord
  2
GEOMETRIA SCHIZZO
 70
     0
 62
   131
420
  8454143
  6
Continuous
370
    20
390
F
347
21
  0
LAYER
  5
97
330
2
100
AcDbSymbolTableRecord
100
AcDbLayerTableRecord
  2
TESTO NORMALE
 70
     0
 62
     7
  6
Continuous
370
    30
390
F
347
21
  0
LAYER
  5
99
330
2
100
AcDbSymbolTableRecord
100
AcDbLayerTableRecord
  2
VISIBILE
 70
     0
 62
     7
  6
Continuous
370
    30
390
F
347
21
  0
ENDTAB
  0
TABLE
  2
STYLE
  5
3
330
0
100
AcDbSymbolTable
 70
    16
  0
STYLE
  5
55
330
3
100
AcDbSymbolTableRecord
100
AcDbTextStyleTableRecord
  2
Standard
 70
     0
 40
0.0
 41
1.0
 50
0.0
 71
     0
 42
0.2
  3
calibri.ttf
  4

1001
ACAD
1000
Calibri
1071
      256
  0
STYLE
  5
5A
330
3
100
AcDbSymbolTableRecord
100
AcDbTextStyleTableRecord
  2
Annotative
 70
     0
 40
0.0
 41
1.0
 50
0.0
 71
     0
 42
0.2
  3
txt
  4

1001
AcadAnnotative
1000
AnnotativeData
1002
{
1070
     1
1070
     1
1002
}
  0
STYLE
  5
9B
330
3
100
AcDbSymbolTableRecord
100
AcDbTextStyleTableRecord
  2
QUOTE
 70
     0
 40
0.0
 41
0.8000000119209289
 50
0.0
 71
     0
 42
0.2
  3
calibrii.ttf
  4

1001
ACAD
1000
Calibri
1071
 16777472
  0
STYLE
  5
9C
330
3
100
AcDbSymbolTableRecord
100
AcDbTextStyleTableRecord
  2
SS-CART
 70
     0
 40
0.0
 41
0.899999976158142
 50
0.0
 71
     0
 42
0.2
  3
calibri.ttf
  4

1001
ACAD
1000
Calibri
1071
      256
  0
STYLE
  5
9D
330
3
100
AcDbSymbolTableRecord
100
AcDbTextStyleTableRecord
  2
Standard_87
 70
     0
 40
0.0
 41
1.0
 50
0.0
 71
     0
 42
0.2
  3
monotxt.shx
  4

  0
STYLE
  5
9E
330
3
100
AcDbSymbolTableRecord
100
AcDbTextStyleTableRecord
  2
Stile_Cart
 70
     0
 40
0.0
 41
0.8000000119209289
 50
0.0
 71
     0
 42
0.2
  3
calibri.ttf
  4

1001
ACAD
1000
Calibri
1071
      256
  0
STYLE
  5
9F
330
3
100
AcDbSymbolTableRecord
100
AcDbTextStyleTableRecord
  2
STYLE1_82
 70
     0
 40
0.0
 41
1.0
 50
0.0
 71
     0
 42
0.2
  3
calibri.ttf
  4

1001
ACAD
1000
Calibri
1071
      256
  0
STYLE
  5
A0
330
3
100
AcDbSymbolTableRecord
100
AcDbTextStyleTableRecord
  2
TESTO ETICHETTA MISURE
 70
     0
 40
0.0
 41
1.0
 50
0.0
 71
     0
 42
0.2
  3
calibri.ttf
  4

1001
ACAD
1000
Calibri
1071
      256
  0
STYLE
  5
A1
330
3
100
AcDbSymbolTableRecord
100
AcDbTextStyleTableRecord
  2
TESTO EVIDENZIATO
 70
     0
 40
0.0
 41
0.8000000119209289
 50
0.0
 71
     0
 42
0.2
  3
calibri.ttf
  4

1001
ACAD
1000
Calibri
1071
      256
  0
STYLE
  5
A2
330
3
100
AcDbSymbolTableRecord
100
AcDbTextStyleTableRecord
  2
TESTO NORMALE
 70
     0
 40
0.0
 41
0.8000000119209289
 50
0.0
 71
     0
 42
0.2
  3
calibri.ttf
  4

1001
ACAD
1000
Calibri
1071
      256
  0
STYLE
  5
A3
330
3
100
AcDbSymbolTableRecord
100
AcDbTextStyleTableRecord
  2
TESTO PALLINATURA
 70
     0
 40
0.0
 41
0.8000000119209289
 50
0.0
 71
     0
 42
0.2
  3
calibri.ttf
  4

1001
ACAD
1000
Calibri
1071
      256
  0
STYLE
  5
A4
330
3
100
AcDbSymbolTableRecord
100
AcDbTextStyleTableRecord
  2
TESTO RUGOSITA
 70
     0
 40
0.0
 41
0.8000000119209289
 50
0.0
 71
     0
 42
0.2
  3
calibri.ttf
  4

1001
ACAD
1000
Calibri
1071
      256
  0
STYLE
  5
A5
330
3
100
AcDbSymbolTableRecord
100
AcDbTextStyleTableRecord
  2
TESTO TITOLO TABELLE
 70
     0
 40
0.0
 41
0.8000000119209289
 50
0.0
 71
     0
 42
0.2
  3
calibri.ttf
  4

1001
ACAD
1000
Calibri
1071
      256
  0
STYLE
  5
A6
330
3
100
AcDbSymbolTableRecord
100
AcDbTextStyleTableRecord
  2
TESTO TOLL GEOMETRICHE
 70
     0
 40
0.0
 41
0.8000000119209289
 50
0.0
 71
     0
 42
0.2
  3
calibri.ttf
  4

1001
ACAD
1000
Calibri
1071
      256
  0
STYLE
  5
A7
330
3
100
AcDbSymbolTableRecord
100
AcDbTextStyleTableRecord
  2
TESTO TOLLERANZE
 70
     0
 40
0.0
 41
0.8000000119209289
 50
0.0
 71
     0
 42
0.2
  3
calibri.ttf
  4

1001
ACAD
1000
Calibri
1071
      256
  0
STYLE
  5
100
330
3
100
AcDbSymbolTableRecord
100
AcDbTextStyleTableRecord
  2
Stile testo39
 70
     0
 40
0.0
 41
1.0
 50
0.0
 71
     0
 42
0.2
  3
sanss___.ttf
  4

1001
ACAD
1000
SansSerif
1071
      256
  0
ENDTAB
  0
TABLE
  2
VIEW
  5
6
330
0
100
AcDbSymbolTable
 70
     0
  0
ENDTAB
  0
TABLE
  2
UCS
  5
7
330
0
100
AcDbSymbolTable
 70
     0
  0
ENDTAB
  0
TABLE
  2
APPID
  5
9
330
0
100
AcDbSymbolTable
 70
     3
  0
APPID
  5
56
330
9
100
AcDbSymbolTableRecord
100
AcDbRegAppTableRecord
  2
ACAD
 70
     0
  0
APPID
  5
5E
330
9
100
AcDbSymbolTableRecord
100
AcDbRegAppTableRecord
  2
AcadAnnotative
 70
     0
  0
APPID
  5
104
330
9
100
AcDbSymbolTableRecord
100
AcDbRegAppTableRecord
  2
AcadAnnoPO
 70
     0
  0
ENDTAB
  0
TABLE
  2
DIMSTYLE
  5
A
330
0
100
AcDbSymbolTable
 70
     9
100
AcDbDimStyleTable
 71
     0
  0
DIMSTYLE
105
58
330
A
100
AcDbSymbolTableRecord
100
AcDbDimStyleTableRecord
  2
Standard
 70
     0
340
55
  0
DIMSTYLE
105
59
330
A
100
AcDbSymbolTableRecord
100
AcDbDimStyleTableRecord
  2
Annotative
 70
     0
340
55
1001
AcadAnnotative
1000
AnnotativeData
1002
{
1070
     1
1070
     1
1002
}
  0
DIMSTYLE
105
B7
330
A
100
AcDbSymbolTableRecord
100
AcDbDimStyleTableRecord
  2
ACADTOP
 70
     0
 41
2.5
 42
1.499999999999999
 43
10.0
 44
1.499999999999999
 45
0.00000001
 46
10.0
 73
     0
 74
     0
 77
     1
 78
     8
 79
     2
140
3.5
143
0.03937
146
0.5714285969734192
147
0.5
171
     3
172
     1
176
   256
177
   256
178
     7
179
     1
271
     2
272
     3
274
     3
284
     8
285
     8
340
9B
341
A8
371
    -1
372
    -1
  0
DIMSTYLE
105
B8
330
A
100
AcDbSymbolTableRecord
100
AcDbDimStyleTableRecord
  2
ACADTOP$7
 70
     0
 41
2.0
 42
1.499999999999999
 43
10.0
 44
1.499999999999999
 45
0.00000001
 46
10.0
 73
     0
 74
     0
 77
     1
 78
     8
 79
     2
140
3.5
143
0.03937
146
0.5714285969734192
147
0.5
171
     3
172
     1
176
   256
177
   256
178
     7
179
     1
271
     2
272
     3
274
     3
284
     8
285
     8
340
9B
341
A8
371
    -1
372
    -1
  0
DIMSTYLE
105
B9
330
A
100
AcDbSymbolTableRecord
100
AcDbDimStyleTableRecord
  2
ACADTOP Motion
 70
     0
 41
2.5
 42
1.499999999999999
 43
10.0
 44
1.499999999999999
 45
0.00000001
 46
10.0
 73
     0
 74
     0
 77
     1
 78
     8
 79
     2
140
3.5
143
0.03937
146
0.5714285969734192
147
0.5
171
     3
172
     1
176
   256
177
   256
178
     7
179
     1
271
     2
272
     3
274
     3
284
     8
285
     8
340
9B
341
A8
371
    -1
372
    -1
  0
DIMSTYLE
105
BA
330
A
100
AcDbSymbolTableRecord
100
AcDbDimStyleTableRecord
  2
ACADTOP Motion$7
 70
     0
 41
2.0
 42
1.499999999999999
 43
10.0
 44
1.499999999999999
 45
0.00000001
 46
10.0
 73
     0
 74
     0
 77
     1
 78
     8
 79
     2
140
3.5
143
0.03937
146
0.5714285969734192
147
0.5
171
     3
172
     1
176
   256
177
   256
178
     7
179
     1
271
     2
272
     3
274
     3
284
     8
285
     8
340
9B
341
A8
371
    -1
372
    -1
  0
DIMSTYLE
105
BB
330
A
100
AcDbSymbolTableRecord
100
AcDbDimStyleTableRecord
  2
PALLINATURA
 70
     0
 41
1.5
340
55
  0
DIMSTYLE
105
BC
330
A
100
AcDbSymbolTableRecord
100
AcDbDimStyleTableRecord
  2
PALLINATURA GRANDE
 70
     0
 41
3.0
340
55
  0
DIMSTYLE
105
BD
330
A
100
AcDbSymbolTableRecord
100
AcDbDimStyleTableRecord
  2
RIFERIMENTO
 70
     0
 41
2.0
340
55
  0
ENDTAB
  0
TABLE
  2
BLOCK_RECORD
  5
1
330
0
100
AcDbSymbolTable
 70
    19
  0
BLOCK_RECORD
  5
70
330
1
100
AcDbSymbolTableRecord
100
AcDbBlockTableRecord
  2
*Model_Space
340
73
 70
     0
280
     1
281
     0
  0
BLOCK_RECORD
  5
6C
330
1
100
AcDbSymbolTableRecord
100
AcDbBlockTableRecord
  2
*Paper_Space
340
6F
 70
     0
280
     1
281
     0
  0
BLOCK_RECORD
  5
74
330
1
100
AcDbSymbolTableRecord
100
AcDbBlockTableRecord
  2
*Paper_Space0
340
77
 70
     0
280
     1
281
     0
  0
BLOCK_RECORD
  5
A8
330
1
100
AcDbSymbolTableRecord
100
AcDbBlockTableRecord
  2
Filled-1
340
0
 70
     0
280
     1
281
     0
  0
BLOCK_RECORD
  5
BE
330
1
100
AcDbSymbolTableRecord
100
AcDbBlockTableRecord
  2
DIBOND
340
0
 70
     0
280
     1
281
     0
  0
BLOCK_RECORD
  5
105
330
1
100
AcDbSymbolTableRecord
100
AcDbBlockTableRecord
  2
FONOSPHERA
340
0
 70
     0
280
     1
281
     0
  0
BLOCK_RECORD
  5
12B
330
1
100
AcDbSymbolTableRecord
100
AcDbBlockTableRecord
  2
METACRIL
340
0
 70
     0
280
     1
281
     0
  0
BLOCK_RECORD
  5
141
330
1
100
AcDbSymbolTableRecord
100
AcDbBlockTableRecord
  2
POLICARB_ALVEOL
340
0
 70
     0
280
     1
281
     0
  0
BLOCK_RECORD
  5
15C
330
1
100
AcDbSymbolTableRecord
100
AcDbBlockTableRecord
  2
POLICARB_TRASP
340
0
 70
     0
280
     1
281
     0
  0
BLOCK_RECORD
  5
173
330
1
100
AcDbSymbolTableRecord
100
AcDbBlockTableRecord
  2
POLIETILENE
340
0
 70
     0
280
     1
281
     0
  0
BLOCK_RECORD
  5
18B
330
1
100
AcDbSymbolTableRecord
100
AcDbBlockTableRecord
  2
PVC
340
0
 70
     0
280
     1
281
     0
  0
BLOCK_RECORD
  5
1A1
330
1
100
AcDbSymbolTableRecord
100
AcDbBlockTableRecord
  2
RETE_11X100
340
0
 70
     0
280
     1
281
     0
  0
BLOCK_RECORD
  5
1C0
330
1
100
AcDbSymbolTableRecord
100
AcDbBlockTableRecord
  2
RETE_25X25
340
0
 70
     0
280
     1
281
     0
  0
BLOCK_RECORD
  5
1E7
330
1
100
AcDbSymbolTableRecord
100
AcDbBlockTableRecord
  2
RETE_25X100
340
0
 70
     0
280
     1
281
     0
  0
BLOCK_RECORD
  5
206
330
1
100
AcDbSymbolTableRecord
100
AcDbBlockTableRecord
  2
RETE_25X100INOX
340
0
 70
     0
280
     1
281
     0
  0
BLOCK_RECORD
  5
225
330
1
100
AcDbSymbolTableRecord
100
AcDbBlockTableRecord
  2
RETE_30X30
340
0
 70
     0
280
     1
281
     0
  0
BLOCK_RECORD
  5
244
330
1
100
AcDbSymbolTableRecord
100
AcDbBlockTableRecord
  2
RETE_40X40
340
0
 70
     0
280
     1
281
     0
  0
BLOCK_RECORD
  5
261
330
1
100
AcDbSymbolTableRecord
100
AcDbBlockTableRecord
  2
RETE_RT
340
0
 70
     0
280
     1
281
     0
  0
BLOCK_RECORD
  5
283
330
1
100
AcDbSymbolTableRecord
100
AcDbBlockTableRecord
  2
RETE_TEC
340
0
 70
     0
280
     1
281
     0
  0
BLOCK_RECORD
  5
2A4
330
1
100
AcDbSymbolTableRecord
100
AcDbBlockTableRecord
  2
STRATIFIC
340
0
 70
     0
280
     1
281
     0
  0
BLOCK_RECORD
  5
2C5
330
1
100
AcDbSymbolTableRecord
100
AcDbBlockTableRecord
  2
__
340
0
 70
     0
280
     1
281
     0
  0
ENDTAB
  0
ENDSEC
  0
SECTION
  2
BLOCKS
  0
BLOCK
  5
71
330
70
100
AcDbEntity
  8
0
100
AcDbBlockBegin
  2
*Model_Space
 70
     0
 10
0.0
 20
0.0
 30
0.0
  3
*Model_Space
  1

  0
ENDBLK
  5
72
330
70
100
AcDbEntity
  8
0
100
AcDbBlockEnd
  0
BLOCK
  5
6D
330
6C
100
AcDbEntity
 67
     1
  8
0
100
AcDbBlockBegin
  2
*Paper_Space
 70
     0
 10
0.0
 20
0.0
 30
0.0
  3
*Paper_Space
  1

  0
ENDBLK
  5
6E
330
6C
100
AcDbEntity
 67
     1
  8
0
100
AcDbBlockEnd
  0
BLOCK
  5
75
330
74
100
AcDbEntity
 67
     1
  8
0
100
AcDbBlockBegin
  2
*Paper_Space0
 70
     0
 10
0.0
 20
0.0
 30
0.0
  3
*Paper_Space0
  1

  0
ENDBLK
  5
76
330
74
100
AcDbEntity
 67
     1
  8
0
100
AcDbBlockEnd
  0
BLOCK
  5
A9
330
A8
100
AcDbEntity
  8
0
100
AcDbBlockBegin
  2
Filled-1
 70
     0
 10
0.0
 20
0.0
 30
0.0
  3
Filled-1
  1

  0
LINE
  5
AB
330
A8
100
AcDbEntity
  8
0
 62
     0
100
AcDbLine
 10
-1.0
 20
0.0
 30
0.0
 11
0.0
 21
0.0
 31
0.0
  0
POLYLINE
  5
AD
330
A8
100
AcDbEntity
  8
0
 62
     0
100
AcDb2dPolyline
 66
     1
 10
0.0
 20
0.0
 30
0.0
 70
   128
  0
VERTEX
  5
AE
330
AD
100
AcDbEntity
  8
0
 62
     0
100
AcDbVertex
100
AcDb2dVertex
 10
-1.0
 20
-0.25
 30
0.0
  0
VERTEX
  5
AF
330
AD
100
AcDbEntity
  8
0
 62
     0
100
AcDbVertex
100
AcDb2dVertex
 10
0.0
 20
0.0
 30
0.0
  0
VERTEX
  5
B1
330
AD
100
AcDbEntity
  8
0
 62
     0
100
AcDbVertex
100
AcDb2dVertex
 10
-1.0
 20
0.25
 30
0.0
  0
VERTEX
  5
B2
330
AD
100
AcDbEntity
  8
0
 62
     0
100
AcDbVertex
100
AcDb2dVertex
 10
-1.0
 20
-0.25
 30
0.0
  0
SEQEND
  5
B0
330
AD
100
AcDbEntity
  8
0
 62
     0
  0
SOLID
  5
B3
330
A8
100
AcDbEntity
  8
0
 62
     0
100
AcDbTrace
 10
-1.0
 20
-0.25
 30
0.0
 11
0.0
 21
0.0
 31
0.0
 12
-1.0
 22
0.25
 32
0.0
 13
-1.0
 23
-0.25
 33
0.0
  0
LINE
  5
B4
330
A8
100
AcDbEntity
  8
0
 62
     0
100
AcDbLine
 10
-1.0
 20
-0.25
 30
0.0
 11
0.0
 21
0.0
 31
0.0
  0
LINE
  5
B5
330
A8
100
AcDbEntity
  8
0
 62
     0
100
AcDbLine
 10
0.0
 20
0.0
 30
0.0
 11
-1.0
 21
0.25
 31
0.0
  0
LINE
  5
B6
330
A8
100
AcDbEntity
  8
0
 62
     0
100
AcDbLine
 10
-1.0
 20
0.25
 30
0.0
 11
-1.0
 21
-0.25
 31
0.0
  0
ENDBLK
  5
AA
330
A8
100
AcDbEntity
  8
0
100
AcDbBlockEnd
  0
BLOCK
  5
BF
330
BE
100
AcDbEntity
  8
0
100
AcDbBlockBegin
  2
DIBOND
 70
     2
 10
0.0
 20
0.0
 30
0.0
  3
DIBOND
  1

  0
LINE
  5
C1
330
BE
100
AcDbEntity
  8
0
  6
Continuous
 62
     1
420
 16711680
100
AcDbLine
 10
10.0
 20
8.0
 30
0.0
 11
10.0
 21
0.0
 31
0.0
  0
LINE
  5
C2
330
BE
100
AcDbEntity
  8
0
  6
Continuous
 62
     3
420
    65280
100
AcDbLine
 10
0.0
 20
8.0
 30
0.0
 11
130.250436452013
 21
8.0
 31
0.0
  0
LINE
  5
C3
330
BE
100
AcDbEntity
  8
0
  6
Continuous
 62
     3
420
    65280
100
AcDbLine
 10
0.0
 20
8.0
 30
0.0
 11
0.0
 21
0.0
 31
0.0
  0
LINE
  5
C4
330
BE
100
AcDbEntity
  8
0
  6
Continuous
 62
     3
420
    65280
100
AcDbLine
 10
130.250436452013
 20
8.0
 30
0.0
 11
130.250436452013
 21
0.0
 31
0.0
  0
LINE
  5
C5
330
BE
100
AcDbEntity
  8
0
  6
Continuous
 62
     3
420
    65280
100
AcDbLine
 10
0.0
 20
0.0
 30
0.0
 11
130.250436452013
 21
0.0
 31
0.0
  0
LINE
  5
C6
330
BE
100
AcDbEntity
  8
0
  6
Continuous
 62
     3
420
    65280
100
AcDbLine
 10
2.367236819489562
 20
5.545561418522837
 30
0.0
 11
2.898736819489556
 21
5.545561418522852
 31
0.0
  0
LINE
  5
C7
330
BE
100
AcDbEntity
  8
0
  6
Continuous
 62
     3
420
    65280
100
AcDbLine
 10
3.406736819489566
 20
5.545561418522852
 30
0.0
 11
4.168736819489566
 21
5.545561418522852
 31
0.0
  0
LINE
  5
C8
330
BE
100
AcDbEntity
  8
0
  6
Continuous
 62
     3
420
    65280
100
AcDbLine
 10
4.803736819489557
 20
5.545561418522852
 30
0.0
 11
5.692736819489567
 21
5.545561418522852
 31
0.0
  0
LINE
  5
C9
330
BE
100
AcDbEntity
  8
0
  6
Continuous
 62
     3
420
    65280
100
AcDbLine
 10
6.07373681948954
 20
5.545561418522852
 30
0.0
 11
7.216736819489568
 21
5.545561418522852
 31
0.0
  0
LINE
  5
CA
330
BE
100
AcDbEntity
  8
0
  6
Continuous
 62
     3
420
    65280
100
AcDbLine
 10
2.367236819489562
 20
4.021561418522836
 30
0.0
 11
2.454236819489551
 21
4.02156141852285
 31
0.0
  0
LINE
  5
CB
330
BE
100
AcDbEntity
  8
0
  6
Continuous
 62
     3
420
    65280
100
AcDbLine
 10
2.835236819489552
 20
4.02156141852285
 30
0.0
 11
3.978236819489552
 21
4.02156141852285
 31
0.0
  0
LINE
  5
CC
330
BE
100
AcDbEntity
  8
0
  6
Continuous
 62
     3
420
    65280
100
AcDbLine
 10
4.486236819489562
 20
4.02156141852285
 30
0.0
 11
5.248236819489563
 21
4.02156141852285
 31
0.0
  0
LINE
  5
CD
330
BE
100
AcDbEntity
  8
0
  6
Continuous
 62
     3
420
    65280
100
AcDbLine
 10
5.883236819489553
 20
4.02156141852285
 30
0.0
 11
6.772236819489564
 21
4.02156141852285
 31
0.0
  0
LINE
  5
CE
330
BE
100
AcDbEntity
  8
0
  6
Continuous
 62
     3
420
    65280
100
AcDbLine
 10
7.153236819489564
 20
4.02156141852285
 30
0.0
 11
7.367236819489563
 21
4.02156141852285
 31
0.0
  0
LINE
  5
CF
330
BE
100
AcDbEntity
  8
0
  6
Continuous
 62
     3
420
    65280
100
AcDbLine
 10
2.644736819489565
 20
2.497561418522849
 30
0.0
 11
3.533736819489547
 21
2.497561418522849
 31
0.0
  0
LINE
  5
D0
330
BE
100
AcDbEntity
  8
0
  6
Continuous
 62
     3
420
    65280
100
AcDbLine
 10
3.914736819489548
 20
2.497561418522849
 30
0.0
 11
5.057736819489548
 21
2.497561418522849
 31
0.0
  0
LINE
  5
D1
330
BE
100
AcDbEntity
  8
0
  6
Continuous
 62
     3
420
    65280
100
AcDbLine
 10
5.565736819489558
 20
2.497561418522849
 30
0.0
 11
6.327736819489558
 21
2.497561418522849
 31
0.0
  0
LINE
  5
D2
330
BE
100
AcDbEntity
  8
0
  6
Continuous
 62
     3
420
    65280
100
AcDbLine
 10
6.962736819489549
 20
2.497561418522849
 30
0.0
 11
7.367236819489563
 21
2.497561418522835
 31
0.0
  0
LINE
  5
D3
330
BE
100
AcDbEntity
  8
0
  6
Continuous
 62
     3
420
    65280
100
AcDbLine
 10
2.898736819489528
 20
5.609061418522856
 30
0.0
 11
3.406736819489509
 21
5.609061418522856
 31
0.0
  0
LINE
  5
D4
330
BE
100
AcDbEntity
  8
0
  6
Continuous
 62
     3
420
    65280
100
AcDbLine
 10
4.16873681948951
 20
5.609061418522856
 30
0.0
 11
4.8037368194895
 21
5.609061418522856
 31
0.0
  0
LINE
  5
D5
330
BE
100
AcDbEntity
  8
0
  6
Continuous
 62
     3
420
    65280
100
AcDbLine
 10
7.216736819489511
 20
5.609061418522856
 30
0.0
 11
7.367236819489563
 21
5.609061418522856
 31
0.0
  0
LINE
  5
D6
330
BE
100
AcDbEntity
  8
0
  6
Continuous
 62
     3
420
    65280
100
AcDbLine
 10
3.978236819489524
 20
4.08506141852284
 30
0.0
 11
4.486236819489505
 21
4.08506141852284
 31
0.0
  0
LINE
  5
D7
330
BE
100
AcDbEntity
  8
0
  6
Continuous
 62
     3
420
    65280
100
AcDbLine
 10
5.248236819489505
 20
4.08506141852284
 30
0.0
 11
5.883236819489496
 21
4.08506141852284
 31
0.0
  0
LINE
  5
D8
330
BE
100
AcDbEntity
  8
0
  6
Continuous
 62
     3
420
    65280
100
AcDbLine
 10
2.367236819489534
 20
2.56106141852284
 30
0.0
 11
2.644736819489509
 21
2.56106141852284
 31
0.0
  0
LINE
  5
D9
330
BE
100
AcDbEntity
  8
0
  6
Continuous
 62
     3
420
    65280
100
AcDbLine
 10
5.05773681948952
 20
2.56106141852284
 30
0.0
 11
5.565736819489501
 21
2.56106141852284
 31
0.0
  0
LINE
  5
DA
330
BE
100
AcDbEntity
  8
0
  6
Continuous
 62
     3
420
    65280
100
AcDbLine
 10
6.327736819489501
 20
2.56106141852284
 30
0.0
 11
6.962736819489493
 21
2.56106141852284
 31
0.0
  0
LINE
  5
DB
330
BE
100
AcDbEntity
  8
0
  6
Continuous
 62
     3
420
    65280
100
AcDbLine
 10
5.69273681948951
 20
5.450311418522858
 30
0.0
 11
6.073736819489511
 21
5.450311418522858
 31
0.0
  0
LINE
  5
DC
330
BE
100
AcDbEntity
  8
0
  6
Continuous
 62
     3
420
    65280
100
AcDbLine
 10
2.454236819489523
 20
3.926311418522843
 30
0.0
 11
2.835236819489495
 21
3.926311418522843
 31
0.0
  0
LINE
  5
DD
330
BE
100
AcDbEntity
  8
0
  6
Continuous
 62
     3
420
    65280
100
AcDbLine
 10
6.772236819489507
 20
3.926311418522843
 30
0.0
 11
7.153236819489507
 21
3.926311418522843
 31
0.0
  0
LINE
  5
DE
330
BE
100
AcDbEntity
  8
0
  6
Continuous
 62
     3
420
    65280
100
AcDbLine
 10
3.533736819489519
 20
2.402311418522842
 30
0.0
 11
3.914736819489519
 21
2.402311418522842
 31
0.0
  0
LINE
  5
DF
330
BE
100
AcDbEntity
  8
0
  6
Continuous
 62
     3
420
    65280
100
AcDbLine
 10
3.406736819489537
 20
5.545561418522852
 30
0.0
 11
3.406736819489509
 21
6.521561418522836
 31
0.0
  0
LINE
  5
E0
330
BE
100
AcDbEntity
  8
0
  6
Continuous
 62
     3
420
    65280
100
AcDbLine
 10
4.486236819489533
 20
4.02156141852285
 30
0.0
 11
4.486236819489505
 21
5.48206141852286
 31
0.0
  0
LINE
  5
E1
330
BE
100
AcDbEntity
  8
0
  6
Continuous
 62
     3
420
    65280
100
AcDbLine
 10
5.565736819489529
 20
2.497561418522849
 30
0.0
 11
5.565736819489529
 21
3.95806141852286
 31
0.0
  0
LINE
  5
E2
330
BE
100
AcDbEntity
  8
0
  6
Continuous
 62
     3
420
    65280
100
AcDbLine
 10
4.16873681948951
 20
5.545561418522852
 30
0.0
 11
4.168736819489481
 21
6.521561418522836
 31
0.0
  0
LINE
  5
E3
330
BE
100
AcDbEntity
  8
0
  6
Continuous
 62
     3
420
    65280
100
AcDbLine
 10
5.248236819489534
 20
4.02156141852285
 30
0.0
 11
5.248236819489505
 21
5.450311418522858
 31
0.0
  0
LINE
  5
E4
330
BE
100
AcDbEntity
  8
0
  6
Continuous
 62
     3
420
    65280
100
AcDbLine
 10
6.327736819489531
 20
2.497561418522849
 30
0.0
 11
6.327736819489531
 21
3.926311418522857
 31
0.0
  0
LINE
  5
E5
330
BE
100
AcDbEntity
  8
0
  6
Continuous
 62
     3
420
    65280
100
AcDbLine
 10
7.407236819489526
 20
1.481561418522872
 30
0.0
 11
7.407236819489526
 21
2.402311418522856
 31
0.0
  0
LINE
  5
E6
330
BE
100
AcDbEntity
  8
0
  6
Continuous
 62
     3
420
    65280
100
AcDbLine
 10
2.644736819489509
 20
2.497561418522835
 30
0.0
 11
2.644736819489509
 21
3.831061418522836
 31
0.0
  0
LINE
  5
E7
330
BE
100
AcDbEntity
  8
0
  6
Continuous
 62
     3
420
    65280
100
AcDbLine
 10
4.803736819489529
 20
5.545561418522852
 30
0.0
 11
4.803736819489557
 21
6.521561418522851
 31
0.0
  0
LINE
  5
E8
330
BE
100
AcDbEntity
  8
0
  6
Continuous
 62
     3
420
    65280
100
AcDbLine
 10
5.883236819489525
 20
4.02156141852285
 30
0.0
 11
5.883236819489525
 21
5.355061418522852
 31
0.0
  0
LINE
  5
E9
330
BE
100
AcDbEntity
  8
0
  6
Continuous
 62
     3
420
    65280
100
AcDbLine
 10
6.962736819489521
 20
2.497561418522849
 30
0.0
 11
6.962736819489521
 21
3.83106141852285
 31
0.0
  0
LINE
  5
EA
330
BE
100
AcDbEntity
  8
0
  6
Continuous
 62
     3
420
    65280
100
AcDbLine
 10
2.454236819489523
 20
3.926311418522843
 30
0.0
 11
2.454236819489523
 21
5.386811418522853
 31
0.0
  0
LINE
  5
EB
330
BE
100
AcDbEntity
  8
0
  6
Continuous
 62
     3
420
    65280
100
AcDbLine
 10
3.533736819489519
 20
2.402311418522842
 30
0.0
 11
3.533736819489519
 21
3.862811418522852
 31
0.0
  0
LINE
  5
EC
330
BE
100
AcDbEntity
  8
0
  6
Continuous
 62
     3
420
    65280
100
AcDbLine
 10
4.613236819489515
 20
1.521561418522836
 30
0.0
 11
4.613236819489515
 21
2.338811418522851
 31
0.0
  0
LINE
  5
ED
330
BE
100
AcDbEntity
  8
0
  6
Continuous
 62
     3
420
    65280
100
AcDbLine
 10
5.69273681948951
 20
5.450311418522858
 30
0.0
 11
5.69273681948951
 21
6.521561418522836
 31
0.0
  0
LINE
  5
EE
330
BE
100
AcDbEntity
  8
0
  6
Continuous
 62
     3
420
    65280
100
AcDbLine
 10
6.772236819489535
 20
3.926311418522843
 30
0.0
 11
6.772236819489507
 21
5.386811418522853
 31
0.0
  0
LINE
  5
EF
330
BE
100
AcDbEntity
  8
0
  6
Continuous
 62
     3
420
    65280
100
AcDbLine
 10
2.835236819489523
 20
3.926311418522843
 30
0.0
 11
2.835236819489523
 21
5.386811418522853
 31
0.0
  0
LINE
  5
F0
330
BE
100
AcDbEntity
  8
0
  6
Continuous
 62
     3
420
    65280
100
AcDbLine
 10
3.914736819489548
 20
2.402311418522842
 30
0.0
 11
3.914736819489519
 21
3.862811418522852
 31
0.0
  0
LINE
  5
F1
330
BE
100
AcDbEntity
  8
0
  6
Continuous
 62
     3
420
    65280
100
AcDbLine
 10
4.994236819489515
 20
1.521561418522836
 30
0.0
 11
4.994236819489515
 21
2.338811418522851
 31
0.0
  0
LINE
  5
F2
330
BE
100
AcDbEntity
  8
0
  6
Continuous
 62
     3
420
    65280
100
AcDbLine
 10
6.07373681948954
 20
5.450311418522858
 30
0.0
 11
6.073736819489568
 21
6.521561418522836
 31
0.0
  0
LINE
  5
F3
330
BE
100
AcDbEntity
  8
0
  6
Continuous
 62
     3
420
    65280
100
AcDbLine
 10
7.153236819489535
 20
3.926311418522843
 30
0.0
 11
7.153236819489535
 21
5.386811418522853
 31
0.0
  0
LINE
  5
F4
330
BE
100
AcDbEntity
  8
0
  6
Continuous
 62
     3
420
    65280
100
AcDbLine
 10
2.898736819489528
 20
5.545561418522852
 30
0.0
 11
2.898736819489528
 21
6.521561418522836
 31
0.0
  0
LINE
  5
F5
330
BE
100
AcDbEntity
  8
0
  6
Continuous
 62
     3
420
    65280
100
AcDbLine
 10
3.978236819489524
 20
4.021561418522836
 30
0.0
 11
3.978236819489524
 21
5.418561418522841
 31
0.0
  0
LINE
  5
F6
330
BE
100
AcDbEntity
  8
0
  6
Continuous
 62
     3
420
    65280
100
AcDbLine
 10
5.05773681948952
 20
2.497561418522835
 30
0.0
 11
5.05773681948952
 21
3.894561418522841
 31
0.0
  0
LINE
  5
F7
330
BE
100
AcDbEntity
  8
0
  6
Continuous
 62
     3
420
    65280
100
AcDbLine
 10
7.216736819489511
 20
5.545561418522852
 30
0.0
 11
7.216736819489511
 21
6.521561418522836
 31
0.0
  0
LINE
  5
F8
330
BE
100
AcDbEntity
  8
0
  6
Continuous
 62
     7
100
AcDbLine
 10
1.867236819489562
 20
1.021561418522821
 30
0.0
 11
7.867236819489562
 21
1.021561418522821
 31
0.0
  0
LINE
  5
F9
330
BE
100
AcDbEntity
  8
0
  6
Continuous
 62
     7
100
AcDbLine
 10
7.867236819489562
 20
1.021561418522821
 30
0.0
 11
7.867236819489562
 21
7.021561418522822
 31
0.0
  0
LINE
  5
FA
330
BE
100
AcDbEntity
  8
0
  6
Continuous
 62
     7
100
AcDbLine
 10
7.867236819489562
 20
7.021561418522822
 30
0.0
 11
1.867236819489562
 21
7.021561418522822
 31
0.0
  0
LINE
  5
FB
330
BE
100
AcDbEntity
  8
0
  6
Continuous
 62
     7
100
AcDbLine
 10
1.867236819489562
 20
7.021561418522822
 30
0.0
 11
1.867236819489562
 21
1.021561418522821
 31
0.0
  0
LINE
  5
FC
330
BE
100
AcDbEntity
  8
0
  6
Continuous
 62
     3
420
    65280
100
AcDbLine
 10
6.137236819489516
 20
1.52156141852285
 30
0.0
 11
6.137236819489516
 21
2.370561418522839
 31
0.0
  0
LINE
  5
FD
330
BE
100
AcDbEntity
  8
0
  6
Continuous
 62
     3
420
    65280
100
AcDbLine
 10
3.724236819489533
 20
1.521561418522836
 30
0.0
 11
3.724236819489505
 21
2.307061418522849
 31
0.0
  0
LINE
  5
FE
330
BE
100
AcDbEntity
  8
0
  6
Continuous
 62
     3
420
    65280
100
AcDbLine
 10
3.089236819489514
 20
1.521561418522836
 30
0.0
 11
3.089236819489514
 21
2.402311418522856
 31
0.0
  0
LINE
  5
FF
330
BE
100
AcDbEntity
  8
0
  6
Continuous
 62
     3
420
    65280
100
AcDbLine
 10
6.645236819489525
 20
1.52156141852285
 30
0.0
 11
6.645236819489525
 21
2.434061418522858
 31
0.0
  0
ATTDEF
  5
101
102
{ACAD_XDICTIONARY
360
34C
102
}
330
BE
100
AcDbEntity
  8
0
 62
     1
420
 16711680
100
AcDbText
 10
12.0
 20
2.250000029802322
 30
0.0
 40
3.499999940395355
  1

  7
Stile testo39
 11
12.0
 21
4.0
 31
0.0
100
AcDbAttributeDefinition
280
     0
  3
NOME_TAMPONAMENTO
  2
NOME_TAMPONAMENTO
 70
     0
 74
     2
280
     0
  0
ENDBLK
  5
C0
330
BE
100
AcDbEntity
  8
0
100
AcDbBlockEnd
  0
BLOCK
  5
106
330
105
100
AcDbEntity
  8
0
100
AcDbBlockBegin
  2
FONOSPHERA
 70
     2
 10
0.0
 20
0.0
 30
0.0
  3
FONOSPHERA
  1

  0
LINE
  5
108
330
105
100
AcDbEntity
  8
0
  6
Continuous
 62
     1
420
 16711680
100
AcDbLine
 10
10.0
 20
8.0
 30
0.0
 11
10.0
 21
0.0
 31
0.0
  0
LINE
  5
109
330
105
100
AcDbEntity
  8
0
  6
Continuous
 62
     3
420
    65280
100
AcDbLine
 10
0.0
 20
8.0
 30
0.0
 11
130.250436452013
 21
8.0
 31
0.0
  0
LINE
  5
10A
330
105
100
AcDbEntity
  8
0
  6
Continuous
 62
     3
420
    65280
100
AcDbLine
 10
0.0
 20
8.0
 30
0.0
 11
0.0
 21
0.0
 31
0.0
  0
LINE
  5
10B
330
105
100
AcDbEntity
  8
0
  6
Continuous
 62
     3
420
    65280
100
AcDbLine
 10
130.250436452013
 20
8.0
 30
0.0
 11
130.250436452013
 21
0.0
 31
0.0
  0
LINE
  5
10C
330
105
100
AcDbEntity
  8
0
  6
Continuous
 62
     3
420
    65280
100
AcDbLine
 10
0.0
 20
0.0
 30
0.0
 11
130.250436452013
 21
0.0
 31
0.0
  0
LINE
  5
10D
330
105
100
AcDbEntity
  8
0
  6
Continuous
 62
     7
100
AcDbLine
 10
1.867236819489562
 20
1.021561418522821
 30
0.0
 11
7.867236819489562
 21
1.021561418522821
 31
0.0
  0
LINE
  5
10E
330
105
100
AcDbEntity
  8
0
  6
Continuous
 62
     7
100
AcDbLine
 10
7.867236819489562
 20
1.021561418522821
 30
0.0
 11
7.867236819489562
 21
7.021561418522822
 31
0.0
  0
LINE
  5
10F
330
105
100
AcDbEntity
  8
0
  6
Continuous
 62
     7
100
AcDbLine
 10
7.867236819489562
 20
7.021561418522822
 30
0.0
 11
1.867236819489562
 21
7.021561418522822
 31
0.0
  0
LINE
  5
110
330
105
100
AcDbEntity
  8
0
  6
Continuous
 62
     7
100
AcDbLine
 10
1.867236819489562
 20
7.021561418522822
 30
0.0
 11
1.867236819489562
 21
1.021561418522821
 31
0.0
  0
CIRCLE
  5
111
330
105
100
AcDbEntity
  8
0
  6
Continuous
 62
     3
420
    65280
100
AcDbCircle
 10
4.867236819489562
 20
4.021561418522821
 30
0.0
 40
0.5
  0
CIRCLE
  5
112
330
105
100
AcDbEntity
  8
0
  6
Continuous
 62
     3
420
    65280
100
AcDbCircle
 10
3.867236819489562
 20
4.021561418522821
 30
0.0
 40
0.5
  0
CIRCLE
  5
113
330
105
100
AcDbEntity
  8
0
  6
Continuous
 62
     3
420
    65280
100
AcDbCircle
 10
2.867236819489562
 20
4.021561418522821
 30
0.0
 40
0.5
  0
CIRCLE
  5
114
330
105
100
AcDbEntity
  8
0
  6
Continuous
 62
     3
420
    65280
100
AcDbCircle
 10
5.867236819489562
 20
4.021561418522821
 30
0.0
 40
0.5
  0
CIRCLE
  5
115
330
105
100
AcDbEntity
  8
0
  6
Continuous
 62
     3
420
    65280
100
AcDbCircle
 10
6.867236819489562
 20
4.021561418522821
 30
0.0
 40
0.5
  0
CIRCLE
  5
116
330
105
100
AcDbEntity
  8
0
  6
Continuous
 62
     3
420
    65280
100
AcDbCircle
 10
4.867236819489562
 20
5.021561418522821
 30
0.0
 40
0.5
  0
CIRCLE
  5
117
330
105
100
AcDbEntity
  8
0
  6
Continuous
 62
     3
420
    65280
100
AcDbCircle
 10
3.867236819489562
 20
5.021561418522821
 30
0.0
 40
0.5
  0
CIRCLE
  5
118
330
105
100
AcDbEntity
  8
0
  6
Continuous
 62
     3
420
    65280
100
AcDbCircle
 10
2.867236819489562
 20
5.021561418522821
 30
0.0
 40
0.5
  0
CIRCLE
  5
119
330
105
100
AcDbEntity
  8
0
  6
Continuous
 62
     3
420
    65280
100
AcDbCircle
 10
5.867236819489562
 20
5.021561418522821
 30
0.0
 40
0.5
  0
CIRCLE
  5
11A
330
105
100
AcDbEntity
  8
0
  6
Continuous
 62
     3
420
    65280
100
AcDbCircle
 10
6.867236819489562
 20
5.021561418522821
 30
0.0
 40
0.5
  0
CIRCLE
  5
11B
330
105
100
AcDbEntity
  8
0
  6
Continuous
 62
     3
420
    65280
100
AcDbCircle
 10
4.867236819489562
 20
6.021561418522822
 30
0.0
 40
0.5
  0
CIRCLE
  5
11C
330
105
100
AcDbEntity
  8
0
  6
Continuous
 62
     3
420
    65280
100
AcDbCircle
 10
3.867236819489562
 20
6.021561418522822
 30
0.0
 40
0.5
  0
CIRCLE
  5
11D
330
105
100
AcDbEntity
  8
0
  6
Continuous
 62
     3
420
    65280
100
AcDbCircle
 10
2.867236819489562
 20
6.021561418522822
 30
0.0
 40
0.5
  0
CIRCLE
  5
11E
330
105
100
AcDbEntity
  8
0
  6
Continuous
 62
     3
420
    65280
100
AcDbCircle
 10
5.867236819489562
 20
6.021561418522822
 30
0.0
 40
0.5
  0
CIRCLE
  5
11F
330
105
100
AcDbEntity
  8
0
  6
Continuous
 62
     3
420
    65280
100
AcDbCircle
 10
6.867236819489562
 20
6.021561418522822
 30
0.0
 40
0.5
  0
CIRCLE
  5
120
330
105
100
AcDbEntity
  8
0
  6
Continuous
 62
     3
420
    65280
100
AcDbCircle
 10
4.867236819489562
 20
3.021561418522822
 30
0.0
 40
0.5
  0
CIRCLE
  5
121
330
105
100
AcDbEntity
  8
0
  6
Continuous
 62
     3
420
    65280
100
AcDbCircle
 10
3.867236819489562
 20
3.021561418522822
 30
0.0
 40
0.5
  0
CIRCLE
  5
122
330
105
100
AcDbEntity
  8
0
  6
Continuous
 62
     3
420
    65280
100
AcDbCircle
 10
2.867236819489562
 20
3.021561418522822
 30
0.0
 40
0.5
  0
CIRCLE
  5
123
330
105
100
AcDbEntity
  8
0
  6
Continuous
 62
     3
420
    65280
100
AcDbCircle
 10
5.867236819489562
 20
3.021561418522822
 30
0.0
 40
0.5
  0
CIRCLE
  5
124
330
105
100
AcDbEntity
  8
0
  6
Continuous
 62
     3
420
    65280
100
AcDbCircle
 10
6.867236819489562
 20
3.021561418522822
 30
0.0
 40
0.5
  0
CIRCLE
  5
125
330
105
100
AcDbEntity
  8
0
  6
Continuous
 62
     3
420
    65280
100
AcDbCircle
 10
4.867236819489562
 20
2.021561418522821
 30
0.0
 40
0.5
  0
CIRCLE
  5
126
330
105
100
AcDbEntity
  8
0
  6
Continuous
 62
     3
420
    65280
100
AcDbCircle
 10
3.867236819489562
 20
2.021561418522821
 30
0.0
 40
0.5
  0
CIRCLE
  5
127
330
105
100
AcDbEntity
  8
0
  6
Continuous
 62
     3
420
    65280
100
AcDbCircle
 10
2.867236819489562
 20
2.021561418522821
 30
0.0
 40
0.5
  0
CIRCLE
  5
128
330
105
100
AcDbEntity
  8
0
  6
Continuous
 62
     3
420
    65280
100
AcDbCircle
 10
5.867236819489562
 20
2.021561418522821
 30
0.0
 40
0.5
  0
CIRCLE
  5
129
330
105
100
AcDbEntity
  8
0
  6
Continuous
 62
     3
420
    65280
100
AcDbCircle
 10
6.867236819489562
 20
2.021561418522821
 30
0.0
 40
0.5
  0
ATTDEF
  5
12A
102
{ACAD_XDICTIONARY
360
34F
102
}
330
105
100
AcDbEntity
  8
0
 62
     1
420
 16711680
100
AcDbText
 10
12.0
 20
2.250000029802322
 30
0.0
 40
3.499999940395355
  1

  7
Stile testo39
 11
12.0
 21
4.0
 31
0.0
100
AcDbAttributeDefinition
280
     0
  3
NOME_TAMPONAMENTO
  2
NOME_TAMPONAMENTO
 70
     0
 74
     2
280
     0
  0
ENDBLK
  5
107
330
105
100
AcDbEntity
  8
0
100
AcDbBlockEnd
  0
BLOCK
  5
12C
330
12B
100
AcDbEntity
  8
0
100
AcDbBlockBegin
  2
METACRIL
 70
     2
 10
0.0
 20
0.0
 30
0.0
  3
METACRIL
  1

  0
LINE
  5
12E
330
12B
100
AcDbEntity
  8
0
  6
Continuous
 62
     1
420
 16711680
100
AcDbLine
 10
10.0
 20
8.0
 30
0.0
 11
10.0
 21
0.0
 31
0.0
  0
LINE
  5
12F
330
12B
100
AcDbEntity
  8
0
  6
Continuous
 62
     3
420
    65280
100
AcDbLine
 10
0.0
 20
8.0
 30
0.0
 11
130.250436452013
 21
8.0
 31
0.0
  0
LINE
  5
130
330
12B
100
AcDbEntity
  8
0
  6
Continuous
 62
     3
420
    65280
100
AcDbLine
 10
0.0
 20
8.0
 30
0.0
 11
0.0
 21
0.0
 31
0.0
  0
LINE
  5
131
330
12B
100
AcDbEntity
  8
0
  6
Continuous
 62
     3
420
    65280
100
AcDbLine
 10
130.250436452013
 20
8.0
 30
0.0
 11
130.250436452013
 21
0.0
 31
0.0
  0
LINE
  5
132
330
12B
100
AcDbEntity
  8
0
  6
Continuous
 62
     3
420
    65280
100
AcDbLine
 10
0.0
 20
0.0
 30
0.0
 11
130.250436452013
 21
0.0
 31
0.0
  0
LINE
  5
133
330
12B
100
AcDbEntity
  8
0
  6
Continuous
 62
     7
100
AcDbLine
 10
1.867236819489562
 20
1.021561418522821
 30
0.0
 11
7.86723681948957
 21
1.021561418522821
 31
0.0
  0
LINE
  5
134
330
12B
100
AcDbEntity
  8
0
  6
Continuous
 62
     7
100
AcDbLine
 10
7.86723681948957
 20
1.021561418522821
 30
0.0
 11
7.86723681948957
 21
7.021561418522822
 31
0.0
  0
LINE
  5
135
330
12B
100
AcDbEntity
  8
0
  6
Continuous
 62
     7
100
AcDbLine
 10
7.86723681948957
 20
7.021561418522822
 30
0.0
 11
1.867236819489562
 21
7.021561418522822
 31
0.0
  0
LINE
  5
136
330
12B
100
AcDbEntity
  8
0
  6
Continuous
 62
     7
100
AcDbLine
 10
1.867236819489562
 20
7.021561418522822
 30
0.0
 11
1.867236819489562
 21
1.021561418522821
 31
0.0
  0
LINE
  5
137
330
12B
100
AcDbEntity
  8
0
  6
Continuous
 62
     3
420
    65280
100
AcDbLine
 10
3.815345051510867
 20
2.969669650544119
 30
0.0
 11
5.919128587468271
 21
5.073453186501524
 31
0.0
  0
LINE
  5
138
330
12B
100
AcDbEntity
  8
0
  6
Continuous
 62
     3
420
    65280
100
AcDbLine
 10
3.24965962656163
 20
2.828248294306803
 30
0.0
 11
4.434204346976521
 21
4.012793014721694
 31
0.0
  0
LINE
  5
139
330
12B
100
AcDbEntity
  8
0
  6
Continuous
 62
     3
420
    65280
100
AcDbLine
 10
5.300269292002618
 20
4.030329822323949
 30
0.0
 11
6.484814012417508
 21
5.21487454273884
 31
0.0
  0
LINE
  5
13A
330
12B
100
AcDbEntity
  8
0
  6
Continuous
 62
     3
420
    65280
100
AcDbLine
 10
2.915345051510862
 20
4.528515377356114
 30
0.0
 11
5.019128587468266
 21
6.63229891331352
 31
0.0
  0
LINE
  5
13B
330
12B
100
AcDbEntity
  8
0
  6
Continuous
 62
     3
420
    65280
100
AcDbLine
 10
2.349659626561631
 20
4.387094021118798
 30
0.0
 11
3.534204346976515
 21
5.571638741533689
 31
0.0
  0
LINE
  5
13C
330
12B
100
AcDbEntity
  8
0
  6
Continuous
 62
     3
420
    65280
100
AcDbLine
 10
4.400269292002612
 20
5.589175549135944
 30
0.0
 11
5.584814012417504
 21
6.773720269550835
 31
0.0
  0
LINE
  5
13D
330
12B
100
AcDbEntity
  8
0
  6
Continuous
 62
     3
420
    65280
100
AcDbLine
 10
5.088137257646657
 20
1.696877444408329
 30
0.0
 11
7.191920793604063
 21
3.800660980365734
 31
0.0
  0
LINE
  5
13E
330
12B
100
AcDbEntity
  8
0
  6
Continuous
 62
     3
420
    65280
100
AcDbLine
 10
4.52245183269742
 20
1.555456088171013
 30
0.0
 11
5.706996553112312
 21
2.740000808585904
 31
0.0
  0
LINE
  5
13F
330
12B
100
AcDbEntity
  8
0
  6
Continuous
 62
     3
420
    65280
100
AcDbLine
 10
6.573061498138407
 20
2.757537616188159
 30
0.0
 11
7.757606218553299
 21
3.94208233660305
 31
0.0
  0
ATTDEF
  5
140
102
{ACAD_XDICTIONARY
360
352
102
}
330
12B
100
AcDbEntity
  8
0
 62
     1
420
 16711680
100
AcDbText
 10
12.0
 20
2.250000029802322
 30
0.0
 40
3.499999940395355
  1

  7
Stile testo39
 11
12.0
 21
4.0
 31
0.0
100
AcDbAttributeDefinition
280
     0
  3
NOME_TAMPONAMENTO
  2
NOME_TAMPONAMENTO
 70
     0
 74
     2
280
     0
  0
ENDBLK
  5
12D
330
12B
100
AcDbEntity
  8
0
100
AcDbBlockEnd
  0
BLOCK
  5
142
330
141
100
AcDbEntity
  8
0
100
AcDbBlockBegin
  2
POLICARB_ALVEOL
 70
     2
 10
0.0
 20
0.0
 30
0.0
  3
POLICARB_ALVEOL
  1

  0
LINE
  5
144
330
141
100
AcDbEntity
  8
0
  6
Continuous
 62
     1
420
 16711680
100
AcDbLine
 10
10.0
 20
8.0
 30
0.0
 11
10.0
 21
0.0
 31
0.0
  0
LINE
  5
145
330
141
100
AcDbEntity
  8
0
  6
Continuous
 62
     3
420
    65280
100
AcDbLine
 10
0.0
 20
8.0
 30
0.0
 11
130.250436452013
 21
8.0
 31
0.0
  0
LINE
  5
146
330
141
100
AcDbEntity
  8
0
  6
Continuous
 62
     3
420
    65280
100
AcDbLine
 10
0.0
 20
8.0
 30
0.0
 11
0.0
 21
0.0
 31
0.0
  0
LINE
  5
147
330
141
100
AcDbEntity
  8
0
  6
Continuous
 62
     3
420
    65280
100
AcDbLine
 10
130.250436452013
 20
8.0
 30
0.0
 11
130.250436452013
 21
0.0
 31
0.0
  0
LINE
  5
148
330
141
100
AcDbEntity
  8
0
  6
Continuous
 62
     3
420
    65280
100
AcDbLine
 10
0.0
 20
0.0
 30
0.0
 11
130.250436452013
 21
0.0
 31
0.0
  0
LINE
  5
149
330
141
100
AcDbEntity
  8
0
  6
Continuous
 62
     7
100
AcDbLine
 10
1.867236819489562
 20
1.021561418522821
 30
0.0
 11
7.867236819489562
 21
1.021561418522821
 31
0.0
  0
LINE
  5
14A
330
141
100
AcDbEntity
  8
0
  6
Continuous
 62
     7
100
AcDbLine
 10
7.867236819489562
 20
1.021561418522821
 30
0.0
 11
7.867236819489562
 21
7.021561418522822
 31
0.0
  0
LINE
  5
14B
330
141
100
AcDbEntity
  8
0
  6
Continuous
 62
     7
100
AcDbLine
 10
7.867236819489562
 20
7.021561418522822
 30
0.0
 11
1.867236819489562
 21
7.021561418522822
 31
0.0
  0
LINE
  5
14C
330
141
100
AcDbEntity
  8
0
  6
Continuous
 62
     7
100
AcDbLine
 10
1.867236819489562
 20
7.021561418522822
 30
0.0
 11
1.867236819489562
 21
1.021561418522821
 31
0.0
  0
LINE
  5
14D
330
141
100
AcDbEntity
  8
0
  6
Continuous
 62
     3
420
    65280
100
AcDbLine
 10
3.283236819497119
 20
4.021561418522821
 30
0.0
 11
3.283236819497119
 21
1.271561418521344
 31
0.0
  0
LINE
  5
14E
330
141
100
AcDbEntity
  8
0
  6
Continuous
 62
     3
420
    65280
100
AcDbLine
 10
3.811236819497139
 20
4.021561418522821
 30
0.0
 11
3.811236819497139
 21
1.271561418521344
 31
0.0
  0
LINE
  5
14F
330
141
100
AcDbEntity
  8
0
  6
Continuous
 62
     3
420
    65280
100
AcDbLine
 10
4.339236819497159
 20
4.021561418522821
 30
0.0
 11
4.339236819497159
 21
1.271561418521344
 31
0.0
  0
LINE
  5
150
330
141
100
AcDbEntity
  8
0
  6
Continuous
 62
     3
420
    65280
100
AcDbLine
 10
4.867236819497122
 20
4.021561418522821
 30
0.0
 11
4.867236819497122
 21
1.271561418521344
 31
0.0
  0
LINE
  5
151
330
141
100
AcDbEntity
  8
0
  6
Continuous
 62
     3
420
    65280
100
AcDbLine
 10
5.395236819497143
 20
4.021561418522821
 30
0.0
 11
5.395236819497143
 21
1.271561418521344
 31
0.0
  0
LINE
  5
152
330
141
100
AcDbEntity
  8
0
  6
Continuous
 62
     3
420
    65280
100
AcDbLine
 10
5.923236819497162
 20
4.021561418522821
 30
0.0
 11
5.923236819497162
 21
1.271561418521344
 31
0.0
  0
LINE
  5
153
330
141
100
AcDbEntity
  8
0
  6
Continuous
 62
     3
420
    65280
100
AcDbLine
 10
6.451236819497125
 20
4.021561418522821
 30
0.0
 11
6.451236819497125
 21
1.271561418521344
 31
0.0
  0
LINE
  5
154
330
141
100
AcDbEntity
  8
0
  6
Continuous
 62
     3
420
    65280
100
AcDbLine
 10
3.283236819497119
 20
4.021561418522821
 30
0.0
 11
3.283236819497119
 21
6.771561418524299
 31
0.0
  0
LINE
  5
155
330
141
100
AcDbEntity
  8
0
  6
Continuous
 62
     3
420
    65280
100
AcDbLine
 10
3.811236819497139
 20
4.021561418522821
 30
0.0
 11
3.811236819497139
 21
6.771561418524299
 31
0.0
  0
LINE
  5
156
330
141
100
AcDbEntity
  8
0
  6
Continuous
 62
     3
420
    65280
100
AcDbLine
 10
4.339236819497159
 20
4.021561418522821
 30
0.0
 11
4.339236819497159
 21
6.771561418524299
 31
0.0
  0
LINE
  5
157
330
141
100
AcDbEntity
  8
0
  6
Continuous
 62
     3
420
    65280
100
AcDbLine
 10
4.867236819497122
 20
4.021561418522821
 30
0.0
 11
4.867236819497122
 21
6.771561418524299
 31
0.0
  0
LINE
  5
158
330
141
100
AcDbEntity
  8
0
  6
Continuous
 62
     3
420
    65280
100
AcDbLine
 10
5.395236819497143
 20
4.021561418522821
 30
0.0
 11
5.395236819497143
 21
6.771561418524299
 31
0.0
  0
LINE
  5
159
330
141
100
AcDbEntity
  8
0
  6
Continuous
 62
     3
420
    65280
100
AcDbLine
 10
5.923236819497162
 20
4.021561418522821
 30
0.0
 11
5.923236819497162
 21
6.771561418524299
 31
0.0
  0
LINE
  5
15A
330
141
100
AcDbEntity
  8
0
  6
Continuous
 62
     3
420
    65280
100
AcDbLine
 10
6.451236819497125
 20
4.021561418522821
 30
0.0
 11
6.451236819497125
 21
6.771561418524299
 31
0.0
  0
ATTDEF
  5
15B
102
{ACAD_XDICTIONARY
360
355
102
}
330
141
100
AcDbEntity
  8
0
 62
     1
420
 16711680
100
AcDbText
 10
12.0
 20
2.250000029802322
 30
0.0
 40
3.499999940395355
  1

  7
Stile testo39
 11
12.0
 21
4.0
 31
0.0
100
AcDbAttributeDefinition
280
     0
  3
NOME_TAMPONAMENTO
  2
NOME_TAMPONAMENTO
 70
     0
 74
     2
280
     0
  0
ENDBLK
  5
143
330
141
100
AcDbEntity
  8
0
100
AcDbBlockEnd
  0
BLOCK
  5
15D
330
15C
100
AcDbEntity
  8
0
100
AcDbBlockBegin
  2
POLICARB_TRASP
 70
     2
 10
0.0
 20
0.0
 30
0.0
  3
POLICARB_TRASP
  1

  0
LINE
  5
15F
330
15C
100
AcDbEntity
  8
0
  6
Continuous
 62
     1
420
 16711680
100
AcDbLine
 10
10.0
 20
8.0
 30
0.0
 11
10.0
 21
0.0
 31
0.0
  0
LINE
  5
160
330
15C
100
AcDbEntity
  8
0
  6
Continuous
 62
     3
420
    65280
100
AcDbLine
 10
0.0
 20
8.0
 30
0.0
 11
130.250436452013
 21
8.0
 31
0.0
  0
LINE
  5
161
330
15C
100
AcDbEntity
  8
0
  6
Continuous
 62
     3
420
    65280
100
AcDbLine
 10
0.0
 20
8.0
 30
0.0
 11
0.0
 21
0.0
 31
0.0
  0
LINE
  5
162
330
15C
100
AcDbEntity
  8
0
  6
Continuous
 62
     3
420
    65280
100
AcDbLine
 10
130.250436452013
 20
8.0
 30
0.0
 11
130.250436452013
 21
0.0
 31
0.0
  0
LINE
  5
163
330
15C
100
AcDbEntity
  8
0
  6
Continuous
 62
     3
420
    65280
100
AcDbLine
 10
0.0
 20
0.0
 30
0.0
 11
130.250436452013
 21
0.0
 31
0.0
  0
LINE
  5
164
330
15C
100
AcDbEntity
  8
0
  6
Continuous
 62
     7
100
AcDbLine
 10
1.867236819489562
 20
1.021561418522821
 30
0.0
 11
7.867236819489562
 21
1.021561418522821
 31
0.0
  0
LINE
  5
165
330
15C
100
AcDbEntity
  8
0
  6
Continuous
 62
     7
100
AcDbLine
 10
7.867236819489562
 20
1.021561418522821
 30
0.0
 11
7.867236819489562
 21
7.021561418522822
 31
0.0
  0
LINE
  5
166
330
15C
100
AcDbEntity
  8
0
  6
Continuous
 62
     7
100
AcDbLine
 10
7.867236819489562
 20
7.021561418522822
 30
0.0
 11
1.867236819489562
 21
7.021561418522822
 31
0.0
  0
LINE
  5
167
330
15C
100
AcDbEntity
  8
0
  6
Continuous
 62
     7
100
AcDbLine
 10
1.867236819489562
 20
7.021561418522822
 30
0.0
 11
1.867236819489562
 21
1.021561418522821
 31
0.0
  0
SPLINE
  5
168
330
15C
100
AcDbEntity
  8
0
 62
     3
420
    65280
370
    25
100
AcDbSpline
210
0.0
220
0.0
230
1.0
 70
  1064
 71
     3
 72
    10
 73
     6
 74
     4
 42
0.000000001
 43
0.0000000001
 44
0.0000000001
 40
0.0
 40
0.0
 40
0.0
 40
0.0
 40
0.1394169802823584
 40
0.1794408531368916
 40
0.3137048426099892
 40
0.3137048426099892
 40
0.3137048426099892
 40
0.3137048426099892
 10
5.40150959370851
 20
5.186312025281864
 30
0.0
 10
4.8702842682906
 20
4.554523693501312
 30
0.0
 10
4.186554600585447
 20
3.741361358274766
 30
0.0
 10
5.587837593043002
 20
4.312206059539075
 30
0.0
 10
4.928009383682672
 20
3.525669313312291
 30
0.0
 10
4.419705669514257
 20
2.919754707411158
 30
0.0
 11
5.40150959370851
 21
5.186312025281864
 31
0.0
 11
4.704424692296727
 21
3.978925558847494
 31
0.0
 11
5.091025616879764
 21
4.082514964382638
 31
0.0
 11
4.419705669514257
 21
2.919754707411158
 31
0.0
  0
SPLINE
  5
169
330
15C
100
AcDbEntity
  8
0
 62
     3
420
    65280
100
AcDbSpline
210
0.0
220
0.0
230
1.0
 70
  1064
 71
     3
 72
    10
 73
     6
 74
     4
 42
0.000000001
 43
0.0000000001
 44
0.0000000001
 40
0.0
 40
0.0
 40
0.0
 40
0.0
 40
0.13941698028236
 40
0.1794408531368931
 40
0.3137048426099893
 40
0.3137048426099893
 40
0.3137048426099893
 40
0.3137048426099893
 10
6.201509593708522
 20
5.186312025281864
 30
0.0
 10
5.670284268290595
 20
4.55452369350131
 30
0.0
 10
4.986554600585423
 20
3.741361358274764
 30
0.0
 10
6.387837593042974
 20
4.312206059539073
 30
0.0
 10
5.728009383682667
 20
3.52566931331229
 30
0.0
 10
5.219705669514269
 20
2.919754707411158
 30
0.0
 11
6.201509593708522
 21
5.186312025281864
 31
0.0
 11
5.504424692296709
 21
3.978925558847492
 31
0.0
 11
5.891025616879744
 21
4.082514964382638
 31
0.0
 11
5.219705669514269
 21
2.919754707411158
 31
0.0
  0
SPLINE
  5
16A
330
15C
100
AcDbEntity
  8
0
 62
     3
420
    65280
100
AcDbSpline
210
0.0
220
0.0
230
1.0
 70
  1064
 71
     3
 72
    10
 73
     6
 74
     4
 42
0.000000001
 43
0.0000000001
 44
0.0000000001
 40
0.0
 40
0.0
 40
0.0
 40
0.0
 40
0.1394169802823577
 40
0.1794408531368907
 40
0.3137048426099886
 40
0.3137048426099886
 40
0.3137048426099886
 40
0.3137048426099886
 10
6.501509593708505
 20
3.586312025281856
 30
0.0
 10
5.970284268290598
 20
2.954523693501309
 30
0.0
 10
5.286554600585446
 20
2.141361358274769
 30
0.0
 10
6.687837593042997
 20
2.712206059539075
 30
0.0
 10
6.028009383682668
 20
1.925669313312291
 30
0.0
 10
5.519705669514252
 20
1.319754707411156
 30
0.0
 11
6.501509593708505
 21
3.586312025281856
 31
0.0
 11
5.804424692296722
 21
2.378925558847494
 31
0.0
 11
6.191025616879758
 21
2.482514964382639
 31
0.0
 11
5.519705669514252
 21
1.319754707411156
 31
0.0
  0
SPLINE
  5
16B
330
15C
100
AcDbEntity
  8
0
 62
     3
420
    65280
100
AcDbSpline
210
0.0
220
0.0
230
1.0
 70
  1064
 71
     3
 72
    10
 73
     6
 74
     4
 42
0.000000001
 43
0.0000000001
 44
0.0000000001
 40
0.0
 40
0.0
 40
0.0
 40
0.0
 40
0.1394169802823562
 40
0.1794408531368893
 40
0.3137048426099888
 40
0.3137048426099888
 40
0.3137048426099888
 40
0.3137048426099888
 10
7.301509593708487
 20
3.586312025281856
 30
0.0
 10
6.770284268290595
 20
2.95452369350131
 30
0.0
 10
6.08655460058546
 20
2.141361358274771
 30
0.0
 10
7.487837593043014
 20
2.712206059539081
 30
0.0
 10
6.828009383682665
 20
1.925669313312294
 30
0.0
 10
6.319705669514235
 20
1.319754707411156
 30
0.0
 11
7.301509593708487
 21
3.586312025281856
 31
0.0
 11
6.604424692296731
 21
2.378925558847495
 31
0.0
 11
6.991025616879768
 21
2.482514964382641
 31
0.0
 11
6.319705669514235
 21
1.319754707411156
 31
0.0
  0
SPLINE
  5
16C
330
15C
100
AcDbEntity
  8
0
 62
     3
420
    65280
100
AcDbSpline
210
0.0
220
0.0
230
1.0
 70
  1064
 71
     3
 72
    10
 73
     6
 74
     4
 42
0.000000001
 43
0.0000000001
 44
0.0000000001
 40
0.0
 40
0.0
 40
0.0
 40
0.0
 40
0.1394169802823565
 40
0.1794408531368897
 40
0.3137048426099889
 40
0.3137048426099889
 40
0.3137048426099889
 40
0.3137048426099889
 10
3.07247248603727
 20
6.815349132953087
 30
0.0
 10
2.541247160619377
 20
6.18356080117254
 30
0.0
 10
1.857517492914244
 20
5.370398465945998
 30
0.0
 10
3.258800485371796
 20
5.941243167210311
 30
0.0
 10
2.598972276011448
 20
5.154706420983524
 30
0.0
 10
2.090668561843017
 20
4.548791815082388
 30
0.0
 11
3.07247248603727
 21
6.815349132953087
 31
0.0
 11
2.375387584625515
 21
5.607962666518723
 31
0.0
 11
2.761988509208552
 21
5.71155207205387
 31
0.0
 11
2.090668561843017
 21
4.548791815082388
 31
0.0
  0
SPLINE
  5
16D
330
15C
100
AcDbEntity
  8
0
 62
     3
420
    65280
100
AcDbSpline
210
0.0
220
0.0
230
1.0
 70
  1064
 71
     3
 72
    10
 73
     6
 74
     4
 42
0.000000001
 43
0.0000000001
 44
0.0000000001
 40
0.0
 40
0.0
 40
0.0
 40
0.0
 40
0.1394169802823583
 40
0.1794408531368913
 40
0.3137048426099885
 40
0.3137048426099885
 40
0.3137048426099885
 40
0.3137048426099885
 10
3.872472486037281
 20
6.815349132953087
 30
0.0
 10
3.341247160619371
 20
6.183560801172535
 30
0.0
 10
2.65751749291422
 20
5.37039846594599
 30
0.0
 10
4.058800485371766
 20
5.941243167210304
 30
0.0
 10
3.39897227601144
 20
5.15470642098352
 30
0.0
 10
2.890668561843028
 20
4.548791815082388
 30
0.0
 11
3.872472486037281
 21
6.815349132953087
 31
0.0
 11
3.175387584625497
 21
5.607962666518718
 31
0.0
 11
3.561988509208531
 21
5.711552072053866
 31
0.0
 11
2.890668561843028
 21
4.548791815082388
 31
0.0
  0
SPLINE
  5
16E
330
15C
100
AcDbEntity
  8
0
 62
     3
420
    65280
100
AcDbSpline
210
0.0
220
0.0
230
1.0
 70
  1064
 71
     3
 72
    10
 73
     6
 74
     4
 42
0.000000001
 43
0.0000000001
 44
0.0000000001
 40
0.0
 40
0.0
 40
0.0
 40
0.0
 40
0.1394169802823576
 40
0.1794408531368906
 40
0.3137048426099885
 40
0.3137048426099885
 40
0.3137048426099885
 40
0.3137048426099885
 10
3.001509593708505
 20
3.586312025281856
 30
0.0
 10
2.470284268290595
 20
2.954523693501309
 30
0.0
 10
1.786554600585443
 20
2.14136135827477
 30
0.0
 10
3.187837593042992
 20
2.71220605953908
 30
0.0
 10
2.528009383682665
 20
1.925669313312292
 30
0.0
 10
2.019705669514252
 20
1.319754707411156
 30
0.0
 11
3.001509593708505
 21
3.586312025281856
 31
0.0
 11
2.304424692296719
 21
2.378925558847496
 31
0.0
 11
2.691025616879754
 21
2.482514964382641
 31
0.0
 11
2.019705669514252
 21
1.319754707411156
 31
0.0
  0
SPLINE
  5
16F
330
15C
100
AcDbEntity
  8
0
 62
     3
420
    65280
100
AcDbSpline
210
0.0
220
0.0
230
1.0
 70
  1064
 71
     3
 72
    10
 73
     6
 74
     4
 42
0.000000001
 43
0.0000000001
 44
0.0000000001
 40
0.0
 40
0.0
 40
0.0
 40
0.0
 40
0.1394169802823561
 40
0.1794408531368891
 40
0.3137048426099886
 40
0.3137048426099886
 40
0.3137048426099886
 40
0.3137048426099886
 10
3.801509593708487
 20
3.586312025281856
 30
0.0
 10
3.270284268290595
 20
2.95452369350131
 30
0.0
 10
2.586554600585464
 20
2.141361358274771
 30
0.0
 10
3.987837593043013
 20
2.712206059539083
 30
0.0
 10
3.328009383682666
 20
1.925669313312295
 30
0.0
 10
2.819705669514235
 20
1.319754707411156
 30
0.0
 11
3.801509593708487
 21
3.586312025281856
 31
0.0
 11
3.104424692296733
 21
2.378925558847496
 31
0.0
 11
3.491025616879768
 21
2.482514964382642
 31
0.0
 11
2.819705669514235
 21
1.319754707411156
 31
0.0
  0
SPLINE
  5
170
330
15C
100
AcDbEntity
  8
0
 62
     3
420
    65280
100
AcDbSpline
210
0.0
220
0.0
230
1.0
 70
  1064
 71
     3
 72
    10
 73
     6
 74
     4
 42
0.000000001
 43
0.0000000001
 44
0.0000000001
 40
0.0
 40
0.0
 40
0.0
 40
0.0
 40
0.1394169802823574
 40
0.1794408531368902
 40
0.3137048426099882
 40
0.3137048426099882
 40
0.3137048426099882
 40
0.3137048426099882
 10
6.914817715412851
 20
6.826128725555733
 30
0.0
 10
6.383592389994942
 20
6.194340393775188
 30
0.0
 10
5.69986272228979
 20
5.381178058548651
 30
0.0
 10
7.101145714747336
 20
5.95202275981296
 30
0.0
 10
6.441317505387011
 20
5.165486013586172
 30
0.0
 10
5.933013791218598
 20
4.559571407685034
 30
0.0
 11
6.914817715412851
 21
6.826128725555733
 31
0.0
 11
6.217732814001065
 21
5.618742259121376
 31
0.0
 11
6.604333738584098
 21
5.722331664656522
 31
0.0
 11
5.933013791218598
 21
4.559571407685034
 31
0.0
  0
SPLINE
  5
171
330
15C
100
AcDbEntity
  8
0
 62
     3
420
    65280
100
AcDbSpline
210
0.0
220
0.0
230
1.0
 70
  1064
 71
     3
 72
    10
 73
     6
 74
     4
 42
0.000000001
 43
0.0000000001
 44
0.0000000001
 40
0.0
 40
0.0
 40
0.0
 40
0.0
 40
0.1394169802823558
 40
0.1794408531368888
 40
0.3137048426099884
 40
0.3137048426099884
 40
0.3137048426099884
 40
0.3137048426099884
 10
7.714817715412834
 20
6.826128725555733
 30
0.0
 10
7.183592389994943
 20
6.194340393775192
 30
0.0
 10
6.499862722289813
 20
5.381178058548656
 30
0.0
 10
7.901145714747363
 20
5.952022759812956
 30
0.0
 10
7.241317505387013
 20
5.165486013586171
 30
0.0
 10
6.733013791218582
 20
4.559571407685034
 30
0.0
 11
7.714817715412834
 21
6.826128725555733
 31
0.0
 11
7.01773281400108
 21
5.618742259121376
 31
0.0
 11
7.404333738584116
 21
5.72233166465652
 31
0.0
 11
6.733013791218582
 21
4.559571407685034
 31
0.0
  0
ATTDEF
  5
172
102
{ACAD_XDICTIONARY
360
358
102
}
330
15C
100
AcDbEntity
  8
0
 62
     1
420
 16711680
100
AcDbText
 10
12.0
 20
2.250000029802322
 30
0.0
 40
3.499999940395355
  1

  7
Stile testo39
 11
12.0
 21
4.0
 31
0.0
100
AcDbAttributeDefinition
280
     0
  3
NOME_TAMPONAMENTO
  2
NOME_TAMPONAMENTO
 70
     0
 74
     2
280
     0
  0
ENDBLK
  5
15E
330
15C
100
AcDbEntity
  8
0
100
AcDbBlockEnd
  0
BLOCK
  5
174
330
173
100
AcDbEntity
  8
0
100
AcDbBlockBegin
  2
POLIETILENE
 70
     2
 10
0.0
 20
0.0
 30
0.0
  3
POLIETILENE
  1

  0
LINE
  5
176
330
173
100
AcDbEntity
  8
0
  6
Continuous
 62
     1
420
 16711680
100
AcDbLine
 10
10.0
 20
8.0
 30
0.0
 11
10.0
 21
0.0
 31
0.0
  0
LINE
  5
177
330
173
100
AcDbEntity
  8
0
  6
Continuous
 62
     3
420
    65280
100
AcDbLine
 10
0.0
 20
8.0
 30
0.0
 11
130.250436452013
 21
8.0
 31
0.0
  0
LINE
  5
178
330
173
100
AcDbEntity
  8
0
  6
Continuous
 62
     3
420
    65280
100
AcDbLine
 10
0.0
 20
8.0
 30
0.0
 11
0.0
 21
0.0
 31
0.0
  0
LINE
  5
179
330
173
100
AcDbEntity
  8
0
  6
Continuous
 62
     3
420
    65280
100
AcDbLine
 10
130.250436452013
 20
8.0
 30
0.0
 11
130.250436452013
 21
0.0
 31
0.0
  0
LINE
  5
17A
330
173
100
AcDbEntity
  8
0
  6
Continuous
 62
     3
420
    65280
100
AcDbLine
 10
0.0
 20
0.0
 30
0.0
 11
130.250436452013
 21
0.0
 31
0.0
  0
LINE
  5
17B
330
173
100
AcDbEntity
  8
0
  6
Continuous
 62
     7
100
AcDbLine
 10
1.867236819489562
 20
1.021561418522821
 30
0.0
 11
7.867236819489562
 21
1.021561418522821
 31
0.0
  0
LINE
  5
17C
330
173
100
AcDbEntity
  8
0
  6
Continuous
 62
     7
100
AcDbLine
 10
7.867236819489562
 20
1.021561418522821
 30
0.0
 11
7.867236819489562
 21
7.021561418522822
 31
0.0
  0
LINE
  5
17D
330
173
100
AcDbEntity
  8
0
  6
Continuous
 62
     7
100
AcDbLine
 10
7.867236819489562
 20
7.021561418522822
 30
0.0
 11
1.867236819489562
 21
7.021561418522822
 31
0.0
  0
LINE
  5
17E
330
173
100
AcDbEntity
  8
0
  6
Continuous
 62
     7
100
AcDbLine
 10
1.867236819489562
 20
7.021561418522822
 30
0.0
 11
1.867236819489562
 21
1.021561418522821
 31
0.0
  0
LINE
  5
17F
330
173
100
AcDbEntity
  8
0
  6
Continuous
 62
     4
420
    65535
100
AcDbLine
 10
2.367236819489534
 20
5.609061418522828
 30
0.0
 11
7.367236819489506
 21
5.609061418522828
 31
0.0
  0
LINE
  5
180
330
173
100
AcDbEntity
  8
0
  6
Continuous
 62
     4
420
    65535
100
AcDbLine
 10
2.367236819489562
 20
4.021561418522821
 30
0.0
 11
7.367236819489534
 21
4.021561418522821
 31
0.0
  0
LINE
  5
181
330
173
100
AcDbEntity
  8
0
  6
Continuous
 62
     4
420
    65535
100
AcDbLine
 10
2.367236819489562
 20
2.434061418522816
 30
0.0
 11
7.367236819489534
 21
2.434061418522816
 31
0.0
  0
LINE
  5
182
330
173
100
AcDbEntity
  8
0
  6
Continuous
 62
     4
420
    65535
100
AcDbLine
 10
2.367236819489562
 20
5.489299078342612
 30
0.0
 11
2.963213759466953
 21
6.521561418522821
 31
0.0
  0
LINE
  5
183
330
173
100
AcDbEntity
  8
0
  6
Continuous
 62
     4
420
    65535
100
AcDbLine
 10
2.36723681948959
 20
2.314299078342656
 30
0.0
 11
4.796300864144001
 21
6.521561418522821
 31
0.0
  0
LINE
  5
184
330
173
100
AcDbEntity
  8
0
  6
Continuous
 62
     4
420
    65535
100
AcDbLine
 10
3.742636622872936
 20
1.52156141852285
 30
0.0
 11
6.629387968821021
 21
6.521561418522821
 31
0.0
  0
LINE
  5
185
330
173
100
AcDbEntity
  8
0
  6
Continuous
 62
     4
420
    65535
100
AcDbLine
 10
5.575723727549927
 20
1.52156141852285
 30
0.0
 11
7.367236819489506
 21
4.624553116186945
 31
0.0
  0
LINE
  5
186
330
173
100
AcDbEntity
  8
0
  6
Continuous
 62
     4
420
    65535
100
AcDbLine
 10
2.963213759466924
 20
1.521561418522822
 30
0.0
 11
2.367236819489704
 21
2.553823758702804
 31
0.0
  0
LINE
  5
187
330
173
100
AcDbEntity
  8
0
  6
Continuous
 62
     4
420
    65535
100
AcDbLine
 10
4.796300864144001
 20
1.521561418522822
 30
0.0
 11
2.367236819489676
 21
5.728823758702873
 31
0.0
  0
LINE
  5
188
330
173
100
AcDbEntity
  8
0
  6
Continuous
 62
     4
420
    65535
100
AcDbLine
 10
6.629387968821078
 20
1.521561418522822
 30
0.0
 11
3.742636622872936
 21
6.521561418522821
 31
0.0
  0
LINE
  5
189
330
173
100
AcDbEntity
  8
0
  6
Continuous
 62
     4
420
    65535
100
AcDbLine
 10
7.367236819489619
 20
3.418569720858528
 30
0.0
 11
5.575723727549927
 21
6.521561418522821
 31
0.0
  0
ATTDEF
  5
18A
102
{ACAD_XDICTIONARY
360
35B
102
}
330
173
100
AcDbEntity
  8
0
 62
     1
420
 16711680
100
AcDbText
 10
12.0
 20
2.250000029802322
 30
0.0
 40
3.499999940395355
  1

  7
Stile testo39
 11
12.0
 21
4.0
 31
0.0
100
AcDbAttributeDefinition
280
     0
  3
NOME_TAMPONAMENTO
  2
NOME_TAMPONAMENTO
 70
     0
 74
     2
280
     0
  0
ENDBLK
  5
175
330
173
100
AcDbEntity
  8
0
100
AcDbBlockEnd
  0
BLOCK
  5
18C
330
18B
100
AcDbEntity
  8
0
100
AcDbBlockBegin
  2
PVC
 70
     2
 10
0.0
 20
0.0
 30
0.0
  3
PVC
  1

  0
LINE
  5
18E
330
18B
100
AcDbEntity
  8
0
100
AcDbLine
 10
1.867236819489562
 20
1.021561418522821
 30
0.0
 11
7.867236819489562
 21
1.021561418522821
 31
0.0
  0
LINE
  5
18F
330
18B
100
AcDbEntity
  8
0
100
AcDbLine
 10
1.867236819489562
 20
7.021561418522822
 30
0.0
 11
1.867236819489562
 21
1.021561418522821
 31
0.0
  0
LINE
  5
190
330
18B
100
AcDbEntity
  8
0
100
AcDbLine
 10
7.867236819489562
 20
7.021561418522822
 30
0.0
 11
1.867236819489562
 21
7.021561418522822
 31
0.0
  0
LINE
  5
191
330
18B
100
AcDbEntity
  8
0
100
AcDbLine
 10
7.867236819489562
 20
1.021561418522821
 30
0.0
 11
7.867236819489562
 21
7.021561418522822
 31
0.0
  0
LINE
  5
193
330
18B
100
AcDbEntity
  8
0
  6
Continuous
 62
     1
420
 16711680
100
AcDbLine
 10
10.0
 20
8.0
 30
0.0
 11
10.0
 21
0.0
 31
0.0
  0
LINE
  5
194
330
18B
100
AcDbEntity
  8
0
  6
Continuous
 62
     3
420
    65280
100
AcDbLine
 10
0.0
 20
8.0
 30
0.0
 11
130.250436452013
 21
8.0
 31
0.0
  0
LINE
  5
195
330
18B
100
AcDbEntity
  8
0
  6
Continuous
 62
     3
420
    65280
100
AcDbLine
 10
0.0
 20
8.0
 30
0.0
 11
0.0
 21
0.0
 31
0.0
  0
LINE
  5
196
330
18B
100
AcDbEntity
  8
0
  6
Continuous
 62
     3
420
    65280
100
AcDbLine
 10
130.250436452013
 20
8.0
 30
0.0
 11
130.250436452013
 21
0.0
 31
0.0
  0
LINE
  5
197
330
18B
100
AcDbEntity
  8
0
  6
Continuous
 62
     3
420
    65280
100
AcDbLine
 10
0.0
 20
0.0
 30
0.0
 11
130.250436452013
 21
0.0
 31
0.0
  0
LINE
  5
198
330
18B
100
AcDbEntity
  8
0
  6
Continuous
 62
     7
100
AcDbLine
 10
1.867236819489562
 20
1.021561418522821
 30
0.0
 11
7.867236819489562
 21
1.021561418522821
 31
0.0
  0
LINE
  5
199
330
18B
100
AcDbEntity
  8
0
  6
Continuous
 62
     7
100
AcDbLine
 10
7.867236819489562
 20
1.021561418522821
 30
0.0
 11
7.867236819489562
 21
7.021561418522822
 31
0.0
  0
LINE
  5
19A
330
18B
100
AcDbEntity
  8
0
  6
Continuous
 62
     7
100
AcDbLine
 10
7.867236819489562
 20
7.021561418522822
 30
0.0
 11
1.867236819489562
 21
7.021561418522822
 31
0.0
  0
LINE
  5
19B
330
18B
100
AcDbEntity
  8
0
  6
Continuous
 62
     7
100
AcDbLine
 10
1.867236819489562
 20
7.021561418522822
 30
0.0
 11
1.867236819489562
 21
1.021561418522821
 31
0.0
  0
LINE
  5
19C
330
18B
100
AcDbEntity
  8
GEOMETRIA SCHIZZO
100
AcDbLine
 10
1.867236819489562
 20
7.021561418522822
 30
0.0
 11
7.867236819489562
 21
7.021561418522822
 31
0.0
  0
LINE
  5
19D
330
18B
100
AcDbEntity
  8
GEOMETRIA SCHIZZO
100
AcDbLine
 10
7.867236819489562
 20
7.021561418522822
 30
0.0
 11
7.867236819489562
 21
1.021561418522821
 31
0.0
  0
LINE
  5
19E
330
18B
100
AcDbEntity
  8
GEOMETRIA SCHIZZO
100
AcDbLine
 10
7.867236819489562
 20
1.021561418522821
 30
0.0
 11
1.867236819489562
 21
1.021561418522821
 31
0.0
  0
LINE
  5
19F
330
18B
100
AcDbEntity
  8
GEOMETRIA SCHIZZO
100
AcDbLine
 10
1.867236819489562
 20
1.021561418522821
 30
0.0
 11
1.867236819489562
 21
7.021561418522822
 31
0.0
  0
ATTDEF
  5
1A0
102
{ACAD_XDICTIONARY
360
35E
102
}
330
18B
100
AcDbEntity
  8
0
 62
     1
420
 16711680
100
AcDbText
 10
11.66872428140939
 20
2.778120719111464
 30
0.0
 40
3.499999940395355
  1
rjhiljyt
  7
Stile testo39
100
AcDbAttributeDefinition
280
     0
  3
NOME_TAMPONAMENTO
  2
NOME_TAMPONAMENTO_001
 70
     0
280
     0
  0
ENDBLK
  5
18D
330
18B
100
AcDbEntity
  8
0
100
AcDbBlockEnd
  0
BLOCK
  5
1A2
330
1A1
100
AcDbEntity
  8
0
100
AcDbBlockBegin
  2
RETE_11X100
 70
     2
 10
0.0
 20
0.0
 30
0.0
  3
RETE_11X100
  1

  0
LINE
  5
1A4
330
1A1
100
AcDbEntity
  8
0
  6
Continuous
 62
     1
420
 16711680
100
AcDbLine
 10
10.0
 20
8.0
 30
0.0
 11
10.0
 21
0.0
 31
0.0
  0
LINE
  5
1A5
330
1A1
100
AcDbEntity
  8
0
  6
Continuous
 62
     3
420
    65280
100
AcDbLine
 10
0.0
 20
8.0
 30
0.0
 11
130.250436452013
 21
8.0
 31
0.0
  0
LINE
  5
1A6
330
1A1
100
AcDbEntity
  8
0
  6
Continuous
 62
     3
420
    65280
100
AcDbLine
 10
0.0
 20
8.0
 30
0.0
 11
0.0
 21
0.0
 31
0.0
  0
LINE
  5
1A7
330
1A1
100
AcDbEntity
  8
0
  6
Continuous
 62
     3
420
    65280
100
AcDbLine
 10
130.250436452013
 20
8.0
 30
0.0
 11
130.250436452013
 21
0.0
 31
0.0
  0
LINE
  5
1A8
330
1A1
100
AcDbEntity
  8
0
  6
Continuous
 62
     7
100
AcDbLine
 10
1.867236819489562
 20
1.021561418522821
 30
0.0
 11
7.867236819489562
 21
1.021561418522821
 31
0.0
  0
LINE
  5
1A9
330
1A1
100
AcDbEntity
  8
0
  6
Continuous
 62
     7
100
AcDbLine
 10
7.867236819489562
 20
1.021561418522821
 30
0.0
 11
7.867236819489562
 21
7.021561418522822
 31
0.0
  0
LINE
  5
1AA
330
1A1
100
AcDbEntity
  8
0
  6
Continuous
 62
     7
100
AcDbLine
 10
7.867236819489562
 20
7.021561418522822
 30
0.0
 11
1.867236819489562
 21
7.021561418522822
 31
0.0
  0
LINE
  5
1AB
330
1A1
100
AcDbEntity
  8
0
  6
Continuous
 62
     7
100
AcDbLine
 10
1.867236819489562
 20
7.021561418522822
 30
0.0
 11
1.867236819489562
 21
1.021561418522821
 31
0.0
  0
LINE
  5
1AC
330
1A1
100
AcDbEntity
  8
0
  6
Continuous
 62
     3
420
    65280
100
AcDbLine
 10
2.933236819492094
 20
1.621561418522844
 30
0.0
 11
6.801236819497149
 21
1.621561418522844
 31
0.0
  0
LINE
  5
1AD
330
1A1
100
AcDbEntity
  8
0
  6
Continuous
 62
     3
420
    65280
100
AcDbLine
 10
2.933236819492094
 20
4.021561418522821
 30
0.0
 11
6.801236819497149
 21
4.021561418522821
 31
0.0
  0
LINE
  5
1AE
330
1A1
100
AcDbEntity
  8
0
  6
Continuous
 62
     3
420
    65280
100
AcDbLine
 10
3.283236819497119
 20
4.021561418522821
 30
0.0
 11
3.283236819497119
 21
1.271561418521344
 31
0.0
  0
LINE
  5
1AF
330
1A1
100
AcDbEntity
  8
0
  6
Continuous
 62
     3
420
    65280
100
AcDbLine
 10
3.811236819497139
 20
4.021561418522821
 30
0.0
 11
3.811236819497139
 21
1.271561418521344
 31
0.0
  0
LINE
  5
1B0
330
1A1
100
AcDbEntity
  8
0
  6
Continuous
 62
     3
420
    65280
100
AcDbLine
 10
4.339236819497159
 20
4.021561418522821
 30
0.0
 11
4.339236819497159
 21
1.271561418521344
 31
0.0
  0
LINE
  5
1B1
330
1A1
100
AcDbEntity
  8
0
  6
Continuous
 62
     3
420
    65280
100
AcDbLine
 10
4.867236819497122
 20
4.021561418522821
 30
0.0
 11
4.867236819497122
 21
1.271561418521344
 31
0.0
  0
LINE
  5
1B2
330
1A1
100
AcDbEntity
  8
0
  6
Continuous
 62
     3
420
    65280
100
AcDbLine
 10
5.395236819497143
 20
4.021561418522821
 30
0.0
 11
5.395236819497143
 21
1.271561418521344
 31
0.0
  0
LINE
  5
1B3
330
1A1
100
AcDbEntity
  8
0
  6
Continuous
 62
     3
420
    65280
100
AcDbLine
 10
5.923236819497162
 20
4.021561418522821
 30
0.0
 11
5.923236819497162
 21
1.271561418521344
 31
0.0
  0
LINE
  5
1B4
330
1A1
100
AcDbEntity
  8
0
  6
Continuous
 62
     3
420
    65280
100
AcDbLine
 10
6.451236819497125
 20
4.021561418522821
 30
0.0
 11
6.451236819497125
 21
1.271561418521344
 31
0.0
  0
LINE
  5
1B5
330
1A1
100
AcDbEntity
  8
0
  6
Continuous
 62
     3
420
    65280
100
AcDbLine
 10
2.933236819492094
 20
6.4215614185228
 30
0.0
 11
6.801236819497149
 21
6.4215614185228
 31
0.0
  0
LINE
  5
1B6
330
1A1
100
AcDbEntity
  8
0
  6
Continuous
 62
     3
420
    65280
100
AcDbLine
 10
2.933236819492094
 20
4.021561418522821
 30
0.0
 11
6.801236819497149
 21
4.021561418522821
 31
0.0
  0
LINE
  5
1B7
330
1A1
100
AcDbEntity
  8
0
  6
Continuous
 62
     3
420
    65280
100
AcDbLine
 10
3.283236819497119
 20
4.021561418522821
 30
0.0
 11
3.283236819497119
 21
6.771561418524299
 31
0.0
  0
LINE
  5
1B8
330
1A1
100
AcDbEntity
  8
0
  6
Continuous
 62
     3
420
    65280
100
AcDbLine
 10
3.811236819497139
 20
4.021561418522821
 30
0.0
 11
3.811236819497139
 21
6.771561418524299
 31
0.0
  0
LINE
  5
1B9
330
1A1
100
AcDbEntity
  8
0
  6
Continuous
 62
     3
420
    65280
100
AcDbLine
 10
4.339236819497159
 20
4.021561418522821
 30
0.0
 11
4.339236819497159
 21
6.771561418524299
 31
0.0
  0
LINE
  5
1BA
330
1A1
100
AcDbEntity
  8
0
  6
Continuous
 62
     3
420
    65280
100
AcDbLine
 10
4.867236819497122
 20
4.021561418522821
 30
0.0
 11
4.867236819497122
 21
6.771561418524299
 31
0.0
  0
LINE
  5
1BB
330
1A1
100
AcDbEntity
  8
0
  6
Continuous
 62
     3
420
    65280
100
AcDbLine
 10
5.395236819497143
 20
4.021561418522821
 30
0.0
 11
5.395236819497143
 21
6.771561418524299
 31
0.0
  0
LINE
  5
1BC
330
1A1
100
AcDbEntity
  8
0
  6
Continuous
 62
     3
420
    65280
100
AcDbLine
 10
5.923236819497162
 20
4.021561418522821
 30
0.0
 11
5.923236819497162
 21
6.771561418524299
 31
0.0
  0
LINE
  5
1BD
330
1A1
100
AcDbEntity
  8
0
  6
Continuous
 62
     3
420
    65280
100
AcDbLine
 10
6.451236819497125
 20
4.021561418522821
 30
0.0
 11
6.451236819497125
 21
6.771561418524299
 31
0.0
  0
LINE
  5
1BE
330
1A1
100
AcDbEntity
  8
0
  6
Continuous
 62
     3
420
    65280
100
AcDbLine
 10
0.0
 20
0.0
 30
0.0
 11
130.250436452013
 21
0.0
 31
0.0
  0
ATTDEF
  5
1BF
102
{ACAD_XDICTIONARY
360
361
102
}
330
1A1
100
AcDbEntity
  8
0
 62
     1
420
 16711680
100
AcDbText
 10
11.99830177266988
 20
2.414165003805976
 30
0.0
 40
3.499999940395355
  1

  7
Stile testo39
 11
11.99830177266988
 21
4.164164974003654
 31
0.0
100
AcDbAttributeDefinition
280
     0
  3
NOME_TAMPONAMENTO
  2
NOME_TAMPONAMENTO
 70
     0
 74
     2
280
     0
  0
ENDBLK
  5
1A3
330
1A1
100
AcDbEntity
  8
0
100
AcDbBlockEnd
  0
BLOCK
  5
1C1
330
1C0
100
AcDbEntity
  8
0
100
AcDbBlockBegin
  2
RETE_25X25
 70
     2
 10
0.0
 20
0.0
 30
0.0
  3
RETE_25X25
  1

  0
LINE
  5
1C3
330
1C0
100
AcDbEntity
  8
0
  6
Continuous
 62
     1
420
 16711680
100
AcDbLine
 10
10.0
 20
8.0
 30
0.0
 11
10.0
 21
0.0
 31
0.0
  0
LINE
  5
1C4
330
1C0
100
AcDbEntity
  8
0
  6
Continuous
 62
     3
420
    65280
100
AcDbLine
 10
0.0
 20
8.0
 30
0.0
 11
130.250436452013
 21
8.0
 31
0.0
  0
LINE
  5
1C5
330
1C0
100
AcDbEntity
  8
0
  6
Continuous
 62
     3
420
    65280
100
AcDbLine
 10
0.0
 20
8.0
 30
0.0
 11
0.0
 21
0.0
 31
0.0
  0
LINE
  5
1C6
330
1C0
100
AcDbEntity
  8
0
  6
Continuous
 62
     3
420
    65280
100
AcDbLine
 10
130.250436452013
 20
8.0
 30
0.0
 11
130.250436452013
 21
0.0
 31
0.0
  0
LINE
  5
1C7
330
1C0
100
AcDbEntity
  8
0
  6
Continuous
 62
     3
420
    65280
100
AcDbLine
 10
0.0
 20
0.0
 30
0.0
 11
130.250436452013
 21
0.0
 31
0.0
  0
LINE
  5
1C8
330
1C0
100
AcDbEntity
  8
0
  6
Continuous
 62
     7
100
AcDbLine
 10
1.867236819489562
 20
1.021561418522821
 30
0.0
 11
7.867236819489562
 21
1.021561418522821
 31
0.0
  0
LINE
  5
1C9
330
1C0
100
AcDbEntity
  8
0
  6
Continuous
 62
     7
100
AcDbLine
 10
7.867236819489562
 20
1.021561418522821
 30
0.0
 11
7.867236819489562
 21
7.021561418522822
 31
0.0
  0
LINE
  5
1CA
330
1C0
100
AcDbEntity
  8
0
  6
Continuous
 62
     7
100
AcDbLine
 10
7.867236819489562
 20
7.021561418522822
 30
0.0
 11
1.867236819489562
 21
7.021561418522822
 31
0.0
  0
LINE
  5
1CB
330
1C0
100
AcDbEntity
  8
0
  6
Continuous
 62
     7
100
AcDbLine
 10
1.867236819489562
 20
7.021561418522822
 30
0.0
 11
1.867236819489562
 21
1.021561418522821
 31
0.0
  0
LINE
  5
1CC
330
1C0
100
AcDbEntity
  8
0
  6
Continuous
 62
     3
420
    65280
100
AcDbLine
 10
2.933236819492094
 20
4.021561418522821
 30
0.0
 11
6.801236819497149
 21
4.021561418522821
 31
0.0
  0
LINE
  5
1CD
330
1C0
100
AcDbEntity
  8
0
  6
Continuous
 62
     3
420
    65280
100
AcDbLine
 10
3.283236819497119
 20
4.021561418522821
 30
0.0
 11
3.283236819497119
 21
1.271561418521344
 31
0.0
  0
LINE
  5
1CE
330
1C0
100
AcDbEntity
  8
0
  6
Continuous
 62
     3
420
    65280
100
AcDbLine
 10
3.811236819497139
 20
4.021561418522821
 30
0.0
 11
3.811236819497139
 21
1.271561418521344
 31
0.0
  0
LINE
  5
1CF
330
1C0
100
AcDbEntity
  8
0
  6
Continuous
 62
     3
420
    65280
100
AcDbLine
 10
4.339236819497159
 20
4.021561418522821
 30
0.0
 11
4.339236819497159
 21
1.271561418521344
 31
0.0
  0
LINE
  5
1D0
330
1C0
100
AcDbEntity
  8
0
  6
Continuous
 62
     3
420
    65280
100
AcDbLine
 10
4.867236819497122
 20
4.021561418522821
 30
0.0
 11
4.867236819497122
 21
1.271561418521344
 31
0.0
  0
LINE
  5
1D1
330
1C0
100
AcDbEntity
  8
0
  6
Continuous
 62
     3
420
    65280
100
AcDbLine
 10
5.395236819497143
 20
4.021561418522821
 30
0.0
 11
5.395236819497143
 21
1.271561418521344
 31
0.0
  0
LINE
  5
1D2
330
1C0
100
AcDbEntity
  8
0
  6
Continuous
 62
     3
420
    65280
100
AcDbLine
 10
5.923236819497162
 20
4.021561418522821
 30
0.0
 11
5.923236819497162
 21
1.271561418521344
 31
0.0
  0
LINE
  5
1D3
330
1C0
100
AcDbEntity
  8
0
  6
Continuous
 62
     3
420
    65280
100
AcDbLine
 10
6.451236819497125
 20
4.021561418522821
 30
0.0
 11
6.451236819497125
 21
1.271561418521344
 31
0.0
  0
LINE
  5
1D4
330
1C0
100
AcDbEntity
  8
0
  6
Continuous
 62
     3
420
    65280
100
AcDbLine
 10
2.933236819492094
 20
4.021561418522821
 30
0.0
 11
6.801236819497149
 21
4.021561418522821
 31
0.0
  0
LINE
  5
1D5
330
1C0
100
AcDbEntity
  8
0
  6
Continuous
 62
     3
420
    65280
100
AcDbLine
 10
3.283236819497119
 20
4.021561418522821
 30
0.0
 11
3.283236819497119
 21
6.771561418524299
 31
0.0
  0
LINE
  5
1D6
330
1C0
100
AcDbEntity
  8
0
  6
Continuous
 62
     3
420
    65280
100
AcDbLine
 10
3.811236819497139
 20
4.021561418522821
 30
0.0
 11
3.811236819497139
 21
6.771561418524299
 31
0.0
  0
LINE
  5
1D7
330
1C0
100
AcDbEntity
  8
0
  6
Continuous
 62
     3
420
    65280
100
AcDbLine
 10
4.339236819497159
 20
4.021561418522821
 30
0.0
 11
4.339236819497159
 21
6.771561418524299
 31
0.0
  0
LINE
  5
1D8
330
1C0
100
AcDbEntity
  8
0
  6
Continuous
 62
     3
420
    65280
100
AcDbLine
 10
4.867236819497122
 20
4.021561418522821
 30
0.0
 11
4.867236819497122
 21
6.771561418524299
 31
0.0
  0
LINE
  5
1D9
330
1C0
100
AcDbEntity
  8
0
  6
Continuous
 62
     3
420
    65280
100
AcDbLine
 10
5.395236819497143
 20
4.021561418522821
 30
0.0
 11
5.395236819497143
 21
6.771561418524299
 31
0.0
  0
LINE
  5
1DA
330
1C0
100
AcDbEntity
  8
0
  6
Continuous
 62
     3
420
    65280
100
AcDbLine
 10
5.923236819497162
 20
4.021561418522821
 30
0.0
 11
5.923236819497162
 21
6.771561418524299
 31
0.0
  0
LINE
  5
1DB
330
1C0
100
AcDbEntity
  8
0
  6
Continuous
 62
     3
420
    65280
100
AcDbLine
 10
6.451236819497125
 20
4.021561418522821
 30
0.0
 11
6.451236819497125
 21
6.771561418524299
 31
0.0
  0
LINE
  5
1DC
330
1C0
100
AcDbEntity
  8
0
  6
Continuous
 62
     3
420
    65280
100
AcDbLine
 10
2.933236819492094
 20
4.549561418522813
 30
0.0
 11
6.801236819497149
 21
4.549561418522813
 31
0.0
  0
LINE
  5
1DD
330
1C0
100
AcDbEntity
  8
0
  6
Continuous
 62
     3
420
    65280
100
AcDbLine
 10
2.933236819492094
 20
5.077561418522805
 30
0.0
 11
6.801236819497149
 21
5.077561418522805
 31
0.0
  0
LINE
  5
1DE
330
1C0
100
AcDbEntity
  8
0
  6
Continuous
 62
     3
420
    65280
100
AcDbLine
 10
2.933236819492094
 20
5.605561418522796
 30
0.0
 11
6.801236819497149
 21
5.605561418522796
 31
0.0
  0
LINE
  5
1DF
330
1C0
100
AcDbEntity
  8
0
  6
Continuous
 62
     3
420
    65280
100
AcDbLine
 10
2.933236819492094
 20
6.133561418522788
 30
0.0
 11
6.801236819497149
 21
6.133561418522788
 31
0.0
  0
LINE
  5
1E0
330
1C0
100
AcDbEntity
  8
0
  6
Continuous
 62
     3
420
    65280
100
AcDbLine
 10
2.933236819492094
 20
3.49356141852283
 30
0.0
 11
6.801236819497149
 21
3.49356141852283
 31
0.0
  0
LINE
  5
1E1
330
1C0
100
AcDbEntity
  8
0
  6
Continuous
 62
     3
420
    65280
100
AcDbLine
 10
2.933236819492094
 20
2.965561418522839
 30
0.0
 11
6.801236819497149
 21
2.965561418522839
 31
0.0
  0
LINE
  5
1E2
330
1C0
100
AcDbEntity
  8
0
  6
Continuous
 62
     3
420
    65280
100
AcDbLine
 10
2.933236819492094
 20
2.437561418522847
 30
0.0
 11
6.801236819497149
 21
2.437561418522847
 31
0.0
  0
LINE
  5
1E3
330
1C0
100
AcDbEntity
  8
0
  6
Continuous
 62
     3
420
    65280
100
AcDbLine
 10
2.933236819492094
 20
1.909561418522855
 30
0.0
 11
6.801236819497149
 21
1.909561418522855
 31
0.0
  0
LINE
  5
1E4
330
1C0
100
AcDbEntity
  8
0
  6
Continuous
 62
     3
420
    65280
100
AcDbLine
 10
2.933236819492094
 20
6.661561418522779
 30
0.0
 11
6.801236819497149
 21
6.661561418522779
 31
0.0
  0
LINE
  5
1E5
330
1C0
100
AcDbEntity
  8
0
  6
Continuous
 62
     3
420
    65280
100
AcDbLine
 10
2.933236819492094
 20
1.381561418522863
 30
0.0
 11
6.801236819497149
 21
1.381561418522863
 31
0.0
  0
ATTDEF
  5
1E6
102
{ACAD_XDICTIONARY
360
364
102
}
330
1C0
100
AcDbEntity
  8
0
 62
     1
420
 16711680
100
AcDbText
 10
12.0
 20
2.250000029802322
 30
0.0
 40
3.499999940395355
  1

  7
Stile testo39
 11
12.0
 21
4.0
 31
0.0
100
AcDbAttributeDefinition
280
     0
  3
NOME_TAMPONAMENTO
  2
NOME_TAMPONAMENTO
 70
     0
 74
     2
280
     0
  0
ENDBLK
  5
1C2
330
1C0
100
AcDbEntity
  8
0
100
AcDbBlockEnd
  0
BLOCK
  5
1E8
330
1E7
100
AcDbEntity
  8
0
100
AcDbBlockBegin
  2
RETE_25X100
 70
     2
 10
0.0
 20
0.0
 30
0.0
  3
RETE_25X100
  1

  0
LINE
  5
1EA
330
1E7
100
AcDbEntity
  8
0
  6
Continuous
 62
     1
420
 16711680
100
AcDbLine
 10
10.0
 20
8.0
 30
0.0
 11
10.0
 21
0.0
 31
0.0
  0
LINE
  5
1EB
330
1E7
100
AcDbEntity
  8
0
  6
Continuous
 62
     3
420
    65280
100
AcDbLine
 10
0.0
 20
8.0
 30
0.0
 11
130.250436452013
 21
8.0
 31
0.0
  0
LINE
  5
1EC
330
1E7
100
AcDbEntity
  8
0
  6
Continuous
 62
     3
420
    65280
100
AcDbLine
 10
0.0
 20
8.0
 30
0.0
 11
0.0
 21
0.0
 31
0.0
  0
LINE
  5
1ED
330
1E7
100
AcDbEntity
  8
0
  6
Continuous
 62
     3
420
    65280
100
AcDbLine
 10
130.250436452013
 20
8.0
 30
0.0
 11
130.250436452013
 21
0.0
 31
0.0
  0
LINE
  5
1EE
330
1E7
100
AcDbEntity
  8
0
  6
Continuous
 62
     7
100
AcDbLine
 10
1.867236819489562
 20
1.021561418522821
 30
0.0
 11
7.867236819489562
 21
1.021561418522821
 31
0.0
  0
LINE
  5
1EF
330
1E7
100
AcDbEntity
  8
0
  6
Continuous
 62
     7
100
AcDbLine
 10
7.867236819489562
 20
1.021561418522821
 30
0.0
 11
7.867236819489562
 21
7.021561418522822
 31
0.0
  0
LINE
  5
1F0
330
1E7
100
AcDbEntity
  8
0
  6
Continuous
 62
     7
100
AcDbLine
 10
7.867236819489562
 20
7.021561418522822
 30
0.0
 11
1.867236819489562
 21
7.021561418522822
 31
0.0
  0
LINE
  5
1F1
330
1E7
100
AcDbEntity
  8
0
  6
Continuous
 62
     7
100
AcDbLine
 10
1.867236819489562
 20
7.021561418522822
 30
0.0
 11
1.867236819489562
 21
1.021561418522821
 31
0.0
  0
LINE
  5
1F2
330
1E7
100
AcDbEntity
  8
0
  6
Continuous
 62
     3
420
    65280
100
AcDbLine
 10
2.933236819492094
 20
1.621561418522844
 30
0.0
 11
6.801236819497149
 21
1.621561418522844
 31
0.0
  0
LINE
  5
1F3
330
1E7
100
AcDbEntity
  8
0
  6
Continuous
 62
     3
420
    65280
100
AcDbLine
 10
2.933236819492094
 20
4.021561418522821
 30
0.0
 11
6.801236819497149
 21
4.021561418522821
 31
0.0
  0
LINE
  5
1F4
330
1E7
100
AcDbEntity
  8
0
  6
Continuous
 62
     3
420
    65280
100
AcDbLine
 10
3.283236819497119
 20
4.021561418522821
 30
0.0
 11
3.283236819497119
 21
1.271561418521344
 31
0.0
  0
LINE
  5
1F5
330
1E7
100
AcDbEntity
  8
0
  6
Continuous
 62
     3
420
    65280
100
AcDbLine
 10
3.811236819497139
 20
4.021561418522821
 30
0.0
 11
3.811236819497139
 21
1.271561418521344
 31
0.0
  0
LINE
  5
1F6
330
1E7
100
AcDbEntity
  8
0
  6
Continuous
 62
     3
420
    65280
100
AcDbLine
 10
4.339236819497159
 20
4.021561418522821
 30
0.0
 11
4.339236819497159
 21
1.271561418521344
 31
0.0
  0
LINE
  5
1F7
330
1E7
100
AcDbEntity
  8
0
  6
Continuous
 62
     3
420
    65280
100
AcDbLine
 10
4.867236819497122
 20
4.021561418522821
 30
0.0
 11
4.867236819497122
 21
1.271561418521344
 31
0.0
  0
LINE
  5
1F8
330
1E7
100
AcDbEntity
  8
0
  6
Continuous
 62
     3
420
    65280
100
AcDbLine
 10
5.395236819497143
 20
4.021561418522821
 30
0.0
 11
5.395236819497143
 21
1.271561418521344
 31
0.0
  0
LINE
  5
1F9
330
1E7
100
AcDbEntity
  8
0
  6
Continuous
 62
     3
420
    65280
100
AcDbLine
 10
5.923236819497162
 20
4.021561418522821
 30
0.0
 11
5.923236819497162
 21
1.271561418521344
 31
0.0
  0
LINE
  5
1FA
330
1E7
100
AcDbEntity
  8
0
  6
Continuous
 62
     3
420
    65280
100
AcDbLine
 10
6.451236819497125
 20
4.021561418522821
 30
0.0
 11
6.451236819497125
 21
1.271561418521344
 31
0.0
  0
LINE
  5
1FB
330
1E7
100
AcDbEntity
  8
0
  6
Continuous
 62
     3
420
    65280
100
AcDbLine
 10
2.933236819492094
 20
6.4215614185228
 30
0.0
 11
6.801236819497149
 21
6.4215614185228
 31
0.0
  0
LINE
  5
1FC
330
1E7
100
AcDbEntity
  8
0
  6
Continuous
 62
     3
420
    65280
100
AcDbLine
 10
2.933236819492094
 20
4.021561418522821
 30
0.0
 11
6.801236819497149
 21
4.021561418522821
 31
0.0
  0
LINE
  5
1FD
330
1E7
100
AcDbEntity
  8
0
  6
Continuous
 62
     3
420
    65280
100
AcDbLine
 10
3.283236819497119
 20
4.021561418522821
 30
0.0
 11
3.283236819497119
 21
6.771561418524299
 31
0.0
  0
LINE
  5
1FE
330
1E7
100
AcDbEntity
  8
0
  6
Continuous
 62
     3
420
    65280
100
AcDbLine
 10
3.811236819497139
 20
4.021561418522821
 30
0.0
 11
3.811236819497139
 21
6.771561418524299
 31
0.0
  0
LINE
  5
1FF
330
1E7
100
AcDbEntity
  8
0
  6
Continuous
 62
     3
420
    65280
100
AcDbLine
 10
4.339236819497159
 20
4.021561418522821
 30
0.0
 11
4.339236819497159
 21
6.771561418524299
 31
0.0
  0
LINE
  5
200
330
1E7
100
AcDbEntity
  8
0
  6
Continuous
 62
     3
420
    65280
100
AcDbLine
 10
4.867236819497122
 20
4.021561418522821
 30
0.0
 11
4.867236819497122
 21
6.771561418524299
 31
0.0
  0
LINE
  5
201
330
1E7
100
AcDbEntity
  8
0
  6
Continuous
 62
     3
420
    65280
100
AcDbLine
 10
5.395236819497143
 20
4.021561418522821
 30
0.0
 11
5.395236819497143
 21
6.771561418524299
 31
0.0
  0
LINE
  5
202
330
1E7
100
AcDbEntity
  8
0
  6
Continuous
 62
     3
420
    65280
100
AcDbLine
 10
5.923236819497162
 20
4.021561418522821
 30
0.0
 11
5.923236819497162
 21
6.771561418524299
 31
0.0
  0
LINE
  5
203
330
1E7
100
AcDbEntity
  8
0
  6
Continuous
 62
     3
420
    65280
100
AcDbLine
 10
6.451236819497125
 20
4.021561418522821
 30
0.0
 11
6.451236819497125
 21
6.771561418524299
 31
0.0
  0
LINE
  5
204
330
1E7
100
AcDbEntity
  8
0
  6
Continuous
 62
     3
420
    65280
100
AcDbLine
 10
0.0
 20
0.0
 30
0.0
 11
130.250436452013
 21
0.0
 31
0.0
  0
ATTDEF
  5
205
102
{ACAD_XDICTIONARY
360
367
102
}
330
1E7
100
AcDbEntity
  8
0
 62
     1
420
 16711680
100
AcDbText
 10
11.99830177266988
 20
2.414165003805976
 30
0.0
 40
3.499999940395355
  1

  7
Stile testo39
 11
11.99830177266988
 21
4.164164974003654
 31
0.0
100
AcDbAttributeDefinition
280
     0
  3
NOME_TAMPONAMENTO
  2
NOME_TAMPONAMENTO
 70
     0
 74
     2
280
     0
  0
ENDBLK
  5
1E9
330
1E7
100
AcDbEntity
  8
0
100
AcDbBlockEnd
  0
BLOCK
  5
207
330
206
100
AcDbEntity
  8
0
100
AcDbBlockBegin
  2
RETE_25X100INOX
 70
     2
 10
0.0
 20
0.0
 30
0.0
  3
RETE_25X100INOX
  1

  0
LINE
  5
209
330
206
100
AcDbEntity
  8
0
  6
Continuous
 62
     1
420
 16711680
100
AcDbLine
 10
10.0
 20
8.0
 30
0.0
 11
10.0
 21
0.0
 31
0.0
  0
LINE
  5
20A
330
206
100
AcDbEntity
  8
0
  6
Continuous
 62
     3
420
    65280
100
AcDbLine
 10
0.0
 20
8.0
 30
0.0
 11
130.250436452013
 21
8.0
 31
0.0
  0
LINE
  5
20B
330
206
100
AcDbEntity
  8
0
  6
Continuous
 62
     3
420
    65280
100
AcDbLine
 10
0.0
 20
8.0
 30
0.0
 11
0.0
 21
0.0
 31
0.0
  0
LINE
  5
20C
330
206
100
AcDbEntity
  8
0
  6
Continuous
 62
     3
420
    65280
100
AcDbLine
 10
130.250436452013
 20
8.0
 30
0.0
 11
130.250436452013
 21
0.0
 31
0.0
  0
LINE
  5
20D
330
206
100
AcDbEntity
  8
0
  6
Continuous
 62
     7
100
AcDbLine
 10
1.867236819489562
 20
1.021561418522821
 30
0.0
 11
7.867236819489562
 21
1.021561418522821
 31
0.0
  0
LINE
  5
20E
330
206
100
AcDbEntity
  8
0
  6
Continuous
 62
     7
100
AcDbLine
 10
7.867236819489562
 20
1.021561418522821
 30
0.0
 11
7.867236819489562
 21
7.021561418522822
 31
0.0
  0
LINE
  5
20F
330
206
100
AcDbEntity
  8
0
  6
Continuous
 62
     7
100
AcDbLine
 10
7.867236819489562
 20
7.021561418522822
 30
0.0
 11
1.867236819489562
 21
7.021561418522822
 31
0.0
  0
LINE
  5
210
330
206
100
AcDbEntity
  8
0
  6
Continuous
 62
     7
100
AcDbLine
 10
1.867236819489562
 20
7.021561418522822
 30
0.0
 11
1.867236819489562
 21
1.021561418522821
 31
0.0
  0
LINE
  5
211
330
206
100
AcDbEntity
  8
0
  6
Continuous
 62
     3
420
    65280
100
AcDbLine
 10
2.933236819492094
 20
1.621561418522844
 30
0.0
 11
6.801236819497149
 21
1.621561418522844
 31
0.0
  0
LINE
  5
212
330
206
100
AcDbEntity
  8
0
  6
Continuous
 62
     3
420
    65280
100
AcDbLine
 10
2.933236819492094
 20
4.021561418522821
 30
0.0
 11
6.801236819497149
 21
4.021561418522821
 31
0.0
  0
LINE
  5
213
330
206
100
AcDbEntity
  8
0
  6
Continuous
 62
     3
420
    65280
100
AcDbLine
 10
3.283236819497119
 20
4.021561418522821
 30
0.0
 11
3.283236819497119
 21
1.271561418521344
 31
0.0
  0
LINE
  5
214
330
206
100
AcDbEntity
  8
0
  6
Continuous
 62
     3
420
    65280
100
AcDbLine
 10
3.811236819497139
 20
4.021561418522821
 30
0.0
 11
3.811236819497139
 21
1.271561418521344
 31
0.0
  0
LINE
  5
215
330
206
100
AcDbEntity
  8
0
  6
Continuous
 62
     3
420
    65280
100
AcDbLine
 10
4.339236819497159
 20
4.021561418522821
 30
0.0
 11
4.339236819497159
 21
1.271561418521344
 31
0.0
  0
LINE
  5
216
330
206
100
AcDbEntity
  8
0
  6
Continuous
 62
     3
420
    65280
100
AcDbLine
 10
4.867236819497122
 20
4.021561418522821
 30
0.0
 11
4.867236819497122
 21
1.271561418521344
 31
0.0
  0
LINE
  5
217
330
206
100
AcDbEntity
  8
0
  6
Continuous
 62
     3
420
    65280
100
AcDbLine
 10
5.395236819497143
 20
4.021561418522821
 30
0.0
 11
5.395236819497143
 21
1.271561418521344
 31
0.0
  0
LINE
  5
218
330
206
100
AcDbEntity
  8
0
  6
Continuous
 62
     3
420
    65280
100
AcDbLine
 10
5.923236819497162
 20
4.021561418522821
 30
0.0
 11
5.923236819497162
 21
1.271561418521344
 31
0.0
  0
LINE
  5
219
330
206
100
AcDbEntity
  8
0
  6
Continuous
 62
     3
420
    65280
100
AcDbLine
 10
6.451236819497125
 20
4.021561418522821
 30
0.0
 11
6.451236819497125
 21
1.271561418521344
 31
0.0
  0
LINE
  5
21A
330
206
100
AcDbEntity
  8
0
  6
Continuous
 62
     3
420
    65280
100
AcDbLine
 10
2.933236819492094
 20
6.4215614185228
 30
0.0
 11
6.801236819497149
 21
6.4215614185228
 31
0.0
  0
LINE
  5
21B
330
206
100
AcDbEntity
  8
0
  6
Continuous
 62
     3
420
    65280
100
AcDbLine
 10
2.933236819492094
 20
4.021561418522821
 30
0.0
 11
6.801236819497149
 21
4.021561418522821
 31
0.0
  0
LINE
  5
21C
330
206
100
AcDbEntity
  8
0
  6
Continuous
 62
     3
420
    65280
100
AcDbLine
 10
3.283236819497119
 20
4.021561418522821
 30
0.0
 11
3.283236819497119
 21
6.771561418524299
 31
0.0
  0
LINE
  5
21D
330
206
100
AcDbEntity
  8
0
  6
Continuous
 62
     3
420
    65280
100
AcDbLine
 10
3.811236819497139
 20
4.021561418522821
 30
0.0
 11
3.811236819497139
 21
6.771561418524299
 31
0.0
  0
LINE
  5
21E
330
206
100
AcDbEntity
  8
0
  6
Continuous
 62
     3
420
    65280
100
AcDbLine
 10
4.339236819497159
 20
4.021561418522821
 30
0.0
 11
4.339236819497159
 21
6.771561418524299
 31
0.0
  0
LINE
  5
21F
330
206
100
AcDbEntity
  8
0
  6
Continuous
 62
     3
420
    65280
100
AcDbLine
 10
4.867236819497122
 20
4.021561418522821
 30
0.0
 11
4.867236819497122
 21
6.771561418524299
 31
0.0
  0
LINE
  5
220
330
206
100
AcDbEntity
  8
0
  6
Continuous
 62
     3
420
    65280
100
AcDbLine
 10
5.395236819497143
 20
4.021561418522821
 30
0.0
 11
5.395236819497143
 21
6.771561418524299
 31
0.0
  0
LINE
  5
221
330
206
100
AcDbEntity
  8
0
  6
Continuous
 62
     3
420
    65280
100
AcDbLine
 10
5.923236819497162
 20
4.021561418522821
 30
0.0
 11
5.923236819497162
 21
6.771561418524299
 31
0.0
  0
LINE
  5
222
330
206
100
AcDbEntity
  8
0
  6
Continuous
 62
     3
420
    65280
100
AcDbLine
 10
6.451236819497125
 20
4.021561418522821
 30
0.0
 11
6.451236819497125
 21
6.771561418524299
 31
0.0
  0
LINE
  5
223
330
206
100
AcDbEntity
  8
0
  6
Continuous
 62
     3
420
    65280
100
AcDbLine
 10
0.0
 20
0.0
 30
0.0
 11
130.250436452013
 21
0.0
 31
0.0
  0
ATTDEF
  5
224
102
{ACAD_XDICTIONARY
360
36A
102
}
330
206
100
AcDbEntity
  8
0
 62
     1
420
 16711680
100
AcDbText
 10
11.99830177266988
 20
2.414165003805976
 30
0.0
 40
3.499999940395355
  1

  7
Stile testo39
 11
11.99830177266988
 21
4.164164974003654
 31
0.0
100
AcDbAttributeDefinition
280
     0
  3
NOME_TAMPONAMENTO
  2
NOME_TAMPONAMENTO
 70
     0
 74
     2
280
     0
  0
ENDBLK
  5
208
330
206
100
AcDbEntity
  8
0
100
AcDbBlockEnd
  0
BLOCK
  5
226
330
225
100
AcDbEntity
  8
0
100
AcDbBlockBegin
  2
RETE_30X30
 70
     2
 10
0.0
 20
0.0
 30
0.0
  3
RETE_30X30
  1

  0
LINE
  5
228
330
225
100
AcDbEntity
  8
0
  6
Continuous
 62
     1
420
 16711680
100
AcDbLine
 10
10.0
 20
8.0
 30
0.0
 11
10.0
 21
0.0
 31
0.0
  0
LINE
  5
229
330
225
100
AcDbEntity
  8
0
  6
Continuous
 62
     3
420
    65280
100
AcDbLine
 10
0.0
 20
8.0
 30
0.0
 11
130.250436452013
 21
8.0
 31
0.0
  0
LINE
  5
22A
330
225
100
AcDbEntity
  8
0
  6
Continuous
 62
     3
420
    65280
100
AcDbLine
 10
0.0
 20
8.0
 30
0.0
 11
0.0
 21
0.0
 31
0.0
  0
LINE
  5
22B
330
225
100
AcDbEntity
  8
0
  6
Continuous
 62
     3
420
    65280
100
AcDbLine
 10
130.250436452013
 20
8.0
 30
0.0
 11
130.250436452013
 21
0.0
 31
0.0
  0
LINE
  5
22C
330
225
100
AcDbEntity
  8
0
  6
Continuous
 62
     3
420
    65280
100
AcDbLine
 10
0.0
 20
0.0
 30
0.0
 11
130.250436452013
 21
0.0
 31
0.0
  0
LINE
  5
22D
330
225
100
AcDbEntity
  8
0
  6
Continuous
 62
     7
100
AcDbLine
 10
1.867236819489562
 20
1.021561418522821
 30
0.0
 11
7.867236819489562
 21
1.021561418522821
 31
0.0
  0
LINE
  5
22E
330
225
100
AcDbEntity
  8
0
  6
Continuous
 62
     7
100
AcDbLine
 10
7.867236819489562
 20
1.021561418522821
 30
0.0
 11
7.867236819489562
 21
7.021561418522822
 31
0.0
  0
LINE
  5
22F
330
225
100
AcDbEntity
  8
0
  6
Continuous
 62
     7
100
AcDbLine
 10
7.867236819489562
 20
7.021561418522822
 30
0.0
 11
1.867236819489562
 21
7.021561418522822
 31
0.0
  0
LINE
  5
230
330
225
100
AcDbEntity
  8
0
  6
Continuous
 62
     7
100
AcDbLine
 10
1.867236819489562
 20
7.021561418522822
 30
0.0
 11
1.867236819489562
 21
1.021561418522821
 31
0.0
  0
LINE
  5
231
330
225
100
AcDbEntity
  8
0
  6
Continuous
 62
     3
420
    65280
100
AcDbLine
 10
2.933236819492094
 20
4.021561418522821
 30
0.0
 11
6.801236819497149
 21
4.021561418522821
 31
0.0
  0
LINE
  5
232
330
225
100
AcDbEntity
  8
0
  6
Continuous
 62
     3
420
    65280
100
AcDbLine
 10
4.867236819497122
 20
4.021561418522821
 30
0.0
 11
4.867236819497122
 21
1.271561418521344
 31
0.0
  0
LINE
  5
233
330
225
100
AcDbEntity
  8
0
  6
Continuous
 62
     3
420
    65280
100
AcDbLine
 10
2.933236819492094
 20
4.021561418522821
 30
0.0
 11
6.801236819497149
 21
4.021561418522821
 31
0.0
  0
LINE
  5
234
330
225
100
AcDbEntity
  8
0
  6
Continuous
 62
     3
420
    65280
100
AcDbLine
 10
4.867236819497122
 20
4.021561418522821
 30
0.0
 11
4.867236819497122
 21
6.771561418524299
 31
0.0
  0
LINE
  5
235
330
225
100
AcDbEntity
  8
0
  6
Continuous
 62
     3
420
    65280
100
AcDbLine
 10
2.933236819492094
 20
4.821561418522833
 30
0.0
 11
6.801236819497149
 21
4.821561418522833
 31
0.0
  0
LINE
  5
236
330
225
100
AcDbEntity
  8
0
  6
Continuous
 62
     3
420
    65280
100
AcDbLine
 10
2.933236819492094
 20
5.621561418522844
 30
0.0
 11
6.801236819497149
 21
5.621561418522844
 31
0.0
  0
LINE
  5
237
330
225
100
AcDbEntity
  8
0
  6
Continuous
 62
     3
420
    65280
100
AcDbLine
 10
2.933236819492094
 20
6.421561418522856
 30
0.0
 11
6.801236819497149
 21
6.421561418522856
 31
0.0
  0
LINE
  5
238
330
225
100
AcDbEntity
  8
0
  6
Continuous
 62
     3
420
    65280
100
AcDbLine
 10
2.933236819492094
 20
3.22156141852281
 30
0.0
 11
6.801236819497149
 21
3.22156141852281
 31
0.0
  0
LINE
  5
239
330
225
100
AcDbEntity
  8
0
  6
Continuous
 62
     3
420
    65280
100
AcDbLine
 10
2.933236819492094
 20
2.421561418522799
 30
0.0
 11
6.801236819497149
 21
2.421561418522799
 31
0.0
  0
LINE
  5
23A
330
225
100
AcDbEntity
  8
0
  6
Continuous
 62
     3
420
    65280
100
AcDbLine
 10
2.933236819492094
 20
1.621561418522787
 30
0.0
 11
6.801236819497149
 21
1.621561418522787
 31
0.0
  0
LINE
  5
23B
330
225
100
AcDbEntity
  8
0
  6
Continuous
 62
     3
420
    65280
100
AcDbLine
 10
4.067236819497125
 20
4.021561418522821
 30
0.0
 11
4.067236819497125
 21
1.271561418521344
 31
0.0
  0
LINE
  5
23C
330
225
100
AcDbEntity
  8
0
  6
Continuous
 62
     3
420
    65280
100
AcDbLine
 10
3.267236819497128
 20
4.021561418522821
 30
0.0
 11
3.267236819497128
 21
1.271561418521344
 31
0.0
  0
LINE
  5
23D
330
225
100
AcDbEntity
  8
0
  6
Continuous
 62
     3
420
    65280
100
AcDbLine
 10
4.067236819497125
 20
4.021561418522821
 30
0.0
 11
4.067236819497125
 21
6.771561418524299
 31
0.0
  0
LINE
  5
23E
330
225
100
AcDbEntity
  8
0
  6
Continuous
 62
     3
420
    65280
100
AcDbLine
 10
3.267236819497128
 20
4.021561418522821
 30
0.0
 11
3.267236819497128
 21
6.771561418524299
 31
0.0
  0
LINE
  5
23F
330
225
100
AcDbEntity
  8
0
  6
Continuous
 62
     3
420
    65280
100
AcDbLine
 10
5.667236819497119
 20
4.021561418522821
 30
0.0
 11
5.667236819497119
 21
6.771561418524299
 31
0.0
  0
LINE
  5
240
330
225
100
AcDbEntity
  8
0
  6
Continuous
 62
     3
420
    65280
100
AcDbLine
 10
6.467236819497117
 20
4.021561418522821
 30
0.0
 11
6.467236819497117
 21
6.771561418524299
 31
0.0
  0
LINE
  5
241
330
225
100
AcDbEntity
  8
0
  6
Continuous
 62
     3
420
    65280
100
AcDbLine
 10
5.667236819497119
 20
4.021561418522821
 30
0.0
 11
5.667236819497119
 21
1.271561418521344
 31
0.0
  0
LINE
  5
242
330
225
100
AcDbEntity
  8
0
  6
Continuous
 62
     3
420
    65280
100
AcDbLine
 10
6.467236819497117
 20
4.021561418522821
 30
0.0
 11
6.467236819497117
 21
1.271561418521344
 31
0.0
  0
ATTDEF
  5
243
102
{ACAD_XDICTIONARY
360
36D
102
}
330
225
100
AcDbEntity
  8
0
 62
     1
420
 16711680
100
AcDbText
 10
12.0
 20
2.250000029802322
 30
0.0
 40
3.499999940395355
  1

  7
Stile testo39
 11
12.0
 21
4.0
 31
0.0
100
AcDbAttributeDefinition
280
     0
  3
NOME_TAMPONAMENTO
  2
NOME_TAMPONAMENTO
 70
     0
 74
     2
280
     0
  0
ENDBLK
  5
227
330
225
100
AcDbEntity
  8
0
100
AcDbBlockEnd
  0
BLOCK
  5
245
330
244
100
AcDbEntity
  8
0
100
AcDbBlockBegin
  2
RETE_40X40
 70
     2
 10
0.0
 20
0.0
 30
0.0
  3
RETE_40X40
  1

  0
LINE
  5
247
330
244
100
AcDbEntity
  8
0
  6
Continuous
 62
     1
420
 16711680
100
AcDbLine
 10
10.0
 20
8.0
 30
0.0
 11
10.0
 21
0.0
 31
0.0
  0
LINE
  5
248
330
244
100
AcDbEntity
  8
0
  6
Continuous
 62
     3
420
    65280
100
AcDbLine
 10
0.0
 20
8.0
 30
0.0
 11
130.250436452013
 21
8.0
 31
0.0
  0
LINE
  5
249
330
244
100
AcDbEntity
  8
0
  6
Continuous
 62
     3
420
    65280
100
AcDbLine
 10
0.0
 20
8.0
 30
0.0
 11
0.0
 21
0.0
 31
0.0
  0
LINE
  5
24A
330
244
100
AcDbEntity
  8
0
  6
Continuous
 62
     3
420
    65280
100
AcDbLine
 10
130.250436452013
 20
8.0
 30
0.0
 11
130.250436452013
 21
0.0
 31
0.0
  0
LINE
  5
24B
330
244
100
AcDbEntity
  8
0
  6
Continuous
 62
     3
420
    65280
100
AcDbLine
 10
0.0
 20
0.0
 30
0.0
 11
130.250436452013
 21
0.0
 31
0.0
  0
LINE
  5
24C
330
244
100
AcDbEntity
  8
0
  6
Continuous
 62
     7
100
AcDbLine
 10
1.867236819489562
 20
1.021561418522821
 30
0.0
 11
7.867236819489562
 21
1.021561418522821
 31
0.0
  0
LINE
  5
24D
330
244
100
AcDbEntity
  8
0
  6
Continuous
 62
     7
100
AcDbLine
 10
7.867236819489562
 20
1.021561418522821
 30
0.0
 11
7.867236819489562
 21
7.021561418522822
 31
0.0
  0
LINE
  5
24E
330
244
100
AcDbEntity
  8
0
  6
Continuous
 62
     7
100
AcDbLine
 10
7.867236819489562
 20
7.021561418522822
 30
0.0
 11
1.867236819489562
 21
7.021561418522822
 31
0.0
  0
LINE
  5
24F
330
244
100
AcDbEntity
  8
0
  6
Continuous
 62
     7
100
AcDbLine
 10
1.867236819489562
 20
7.021561418522822
 30
0.0
 11
1.867236819489562
 21
1.021561418522821
 31
0.0
  0
LINE
  5
250
330
244
100
AcDbEntity
  8
0
  6
Continuous
 62
     3
420
    65280
100
AcDbLine
 10
2.633236819492094
 20
4.021561418522821
 30
0.0
 11
7.101236819497148
 21
4.021561418522821
 31
0.0
  0
LINE
  5
251
330
244
100
AcDbEntity
  8
0
  6
Continuous
 62
     3
420
    65280
100
AcDbLine
 10
4.867236819497122
 20
4.021561418522821
 30
0.0
 11
4.867236819497122
 21
1.271561418521344
 31
0.0
  0
LINE
  5
252
330
244
100
AcDbEntity
  8
0
  6
Continuous
 62
     3
420
    65280
100
AcDbLine
 10
2.633236819492094
 20
4.021561418522821
 30
0.0
 11
7.101236819497148
 21
4.021561418522821
 31
0.0
  0
LINE
  5
253
330
244
100
AcDbEntity
  8
0
  6
Continuous
 62
     3
420
    65280
100
AcDbLine
 10
4.867236819497122
 20
4.021561418522821
 30
0.0
 11
4.867236819497122
 21
6.771561418524299
 31
0.0
  0
LINE
  5
254
330
244
100
AcDbEntity
  8
0
  6
Continuous
 62
     3
420
    65280
100
AcDbLine
 10
2.633236819492094
 20
5.021561418522821
 30
0.0
 11
7.101236819497148
 21
5.021561418522821
 31
0.0
  0
LINE
  5
255
330
244
100
AcDbEntity
  8
0
  6
Continuous
 62
     3
420
    65280
100
AcDbLine
 10
2.633236819492094
 20
6.021561418522822
 30
0.0
 11
7.101236819497148
 21
6.021561418522822
 31
0.0
  0
LINE
  5
256
330
244
100
AcDbEntity
  8
0
  6
Continuous
 62
     3
420
    65280
100
AcDbLine
 10
2.633236819492094
 20
3.021561418522822
 30
0.0
 11
7.101236819497148
 21
3.021561418522822
 31
0.0
  0
LINE
  5
257
330
244
100
AcDbEntity
  8
0
  6
Continuous
 62
     3
420
    65280
100
AcDbLine
 10
2.633236819492094
 20
2.021561418522821
 30
0.0
 11
7.101236819497148
 21
2.021561418522821
 31
0.0
  0
LINE
  5
258
330
244
100
AcDbEntity
  8
0
  6
Continuous
 62
     3
420
    65280
100
AcDbLine
 10
3.867236819497122
 20
4.021561418522821
 30
0.0
 11
3.867236819497122
 21
6.771561418524299
 31
0.0
  0
LINE
  5
259
330
244
100
AcDbEntity
  8
0
  6
Continuous
 62
     3
420
    65280
100
AcDbLine
 10
3.867236819497122
 20
4.021561418522821
 30
0.0
 11
3.867236819497122
 21
1.271561418521344
 31
0.0
  0
LINE
  5
25A
330
244
100
AcDbEntity
  8
0
  6
Continuous
 62
     3
420
    65280
100
AcDbLine
 10
5.867236819497122
 20
4.021561418522821
 30
0.0
 11
5.867236819497122
 21
6.771561418524299
 31
0.0
  0
LINE
  5
25B
330
244
100
AcDbEntity
  8
0
  6
Continuous
 62
     3
420
    65280
100
AcDbLine
 10
5.867236819497122
 20
4.021561418522821
 30
0.0
 11
5.867236819497122
 21
1.271561418521344
 31
0.0
  0
LINE
  5
25C
330
244
100
AcDbEntity
  8
0
  6
Continuous
 62
     3
420
    65280
100
AcDbLine
 10
6.867236819497123
 20
4.021561418522821
 30
0.0
 11
6.867236819497123
 21
6.771561418524299
 31
0.0
  0
LINE
  5
25D
330
244
100
AcDbEntity
  8
0
  6
Continuous
 62
     3
420
    65280
100
AcDbLine
 10
6.867236819497123
 20
4.021561418522821
 30
0.0
 11
6.867236819497123
 21
1.271561418521344
 31
0.0
  0
LINE
  5
25E
330
244
100
AcDbEntity
  8
0
  6
Continuous
 62
     3
420
    65280
100
AcDbLine
 10
2.867236819497122
 20
4.021561418522821
 30
0.0
 11
2.867236819497122
 21
6.771561418524299
 31
0.0
  0
LINE
  5
25F
330
244
100
AcDbEntity
  8
0
  6
Continuous
 62
     3
420
    65280
100
AcDbLine
 10
2.867236819497122
 20
4.021561418522821
 30
0.0
 11
2.867236819497122
 21
1.271561418521344
 31
0.0
  0
ATTDEF
  5
260
102
{ACAD_XDICTIONARY
360
370
102
}
330
244
100
AcDbEntity
  8
0
 62
     1
420
 16711680
100
AcDbText
 10
12.0
 20
2.250000029802322
 30
0.0
 40
3.499999940395355
  1

  7
Stile testo39
 11
12.0
 21
4.0
 31
0.0
100
AcDbAttributeDefinition
280
     0
  3
NOME_TAMPONAMENTO
  2
NOME_TAMPONAMENTO
 70
     0
 74
     2
280
     0
  0
ENDBLK
  5
246
330
244
100
AcDbEntity
  8
0
100
AcDbBlockEnd
  0
BLOCK
  5
262
330
261
100
AcDbEntity
  8
0
100
AcDbBlockBegin
  2
RETE_RT
 70
     2
 10
0.0
 20
0.0
 30
0.0
  3
RETE_RT
  1

  0
LINE
  5
264
330
261
100
AcDbEntity
  8
0
  6
Continuous
 62
     1
420
 16711680
100
AcDbLine
 10
10.0
 20
8.0
 30
0.0
 11
10.0
 21
0.0
 31
0.0
  0
LINE
  5
265
330
261
100
AcDbEntity
  8
0
  6
Continuous
 62
     3
420
    65280
100
AcDbLine
 10
0.0
 20
8.0
 30
0.0
 11
130.250436452013
 21
8.0
 31
0.0
  0
LINE
  5
266
330
261
100
AcDbEntity
  8
0
  6
Continuous
 62
     3
420
    65280
100
AcDbLine
 10
0.0
 20
8.0
 30
0.0
 11
0.0
 21
0.0
 31
0.0
  0
LINE
  5
267
330
261
100
AcDbEntity
  8
0
  6
Continuous
 62
     3
420
    65280
100
AcDbLine
 10
130.250436452013
 20
8.0
 30
0.0
 11
130.250436452013
 21
0.0
 31
0.0
  0
LINE
  5
268
330
261
100
AcDbEntity
  8
0
  6
Continuous
 62
     3
420
    65280
100
AcDbLine
 10
0.0
 20
0.0
 30
0.0
 11
130.250436452013
 21
0.0
 31
0.0
  0
LINE
  5
269
330
261
100
AcDbEntity
  8
0
  6
Continuous
 62
     7
100
AcDbLine
 10
1.867236819489562
 20
1.021561418522821
 30
0.0
 11
7.867236819489562
 21
1.021561418522821
 31
0.0
  0
LINE
  5
26A
330
261
100
AcDbEntity
  8
0
  6
Continuous
 62
     7
100
AcDbLine
 10
7.867236819489562
 20
1.021561418522821
 30
0.0
 11
7.867236819489562
 21
7.021561418522822
 31
0.0
  0
LINE
  5
26B
330
261
100
AcDbEntity
  8
0
  6
Continuous
 62
     7
100
AcDbLine
 10
7.867236819489562
 20
7.021561418522822
 30
0.0
 11
1.867236819489562
 21
7.021561418522822
 31
0.0
  0
LINE
  5
26C
330
261
100
AcDbEntity
  8
0
  6
Continuous
 62
     7
100
AcDbLine
 10
1.867236819489562
 20
7.021561418522822
 30
0.0
 11
1.867236819489562
 21
1.021561418522821
 31
0.0
  0
LINE
  5
26D
330
261
100
AcDbEntity
  8
0
  6
Continuous
 62
     3
420
    65280
100
AcDbLine
 10
2.933236819492094
 20
4.03389105574341
 30
0.0
 11
6.801236819497149
 21
4.03389105574341
 31
0.0
  0
LINE
  5
26E
330
261
100
AcDbEntity
  8
0
  6
Continuous
 62
     3
420
    65280
100
AcDbLine
 10
3.583236819497119
 20
4.021561418522821
 30
0.0
 11
3.583236819497119
 21
1.271561418521344
 31
0.0
  0
LINE
  5
26F
330
261
100
AcDbEntity
  8
0
  6
Continuous
 62
     3
420
    65280
100
AcDbLine
 10
4.011236819497139
 20
4.021561418522821
 30
0.0
 11
4.011236819497139
 21
1.271561418521344
 31
0.0
  0
LINE
  5
270
330
261
100
AcDbEntity
  8
0
  6
Continuous
 62
     3
420
    65280
100
AcDbLine
 10
4.439236819497159
 20
4.021561418522821
 30
0.0
 11
4.439236819497159
 21
1.271561418521344
 31
0.0
  0
LINE
  5
271
330
261
100
AcDbEntity
  8
0
  6
Continuous
 62
     3
420
    65280
100
AcDbLine
 10
4.867236819497122
 20
4.021561418522821
 30
0.0
 11
4.867236819497122
 21
1.271561418521344
 31
0.0
  0
LINE
  5
272
330
261
100
AcDbEntity
  8
0
  6
Continuous
 62
     3
420
    65280
100
AcDbLine
 10
5.295236819497143
 20
4.021561418522821
 30
0.0
 11
5.295236819497143
 21
1.271561418521344
 31
0.0
  0
LINE
  5
273
330
261
100
AcDbEntity
  8
0
  6
Continuous
 62
     3
420
    65280
100
AcDbLine
 10
5.723236819497163
 20
4.021561418522821
 30
0.0
 11
5.723236819497163
 21
1.271561418521344
 31
0.0
  0
LINE
  5
274
330
261
100
AcDbEntity
  8
0
  6
Continuous
 62
     3
420
    65280
100
AcDbLine
 10
6.151236819497127
 20
4.021561418522821
 30
0.0
 11
6.151236819497127
 21
1.271561418521344
 31
0.0
  0
LINE
  5
275
330
261
100
AcDbEntity
  8
0
  6
Continuous
 62
     3
420
    65280
100
AcDbLine
 10
3.583236819497119
 20
4.021561418522821
 30
0.0
 11
3.583236819497119
 21
6.771561418524299
 31
0.0
  0
LINE
  5
276
330
261
100
AcDbEntity
  8
0
  6
Continuous
 62
     3
420
    65280
100
AcDbLine
 10
4.011236819497139
 20
4.021561418522821
 30
0.0
 11
4.011236819497139
 21
6.771561418524299
 31
0.0
  0
LINE
  5
277
330
261
100
AcDbEntity
  8
0
  6
Continuous
 62
     3
420
    65280
100
AcDbLine
 10
4.439236819497159
 20
4.021561418522821
 30
0.0
 11
4.439236819497159
 21
6.771561418524299
 31
0.0
  0
LINE
  5
278
330
261
100
AcDbEntity
  8
0
  6
Continuous
 62
     3
420
    65280
100
AcDbLine
 10
4.867236819497122
 20
4.021561418522821
 30
0.0
 11
4.867236819497122
 21
6.771561418524299
 31
0.0
  0
LINE
  5
279
330
261
100
AcDbEntity
  8
0
  6
Continuous
 62
     3
420
    65280
100
AcDbLine
 10
5.295236819497143
 20
4.021561418522821
 30
0.0
 11
5.295236819497143
 21
6.771561418524299
 31
0.0
  0
LINE
  5
27A
330
261
100
AcDbEntity
  8
0
  6
Continuous
 62
     3
420
    65280
100
AcDbLine
 10
5.723236819497163
 20
4.021561418522821
 30
0.0
 11
5.723236819497163
 21
6.771561418524299
 31
0.0
  0
LINE
  5
27B
330
261
100
AcDbEntity
  8
0
  6
Continuous
 62
     3
420
    65280
100
AcDbLine
 10
6.151236819497127
 20
4.021561418522821
 30
0.0
 11
6.151236819497127
 21
6.771561418524299
 31
0.0
  0
LINE
  5
27C
330
261
100
AcDbEntity
  8
0
  6
Continuous
 62
     3
420
    65280
100
AcDbLine
 10
2.933236819492094
 20
5.787561418522831
 30
0.0
 11
6.801236819497149
 21
5.787561418522831
 31
0.0
  0
LINE
  5
27D
330
261
100
AcDbEntity
  8
0
  6
Continuous
 62
     3
420
    65280
100
AcDbLine
 10
2.933236819492094
 20
2.255561418522812
 30
0.0
 11
6.801236819497149
 21
2.255561418522812
 31
0.0
  0
LINE
  5
27E
330
261
100
AcDbEntity
  8
0
  6
Continuous
 62
     3
420
    65280
100
AcDbLine
 10
6.579236819497147
 20
4.021561418522821
 30
0.0
 11
6.579236819497147
 21
1.271561418521344
 31
0.0
  0
LINE
  5
27F
330
261
100
AcDbEntity
  8
0
  6
Continuous
 62
     3
420
    65280
100
AcDbLine
 10
6.579236819497147
 20
4.021561418522821
 30
0.0
 11
6.579236819497147
 21
6.771561418524299
 31
0.0
  0
LINE
  5
280
330
261
100
AcDbEntity
  8
0
  6
Continuous
 62
     3
420
    65280
100
AcDbLine
 10
3.1552368194971
 20
4.021561418522821
 30
0.0
 11
3.1552368194971
 21
1.271561418521344
 31
0.0
  0
LINE
  5
281
330
261
100
AcDbEntity
  8
0
  6
Continuous
 62
     3
420
    65280
100
AcDbLine
 10
3.1552368194971
 20
4.021561418522821
 30
0.0
 11
3.1552368194971
 21
6.771561418524299
 31
0.0
  0
ATTDEF
  5
282
102
{ACAD_XDICTIONARY
360
373
102
}
330
261
100
AcDbEntity
  8
0
 62
     1
420
 16711680
100
AcDbText
 10
12.0
 20
2.250000029802322
 30
0.0
 40
3.499999940395355
  1

  7
Stile testo39
 11
12.0
 21
4.0
 31
0.0
100
AcDbAttributeDefinition
280
     0
  3
NOME_TAMPONAMENTO
  2
NOME_TAMPONAMENTO
 70
     0
 74
     2
280
     0
  0
ENDBLK
  5
263
330
261
100
AcDbEntity
  8
0
100
AcDbBlockEnd
  0
BLOCK
  5
284
330
283
100
AcDbEntity
  8
0
100
AcDbBlockBegin
  2
RETE_TEC
 70
     2
 10
0.0
 20
0.0
 30
0.0
  3
RETE_TEC
  1

  0
LINE
  5
286
330
283
100
AcDbEntity
  8
0
  6
Continuous
 62
     1
420
 16711680
100
AcDbLine
 10
10.0
 20
8.0
 30
0.0
 11
10.0
 21
0.0
 31
0.0
  0
LINE
  5
287
330
283
100
AcDbEntity
  8
0
  6
Continuous
 62
     3
420
    65280
100
AcDbLine
 10
0.0
 20
8.0
 30
0.0
 11
130.250436452013
 21
8.0
 31
0.0
  0
LINE
  5
288
330
283
100
AcDbEntity
  8
0
  6
Continuous
 62
     3
420
    65280
100
AcDbLine
 10
0.0
 20
8.0
 30
0.0
 11
0.0
 21
0.0
 31
0.0
  0
LINE
  5
289
330
283
100
AcDbEntity
  8
0
  6
Continuous
 62
     3
420
    65280
100
AcDbLine
 10
130.250436452013
 20
8.0
 30
0.0
 11
130.250436452013
 21
0.0
 31
0.0
  0
LINE
  5
28A
330
283
100
AcDbEntity
  8
0
  6
Continuous
 62
     3
420
    65280
100
AcDbLine
 10
0.0
 20
0.0
 30
0.0
 11
130.250436452013
 21
0.0
 31
0.0
  0
LINE
  5
28B
330
283
100
AcDbEntity
  8
0
  6
Continuous
 62
     7
100
AcDbLine
 10
1.867236819489562
 20
1.021561418522821
 30
0.0
 11
7.867236819489562
 21
1.021561418522821
 31
0.0
  0
LINE
  5
28C
330
283
100
AcDbEntity
  8
0
  6
Continuous
 62
     7
100
AcDbLine
 10
7.867236819489562
 20
1.021561418522821
 30
0.0
 11
7.867236819489562
 21
7.021561418522822
 31
0.0
  0
LINE
  5
28D
330
283
100
AcDbEntity
  8
0
  6
Continuous
 62
     7
100
AcDbLine
 10
7.867236819489562
 20
7.021561418522822
 30
0.0
 11
1.867236819489562
 21
7.021561418522822
 31
0.0
  0
LINE
  5
28E
330
283
100
AcDbEntity
  8
0
  6
Continuous
 62
     7
100
AcDbLine
 10
1.867236819489562
 20
7.021561418522822
 30
0.0
 11
1.867236819489562
 21
1.021561418522821
 31
0.0
  0
LINE
  5
28F
330
283
100
AcDbEntity
  8
0
  6
Continuous
 62
     3
420
    65280
100
AcDbLine
 10
2.933236819492094
 20
3.757561418522826
 30
0.0
 11
6.801236819497149
 21
3.757561418522826
 31
0.0
  0
LINE
  5
290
330
283
100
AcDbEntity
  8
0
  6
Continuous
 62
     3
420
    65280
100
AcDbLine
 10
3.283236819497119
 20
4.021561418522821
 30
0.0
 11
3.283236819497119
 21
1.271561418521344
 31
0.0
  0
LINE
  5
291
330
283
100
AcDbEntity
  8
0
  6
Continuous
 62
     3
420
    65280
100
AcDbLine
 10
3.811236819497139
 20
4.021561418522821
 30
0.0
 11
3.811236819497139
 21
1.271561418521344
 31
0.0
  0
LINE
  5
292
330
283
100
AcDbEntity
  8
0
  6
Continuous
 62
     3
420
    65280
100
AcDbLine
 10
4.339236819497159
 20
4.021561418522821
 30
0.0
 11
4.339236819497159
 21
1.271561418521344
 31
0.0
  0
LINE
  5
293
330
283
100
AcDbEntity
  8
0
  6
Continuous
 62
     3
420
    65280
100
AcDbLine
 10
4.867236819497122
 20
4.021561418522821
 30
0.0
 11
4.867236819497122
 21
1.271561418521344
 31
0.0
  0
LINE
  5
294
330
283
100
AcDbEntity
  8
0
  6
Continuous
 62
     3
420
    65280
100
AcDbLine
 10
5.395236819497143
 20
4.021561418522821
 30
0.0
 11
5.395236819497143
 21
1.271561418521344
 31
0.0
  0
LINE
  5
295
330
283
100
AcDbEntity
  8
0
  6
Continuous
 62
     3
420
    65280
100
AcDbLine
 10
5.923236819497162
 20
4.021561418522821
 30
0.0
 11
5.923236819497162
 21
1.271561418521344
 31
0.0
  0
LINE
  5
296
330
283
100
AcDbEntity
  8
0
  6
Continuous
 62
     3
420
    65280
100
AcDbLine
 10
6.451236819497125
 20
4.021561418522821
 30
0.0
 11
6.451236819497125
 21
1.271561418521344
 31
0.0
  0
LINE
  5
297
330
283
100
AcDbEntity
  8
0
  6
Continuous
 62
     3
420
    65280
100
AcDbLine
 10
2.933236819492094
 20
4.285561418522817
 30
0.0
 11
6.801236819497149
 21
4.285561418522817
 31
0.0
  0
LINE
  5
298
330
283
100
AcDbEntity
  8
0
  6
Continuous
 62
     3
420
    65280
100
AcDbLine
 10
3.283236819497119
 20
4.021561418522821
 30
0.0
 11
3.283236819497119
 21
6.771561418524299
 31
0.0
  0
LINE
  5
299
330
283
100
AcDbEntity
  8
0
  6
Continuous
 62
     3
420
    65280
100
AcDbLine
 10
3.811236819497139
 20
4.021561418522821
 30
0.0
 11
3.811236819497139
 21
6.771561418524299
 31
0.0
  0
LINE
  5
29A
330
283
100
AcDbEntity
  8
0
  6
Continuous
 62
     3
420
    65280
100
AcDbLine
 10
4.339236819497159
 20
4.021561418522821
 30
0.0
 11
4.339236819497159
 21
6.771561418524299
 31
0.0
  0
LINE
  5
29B
330
283
100
AcDbEntity
  8
0
  6
Continuous
 62
     3
420
    65280
100
AcDbLine
 10
4.867236819497122
 20
4.021561418522821
 30
0.0
 11
4.867236819497122
 21
6.771561418524299
 31
0.0
  0
LINE
  5
29C
330
283
100
AcDbEntity
  8
0
  6
Continuous
 62
     3
420
    65280
100
AcDbLine
 10
5.395236819497143
 20
4.021561418522821
 30
0.0
 11
5.395236819497143
 21
6.771561418524299
 31
0.0
  0
LINE
  5
29D
330
283
100
AcDbEntity
  8
0
  6
Continuous
 62
     3
420
    65280
100
AcDbLine
 10
5.923236819497162
 20
4.021561418522821
 30
0.0
 11
5.923236819497162
 21
6.771561418524299
 31
0.0
  0
LINE
  5
29E
330
283
100
AcDbEntity
  8
0
  6
Continuous
 62
     3
420
    65280
100
AcDbLine
 10
6.451236819497125
 20
4.021561418522821
 30
0.0
 11
6.451236819497125
 21
6.771561418524299
 31
0.0
  0
LINE
  5
29F
330
283
100
AcDbEntity
  8
0
  6
Continuous
 62
     3
420
    65280
100
AcDbLine
 10
2.933236819492094
 20
6.157561418522831
 30
0.0
 11
6.801236819497149
 21
6.157561418522831
 31
0.0
  0
LINE
  5
2A0
330
283
100
AcDbEntity
  8
0
  6
Continuous
 62
     3
420
    65280
100
AcDbLine
 10
2.933236819492094
 20
6.685561418522824
 30
0.0
 11
6.801236819497149
 21
6.685561418522824
 31
0.0
  0
LINE
  5
2A1
330
283
100
AcDbEntity
  8
0
  6
Continuous
 62
     3
420
    65280
100
AcDbLine
 10
2.933236819492094
 20
1.35756141852282
 30
0.0
 11
6.801236819497149
 21
1.35756141852282
 31
0.0
  0
LINE
  5
2A2
330
283
100
AcDbEntity
  8
0
  6
Continuous
 62
     3
420
    65280
100
AcDbLine
 10
2.933236819492094
 20
1.885561418522812
 30
0.0
 11
6.801236819497149
 21
1.885561418522812
 31
0.0
  0
ATTDEF
  5
2A3
102
{ACAD_XDICTIONARY
360
376
102
}
330
283
100
AcDbEntity
  8
0
 62
     1
420
 16711680
100
AcDbText
 10
12.0
 20
2.250000029802322
 30
0.0
 40
3.499999940395355
  1

  7
Stile testo39
 11
12.0
 21
4.0
 31
0.0
100
AcDbAttributeDefinition
280
     0
  3
NOME_TAMPONAMENTO
  2
NOME_TAMPONAMENTO
 70
     0
 74
     2
280
     0
  0
ENDBLK
  5
285
330
283
100
AcDbEntity
  8
0
100
AcDbBlockEnd
  0
BLOCK
  5
2A5
330
2A4
100
AcDbEntity
  8
0
100
AcDbBlockBegin
  2
STRATIFIC
 70
     2
 10
0.0
 20
0.0
 30
0.0
  3
STRATIFIC
  1

  0
LINE
  5
2A7
330
2A4
100
AcDbEntity
  8
0
  6
Continuous
 62
     1
420
 16711680
100
AcDbLine
 10
10.0
 20
8.0
 30
0.0
 11
10.0
 21
0.0
 31
0.0
  0
LINE
  5
2A8
330
2A4
100
AcDbEntity
  8
0
  6
Continuous
 62
     3
420
    65280
100
AcDbLine
 10
0.0
 20
8.0
 30
0.0
 11
130.250436452013
 21
8.0
 31
0.0
  0
LINE
  5
2A9
330
2A4
100
AcDbEntity
  8
0
  6
Continuous
 62
     3
420
    65280
100
AcDbLine
 10
0.0
 20
8.0
 30
0.0
 11
0.0
 21
0.0
 31
0.0
  0
LINE
  5
2AA
330
2A4
100
AcDbEntity
  8
0
  6
Continuous
 62
     3
420
    65280
100
AcDbLine
 10
130.250436452013
 20
8.0
 30
0.0
 11
130.250436452013
 21
0.0
 31
0.0
  0
LINE
  5
2AB
330
2A4
100
AcDbEntity
  8
0
  6
Continuous
 62
     3
420
    65280
100
AcDbLine
 10
0.0
 20
0.0
 30
0.0
 11
130.250436452013
 21
0.0
 31
0.0
  0
LINE
  5
2AC
330
2A4
100
AcDbEntity
  8
0
  6
Continuous
 62
     7
100
AcDbLine
 10
1.867236819489562
 20
1.021561418522821
 30
0.0
 11
7.867236819489562
 21
1.021561418522821
 31
0.0
  0
LINE
  5
2AD
330
2A4
100
AcDbEntity
  8
0
  6
Continuous
 62
     7
100
AcDbLine
 10
7.867236819489562
 20
1.021561418522821
 30
0.0
 11
7.867236819489562
 21
7.021561418522822
 31
0.0
  0
LINE
  5
2AE
330
2A4
100
AcDbEntity
  8
0
  6
Continuous
 62
     7
100
AcDbLine
 10
7.867236819489562
 20
7.021561418522822
 30
0.0
 11
1.867236819489562
 21
7.021561418522822
 31
0.0
  0
LINE
  5
2AF
330
2A4
100
AcDbEntity
  8
0
  6
Continuous
 62
     7
100
AcDbLine
 10
1.867236819489562
 20
7.021561418522822
 30
0.0
 11
1.867236819489562
 21
1.021561418522821
 31
0.0
  0
LINE
  5
2B0
330
2A4
100
AcDbEntity
  8
0
  6
Continuous
 62
     4
420
    65535
100
AcDbLine
 10
3.673096194489562
 20
6.703983293522822
 30
0.0
 11
4.169189944489562
 21
6.703983293522822
 31
0.0
  0
LINE
  5
2B1
330
2A4
100
AcDbEntity
  8
0
  6
Continuous
 62
     4
420
    65535
100
AcDbLine
 10
7.007471194489562
 20
6.703983293522822
 30
0.0
 11
7.503564944489563
 21
6.703983293522822
 31
0.0
  0
LINE
  5
2B2
330
2A4
100
AcDbEntity
  8
0
  6
Continuous
 62
     4
420
    65535
100
AcDbLine
 10
2.230908694489562
 20
6.057889543522821
 30
0.0
 11
2.727002444489562
 21
6.057889543522821
 31
0.0
  0
LINE
  5
2B3
330
2A4
100
AcDbEntity
  8
0
  6
Continuous
 62
     4
420
    65535
100
AcDbLine
 10
5.565283694489563
 20
6.057889543522821
 30
0.0
 11
6.061377444489562
 21
6.057889543522821
 31
0.0
  0
LINE
  5
2B4
330
2A4
100
AcDbEntity
  8
0
  6
Continuous
 62
     4
420
    65535
100
AcDbLine
 10
3.673096194489562
 20
5.561795793522822
 30
0.0
 11
4.169189944489562
 21
5.561795793522822
 31
0.0
  0
LINE
  5
2B5
330
2A4
100
AcDbEntity
  8
0
  6
Continuous
 62
     4
420
    65535
100
AcDbLine
 10
7.007471194489562
 20
5.561795793522822
 30
0.0
 11
7.503564944489563
 21
5.561795793522822
 31
0.0
  0
LINE
  5
2B6
330
2A4
100
AcDbEntity
  8
0
  6
Continuous
 62
     4
420
    65535
100
AcDbLine
 10
2.230908694489562
 20
4.765702043522821
 30
0.0
 11
2.727002444489562
 21
4.765702043522821
 31
0.0
  0
LINE
  5
2B7
330
2A4
100
AcDbEntity
  8
0
  6
Continuous
 62
     4
420
    65535
100
AcDbLine
 10
5.565283694489563
 20
4.765702043522821
 30
0.0
 11
6.061377444489562
 21
4.765702043522821
 31
0.0
  0
LINE
  5
2B8
330
2A4
100
AcDbEntity
  8
0
  6
Continuous
 62
     4
420
    65535
100
AcDbLine
 10
3.673096194489562
 20
4.269608293522821
 30
0.0
 11
4.169189944489562
 21
4.269608293522821
 31
0.0
  0
LINE
  5
2B9
330
2A4
100
AcDbEntity
  8
0
  6
Continuous
 62
     4
420
    65535
100
AcDbLine
 10
7.007471194489562
 20
4.269608293522821
 30
0.0
 11
7.503564944489563
 21
4.269608293522821
 31
0.0
  0
LINE
  5
2BA
330
2A4
100
AcDbEntity
  8
0
  6
Continuous
 62
     4
420
    65535
100
AcDbLine
 10
2.230908694489562
 20
3.773514543522822
 30
0.0
 11
2.727002444489562
 21
3.773514543522822
 31
0.0
  0
LINE
  5
2BB
330
2A4
100
AcDbEntity
  8
0
  6
Continuous
 62
     4
420
    65535
100
AcDbLine
 10
5.565283694489563
 20
3.773514543522822
 30
0.0
 11
6.061377444489562
 21
3.773514543522822
 31
0.0
  0
LINE
  5
2BC
330
2A4
100
AcDbEntity
  8
0
  6
Continuous
 62
     4
420
    65535
100
AcDbLine
 10
3.673096194489562
 20
3.277420793522822
 30
0.0
 11
4.169189944489562
 21
3.277420793522822
 31
0.0
  0
LINE
  5
2BD
330
2A4
100
AcDbEntity
  8
0
  6
Continuous
 62
     4
420
    65535
100
AcDbLine
 10
7.007471194489562
 20
3.277420793522822
 30
0.0
 11
7.503564944489563
 21
3.277420793522822
 31
0.0
  0
LINE
  5
2BE
330
2A4
100
AcDbEntity
  8
0
  6
Continuous
 62
     4
420
    65535
100
AcDbLine
 10
2.230908694489562
 20
2.481327043522822
 30
0.0
 11
2.727002444489562
 21
2.481327043522822
 31
0.0
  0
LINE
  5
2BF
330
2A4
100
AcDbEntity
  8
0
  6
Continuous
 62
     4
420
    65535
100
AcDbLine
 10
5.565283694489563
 20
2.481327043522822
 30
0.0
 11
6.061377444489562
 21
2.481327043522822
 31
0.0
  0
LINE
  5
2C0
330
2A4
100
AcDbEntity
  8
0
  6
Continuous
 62
     4
420
    65535
100
AcDbLine
 10
3.673096194489562
 20
1.985233293522822
 30
0.0
 11
4.169189944489562
 21
1.985233293522822
 31
0.0
  0
LINE
  5
2C1
330
2A4
100
AcDbEntity
  8
0
  6
Continuous
 62
     4
420
    65535
100
AcDbLine
 10
7.007471194489562
 20
1.985233293522822
 30
0.0
 11
7.503564944489563
 21
1.985233293522822
 31
0.0
  0
LINE
  5
2C2
330
2A4
100
AcDbEntity
  8
0
  6
Continuous
 62
     4
420
    65535
100
AcDbLine
 10
2.230908694489562
 20
1.339139543522822
 30
0.0
 11
2.727002444489562
 21
1.339139543522822
 31
0.0
  0
LINE
  5
2C3
330
2A4
100
AcDbEntity
  8
0
  6
Continuous
 62
     4
420
    65535
100
AcDbLine
 10
5.565283694489563
 20
1.339139543522822
 30
0.0
 11
6.061377444489562
 21
1.339139543522822
 31
0.0
  0
ATTDEF
  5
2C4
102
{ACAD_XDICTIONARY
360
379
102
}
330
2A4
100
AcDbEntity
  8
0
 62
     1
420
 16711680
100
AcDbText
 10
11.99830177266988
 20
2.414165003805976
 30
0.0
 40
3.499999940395355
  1

  7
Stile testo39
 11
11.99830177266988
 21
4.164164974003654
 31
0.0
100
AcDbAttributeDefinition
280
     0
  3
NOME_TAMPONAMENTO
  2
NOME_TAMPONAMENTO
 70
     0
 74
     2
280
     0
  0
ENDBLK
  5
2A6
330
2A4
100
AcDbEntity
  8
0
100
AcDbBlockEnd
  0
BLOCK
  5
2C6
330
2C5
100
AcDbEntity
  8
0
100
AcDbBlockBegin
  2
__
 70
     0
 10
0.0
 20
0.0
 30
0.0
  3
__
  1

  0
HATCH
  5
2C9
330
2C5
100
AcDbEntity
  8
CAMPITURE
100
AcDbHatch
 10
0.0
 20
0.0
 30
0.0
210
0.0
220
0.0
230
1.0
  2
SOLID
 70
     1
 71
     0
 91
        1
 92
        1
 93
        1
 72
     2
 10
0.0
 20
0.0
 40
0.7500000000000001
 50
0.0
 51
360.0
 73
     1
 97
        0
 75
     0
 76
     1
 98
        1
 10
0.0
 20
0.0
450
        0
451
        0
460
0.0
461
0.0
452
        0
462
0.0
453
        0
470

  0
CIRCLE
  5
2CA
330
2C5
100
AcDbEntity
  8
GEOMETRIA SCHIZZO
100
AcDbCircle
 10
0.0
 20
0.0
 30
0.0
 40
0.7500000000000001
  0
MTEXT
  5
2CB
330
2C5
100
AcDbEntity
  8
TESTO NORMALE
 62
   250
420
  4144959
100
AcDbMText
 10
0.0
 20
-0.234741985797875
 30
0.0
 40
5.0
 41
15.63962578773498
 46
0.0
 71
     2
 72
     1
  1
=    =
  7
TESTO EVIDENZIATO
 73
     1
 44
1.0
  0
ENDBLK
  5
2C7
330
2C5
100
AcDbEntity
  8
0
100
AcDbBlockEnd
  0
ENDSEC
  0
SECTION
  2
ENTITIES
  0
ARC
  5
2CD
330
70
100
AcDbEntity
  8
VISIBILE
100
AcDbCircle
 10
232.5
 20
158.0000000000005
 30
0.0
 40
0.4999999999999761
100
AcDbArc
 50
269.9999999999959
 51
0.0
  0
LINE
  5
2CE
330
70
100
AcDbEntity
  8
VISIBILE
100
AcDbLine
 10
232.5
 20
157.5000000000005
 30
0.0
 11
222.1999999999999
 21
157.500000000001
 31
0.0
  0
ARC
  5
2CF
330
70
100
AcDbEntity
  8
VISIBILE
100
AcDbCircle
 10
222.2000000000002
 20
160.700000000001
 30
0.0
 40
3.200000000000069
100
AcDbArc
 50
180.0
 51
269.9999999999961
  0
LINE
  5
2D0
330
70
100
AcDbEntity
  8
VISIBILE
100
AcDbLine
 10
219.0000000000001
 20
160.7000000000012
 30
0.0
 11
219.0000000000006
 21
171.0000000000012
 31
0.0
  0
ARC
  5
2D1
330
70
100
AcDbEntity
  8
VISIBILE
100
AcDbCircle
 10
219.5000000000005
 20
171.0000000000012
 30
0.0
 40
0.4999999999999672
100
AcDbArc
 50
89.99999999999593
 51
180.0
  0
LINE
  5
2D2
330
70
100
AcDbEntity
  8
VISIBILE
100
AcDbLine
 10
219.5000000000006
 20
171.5000000000012
 30
0.0
 11
232.5000000000006
 21
171.5000000000005
 31
0.0
  0
ARC
  5
2D3
330
70
100
AcDbEntity
  8
VISIBILE
100
AcDbCircle
 10
232.5000000000005
 20
171.0000000000005
 30
0.0
 40
0.5000000000000382
100
AcDbArc
 50
0.0
 51
89.99999999999593
  0
LINE
  5
2D4
330
70
100
AcDbEntity
  8
VISIBILE
100
AcDbLine
 10
233.0000000000005
 20
171.0000000000006
 30
0.0
 11
233.0
 21
158.0000000000005
 31
0.0
  0
ARC
  5
2D5
330
70
100
AcDbEntity
  8
VISIBILE
100
AcDbCircle
 10
219.4999999999974
 20
125.999999999998
 30
0.0
 40
0.5000000000000116
100
AcDbArc
 50
180.0
 51
270.0
  0
LINE
  5
2D6
330
70
100
AcDbEntity
  8
VISIBILE
100
AcDbLine
 10
218.9999999999974
 20
125.999999999998
 30
0.0
 11
218.9999999999984
 21
136.2999999999978
 31
0.0
  0
ARC
  5
2D7
330
70
100
AcDbEntity
  8
VISIBILE
100
AcDbCircle
 10
222.1999999999984
 20
136.2999999999978
 30
0.0
 40
3.200000000000036
100
AcDbArc
 50
89.99999999999555
 51
180.0
  0
LINE
  5
2D8
330
70
100
AcDbEntity
  8
VISIBILE
100
AcDbLine
 10
222.1999999999987
 20
139.4999999999978
 30
0.0
 11
232.4999999999987
 21
139.4999999999968
 31
0.0
  0
ARC
  5
2D9
330
70
100
AcDbEntity
  8
VISIBILE
100
AcDbCircle
 10
232.4999999999986
 20
138.9999999999969
 30
0.0
 40
0.5000000000000116
100
AcDbArc
 50
0.0
 51
89.99999999999184
  0
LINE
  5
2DA
330
70
100
AcDbEntity
  8
VISIBILE
100
AcDbLine
 10
232.9999999999986
 20
138.9999999999968
 30
0.0
 11
232.9999999999974
 21
125.9999999999968
 31
0.0
  0
ARC
  5
2DB
330
70
100
AcDbEntity
  8
VISIBILE
100
AcDbCircle
 10
232.4999999999974
 20
125.9999999999969
 30
0.0
 40
0.5000000000000427
100
AcDbArc
 50
270.0000000000041
 51
0.0
  0
LINE
  5
2DC
330
70
100
AcDbEntity
  8
VISIBILE
100
AcDbLine
 10
232.4999999999974
 20
125.4999999999968
 30
0.0
 11
219.4999999999974
 21
125.499999999998
 31
0.0
  0
ARC
  5
2DD
330
70
100
AcDbEntity
  8
VISIBILE
100
AcDbCircle
 10
197.7999999999998
 20
160.7000000000016
 30
0.0
 40
3.200000000000038
100
AcDbArc
 50
270.0
 51
0.0
  0
LINE
  5
2DE
330
70
100
AcDbEntity
  8
VISIBILE
100
AcDbLine
 10
197.7999999999998
 20
157.5000000000015
 30
0.0
 11
187.4999999999999
 21
157.5000000000016
 31
0.0
  0
ARC
  5
2DF
330
70
100
AcDbEntity
  8
VISIBILE
100
AcDbCircle
 10
187.4999999999999
 20
158.0000000000016
 30
0.0
 40
0.5000000000000038
100
AcDbArc
 50
180.0
 51
270.0
  0
LINE
  5
2E0
330
70
100
AcDbEntity
  8
VISIBILE
100
AcDbLine
 10
186.9999999999999
 20
158.0000000000016
 30
0.0
 11
186.9999999999999
 21
171.0000000000015
 31
0.0
  0
ARC
  5
2E1
330
70
100
AcDbEntity
  8
VISIBILE
100
AcDbCircle
 10
187.5
 20
171.0000000000015
 30
0.0
 40
0.5000000000000427
100
AcDbArc
 50
90.00000000000813
 51
180.0
  0
LINE
  5
2E2
330
70
100
AcDbEntity
  8
VISIBILE
100
AcDbLine
 10
187.4999999999999
 20
171.5000000000016
 30
0.0
 11
200.4999999999999
 21
171.5000000000016
 31
0.0
  0
ARC
  5
2E3
330
70
100
AcDbEntity
  8
VISIBILE
100
AcDbCircle
 10
200.4999999999999
 20
171.0000000000016
 30
0.0
 40
0.4999999999999716
100
AcDbArc
 50
0.0
 51
90.00000000000406
  0
LINE
  5
2E4
330
70
100
AcDbEntity
  8
VISIBILE
100
AcDbLine
 10
200.9999999999999
 20
171.0000000000016
 30
0.0
 11
200.9999999999999
 21
160.7000000000016
 31
0.0
  0
ARC
  5
2E5
330
70
100
AcDbEntity
  8
VISIBILE
100
AcDbCircle
 10
187.4999999999986
 20
139.0000000000019
 30
0.0
 40
0.5000000000000382
100
AcDbArc
 50
89.99999999999593
 51
180.0
  0
LINE
  5
2E6
330
70
100
AcDbEntity
  8
VISIBILE
100
AcDbLine
 10
187.4999999999986
 20
139.500000000002
 30
0.0
 11
197.7999999999986
 21
139.5000000000006
 31
0.0
  0
ARC
  5
2E7
330
70
100
AcDbEntity
  8
VISIBILE
100
AcDbCircle
 10
197.7999999999981
 20
136.3000000000005
 30
0.0
 40
3.200000000000073
100
AcDbArc
 50
0.0
 51
89.9999999999904
  0
LINE
  5
2E8
330
70
100
AcDbEntity
  8
VISIBILE
100
AcDbLine
 10
200.9999999999982
 20
136.3000000000001
 30
0.0
 11
200.9999999999968
 21
126.0000000000001
 31
0.0
  0
ARC
  5
2E9
330
70
100
AcDbEntity
  8
VISIBILE
100
AcDbCircle
 10
200.4999999999968
 20
126.0000000000001
 30
0.0
 40
0.4999999999999738
100
AcDbArc
 50
269.9999999999919
 51
0.0
  0
LINE
  5
2EA
330
70
100
AcDbEntity
  8
VISIBILE
100
AcDbLine
 10
200.4999999999967
 20
125.5000000000002
 30
0.0
 11
187.4999999999967
 21
125.5000000000019
 31
0.0
  0
ARC
  5
2EB
330
70
100
AcDbEntity
  8
VISIBILE
100
AcDbCircle
 10
187.4999999999968
 20
126.0000000000019
 30
0.0
 40
0.4999999999999716
100
AcDbArc
 50
180.0
 51
269.9999999999959
  0
LINE
  5
2EC
330
70
100
AcDbEntity
  8
VISIBILE
100
AcDbLine
 10
186.9999999999968
 20
126.000000000002
 30
0.0
 11
186.9999999999986
 21
139.0000000000019
 31
0.0
  0
CIRCLE
  5
2ED
330
70
100
AcDbEntity
  8
VISIBILE
100
AcDbCircle
 10
210.0
 20
148.5
 30
0.0
 40
3.734999999999999
  0
ARC
  5
2EE
330
70
100
AcDbEntity
  8
VISIBILE
100
AcDbCircle
 10
205.3499999999998
 20
173.0000000000015
 30
0.0
 40
0.5000000000000449
100
AcDbArc
 50
0.0
 51
89.99999999999186
  0
LINE
  5
2EF
330
70
100
AcDbEntity
  8
VISIBILE
100
AcDbLine
 10
205.8499999999999
 20
169.7000000000014
 30
0.0
 11
205.8499999999999
 21
173.0000000000015
 31
0.0
  0
ARC
  5
2F0
330
70
100
AcDbEntity
  8
VISIBILE
100
AcDbCircle
 10
205.35
 20
169.7000000000014
 30
0.0
 40
0.4999999999999006
100
AcDbArc
 50
269.9999999999878
 51
0.0
  0
LINE
  5
2F1
330
70
100
AcDbEntity
  8
VISIBILE
100
AcDbLine
 10
203.4999999999999
 20
169.2000000000016
 30
0.0
 11
205.3499999999998
 21
169.2000000000015
 31
0.0
  0
ARC
  5
2F2
330
70
100
AcDbEntity
  8
VISIBILE
100
AcDbCircle
 10
203.4999999999998
 20
168.7000000000016
 30
0.0
 40
0.4999999999999694
100
AcDbArc
 50
89.99999999999593
 51
180.0
  0
LINE
  5
2F3
330
70
100
AcDbEntity
  8
VISIBILE
100
AcDbLine
 10
202.9999999999999
 20
161.4000000000014
 30
0.0
 11
202.9999999999999
 21
168.7000000000015
 31
0.0
  0
ARC
  5
2F4
330
70
100
AcDbEntity
  8
VISIBILE
100
AcDbCircle
 10
206.1999999999999
 20
161.4000000000014
 30
0.0
 40
3.200000000000005
100
AcDbArc
 50
180.0
 51
269.9999999999994
  0
LINE
  5
2F5
330
70
100
AcDbEntity
  8
VISIBILE
100
AcDbLine
 10
209.7999999999999
 20
158.2000000000015
 30
0.0
 11
206.1999999999999
 21
158.2000000000014
 31
0.0
  0
LINE
  5
2F6
330
70
100
AcDbEntity
  8
VISIBILE
100
AcDbLine
 10
210.0
 20
158.0000000000014
 30
0.0
 11
209.7999999999999
 21
158.2000000000015
 31
0.0
  0
LINE
  5
2F7
330
70
100
AcDbEntity
  8
VISIBILE
100
AcDbLine
 10
210.1999999999999
 20
158.2000000000015
 30
0.0
 11
210.0
 21
158.0000000000014
 31
0.0
  0
LINE
  5
2F8
330
70
100
AcDbEntity
  8
VISIBILE
100
AcDbLine
 10
213.8
 20
158.2000000000014
 30
0.0
 11
210.1999999999999
 21
158.2000000000015
 31
0.0
  0
ARC
  5
2F9
330
70
100
AcDbEntity
  8
VISIBILE
100
AcDbCircle
 10
213.8
 20
161.4000000000014
 30
0.0
 40
3.199999999999969
100
AcDbArc
 50
270.0
 51
0.0
  0
LINE
  5
2FA
330
70
100
AcDbEntity
  8
VISIBILE
100
AcDbLine
 10
217.0
 20
168.7000000000016
 30
0.0
 11
217.0
 21
161.4000000000014
 31
0.0
  0
ARC
  5
2FB
330
70
100
AcDbEntity
  8
VISIBILE
100
AcDbCircle
 10
216.5
 20
168.7000000000016
 30
0.0
 40
0.4999999999999761
100
AcDbArc
 50
0.0
 51
90.00000000000406
  0
LINE
  5
2FC
330
70
100
AcDbEntity
  8
VISIBILE
100
AcDbLine
 10
214.65
 20
169.2000000000015
 30
0.0
 11
216.5
 21
169.2000000000016
 31
0.0
  0
ARC
  5
2FD
330
70
100
AcDbEntity
  8
VISIBILE
100
AcDbCircle
 10
214.65
 20
169.7000000000014
 30
0.0
 40
0.4999999999999694
100
AcDbArc
 50
180.0
 51
270.0
  0
LINE
  5
2FE
330
70
100
AcDbEntity
  8
VISIBILE
100
AcDbLine
 10
214.15
 20
173.0000000000015
 30
0.0
 11
214.15
 21
169.7000000000014
 31
0.0
  0
ARC
  5
2FF
330
70
100
AcDbEntity
  8
VISIBILE
100
AcDbCircle
 10
214.65
 20
173.0000000000015
 30
0.0
 40
0.5000000000000427
100
AcDbArc
 50
90.00000000000406
 51
180.0
  0
LINE
  5
300
330
70
100
AcDbEntity
  8
VISIBILE
100
AcDbLine
 10
232.5000000000001
 20
173.5000000000016
 30
0.0
 11
214.65
 21
173.5000000000016
 31
0.0
  0
ARC
  5
301
330
70
100
AcDbEntity
  8
VISIBILE
100
AcDbCircle
 10
232.5000000000001
 20
171.0000000000016
 30
0.0
 40
2.499999999999924
100
AcDbArc
 50
0.0
 51
90.00000000000081
  0
LINE
  5
302
330
70
100
AcDbEntity
  8
VISIBILE
100
AcDbLine
 10
235.0
 20
153.1500000000014
 30
0.0
 11
235.0
 21
171.0000000000016
 31
0.0
  0
ARC
  5
303
330
70
100
AcDbEntity
  8
VISIBILE
100
AcDbCircle
 10
234.5
 20
153.1500000000014
 30
0.0
 40
0.4999999999999694
100
AcDbArc
 50
270.0
 51
0.0
  0
LINE
  5
304
330
70
100
AcDbEntity
  8
VISIBILE
100
AcDbLine
 10
231.2000000000001
 20
152.6500000000015
 30
0.0
 11
234.5
 21
152.6500000000015
 31
0.0
  0
ARC
  5
305
330
70
100
AcDbEntity
  8
VISIBILE
100
AcDbCircle
 10
231.2
 20
153.1500000000014
 30
0.0
 40
0.4999999999999316
100
AcDbArc
 50
180.0
 51
270.0000000000041
  0
LINE
  5
306
330
70
100
AcDbEntity
  8
VISIBILE
100
AcDbLine
 10
230.7
 20
155.0000000000015
 30
0.0
 11
230.7000000000001
 21
153.1500000000014
 31
0.0
  0
ARC
  5
307
330
70
100
AcDbEntity
  8
VISIBILE
100
AcDbCircle
 10
230.2000000000001
 20
155.0000000000015
 30
0.0
 40
0.4999999999999694
100
AcDbArc
 50
0.0
 51
90.00000000000406
  0
LINE
  5
308
330
70
100
AcDbEntity
  8
VISIBILE
100
AcDbLine
 10
222.9
 20
155.5000000000015
 30
0.0
 11
230.2
 21
155.5000000000014
 31
0.0
  0
ARC
  5
309
330
70
100
AcDbEntity
  8
VISIBILE
100
AcDbCircle
 10
222.9
 20
152.3000000000015
 30
0.0
 40
3.200000000000038
100
AcDbArc
 50
90.0
 51
180.0
  0
LINE
  5
30A
330
70
100
AcDbEntity
  8
VISIBILE
100
AcDbLine
 10
219.6999999999995
 20
148.6999999999996
 30
0.0
 11
219.7
 21
152.3000000000015
 31
0.0
  0
LINE
  5
30B
330
70
100
AcDbEntity
  8
VISIBILE
100
AcDbLine
 10
219.4999999999994
 20
148.4999999999996
 30
0.0
 11
219.6999999999995
 21
148.6999999999996
 31
0.0
  0
LINE
  5
30C
330
70
100
AcDbEntity
  8
VISIBILE
100
AcDbLine
 10
219.6999999999994
 20
148.2999999999996
 30
0.0
 11
219.4999999999994
 21
148.4999999999996
 31
0.0
  0
LINE
  5
30D
330
70
100
AcDbEntity
  8
VISIBILE
100
AcDbLine
 10
219.7
 20
144.6999999999985
 30
0.0
 11
219.6999999999994
 21
148.2999999999996
 31
0.0
  0
ARC
  5
30E
330
70
100
AcDbEntity
  8
VISIBILE
100
AcDbCircle
 10
222.9
 20
144.6999999999985
 30
0.0
 40
3.200000000000037
100
AcDbArc
 50
180.0
 51
270.0
  0
LINE
  5
30F
330
70
100
AcDbEntity
  8
VISIBILE
100
AcDbLine
 10
230.2
 20
141.4999999999984
 30
0.0
 11
222.9
 21
141.4999999999985
 31
0.0
  0
ARC
  5
310
330
70
100
AcDbEntity
  8
VISIBILE
100
AcDbCircle
 10
230.2000000000001
 20
141.9999999999985
 30
0.0
 40
0.4999999999999316
100
AcDbArc
 50
269.9999999999959
 51
0.0
  0
LINE
  5
311
330
70
100
AcDbEntity
  8
VISIBILE
100
AcDbLine
 10
230.7
 20
143.8499999999985
 30
0.0
 11
230.7
 21
141.9999999999985
 31
0.0
  0
ARC
  5
312
330
70
100
AcDbEntity
  8
VISIBILE
100
AcDbCircle
 10
231.2
 20
143.8499999999985
 30
0.0
 40
0.4999999999999783
100
AcDbArc
 50
89.99999999999593
 51
180.0
  0
LINE
  5
313
330
70
100
AcDbEntity
  8
VISIBILE
100
AcDbLine
 10
234.5
 20
144.3499999999985
 30
0.0
 11
231.2000000000001
 21
144.3499999999986
 31
0.0
  0
ARC
  5
314
330
70
100
AcDbEntity
  8
VISIBILE
100
AcDbCircle
 10
234.5
 20
143.8499999999985
 30
0.0
 40
0.4999999999999672
100
AcDbArc
 50
0.0
 51
90.0
  0
LINE
  5
315
330
70
100
AcDbEntity
  8
VISIBILE
100
AcDbLine
 10
235.0000000000001
 20
125.9999999999984
 30
0.0
 11
235.0
 21
143.8499999999985
 31
0.0
  0
ARC
  5
316
330
70
100
AcDbEntity
  8
VISIBILE
100
AcDbCircle
 10
232.5000000000001
 20
125.9999999999984
 30
0.0
 40
2.499999999999964
100
AcDbArc
 50
269.9999999999992
 51
0.0
  0
LINE
  5
317
330
70
100
AcDbEntity
  8
VISIBILE
100
AcDbLine
 10
214.65
 20
123.4999999999984
 30
0.0
 11
232.5000000000001
 21
123.4999999999984
 31
0.0
  0
ARC
  5
318
330
70
100
AcDbEntity
  8
VISIBILE
100
AcDbCircle
 10
214.65
 20
123.9999999999985
 30
0.0
 40
0.5000000000000111
100
AcDbArc
 50
180.0
 51
269.9999999999959
  0
LINE
  5
319
330
70
100
AcDbEntity
  8
VISIBILE
100
AcDbLine
 10
214.15
 20
127.2999999999985
 30
0.0
 11
214.1500000000001
 21
123.9999999999985
 31
0.0
  0
ARC
  5
31A
330
70
100
AcDbEntity
  8
VISIBILE
100
AcDbCircle
 10
214.65
 20
127.2999999999985
 30
0.0
 40
0.4999999999999361
100
AcDbArc
 50
90.0
 51
180.0
  0
LINE
  5
31B
330
70
100
AcDbEntity
  8
VISIBILE
100
AcDbLine
 10
216.5
 20
127.7999999999984
 30
0.0
 11
214.65
 21
127.7999999999984
 31
0.0
  0
ARC
  5
31C
330
70
100
AcDbEntity
  8
VISIBILE
100
AcDbCircle
 10
216.5
 20
128.2999999999984
 30
0.0
 40
0.4999999999999672
100
AcDbArc
 50
269.9999999999959
 51
0.0
  0
LINE
  5
31D
330
70
100
AcDbEntity
  8
VISIBILE
100
AcDbLine
 10
217.0
 20
135.5999999999985
 30
0.0
 11
217.0
 21
128.2999999999984
 31
0.0
  0
ARC
  5
31E
330
70
100
AcDbEntity
  8
VISIBILE
100
AcDbCircle
 10
213.8000000000001
 20
135.5999999999986
 30
0.0
 40
3.199999999999896
100
AcDbArc
 50
0.0
 51
90.00000000000127
  0
LINE
  5
31F
330
70
100
AcDbEntity
  8
VISIBILE
100
AcDbLine
 10
210.1999999999986
 20
138.799999999999
 30
0.0
 11
213.8
 21
138.7999999999986
 31
0.0
  0
LINE
  5
320
330
70
100
AcDbEntity
  8
VISIBILE
100
AcDbLine
 10
209.9999999999986
 20
138.9999999999989
 30
0.0
 11
210.1999999999986
 21
138.799999999999
 31
0.0
  0
LINE
  5
321
330
70
100
AcDbEntity
  8
VISIBILE
100
AcDbLine
 10
209.7999999999985
 20
138.799999999999
 30
0.0
 11
209.9999999999986
 21
138.9999999999989
 31
0.0
  0
LINE
  5
322
330
70
100
AcDbEntity
  8
VISIBILE
100
AcDbLine
 10
206.1999999999999
 20
138.7999999999986
 30
0.0
 11
209.7999999999985
 21
138.799999999999
 31
0.0
  0
ARC
  5
323
330
70
100
AcDbEntity
  8
VISIBILE
100
AcDbCircle
 10
206.1999999999998
 20
135.5999999999985
 30
0.0
 40
3.199999999999969
100
AcDbArc
 50
89.99999999999936
 51
180.0
  0
LINE
  5
324
330
70
100
AcDbEntity
  8
VISIBILE
100
AcDbLine
 10
202.9999999999999
 20
128.2999999999985
 30
0.0
 11
202.9999999999998
 21
135.5999999999985
 31
0.0
  0
ARC
  5
325
330
70
100
AcDbEntity
  8
VISIBILE
100
AcDbCircle
 10
203.4999999999998
 20
128.2999999999984
 30
0.0
 40
0.4999999999999716
100
AcDbArc
 50
180.0
 51
270.0000000000041
  0
LINE
  5
326
330
70
100
AcDbEntity
  8
VISIBILE
100
AcDbLine
 10
205.3499999999998
 20
127.7999999999984
 30
0.0
 11
203.4999999999999
 21
127.7999999999984
 31
0.0
  0
ARC
  5
327
330
70
100
AcDbEntity
  8
VISIBILE
100
AcDbCircle
 10
205.35
 20
127.2999999999986
 30
0.0
 40
0.4999999999998972
100
AcDbArc
 50
0.0
 51
90.00000000001628
  0
LINE
  5
328
330
70
100
AcDbEntity
  8
VISIBILE
100
AcDbLine
 10
205.8499999999999
 20
123.9999999999985
 30
0.0
 11
205.8499999999999
 21
127.2999999999986
 31
0.0
  0
ARC
  5
329
330
70
100
AcDbEntity
  8
VISIBILE
100
AcDbCircle
 10
205.3499999999998
 20
123.9999999999985
 30
0.0
 40
0.5000000000000382
100
AcDbArc
 50
270.0000000000081
 51
0.0
  0
LINE
  5
32A
330
70
100
AcDbEntity
  8
VISIBILE
100
AcDbLine
 10
187.4999999999998
 20
123.4999999999984
 30
0.0
 11
205.3499999999999
 21
123.4999999999984
 31
0.0
  0
ARC
  5
32B
330
70
100
AcDbEntity
  8
VISIBILE
100
AcDbCircle
 10
187.4999999999998
 20
125.9999999999984
 30
0.0
 40
2.499999999999964
100
AcDbArc
 50
180.0
 51
270.0
  0
LINE
  5
32C
330
70
100
AcDbEntity
  8
VISIBILE
100
AcDbLine
 10
184.9999999999999
 20
143.8499999999985
 30
0.0
 11
184.9999999999999
 21
125.9999999999984
 31
0.0
  0
ARC
  5
32D
330
70
100
AcDbEntity
  8
VISIBILE
100
AcDbCircle
 10
185.4999999999998
 20
143.8499999999985
 30
0.0
 40
0.4999999999999694
100
AcDbArc
 50
90.0
 51
180.0
  0
LINE
  5
32E
330
70
100
AcDbEntity
  8
VISIBILE
100
AcDbLine
 10
188.7999999999998
 20
144.3499999999985
 30
0.0
 11
185.4999999999998
 21
144.3499999999985
 31
0.0
  0
ARC
  5
32F
330
70
100
AcDbEntity
  8
VISIBILE
100
AcDbCircle
 10
188.7999999999999
 20
143.8499999999985
 30
0.0
 40
0.4999999999999539
100
AcDbArc
 50
0.0
 51
90.00000000000406
  0
LINE
  5
330
330
70
100
AcDbEntity
  8
VISIBILE
100
AcDbLine
 10
189.2999999999998
 20
141.9999999999985
 30
0.0
 11
189.2999999999998
 21
143.8499999999985
 31
0.0
  0
ARC
  5
331
330
70
100
AcDbEntity
  8
VISIBILE
100
AcDbCircle
 10
189.7999999999998
 20
141.9999999999985
 30
0.0
 40
0.4999999999999694
100
AcDbArc
 50
180.0
 51
270.0000000000041
  0
LINE
  5
332
330
70
100
AcDbEntity
  8
VISIBILE
100
AcDbLine
 10
197.0999999999999
 20
141.4999999999984
 30
0.0
 11
189.7999999999998
 21
141.4999999999986
 31
0.0
  0
ARC
  5
333
330
70
100
AcDbEntity
  8
VISIBILE
100
AcDbCircle
 10
197.0999999999999
 20
144.6999999999984
 30
0.0
 40
3.199999999999987
100
AcDbArc
 50
270.0
 51
0.0
  0
LINE
  5
334
330
70
100
AcDbEntity
  8
VISIBILE
100
AcDbLine
 10
200.3
 20
148.3000000000018
 30
0.0
 11
200.2999999999999
 21
144.6999999999984
 31
0.0
  0
LINE
  5
335
330
70
100
AcDbEntity
  8
VISIBILE
100
AcDbLine
 10
200.5
 20
148.5
 30
0.0
 11
200.3
 21
148.3000000000018
 31
0.0
  0
LINE
  5
336
330
70
100
AcDbEntity
  8
VISIBILE
100
AcDbLine
 10
200.3
 20
148.7
 30
0.0
 11
200.5
 21
148.5
 31
0.0
  0
LINE
  5
337
330
70
100
AcDbEntity
  8
VISIBILE
100
AcDbLine
 10
200.2999999999999
 20
152.3000000000015
 30
0.0
 11
200.3
 21
148.7
 31
0.0
  0
ARC
  5
338
330
70
100
AcDbEntity
  8
VISIBILE
100
AcDbCircle
 10
197.0999999999999
 20
152.3000000000015
 30
0.0
 40
3.199999999999969
100
AcDbArc
 50
0.0
 51
90.0
  0
LINE
  5
339
330
70
100
AcDbEntity
  8
VISIBILE
100
AcDbLine
 10
189.7999999999998
 20
155.5000000000016
 30
0.0
 11
197.0999999999999
 21
155.5000000000015
 31
0.0
  0
ARC
  5
33A
330
70
100
AcDbEntity
  8
VISIBILE
100
AcDbCircle
 10
189.7999999999998
 20
155.0000000000014
 30
0.0
 40
0.4999999999999938
100
AcDbArc
 50
90.00000000000406
 51
180.0
  0
LINE
  5
33B
330
70
100
AcDbEntity
  8
VISIBILE
100
AcDbLine
 10
189.2999999999998
 20
153.1500000000014
 30
0.0
 11
189.2999999999998
 21
155.0000000000015
 31
0.0
  0
ARC
  5
33C
330
70
100
AcDbEntity
  8
VISIBILE
100
AcDbCircle
 10
188.7999999999999
 20
153.1500000000014
 30
0.0
 40
0.4999999999999783
100
AcDbArc
 50
269.9999999999959
 51
0.0
  0
LINE
  5
33D
330
70
100
AcDbEntity
  8
VISIBILE
100
AcDbLine
 10
185.4999999999998
 20
152.6500000000015
 30
0.0
 11
188.7999999999998
 21
152.6500000000014
 31
0.0
  0
ARC
  5
33E
330
70
100
AcDbEntity
  8
VISIBILE
100
AcDbCircle
 10
185.4999999999998
 20
153.1500000000014
 30
0.0
 40
0.4999999999999672
100
AcDbArc
 50
180.0
 51
270.0
  0
LINE
  5
33F
330
70
100
AcDbEntity
  8
VISIBILE
100
AcDbLine
 10
184.9999999999998
 20
171.0000000000016
 30
0.0
 11
184.9999999999999
 21
153.1500000000014
 31
0.0
  0
ARC
  5
340
330
70
100
AcDbEntity
  8
VISIBILE
100
AcDbCircle
 10
187.4999999999998
 20
171.0000000000016
 30
0.0
 40
2.499999999999924
100
AcDbArc
 50
90.0
 51
180.0
  0
LINE
  5
341
330
70
100
AcDbEntity
  8
VISIBILE
100
AcDbLine
 10
205.3499999999999
 20
173.5000000000016
 30
0.0
 11
187.4999999999998
 21
173.5000000000016
 31
0.0
  0
ENDSEC
  0
SECTION
  2
OBJECTS
  0
DICTIONARY
  5
C
330
0
100
AcDbDictionary
281
     1
  3
ACAD_CIP_PREVIOUS_PRODUCT_INFO
350
342
  3
ACAD_COLOR
350
63
  3
ACAD_DETAILVIEWSTYLE
350
6A
  3
ACAD_GROUP
350
D
  3
ACAD_LAYOUT
350
62
  3
ACAD_MATERIAL
350
10
  3
ACAD_MLEADERSTYLE
350
66
  3
ACAD_MLINESTYLE
350
5F
  3
ACAD_PLOTSETTINGS
350
61
  3
ACAD_PLOTSTYLENAME
350
E
  3
ACAD_SCALELIST
350
42
  3
ACAD_SECTIONVIEWSTYLE
350
68
  3
ACAD_TABLESTYLE
350
64
  3
ACAD_VISUALSTYLE
350
29
  3
ACDB_RECOMPOSE_DATA
350
37C
  3
AcDbVariableDictionary
350
343
  0
DICTIONARY
  5
34C
330
101
100
AcDbDictionary
280
     1
281
     1
  3
ACAD_MLATT
360
34E
  3
ACAD_XREC_ROUNDTRIP
360
34D
  0
DICTIONARY
  5
34F
330
12A
100
AcDbDictionary
280
     1
281
     1
  3
ACAD_MLATT
360
351
  3
ACAD_XREC_ROUNDTRIP
360
350
  0
DICTIONARY
  5
352
330
140
100
AcDbDictionary
280
     1
281
     1
  3
ACAD_MLATT
360
354
  3
ACAD_XREC_ROUNDTRIP
360
353
  0
DICTIONARY
  5
355
330
15B
100
AcDbDictionary
280
     1
281
     1
  3
ACAD_MLATT
360
357
  3
ACAD_XREC_ROUNDTRIP
360
356
  0
DICTIONARY
  5
358
330
172
100
AcDbDictionary
280
     1
281
     1
  3
ACAD_MLATT
360
35A
  3
ACAD_XREC_ROUNDTRIP
360
359
  0
DICTIONARY
  5
35B
330
18A
100
AcDbDictionary
280
     1
281
     1
  3
ACAD_MLATT
360
35D
  3
ACAD_XREC_ROUNDTRIP
360
35C
  0
DICTIONARY
  5
35E
330
1A0
100
AcDbDictionary
280
     1
281
     1
  3
ACAD_MLATT
360
360
  3
ACAD_XREC_ROUNDTRIP
360
35F
  0
DICTIONARY
  5
361
330
1BF
100
AcDbDictionary
280
     1
281
     1
  3
ACAD_MLATT
360
363
  3
ACAD_XREC_ROUNDTRIP
360
362
  0
DICTIONARY
  5
364
330
1E6
100
AcDbDictionary
280
     1
281
     1
  3
ACAD_MLATT
360
366
  3
ACAD_XREC_ROUNDTRIP
360
365
  0
DICTIONARY
  5
367
330
205
100
AcDbDictionary
280
     1
281
     1
  3
ACAD_MLATT
360
369
  3
ACAD_XREC_ROUNDTRIP
360
368
  0
DICTIONARY
  5
36A
330
224
100
AcDbDictionary
280
     1
281
     1
  3
ACAD_MLATT
360
36C
  3
ACAD_XREC_ROUNDTRIP
360
36B
  0
DICTIONARY
  5
36D
330
243
100
AcDbDictionary
280
     1
281
     1
  3
ACAD_MLATT
360
36F
  3
ACAD_XREC_ROUNDTRIP
360
36E
  0
DICTIONARY
  5
370
330
260
100
AcDbDictionary
280
     1
281
     1
  3
ACAD_MLATT
360
372
  3
ACAD_XREC_ROUNDTRIP
360
371
  0
DICTIONARY
  5
373
330
282
100
AcDbDictionary
280
     1
281
     1
  3
ACAD_MLATT
360
375
  3
ACAD_XREC_ROUNDTRIP
360
374
  0
DICTIONARY
  5
376
330
2A3
100
AcDbDictionary
280
     1
281
     1
  3
ACAD_MLATT
360
378
  3
ACAD_XREC_ROUNDTRIP
360
377
  0
DICTIONARY
  5
379
330
2C4
100
AcDbDictionary
280
     1
281
     1
  3
ACAD_MLATT
360
37B
  3
ACAD_XREC_ROUNDTRIP
360
37A
  0
XRECORD
  5
342
102
{ACAD_REACTORS
330
C
102
}
330
C
100
AcDbXrecord
280
     1
300
INVNTOR
300
2016
300
PDSP_F_S
  0
DICTIONARY
  5
63
102
{ACAD_REACTORS
330
C
102
}
330
C
100
AcDbDictionary
281
     1
  0
DICTIONARY
  5
6A
102
{ACAD_REACTORS
330
C
102
}
330
C
100
AcDbDictionary
281
     1
  3
Imperial24
350
6B
  0
DICTIONARY
  5
D
102
{ACAD_REACTORS
330
C
102
}
330
C
100
AcDbDictionary
281
     1
  0
DICTIONARY
  5
62
102
{ACAD_REACTORS
330
C
102
}
330
C
100
AcDbDictionary
281
     1
  3
Layout1
350
6F
  3
Layout2
350
77
  3
Model
350
73
  0
DICTIONARY
  5
10
102
{ACAD_REACTORS
330
C
102
}
330
C
100
AcDbDictionary
281
     1
  3
ByBlock
350
19
  3
ByLayer
350
11
  3
Global
350
21
  0
DICTIONARY
  5
66
102
{ACAD_REACTORS
330
C
102
}
330
C
100
AcDbDictionary
281
     1
  3
Standard
350
67
  0
DICTIONARY
  5
5F
102
{ACAD_REACTORS
330
C
102
}
330
C
100
AcDbDictionary
281
     1
  3
Standard
350
60
  0
DICTIONARY
  5
61
102
{ACAD_REACTORS
330
C
102
}
330
C
100
AcDbDictionary
281
     1
  0
ACDBDICTIONARYWDFLT
  5
E
102
{ACAD_REACTORS
330
C
102
}
330
C
100
AcDbDictionary
281
     1
  3
Normal
350
F
100
AcDbDictionaryWithDefault
340
F
  0
DICTIONARY
  5
42
102
{ACAD_REACTORS
330
C
102
}
330
C
100
AcDbDictionary
281
     1
  3
A0
350
43
  3
A1
350
44
  3
A2
350
45
  3
A3
350
46
  3
A4
350
47
  3
A5
350
48
  3
A6
350
49
  3
A7
350
4A
  3
A8
350
4B
  3
A9
350
4C
  3
B0
350
4D
  3
B1
350
4E
  3
B2
350
4F
  3
B3
350
50
  3
B4
350
51
  3
B5
350
52
  3
B6
350
53
  0
DICTIONARY
  5
68
102
{ACAD_REACTORS
330
C
102
}
330
C
100
AcDbDictionary
281
     1
  3
Imperial24
350
69
  0
DICTIONARY
  5
64
102
{ACAD_REACTORS
330
C
102
}
330
C
100
AcDbDictionary
281
     1
  3
Standard
350
65
  0
DICTIONARY
  5
29
102
{ACAD_REACTORS
330
C
102
}
330
C
100
AcDbDictionary
281
     1
  3
2dWireframe
350
2F
  3
Basic
350
2E
  3
Brighten
350
35
  3
ColorChange
350
39
  3
Conceptual
350
32
  3
Dim
350
34
  3
EdgeColorOff
350
41
  3
Facepattern
350
38
  3
Flat
350
2A
  3
FlatWithEdges
350
2B
  3
Gouraud
350
2C
  3
GouraudWithEdges
350
2D
  3
Hidden
350
31
  3
JitterOff
350
3F
  3
Linepattern
350
37
  3
OverhangOff
350
40
  3
Realistic
350
33
  3
Shaded
350
3E
  3
Shaded with edges
350
3D
  3
Shades of Gray
350
3A
  3
Sketchy
350
3B
  3
Thicken
350
36
  3
Wireframe
350
30
  3
X-Ray
350
3C
  0
XRECORD
  5
37C
102
{ACAD_REACTORS
330
C
102
}
330
C
100
AcDbXrecord
280
     1
 90
        1
330
65
330
101
330
12A
330
140
330
15B
330
172
330
18A
330
1A0
330
1BF
330
1E6
330
205
330
224
330
243
330
260
330
282
330
2A3
330
2C4
  0
DICTIONARY
  5
343
102
{ACAD_REACTORS
330
C
102
}
330
C
100
AcDbDictionary
281
     1
  3
CANNOSCALE
350
348
  3
CMLEADERSTYLE
350
345
  3
CTABLESTYLE
350
344
  3
CVIEWDETAILSTYLE
350
346
  3
CVIEWSECTIONSTYLE
350
347
  0
XRECORD
  5
34E
102
{ACAD_REACTORS
330
34C
102
}
330
34C
100
AcDbXrecord
280
     1
 70
     4
 70
     0
 70
     0
 40
1.0
  2
NOME_TAMPONAMENTO
  1
Embedded Object
 10
12.0
 20
4.0
 30
0.0
 40
3.499999940395355
 41
0.0
 46
0.0
 71
     4
 72
     5
  1

  7
Stile testo39
 73
     1
 44
1.0
  0
XRECORD
  5
34D
102
{ACAD_REACTORS
330
34C
102
}
330
34C
100
AcDbXrecord
280
     1
102
ACAD_MATT_HEIGHT
140
3.499999940395355
  0
XRECORD
  5
351
102
{ACAD_REACTORS
330
34F
102
}
330
34F
100
AcDbXrecord
280
     1
 70
     4
 70
     0
 70
     0
 40
1.0
  2
NOME_TAMPONAMENTO
  1
Embedded Object
 10
12.0
 20
4.0
 30
0.0
 40
3.499999940395355
 41
0.0
 46
0.0
 71
     4
 72
     5
  1

  7
Stile testo39
 73
     1
 44
1.0
  0
XRECORD
  5
350
102
{ACAD_REACTORS
330
34F
102
}
330
34F
100
AcDbXrecord
280
     1
102
ACAD_MATT_HEIGHT
140
3.499999940395355
  0
XRECORD
  5
354
102
{ACAD_REACTORS
330
352
102
}
330
352
100
AcDbXrecord
280
     1
 70
     4
 70
     0
 70
     0
 40
1.0
  2
NOME_TAMPONAMENTO
  1
Embedded Object
 10
12.0
 20
4.0
 30
0.0
 40
3.499999940395355
 41
0.0
 46
0.0
 71
     4
 72
     5
  1

  7
Stile testo39
 73
     1
 44
1.0
  0
XRECORD
  5
353
102
{ACAD_REACTORS
330
352
102
}
330
352
100
AcDbXrecord
280
     1
102
ACAD_MATT_HEIGHT
140
3.499999940395355
  0
XRECORD
  5
357
102
{ACAD_REACTORS
330
355
102
}
330
355
100
AcDbXrecord
280
     1
 70
     4
 70
     0
 70
     0
 40
1.0
  2
NOME_TAMPONAMENTO
  1
Embedded Object
 10
12.0
 20
4.0
 30
0.0
 40
3.499999940395355
 41
0.0
 46
0.0
 71
     4
 72
     5
  1

  7
Stile testo39
 73
     1
 44
1.0
  0
XRECORD
  5
356
102
{ACAD_REACTORS
330
355
102
}
330
355
100
AcDbXrecord
280
     1
102
ACAD_MATT_HEIGHT
140
3.499999940395355
  0
XRECORD
  5
35A
102
{ACAD_REACTORS
330
358
102
}
330
358
100
AcDbXrecord
280
     1
 70
     4
 70
     0
 70
     0
 40
1.0
  2
NOME_TAMPONAMENTO
  1
Embedded Object
 10
12.0
 20
4.0
 30
0.0
 40
3.499999940395355
 41
0.0
 46
0.0
 71
     4
 72
     5
  1

  7
Stile testo39
 73
     1
 44
1.0
  0
XRECORD
  5
359
102
{ACAD_REACTORS
330
358
102
}
330
358
100
AcDbXrecord
280
     1
102
ACAD_MATT_HEIGHT
140
3.499999940395355
  0
XRECORD
  5
35D
102
{ACAD_REACTORS
330
35B
102
}
330
35B
100
AcDbXrecord
280
     1
 70
     4
 70
     0
 70
     0
 40
1.0
  2
NOME_TAMPONAMENTO
  1
Embedded Object
 10
12.0
 20
4.0
 30
0.0
 40
3.499999940395355
 41
0.0
 46
0.0
 71
     4
 72
     5
  1

  7
Stile testo39
 73
     1
 44
1.0
  0
XRECORD
  5
35C
102
{ACAD_REACTORS
330
35B
102
}
330
35B
100
AcDbXrecord
280
     1
102
ACAD_MATT_HEIGHT
140
3.499999940395355
  0
XRECORD
  5
360
102
{ACAD_REACTORS
330
35E
102
}
330
35E
100
AcDbXrecord
280
     1
 70
     4
 70
     0
 70
     0
 40
1.0
  2
NOME_TAMPONAMENTO
  1
Embedded Object
 10
12.0
 20
4.0
 30
0.0
 40
3.499999940395355
 41
0.0
 46
0.0
 71
     4
 72
     5
  1
rjhiljyt
  7
Stile testo39
 73
     1
 44
1.0
  0
XRECORD
  5
35F
102
{ACAD_REACTORS
330
35E
102
}
330
35E
100
AcDbXrecord
280
     1
102
ACAD_MATT_HEIGHT
140
3.499999940395355
  0
XRECORD
  5
363
102
{ACAD_REACTORS
330
361
102
}
330
361
100
AcDbXrecord
280
     1
 70
     4
 70
     0
 70
     0
 40
1.0
  2
NOME_TAMPONAMENTO
  1
Embedded Object
 10
11.99830177266988
 20
4.164164974003654
 30
0.0
 40
3.499999940395355
 41
0.0
 46
0.0
 71
     4
 72
     5
  1

  7
Stile testo39
 73
     1
 44
1.0
  0
XRECORD
  5
362
102
{ACAD_REACTORS
330
361
102
}
330
361
100
AcDbXrecord
280
     1
102
ACAD_MATT_HEIGHT
140
3.499999940395355
  0
XRECORD
  5
366
102
{ACAD_REACTORS
330
364
102
}
330
364
100
AcDbXrecord
280
     1
 70
     4
 70
     0
 70
     0
 40
1.0
  2
NOME_TAMPONAMENTO
  1
Embedded Object
 10
12.0
 20
4.0
 30
0.0
 40
3.499999940395355
 41
0.0
 46
0.0
 71
     4
 72
     5
  1

  7
Stile testo39
 73
     1
 44
1.0
  0
XRECORD
  5
365
102
{ACAD_REACTORS
330
364
102
}
330
364
100
AcDbXrecord
280
     1
102
ACAD_MATT_HEIGHT
140
3.499999940395355
  0
XRECORD
  5
369
102
{ACAD_REACTORS
330
367
102
}
330
367
100
AcDbXrecord
280
     1
 70
     4
 70
     0
 70
     0
 40
1.0
  2
NOME_TAMPONAMENTO
  1
Embedded Object
 10
11.99830177266988
 20
4.164164974003654
 30
0.0
 40
3.499999940395355
 41
0.0
 46
0.0
 71
     4
 72
     5
  1

  7
Stile testo39
 73
     1
 44
1.0
  0
XRECORD
  5
368
102
{ACAD_REACTORS
330
367
102
}
330
367
100
AcDbXrecord
280
     1
102
ACAD_MATT_HEIGHT
140
3.499999940395355
  0
XRECORD
  5
36C
102
{ACAD_REACTORS
330
36A
102
}
330
36A
100
AcDbXrecord
280
     1
 70
     4
 70
     0
 70
     0
 40
1.0
  2
NOME_TAMPONAMENTO
  1
Embedded Object
 10
11.99830177266988
 20
4.164164974003654
 30
0.0
 40
3.499999940395355
 41
0.0
 46
0.0
 71
     4
 72
     5
  1

  7
Stile testo39
 73
     1
 44
1.0
  0
XRECORD
  5
36B
102
{ACAD_REACTORS
330
36A
102
}
330
36A
100
AcDbXrecord
280
     1
102
ACAD_MATT_HEIGHT
140
3.499999940395355
  0
XRECORD
  5
36F
102
{ACAD_REACTORS
330
36D
102
}
330
36D
100
AcDbXrecord
280
     1
 70
     4
 70
     0
 70
     0
 40
1.0
  2
NOME_TAMPONAMENTO
  1
Embedded Object
 10
12.0
 20
4.0
 30
0.0
 40
3.499999940395355
 41
0.0
 46
0.0
 71
     4
 72
     5
  1

  7
Stile testo39
 73
     1
 44
1.0
  0
XRECORD
  5
36E
102
{ACAD_REACTORS
330
36D
102
}
330
36D
100
AcDbXrecord
280
     1
102
ACAD_MATT_HEIGHT
140
3.499999940395355
  0
XRECORD
  5
372
102
{ACAD_REACTORS
330
370
102
}
330
370
100
AcDbXrecord
280
     1
 70
     4
 70
     0
 70
     0
 40
1.0
  2
NOME_TAMPONAMENTO
  1
Embedded Object
 10
12.0
 20
4.0
 30
0.0
 40
3.499999940395355
 41
0.0
 46
0.0
 71
     4
 72
     5
  1

  7
Stile testo39
 73
     1
 44
1.0
  0
XRECORD
  5
371
102
{ACAD_REACTORS
330
370
102
}
330
370
100
AcDbXrecord
280
     1
102
ACAD_MATT_HEIGHT
140
3.499999940395355
  0
XRECORD
  5
375
102
{ACAD_REACTORS
330
373
102
}
330
373
100
AcDbXrecord
280
     1
 70
     4
 70
     0
 70
     0
 40
1.0
  2
NOME_TAMPONAMENTO
  1
Embedded Object
 10
12.0
 20
4.0
 30
0.0
 40
3.499999940395355
 41
0.0
 46
0.0
 71
     4
 72
     5
  1

  7
Stile testo39
 73
     1
 44
1.0
  0
XRECORD
  5
374
102
{ACAD_REACTORS
330
373
102
}
330
373
100
AcDbXrecord
280
     1
102
ACAD_MATT_HEIGHT
140
3.499999940395355
  0
XRECORD
  5
378
102
{ACAD_REACTORS
330
376
102
}
330
376
100
AcDbXrecord
280
     1
 70
     4
 70
     0
 70
     0
 40
1.0
  2
NOME_TAMPONAMENTO
  1
Embedded Object
 10
12.0
 20
4.0
 30
0.0
 40
3.499999940395355
 41
0.0
 46
0.0
 71
     4
 72
     5
  1

  7
Stile testo39
 73
     1
 44
1.0
  0
XRECORD
  5
377
102
{ACAD_REACTORS
330
376
102
}
330
376
100
AcDbXrecord
280
     1
102
ACAD_MATT_HEIGHT
140
3.499999940395355
  0
XRECORD
  5
37B
102
{ACAD_REACTORS
330
379
102
}
330
379
100
AcDbXrecord
280
     1
 70
     4
 70
     0
 70
     0
 40
1.0
  2
NOME_TAMPONAMENTO
  1
Embedded Object
 10
11.99830177266988
 20
4.164164974003654
 30
0.0
 40
3.499999940395355
 41
0.0
 46
0.0
 71
     4
 72
     5
  1

  7
Stile testo39
 73
     1
 44
1.0
  0
XRECORD
  5
37A
102
{ACAD_REACTORS
330
379
102
}
330
379
100
AcDbXrecord
280
     1
102
ACAD_MATT_HEIGHT
140
3.499999940395355
  0
ACDBDETAILVIEWSTYLE
  5
6B
102
{ACAD_XDICTIONARY
360
3B1
102
}
102
{ACAD_REACTORS
330
6A
102
}
330
6A
100
AcDbModelDocViewStyle
 70
     0
  3
Imperial24
290
     0
100
AcDbDetailViewStyle
 70
     0
 71
     0
 90
        3
 71
     1
340
55
 62
   256
 40
0.24
340
0
 62
   256
 40
0.24
300

 40
0.36
280
     3
 71
     2
340
5D
 90
       25
 62
   256
 71
     3
340
55
 62
   256
 40
0.24
 90
        1
 40
0.75
 90
        1
300
%<\AcVar ViewType \f "%tc1">% %<\AcVar ViewDetailId>%\PSCALA %<\AcVar ViewScale \f "%sn">%
 71
     4
340
5D
 90
       25
 62
   256
340
5D
 90
       25
 62
   256
280
     0
  0
LAYOUT
  5
6F
102
{ACAD_REACTORS
330
62
102
}
330
62
100
AcDbPlotSettings
  1

  2

  4

  6

 40
0.0
 41
0.0
 42
0.0
 43
0.0
 44
0.0
 45
0.0
 46
0.0
 47
0.0
 48
0.0
 49
0.0
140
0.0
141
0.0
142
1.0
143
1.0
 70
   688
 72
     0
 73
     0
 74
     5
  7

 75
    16
147
1.0
 76
     0
 77
     2
 78
   300
148
0.0
149
0.0
100
AcDbLayout
  1
Layout1
 70
     1
 71
     1
 10
0.0
 20
0.0
 11
12.0
 21
9.0
 12
0.0
 22
0.0
 32
0.0
 14
0.0
 24
0.0
 34
0.0
 15
0.0
 25
0.0
 35
0.0
146
0.0
 13
0.0
 23
0.0
 33
0.0
 16
1.0
 26
0.0
 36
0.0
 17
0.0
 27
1.0
 37
0.0
 76
     0
330
6C
  0
LAYOUT
  5
77
102
{ACAD_REACTORS
330
62
102
}
330
62
100
AcDbPlotSettings
  1

  2

  4

  6

 40
0.0
 41
0.0
 42
0.0
 43
0.0
 44
0.0
 45
0.0
 46
0.0
 47
0.0
 48
0.0
 49
0.0
140
0.0
141
0.0
142
1.0
143
1.0
 70
   688
 72
     0
 73
     0
 74
     5
  7

 75
    16
147
1.0
 76
     0
 77
     2
 78
   300
148
0.0
149
0.0
100
AcDbLayout
  1
Layout2
 70
     1
 71
     2
 10
0.0
 20
0.0
 11
12.0
 21
9.0
 12
0.0
 22
0.0
 32
0.0
 14
0.0
 24
0.0
 34
0.0
 15
0.0
 25
0.0
 35
0.0
146
0.0
 13
0.0
 23
0.0
 33
0.0
 16
1.0
 26
0.0
 36
0.0
 17
0.0
 27
1.0
 37
0.0
 76
     0
330
74
  0
LAYOUT
  5
73
102
{ACAD_REACTORS
330
62
102
}
330
62
100
AcDbPlotSettings
  1

  2

  4

  6

 40
0.0
 41
0.0
 42
0.0
 43
0.0
 44
0.0
 45
0.0
 46
0.0
 47
0.0
 48
0.0
 49
0.0
140
0.0
141
0.0
142
1.0
143
1.0
 70
  1712
 72
     0
 73
     0
 74
     0
  7

 75
     0
147
1.0
 76
     0
 77
     2
 78
   300
148
0.0
149
0.0
100
AcDbLayout
  1
Model
 70
     1
 71
     0
 10
0.0
 20
0.0
 11
12.0
 21
9.0
 12
0.0
 22
0.0
 32
0.0
 14
0.0
 24
0.0
 34
0.0
 15
0.0
 25
0.0
 35
0.0
146
0.0
 13
0.0
 23
0.0
 33
0.0
 16
1.0
 26
0.0
 36
0.0
 17
0.0
 27
1.0
 37
0.0
 76
     0
330
70
  0
MATERIAL
  5
19
102
{ACAD_XDICTIONARY
360
1A
102
}
102
{ACAD_REACTORS
330
10
102
}
330
10
100
AcDbMaterial
  1
ByBlock
 72
     0
 43
0.0208333333333333
 43
0.0
 43
0.0
 43
0.0
 43
0.0
 43
0.0208333333333333
 43
0.0
 43
0.0
 43
0.0
 43
0.0
 43
1.0
 43
0.0
 43
0.0
 43
0.0
 43
0.0
 43
1.0
 77
     0
 47
0.0208333333333333
 47
0.0
 47
0.0
 47
0.0
 47
0.0
 47
0.0208333333333333
 47
0.0
 47
0.0
 47
0.0
 47
0.0
 47
1.0
 47
0.0
 47
0.0
 47
0.0
 47
0.0
 47
1.0
171
     0
 49
0.0208333333333333
 49
0.0
 49
0.0
 49
0.0
 49
0.0
 49
0.0208333333333333
 49
0.0
 49
0.0
 49
0.0
 49
0.0
 49
1.0
 49
0.0
 49
0.0
 49
0.0
 49
0.0
 49
1.0
175
     0
142
0.0208333333333333
142
0.0
142
0.0
142
0.0
142
0.0
142
0.0208333333333333
142
0.0
142
0.0
142
0.0
142
0.0
142
1.0
142
0.0
142
0.0
142
0.0
142
0.0
142
1.0
179
     0
144
0.0208333333333333
144
0.0
144
0.0
144
0.0
144
0.0
144
0.0208333333333333
144
0.0
144
0.0
144
0.0
144
0.0
144
1.0
144
0.0
144
0.0
144
0.0
144
0.0
144
1.0
147
0.0208333333333333
147
0.0
147
0.0
147
0.0
147
0.0
147
0.0208333333333333
147
0.0
147
0.0
147
0.0
147
0.0
147
1.0
147
0.0
147
0.0
147
0.0
147
0.0
147
1.0
  0
MATERIAL
  5
11
102
{ACAD_XDICTIONARY
360
12
102
}
102
{ACAD_REACTORS
330
10
102
}
330
10
100
AcDbMaterial
  1
ByLayer
 72
     0
 43
0.0208333333333333
 43
0.0
 43
0.0
 43
0.0
 43
0.0
 43
0.0208333333333333
 43
0.0
 43
0.0
 43
0.0
 43
0.0
 43
1.0
 43
0.0
 43
0.0
 43
0.0
 43
0.0
 43
1.0
 77
     0
 47
0.0208333333333333
 47
0.0
 47
0.0
 47
0.0
 47
0.0
 47
0.0208333333333333
 47
0.0
 47
0.0
 47
0.0
 47
0.0
 47
1.0
 47
0.0
 47
0.0
 47
0.0
 47
0.0
 47
1.0
171
     0
 49
0.0208333333333333
 49
0.0
 49
0.0
 49
0.0
 49
0.0
 49
0.0208333333333333
 49
0.0
 49
0.0
 49
0.0
 49
0.0
 49
1.0
 49
0.0
 49
0.0
 49
0.0
 49
0.0
 49
1.0
175
     0
142
0.0208333333333333
142
0.0
142
0.0
142
0.0
142
0.0
142
0.0208333333333333
142
0.0
142
0.0
142
0.0
142
0.0
142
1.0
142
0.0
142
0.0
142
0.0
142
0.0
142
1.0
179
     0
144
0.0208333333333333
144
0.0
144
0.0
144
0.0
144
0.0
144
0.0208333333333333
144
0.0
144
0.0
144
0.0
144
0.0
144
1.0
144
0.0
144
0.0
144
0.0
144
0.0
144
1.0
147
0.0208333333333333
147
0.0
147
0.0
147
0.0
147
0.0
147
0.0208333333333333
147
0.0
147
0.0
147
0.0
147
0.0
147
1.0
147
0.0
147
0.0
147
0.0
147
0.0
147
1.0
  0
MATERIAL
  5
21
102
{ACAD_XDICTIONARY
360
22
102
}
102
{ACAD_REACTORS
330
10
102
}
330
10
100
AcDbMaterial
  1
Global
 72
     0
 43
0.0208333333333333
 43
0.0
 43
0.0
 43
0.0
 43
0.0
 43
0.0208333333333333
 43
0.0
 43
0.0
 43
0.0
 43
0.0
 43
1.0
 43
0.0
 43
0.0
 43
0.0
 43
0.0
 43
1.0
 77
     0
 47
0.0208333333333333
 47
0.0
 47
0.0
 47
0.0
 47
0.0
 47
0.0208333333333333
 47
0.0
 47
0.0
 47
0.0
 47
0.0
 47
1.0
 47
0.0
 47
0.0
 47
0.0
 47
0.0
 47
1.0
171
     0
 49
0.0208333333333333
 49
0.0
 49
0.0
 49
0.0
 49
0.0
 49
0.0208333333333333
 49
0.0
 49
0.0
 49
0.0
 49
0.0
 49
1.0
 49
0.0
 49
0.0
 49
0.0
 49
0.0
 49
1.0
175
     0
142
0.0208333333333333
142
0.0
142
0.0
142
0.0
142
0.0
142
0.0208333333333333
142
0.0
142
0.0
142
0.0
142
0.0
142
1.0
142
0.0
142
0.0
142
0.0
142
0.0
142
1.0
179
     0
144
0.0208333333333333
144
0.0
144
0.0
144
0.0
144
0.0
144
0.0208333333333333
144
0.0
144
0.0
144
0.0
144
0.0
144
1.0
144
0.0
144
0.0
144
0.0
144
0.0
144
1.0
147
0.0208333333333333
147
0.0
147
0.0
147
0.0
147
0.0
147
0.0208333333333333
147
0.0
147
0.0
147
0.0
147
0.0
147
1.0
147
0.0
147
0.0
147
0.0
147
0.0
147
1.0
  0
MLEADERSTYLE
  5
67
102
{ACAD_XDICTIONARY
360
3AD
102
}
102
{ACAD_REACTORS
330
66
102
}
330
66
100
AcDbMLeaderStyle
179
     2
170
     2
171
     1
172
     0
 90
        2
 40
0.0
 41
0.0
173
     1
 91
-1056964608
340
5B
 92
       -2
290
     1
 42
0.09
291
     1
 43
0.36
  3
Standard
 44
0.18
300

342
55
174
     1
178
     6
175
     1
176
     0
 93
-1056964608
 45
0.18
292
     0
297
     0
 46
0.18
 94
-1056964608
 47
1.0
 49
1.0
140
1.0
293
     1
141
0.0
294
     1
177
     0
142
1.0
295
     0
296
     0
143
0.125
271
     0
272
     9
273
     9
  0
MLINESTYLE
  5
60
102
{ACAD_REACTORS
330
5F
102
}
330
5F
100
AcDbMlineStyle
  2
STANDARD
 70
     0
  3

 62
   256
 51
90.0
 52
90.0
 71
     2
 49
0.5
 62
   256
  6
BYLAYER
 49
-0.5
 62
   256
  6
BYLAYER
  0
ACDBPLACEHOLDER
  5
F
102
{ACAD_REACTORS
330
E
102
}
330
E
  0
SCALE
  5
43
102
{ACAD_REACTORS
330
42
102
}
330
42
100
AcDbScale
 70
     0
300
1:1
140
1.0
141
1.0
290
     1
  0
SCALE
  5
44
102
{ACAD_REACTORS
330
42
102
}
330
42
100
AcDbScale
 70
     0
300
1/128" = 1'-0"
140
0.0078125
141
12.0
290
     0
  0
SCALE
  5
45
102
{ACAD_REACTORS
330
42
102
}
330
42
100
AcDbScale
 70
     0
300
1/64" = 1'-0"
140
0.015625
141
12.0
290
     0
  0
SCALE
  5
46
102
{ACAD_REACTORS
330
42
102
}
330
42
100
AcDbScale
 70
     0
300
1/32" = 1'-0"
140
0.03125
141
12.0
290
     0
  0
SCALE
  5
47
102
{ACAD_REACTORS
330
42
102
}
330
42
100
AcDbScale
 70
     0
300
1/16" = 1'-0"
140
0.0625
141
12.0
290
     0
  0
SCALE
  5
48
102
{ACAD_REACTORS
330
42
102
}
330
42
100
AcDbScale
 70
     0
300
3/32" = 1'-0"
140
0.09375
141
12.0
290
     0
  0
SCALE
  5
49
102
{ACAD_REACTORS
330
42
102
}
330
42
100
AcDbScale
 70
     0
300
1/8" = 1'-0"
140
0.125
141
12.0
290
     0
  0
SCALE
  5
4A
102
{ACAD_REACTORS
330
42
102
}
330
42
100
AcDbScale
 70
     0
300
3/16" = 1'-0"
140
0.1875
141
12.0
290
     0
  0
SCALE
  5
4B
102
{ACAD_REACTORS
330
42
102
}
330
42
100
AcDbScale
 70
     0
300
1/4" = 1'-0"
140
0.25
141
12.0
290
     0
  0
SCALE
  5
4C
102
{ACAD_REACTORS
330
42
102
}
330
42
100
AcDbScale
 70
     0
300
3/8" = 1'-0"
140
0.375
141
12.0
290
     0
  0
SCALE
  5
4D
102
{ACAD_REACTORS
330
42
102
}
330
42
100
AcDbScale
 70
     0
300
1/2" = 1'-0"
140
0.5
141
12.0
290
     0
  0
SCALE
  5
4E
102
{ACAD_REACTORS
330
42
102
}
330
42
100
AcDbScale
 70
     0
300
3/4" = 1'-0"
140
0.75
141
12.0
290
     0
  0
SCALE
  5
4F
102
{ACAD_REACTORS
330
42
102
}
330
42
100
AcDbScale
 70
     0
300
1" = 1'-0"
140
1.0
141
12.0
290
     0
  0
SCALE
  5
50
102
{ACAD_REACTORS
330
42
102
}
330
42
100
AcDbScale
 70
     0
300
1-1/2" = 1'-0"
140
1.5
141
12.0
290
     0
  0
SCALE
  5
51
102
{ACAD_REACTORS
330
42
102
}
330
42
100
AcDbScale
 70
     0
300
3" = 1'-0"
140
3.0
141
12.0
290
     0
  0
SCALE
  5
52
102
{ACAD_REACTORS
330
42
102
}
330
42
100
AcDbScale
 70
     0
300
6" = 1'-0"
140
6.0
141
12.0
290
     0
  0
SCALE
  5
53
102
{ACAD_REACTORS
330
42
102
}
330
42
100
AcDbScale
 70
     0
300
1'-0" = 1'-0"
140
12.0
141
12.0
290
     0
  0
ACDBSECTIONVIEWSTYLE
  5
69
102
{ACAD_XDICTIONARY
360
3AF
102
}
102
{ACAD_REACTORS
330
68
102
}
330
68
100
AcDbModelDocViewStyle
 70
     0
  3
Imperial24
290
     0
100
AcDbSectionViewStyle
 70
     0
 71
     0
 90
       78
 71
     1
340
55
 62
   256
 40
0.24
340
0
340
0
 62
   256
 40
0.24
300
I, O, Q, S, X, Z
 40
0.48
 90
        3
 40
0.18
 90
        1
 71
     2
340
5D
 90
       25
 62
   256
340
5D
 90
       50
 62
   256
 40
0.24
 40
0.0
 40
0.24
 71
     3
340
55
 62
   256
 40
0.24
 90
        1
 40
0.75
 90
        1
300
%<\AcVar ViewType \f "%tc1">% %<\AcVar ViewSectionStartId>%-%<\AcVar ViewSectionEndId>%\PSCALA %<\AcVar ViewScale \f "%sn">%
 71
     4
 62
   256
 62
   257
300
ANSI31
 40
1.0
 90
        0
290
     0
290
     0
 90
        6
 40
0.0
 40
1.570796326794896
 40
0.2617993877991494
 40
1.308996938995747
 40
-0.2617993877991494
 40
1.832595714594046
  0
TABLESTYLE
  5
65
102
{ACAD_XDICTIONARY
360
349
102
}
102
{ACAD_REACTORS
330
64
102
}
330
64
100
AcDbTableStyle
280
     0
  3
Standard
 70
     0
 71
     0
 40
0.06
 41
0.06
280
     0
281
     0
  7
Standard
140
0.18
170
     2
 62
     0
 63
     7
283
     0
 90
      512
 91
        0
  1

274
    -2
284
     1
 64
     0
275
    -2
285
     1
 65
     0
276
    -2
286
     1
 66
     0
277
    -2
287
     1
 67
     0
278
    -2
288
     1
 68
     0
279
    -2
289
     1
 69
     0
  7
Standard
140
0.25
170
     5
 62
     0
 63
     7
283
     0
 90
      512
 91
        0
  1

274
    -2
284
     1
 64
     0
275
    -2
285
     1
 65
     0
276
    -2
286
     1
 66
     0
277
    -2
287
     1
 67
     0
278
    -2
288
     1
 68
     0
279
    -2
289
     1
 69
     0
  7
Standard
140
0.18
170
     5
 62
     0
 63
     7
283
     0
 90
      512
 91
        0
  1

274
    -2
284
     1
 64
     0
275
    -2
285
     1
 65
     0
276
    -2
286
     1
 66
     0
277
    -2
287
     1
 67
     0
278
    -2
288
     1
 68
     0
279
    -2
289
     1
 69
     0
  0
VISUALSTYLE
  5
2F
102
{ACAD_XDICTIONARY
360
387
102
}
102
{ACAD_REACTORS
330
29
102
}
330
29
100
AcDbVisualStyle
  2
2dWireframe
 70
     4
177
     2
291
     0
 71
     0
176
     1
 72
     2
176
     1
 73
     0
176
     1
 90
        0
176
     1
 40
0.6
176
     1
 41
30.0
176
     1
 63
     7
421
 16777215
176
     1
 74
     1
176
     1
 91
        4
176
     1
 64
     7
176
     1
 65
   257
176
     1
 75
     1
176
     1
175
     1
176
     1
 42
1.0
176
     1
 92
        0
176
     1
 66
   257
176
     1
 43
1.0
176
     1
 76
     1
176
     1
 77
     6
176
     1
 78
     2
176
     1
 67
     7
176
     1
 79
     5
176
     1
170
     0
176
     1
171
     0
176
     1
290
     0
176
     1
 93
        1
176
     1
 44
0.0
176
     1
173
     0
176
     1
1001
ACAD
1000
AcDbSavedByObjectVersion
1070
     0
  0
VISUALSTYLE
  5
2E
102
{ACAD_XDICTIONARY
360
385
102
}
102
{ACAD_REACTORS
330
29
102
}
330
29
100
AcDbVisualStyle
  2
Basic
 70
     7
177
     2
291
     1
 71
     1
176
     1
 72
     0
176
     1
 73
     1
176
     1
 90
        0
176
     1
 40
0.6
176
     1
 41
30.0
176
     1
 63
     7
421
 16777215
176
     1
 74
     0
176
     1
 91
        4
176
     1
 64
     7
176
     1
 65
   257
176
     1
 75
     1
176
     1
175
     1
176
     1
 42
1.0
176
     1
 92
        8
176
     1
 66
     7
176
     1
 43
1.0
176
     1
 76
     1
176
     1
 77
     6
176
     1
 78
     2
176
     1
 67
     7
176
     1
 79
     5
176
     1
170
     0
176
     1
171
     0
176
     1
290
     0
176
     1
 93
        1
176
     1
 44
0.0
176
     1
173
     0
176
     1
1001
ACAD
1000
AcDbSavedByObjectVersion
1070
     0
  0
VISUALSTYLE
  5
35
102
{ACAD_XDICTIONARY
360
393
102
}
102
{ACAD_REACTORS
330
29
102
}
330
29
100
AcDbVisualStyle
  2
Brighten
 70
    12
177
     2
291
     1
 71
     2
176
     1
 72
     2
176
     1
 73
     0
176
     1
 90
        0
176
     1
 40
0.6
176
     1
 41
30.0
176
     1
 63
     7
421
 16777215
176
     1
 74
     1
176
     1
 91
        4
176
     1
 64
     7
176
     1
 65
   257
176
     1
 75
     1
176
     1
175
     1
176
     1
 42
1.0
176
     1
 92
        8
176
     1
 66
     7
176
     1
 43
1.0
176
     1
 76
     1
176
     1
 77
     6
176
     1
 78
     2
176
     1
 67
     7
176
     1
 79
     5
176
     1
170
     0
176
     1
171
     0
176
     1
290
     0
176
     1
 93
        1
176
     1
 44
50.0
176
     1
173
     0
176
     1
1001
ACAD
1000
AcDbSavedByObjectVersion
1070
     0
  0
VISUALSTYLE
  5
39
102
{ACAD_XDICTIONARY
360
39B
102
}
102
{ACAD_REACTORS
330
29
102
}
330
29
100
AcDbVisualStyle
  2
ColorChange
 70
    16
177
     2
291
     1
 71
     2
176
     1
 72
     2
176
     1
 73
     3
176
     1
 90
        0
176
     1
 40
0.6
176
     1
 41
30.0
176
     1
 63
     8
421
  8421504
176
     1
 74
     1
176
     1
 91
        4
176
     1
 64
     7
176
     1
 65
   257
176
     1
 75
     1
176
     1
175
     1
176
     1
 42
1.0
176
     1
 92
        8
176
     1
 66
     8
424
  8421504
176
     1
 43
1.0
176
     1
 76
     1
176
     1
 77
     6
176
     1
 78
     2
176
     1
 67
     7
176
     1
 79
     5
176
     1
170
     0
176
     1
171
     0
176
     1
290
     0
176
     1
 93
        1
176
     1
 44
0.0
176
     1
173
     0
176
     1
1001
ACAD
1000
AcDbSavedByObjectVersion
1070
     0
  0
VISUALSTYLE
  5
32
102
{ACAD_XDICTIONARY
360
38D
102
}
102
{ACAD_REACTORS
330
29
102
}
330
29
100
AcDbVisualStyle
  2
Conceptual
 70
     9
177
     2
291
     0
 71
     3
176
     1
 72
     2
176
     1
 73
     0
176
     1
 90
        0
176
     1
 40
0.6
176
     1
 41
30.0
176
     1
 63
     7
421
 16777215
176
     1
 74
     2
176
     1
 91
        2
176
     1
 64
     7
176
     1
 65
   257
176
     1
 75
     1
176
     1
175
     1
176
     1
 42
179.0
176
     1
 92
        8
176
     1
 66
     7
176
     1
 43
1.0
176
     1
 76
     1
176
     1
 77
     6
176
     1
 78
     2
176
     1
 67
     7
176
     1
 79
     3
176
     1
170
     0
176
     1
171
     0
176
     1
290
     0
176
     1
 93
        1
176
     1
 44
0.0
176
     1
173
     0
176
     1
1001
ACAD
1000
AcDbSavedByObjectVersion
1070
     0
  0
VISUALSTYLE
  5
34
102
{ACAD_XDICTIONARY
360
391
102
}
102
{ACAD_REACTORS
330
29
102
}
330
29
100
AcDbVisualStyle
  2
Dim
 70
    11
177
     2
291
     1
 71
     2
176
     1
 72
     2
176
     1
 73
     0
176
     1
 90
        0
176
     1
 40
0.6
176
     1
 41
30.0
176
     1
 63
     7
421
 16777215
176
     1
 74
     1
176
     1
 91
        4
176
     1
 64
     7
176
     1
 65
   257
176
     1
 75
     1
176
     1
175
     1
176
     1
 42
1.0
176
     1
 92
        8
176
     1
 66
     7
176
     1
 43
1.0
176
     1
 76
     1
176
     1
 77
     6
176
     1
 78
     2
176
     1
 67
     7
176
     1
 79
     5
176
     1
170
     0
176
     1
171
     0
176
     1
290
     0
176
     1
 93
        1
176
     1
 44
-50.0
176
     1
173
     0
176
     1
1001
ACAD
1000
AcDbSavedByObjectVersion
1070
     0
  0
VISUALSTYLE
  5
41
102
{ACAD_XDICTIONARY
360
3AB
102
}
102
{ACAD_REACTORS
330
29
102
}
330
29
100
AcDbVisualStyle
  2
EdgeColorOff
 70
    22
177
     2
291
     1
 71
     2
176
     0
 72
     2
176
     0
 73
     0
176
     0
 90
        0
176
     0
 40
0.6
176
     0
 41
30.0
176
     0
 63
     7
421
 16777215
176
     0
 74
     1
176
     0
 91
        4
176
     0
 64
     7
176
     0
 65
   257
176
     0
 75
     1
176
     0
175
     1
176
     0
 42
1.0
176
     0
 92
        8
176
     2
 66
     7
176
     0
 43
1.0
176
     0
 76
     1
176
     0
 77
     6
176
     0
 78
     2
176
     0
 67
     7
176
     0
 79
     5
176
     0
170
     0
176
     0
171
     0
176
     0
290
     0
176
     0
 93
        1
176
     0
 44
0.0
176
     0
173
     0
176
     0
1001
ACAD
1000
AcDbSavedByObjectVersion
1070
     0
  0
VISUALSTYLE
  5
38
102
{ACAD_XDICTIONARY
360
399
102
}
102
{ACAD_REACTORS
330
29
102
}
330
29
100
AcDbVisualStyle
  2
Facepattern
 70
    15
177
     2
291
     1
 71
     2
176
     1
 72
     2
176
     1
 73
     0
176
     1
 90
        0
176
     1
 40
0.6
176
     1
 41
30.0
176
     1
 63
     7
421
 16777215
176
     1
 74
     1
176
     1
 91
        4
176
     1
 64
     7
176
     1
 65
   257
176
     1
 75
     1
176
     1
175
     1
176
     1
 42
1.0
176
     1
 92
        8
176
     1
 66
     7
176
     1
 43
1.0
176
     1
 76
     1
176
     1
 77
     6
176
     1
 78
     2
176
     1
 67
     7
176
     1
 79
     5
176
     1
170
     0
176
     1
171
     0
176
     1
290
     0
176
     1
 93
        1
176
     1
 44
0.0
176
     1
173
     0
176
     1
1001
ACAD
1000
AcDbSavedByObjectVersion
1070
     0
  0
VISUALSTYLE
  5
2A
102
{ACAD_XDICTIONARY
360
37D
102
}
102
{ACAD_REACTORS
330
29
102
}
330
29
100
AcDbVisualStyle
  2
Flat
 70
     0
177
     2
291
     1
 71
     2
176
     1
 72
     1
176
     1
 73
     1
176
     1
 90
        2
176
     1
 40
0.6
176
     1
 41
30.0
176
     1
 63
     7
421
 16777215
176
     1
 74
     0
176
     1
 91
        0
176
     1
 64
     7
176
     1
 65
   257
176
     1
 75
     1
176
     1
175
     1
176
     1
 42
1.0
176
     1
 92
        8
176
     1
 66
     7
176
     1
 43
1.0
176
     1
 76
     1
176
     1
 77
     6
176
     1
 78
     2
176
     1
 67
     7
176
     1
 79
     5
176
     1
170
     0
176
     1
171
     0
176
     1
290
     0
176
     1
 93
       13
176
     1
 44
0.0
176
     1
173
     0
176
     1
1001
ACAD
1000
AcDbSavedByObjectVersion
1070
     0
  0
VISUALSTYLE
  5
2B
102
{ACAD_XDICTIONARY
360
37F
102
}
102
{ACAD_REACTORS
330
29
102
}
330
29
100
AcDbVisualStyle
  2
FlatWithEdges
 70
     1
177
     2
291
     1
 71
     2
176
     1
 72
     1
176
     1
 73
     1
176
     1
 90
        2
176
     1
 40
0.6
176
     1
 41
30.0
176
     1
 63
     7
421
 16777215
176
     1
 74
     1
176
     1
 91
        0
176
     1
 64
     7
176
     1
 65
   257
176
     1
 75
     1
176
     1
175
     1
176
     1
 42
1.0
176
     1
 92
        0
176
     1
 66
   257
176
     1
 43
1.0
176
     1
 76
     1
176
     1
 77
     6
176
     1
 78
     2
176
     1
 67
     7
176
     1
 79
     5
176
     1
170
     0
176
     1
171
     0
176
     1
290
     0
176
     1
 93
       13
176
     1
 44
0.0
176
     1
173
     0
176
     1
1001
ACAD
1000
AcDbSavedByObjectVersion
1070
     0
  0
VISUALSTYLE
  5
2C
102
{ACAD_XDICTIONARY
360
381
102
}
102
{ACAD_REACTORS
330
29
102
}
330
29
100
AcDbVisualStyle
  2
Gouraud
 70
     2
177
     2
291
     1
 71
     2
176
     1
 72
     2
176
     1
 73
     1
176
     1
 90
        2
176
     1
 40
0.6
176
     1
 41
30.0
176
     1
 63
     7
421
 16777215
176
     1
 74
     0
176
     1
 91
        0
176
     1
 64
     7
176
     1
 65
   257
176
     1
 75
     1
176
     1
175
     1
176
     1
 42
1.0
176
     1
 92
        0
176
     1
 66
     7
176
     1
 43
1.0
176
     1
 76
     1
176
     1
 77
     6
176
     1
 78
     2
176
     1
 67
     7
176
     1
 79
     5
176
     1
170
     0
176
     1
171
     0
176
     1
290
     0
176
     1
 93
       13
176
     1
 44
0.0
176
     1
173
     0
176
     1
1001
ACAD
1000
AcDbSavedByObjectVersion
1070
     0
  0
VISUALSTYLE
  5
2D
102
{ACAD_XDICTIONARY
360
383
102
}
102
{ACAD_REACTORS
330
29
102
}
330
29
100
AcDbVisualStyle
  2
GouraudWithEdges
 70
     3
177
     2
291
     1
 71
     2
176
     1
 72
     2
176
     1
 73
     1
176
     1
 90
        2
176
     1
 40
0.6
176
     1
 41
30.0
176
     1
 63
     7
421
 16777215
176
     1
 74
     1
176
     1
 91
        0
176
     1
 64
     7
176
     1
 65
   257
176
     1
 75
     1
176
     1
175
     1
176
     1
 42
1.0
176
     1
 92
        0
176
     1
 66
   257
176
     1
 43
1.0
176
     1
 76
     1
176
     1
 77
     6
176
     1
 78
     2
176
     1
 67
     7
176
     1
 79
     5
176
     1
170
     0
176
     1
171
     0
176
     1
290
     0
176
     1
 93
       13
176
     1
 44
0.0
176
     1
173
     0
176
     1
1001
ACAD
1000
AcDbSavedByObjectVersion
1070
     0
  0
VISUALSTYLE
  5
31
102
{ACAD_XDICTIONARY
360
38B
102
}
102
{ACAD_REACTORS
330
29
102
}
330
29
100
AcDbVisualStyle
  2
Hidden
 70
     6
177
     2
291
     0
 71
     1
176
     1
 72
     2
176
     1
 73
     2
176
     1
 90
        0
176
     1
 40
0.6
176
     1
 41
30.0
176
     1
 63
     7
421
 16777215
176
     1
 74
     2
176
     1
 91
        2
176
     1
 64
     7
176
     1
 65
   257
176
     1
 75
     2
176
     1
175
     1
176
     1
 42
40.0
176
     1
 92
        0
176
     1
 66
   257
176
     1
 43
1.0
176
     1
 76
     1
176
     1
 77
     6
176
     1
 78
     2
176
     1
 67
     7
176
     1
 79
     3
176
     1
170
     0
176
     1
171
     0
176
     1
290
     0
176
     1
 93
        1
176
     1
 44
0.0
176
     1
173
     0
176
     1
1001
ACAD
1000
AcDbSavedByObjectVersion
1070
     0
  0
VISUALSTYLE
  5
3F
102
{ACAD_XDICTIONARY
360
3A7
102
}
102
{ACAD_REACTORS
330
29
102
}
330
29
100
AcDbVisualStyle
  2
JitterOff
 70
    20
177
     2
291
     1
 71
     2
176
     0
 72
     2
176
     0
 73
     0
176
     0
 90
        0
176
     0
 40
0.6
176
     0
 41
30.0
176
     0
 63
     7
421
 16777215
176
     0
 74
     1
176
     0
 91
        4
176
     0
 64
     7
176
     0
 65
   257
176
     0
 75
     1
176
     0
175
     1
176
     0
 42
1.0
176
     0
 92
       10
176
     2
 66
     7
176
     0
 43
1.0
176
     0
 76
     1
176
     0
 77
     6
176
     0
 78
     2
176
     0
 67
     7
176
     0
 79
     5
176
     0
170
     0
176
     0
171
     0
176
     0
290
     0
176
     0
 93
        1
176
     0
 44
0.0
176
     0
173
     0
176
     0
1001
ACAD
1000
AcDbSavedByObjectVersion
1070
     0
  0
VISUALSTYLE
  5
37
102
{ACAD_XDICTIONARY
360
397
102
}
102
{ACAD_REACTORS
330
29
102
}
330
29
100
AcDbVisualStyle
  2
Linepattern
 70
    14
177
     2
291
     1
 71
     2
176
     1
 72
     2
176
     1
 73
     0
176
     1
 90
        0
176
     1
 40
0.6
176
     1
 41
30.0
176
     1
 63
     7
421
 16777215
176
     1
 74
     1
176
     1
 91
        4
176
     1
 64
     7
176
     1
 65
   257
176
     1
 75
     7
176
     1
175
     7
176
     1
 42
1.0
176
     1
 92
        8
176
     1
 66
     7
176
     1
 43
1.0
176
     1
 76
     1
176
     1
 77
     6
176
     1
 78
     2
176
     1
 67
     7
176
     1
 79
     5
176
     1
170
     0
176
     1
171
     0
176
     1
290
     0
176
     1
 93
        1
176
     1
 44
0.0
176
     1
173
     0
176
     1
1001
ACAD
1000
AcDbSavedByObjectVersion
1070
     0
  0
VISUALSTYLE
  5
40
102
{ACAD_XDICTIONARY
360
3A9
102
}
102
{ACAD_REACTORS
330
29
102
}
330
29
100
AcDbVisualStyle
  2
OverhangOff
 70
    21
177
     2
291
     1
 71
     2
176
     0
 72
     2
176
     0
 73
     0
176
     0
 90
        0
176
     0
 40
0.6
176
     0
 41
30.0
176
     0
 63
     7
421
 16777215
176
     0
 74
     1
176
     0
 91
        4
176
     0
 64
     7
176
     0
 65
   257
176
     0
 75
     1
176
     0
175
     1
176
     0
 42
1.0
176
     0
 92
        9
176
     2
 66
     7
176
     0
 43
1.0
176
     0
 76
     1
176
     0
 77
     6
176
     0
 78
     2
176
     0
 67
     7
176
     0
 79
     5
176
     0
170
     0
176
     0
171
     0
176
     0
290
     0
176
     0
 93
        1
176
     0
 44
0.0
176
     0
173
     0
176
     0
1001
ACAD
1000
AcDbSavedByObjectVersion
1070
     0
  0
VISUALSTYLE
  5
33
102
{ACAD_XDICTIONARY
360
38F
102
}
102
{ACAD_REACTORS
330
29
102
}
330
29
100
AcDbVisualStyle
  2
Realistic
 70
     8
177
     2
291
     0
 71
     2
176
     1
 72
     3
176
     1
 73
     0
176
     1
 90
        2
176
     1
 40
0.6
176
     1
 41
30.0
176
     1
 63
     7
421
 16777215
176
     1
 74
     0
176
     1
 91
        0
176
     1
 64
     7
176
     1
 65
   257
176
     1
 75
     1
176
     1
175
     1
176
     1
 42
1.0
176
     1
 92
        8
176
     1
 66
   257
176
     1
 43
1.0
176
     1
 76
     1
176
     1
 77
     6
176
     1
 78
     2
176
     1
 67
     7
176
     1
 79
     3
176
     1
170
     0
176
     1
171
     0
176
     1
290
     0
176
     1
 93
       13
176
     1
 44
0.0
176
     1
173
     0
176
     1
1001
ACAD
1000
AcDbSavedByObjectVersion
1070
     0
  0
VISUALSTYLE
  5
3E
102
{ACAD_XDICTIONARY
360
3A5
102
}
102
{ACAD_REACTORS
330
29
102
}
330
29
100
AcDbVisualStyle
  2
Shaded
 70
    27
177
     2
291
     0
 71
     2
176
     1
 72
     2
176
     1
 73
     1
176
     1
 90
        2
176
     1
 40
0.6
176
     1
 41
30.0
176
     1
 63
     7
421
 16777215
176
     1
 74
     0
176
     1
 91
        4
176
     1
 64
     7
176
     1
 65
   257
176
     1
 75
     1
176
     1
175
     1
176
     1
 42
1.0
176
     1
 92
        8
176
     1
 66
   257
176
     1
 43
1.0
176
     1
 76
     1
176
     1
 77
     6
176
     1
 78
     2
176
     1
 67
     8
425
  7895160
176
     1
 79
     3
176
     1
170
     0
176
     1
171
     0
176
     1
290
     0
176
     1
 93
        5
176
     1
 44
0.0
176
     1
173
     0
176
     1
1001
ACAD
1000
AcDbSavedByObjectVersion
1070
     0
  0
VISUALSTYLE
  5
3D
102
{ACAD_XDICTIONARY
360
3A3
102
}
102
{ACAD_REACTORS
330
29
102
}
330
29
100
AcDbVisualStyle
  2
Shaded with edges
 70
    26
177
     2
291
     0
 71
     2
176
     1
 72
     2
176
     1
 73
     1
176
     1
 90
        2
176
     1
 40
0.6
176
     1
 41
30.0
176
     1
 63
     7
421
 16777215
176
     1
 74
     1
176
     1
 91
       10
176
     1
 64
     7
176
     1
 65
   257
176
     1
 75
     2
176
     1
175
     1
176
     1
 42
1.0
176
     1
 92
        8
176
     1
 66
   257
176
     1
 43
1.0
176
     1
 76
     1
176
     1
 77
     6
176
     1
 78
     2
176
     1
 67
     7
176
     1
 79
     3
176
     1
170
     0
176
     1
171
     0
176
     1
290
     0
176
     1
 93
        5
176
     1
 44
0.0
176
     1
173
     0
176
     1
1001
ACAD
1000
AcDbSavedByObjectVersion
1070
     0
  0
VISUALSTYLE
  5
3A
102
{ACAD_XDICTIONARY
360
39D
102
}
102
{ACAD_REACTORS
330
29
102
}
330
29
100
AcDbVisualStyle
  2
Shades of Gray
 70
    23
177
     2
291
     0
 71
     2
176
     1
 72
     2
176
     1
 73
     3
176
     1
 90
        0
176
     1
 40
0.6
176
     1
 41
30.0
176
     1
 63
     7
421
 16777215
176
     1
 74
     2
176
     1
 91
        2
176
     1
 64
     7
176
     1
 65
     7
176
     1
 75
     1
176
     1
175
     1
176
     1
 42
40.0
176
     1
 92
        8
176
     1
 66
     7
176
     1
 43
1.0
176
     1
 76
     1
176
     1
 77
     6
176
     1
 78
     2
176
     1
 67
     7
176
     1
 79
     3
176
     1
170
     0
176
     1
171
     0
176
     1
290
     0
176
     1
 93
        1
176
     1
 44
0.0
176
     1
173
     0
176
     1
1001
ACAD
1000
AcDbSavedByObjectVersion
1070
     0
  0
VISUALSTYLE
  5
3B
102
{ACAD_XDICTIONARY
360
39F
102
}
102
{ACAD_REACTORS
330
29
102
}
330
29
100
AcDbVisualStyle
  2
Sketchy
 70
    24
177
     2
291
     0
 71
     1
176
     1
 72
     2
176
     1
 73
     2
176
     1
 90
        0
176
     1
 40
0.6
176
     1
 41
30.0
176
     1
 63
     7
421
 16777215
176
     1
 74
     2
176
     1
 91
        2
176
     1
 64
     7
176
     1
 65
     7
176
     1
 75
     1
176
     1
175
     1
176
     1
 42
40.0
176
     1
 92
       11
176
     1
 66
     7
176
     1
 43
1.0
176
     1
 76
     1
176
     1
 77
     6
176
     1
 78
     2
176
     1
 67
     7
176
     1
 79
     6
176
     1
170
     0
176
     1
171
     0
176
     1
290
     0
176
     1
 93
        1
176
     1
 44
0.0
176
     1
173
     0
176
     1
1001
ACAD
1000
AcDbSavedByObjectVersion
1070
     0
  0
VISUALSTYLE
  5
36
102
{ACAD_XDICTIONARY
360
395
102
}
102
{ACAD_REACTORS
330
29
102
}
330
29
100
AcDbVisualStyle
  2
Thicken
 70
    13
177
     2
291
     1
 71
     2
176
     1
 72
     2
176
     1
 73
     0
176
     1
 90
        0
176
     1
 40
0.6
176
     1
 41
30.0
176
     1
 63
     7
421
 16777215
176
     1
 74
     1
176
     1
 91
        4
176
     1
 64
     7
176
     1
 65
   257
176
     1
 75
     1
176
     1
175
     1
176
     1
 42
1.0
176
     1
 92
       12
176
     1
 66
     7
176
     1
 43
1.0
176
     1
 76
     1
176
     1
 77
     6
176
     1
 78
     2
176
     1
 67
     7
176
     1
 79
     5
176
     1
170
     0
176
     1
171
     0
176
     1
290
     0
176
     1
 93
        1
176
     1
 44
0.0
176
     1
173
     0
176
     1
1001
ACAD
1000
AcDbSavedByObjectVersion
1070
     0
  0
VISUALSTYLE
  5
30
102
{ACAD_XDICTIONARY
360
389
102
}
102
{ACAD_REACTORS
330
29
102
}
330
29
100
AcDbVisualStyle
  2
Wireframe
 70
     5
177
     2
291
     0
 71
     0
176
     1
 72
     2
176
     1
 73
     0
176
     1
 90
        0
176
     1
 40
0.6
176
     1
 41
30.0
176
     1
 63
     7
421
 16777215
176
     1
 74
     1
176
     1
 91
        4
176
     1
 64
     7
176
     1
 65
   257
176
     1
 75
     1
176
     1
175
     1
176
     1
 42
1.0
176
     1
 92
        0
176
     1
 66
   257
176
     1
 43
1.0
176
     1
 76
     1
176
     1
 77
     6
176
     1
 78
     2
176
     1
 67
     7
176
     1
 79
     3
176
     1
170
     0
176
     1
171
     0
176
     1
290
     0
176
     1
 93
        1
176
     1
 44
0.0
176
     1
173
     0
176
     1
1001
ACAD
1000
AcDbSavedByObjectVersion
1070
     0
  0
VISUALSTYLE
  5
3C
102
{ACAD_XDICTIONARY
360
3A1
102
}
102
{ACAD_REACTORS
330
29
102
}
330
29
100
AcDbVisualStyle
  2
X-Ray
 70
    25
177
     2
291
     0
 71
     2
176
     1
 72
     2
176
     1
 73
     1
176
     1
 90
        1
176
     1
 40
0.5
176
     1
 41
30.0
176
     1
 63
     7
421
 16777215
176
     1
 74
     1
176
     1
 91
        0
176
     1
 64
     7
176
     1
 65
   257
176
     1
 75
     1
176
     1
175
     1
176
     1
 42
1.0
176
     1
 92
        8
176
     1
 66
     7
176
     1
 43
1.0
176
     1
 76
     1
176
     1
 77
     6
176
     1
 78
     2
176
     1
 67
     7
176
     1
 79
     3
176
     1
170
     0
176
     1
171
     0
176
     1
290
     0
176
     1
 93
       13
176
     1
 44
0.0
176
     1
173
     0
176
     1
1001
ACAD
1000
AcDbSavedByObjectVersion
1070
     0
  0
DICTIONARYVAR
  5
348
102
{ACAD_REACTORS
330
343
102
}
330
343
100
DictionaryVariables
280
     0
  1
1:1
  0
DICTIONARYVAR
  5
345
102
{ACAD_REACTORS
330
343
102
}
330
343
100
DictionaryVariables
280
     0
  1
STANDARD
  0
DICTIONARYVAR
  5
344
102
{ACAD_REACTORS
330
343
102
}
330
343
100
DictionaryVariables
280
     0
  1
STANDARD
  0
DICTIONARYVAR
  5
346
102
{ACAD_REACTORS
330
343
102
}
330
343
100
DictionaryVariables
280
     0
  1
Imperial24
  0
DICTIONARYVAR
  5
347
102
{ACAD_REACTORS
330
343
102
}
330
343
100
DictionaryVariables
280
     0
  1
Imperial24
  0
DICTIONARY
  5
3B1
330
6B
100
AcDbDictionary
280
     1
281
     1
  3
ACAD_XREC_ROUNDTRIP
360
3B2
  0
DICTIONARY
  5
1A
330
19
100
AcDbDictionary
280
     1
281
     1
  3
BUMPTILE
360
1C
  3
DIFFUSETILE
360
1B
  3
OPACITYTILE
360
1F
  3
REFLECTIONTILE
360
1E
  3
REFRACTIONTILE
360
20
  3
SPECULARTILE
360
1D
  0
DICTIONARY
  5
12
330
11
100
AcDbDictionary
280
     1
281
     1
  3
BUMPTILE
360
14
  3
DIFFUSETILE
360
13
  3
FBXASSET
360
AC
  3
OPACITYTILE
360
17
  3
REFLECTIONTILE
360
16
  3
REFRACTIONTILE
360
18
  3
SPECULARTILE
360
15
  0
DICTIONARY
  5
22
330
21
100
AcDbDictionary
280
     1
281
     1
  3
BUMPTILE
360
24
  3
DIFFUSETILE
360
23
  3
OPACITYTILE
360
27
  3
REFLECTIONTILE
360
26
  3
REFRACTIONTILE
360
28
  3
SPECULARTILE
360
25
  0
DICTIONARY
  5
3AD
330
67
100
AcDbDictionary
280
     1
281
     1
  3
ACAD_XREC_ROUNDTRIP
360
3AE
  0
DICTIONARY
  5
3AF
330
69
100
AcDbDictionary
280
     1
281
     1
  3
ACAD_XREC_ROUNDTRIP
360
3B0
  0
DICTIONARY
  5
349
330
65
100
AcDbDictionary
280
     1
281
     1
  3
ACAD_ROUNDTRIP_2008_TABLESTYLE_CELLSTYLEMAP
360
34A
  0
DICTIONARY
  5
387
330
2F
100
AcDbDictionary
280
     1
281
     1
  3
ACAD_XREC_ROUNDTRIP
360
388
  0
DICTIONARY
  5
385
330
2E
100
AcDbDictionary
280
     1
281
     1
  3
ACAD_XREC_ROUNDTRIP
360
386
  0
DICTIONARY
  5
393
330
35
100
AcDbDictionary
280
     1
281
     1
  3
ACAD_XREC_ROUNDTRIP
360
394
  0
DICTIONARY
  5
39B
330
39
100
AcDbDictionary
280
     1
281
     1
  3
ACAD_XREC_ROUNDTRIP
360
39C
  0
DICTIONARY
  5
38D
330
32
100
AcDbDictionary
280
     1
281
     1
  3
ACAD_XREC_ROUNDTRIP
360
38E
  0
DICTIONARY
  5
391
330
34
100
AcDbDictionary
280
     1
281
     1
  3
ACAD_XREC_ROUNDTRIP
360
392
  0
DICTIONARY
  5
3AB
330
41
100
AcDbDictionary
280
     1
281
     1
  3
ACAD_XREC_ROUNDTRIP
360
3AC
  0
DICTIONARY
  5
399
330
38
100
AcDbDictionary
280
     1
281
     1
  3
ACAD_XREC_ROUNDTRIP
360
39A
  0
DICTIONARY
  5
37D
330
2A
100
AcDbDictionary
280
     1
281
     1
  3
ACAD_XREC_ROUNDTRIP
360
37E
  0
DICTIONARY
  5
37F
330
2B
100
AcDbDictionary
280
     1
281
     1
  3
ACAD_XREC_ROUNDTRIP
360
380
  0
DICTIONARY
  5
381
330
2C
100
AcDbDictionary
280
     1
281
     1
  3
ACAD_XREC_ROUNDTRIP
360
382
  0
DICTIONARY
  5
383
330
2D
100
AcDbDictionary
280
     1
281
     1
  3
ACAD_XREC_ROUNDTRIP
360
384
  0
DICTIONARY
  5
38B
330
31
100
AcDbDictionary
280
     1
281
     1
  3
ACAD_XREC_ROUNDTRIP
360
38C
  0
DICTIONARY
  5
3A7
330
3F
100
AcDbDictionary
280
     1
281
     1
  3
ACAD_XREC_ROUNDTRIP
360
3A8
  0
DICTIONARY
  5
397
330
37
100
AcDbDictionary
280
     1
281
     1
  3
ACAD_XREC_ROUNDTRIP
360
398
  0
DICTIONARY
  5
3A9
330
40
100
AcDbDictionary
280
     1
281
     1
  3
ACAD_XREC_ROUNDTRIP
360
3AA
  0
DICTIONARY
  5
38F
330
33
100
AcDbDictionary
280
     1
281
     1
  3
ACAD_XREC_ROUNDTRIP
360
390
  0
DICTIONARY
  5
3A5
330
3E
100
AcDbDictionary
280
     1
281
     1
  3
ACAD_XREC_ROUNDTRIP
360
3A6
  0
DICTIONARY
  5
3A3
330
3D
100
AcDbDictionary
280
     1
281
     1
  3
ACAD_XREC_ROUNDTRIP
360
3A4
  0
DICTIONARY
  5
39D
330
3A
100
AcDbDictionary
280
     1
281
     1
  3
ACAD_XREC_ROUNDTRIP
360
39E
  0
DICTIONARY
  5
39F
330
3B
100
AcDbDictionary
280
     1
281
     1
  3
ACAD_XREC_ROUNDTRIP
360
3A0
  0
DICTIONARY
  5
395
330
36
100
AcDbDictionary
280
     1
281
     1
  3
ACAD_XREC_ROUNDTRIP
360
396
  0
DICTIONARY
  5
389
330
30
100
AcDbDictionary
280
     1
281
     1
  3
ACAD_XREC_ROUNDTRIP
360
38A
  0
DICTIONARY
  5
3A1
330
3C
100
AcDbDictionary
280
     1
281
     1
  3
ACAD_XREC_ROUNDTRIP
360
3A2
  0
XRECORD
  5
3B2
102
{ACAD_REACTORS
330
3B1
102
}
330
3B1
100
AcDbXrecord
280
     1
102
DISPLAYNAME
  1
Imperial24
102
FLAGS
 90
        0
  0
XRECORD
  5
1C
102
{ACAD_REACTORS
330
1A
102
}
330
1A
100
AcDbXrecord
280
     1
270
     1
271
     1
  0
XRECORD
  5
1B
102
{ACAD_REACTORS
330
1A
102
}
330
1A
100
AcDbXrecord
280
     1
270
     1
271
     1
  0
XRECORD
  5
1F
102
{ACAD_REACTORS
330
1A
102
}
330
1A
100
AcDbXrecord
280
     1
270
     1
271
     1
  0
XRECORD
  5
1E
102
{ACAD_REACTORS
330
1A
102
}
330
1A
100
AcDbXrecord
280
     1
270
     1
271
     1
  0
XRECORD
  5
20
102
{ACAD_REACTORS
330
1A
102
}
330
1A
100
AcDbXrecord
280
     1
270
     1
271
     1
  0
XRECORD
  5
1D
102
{ACAD_REACTORS
330
1A
102
}
330
1A
100
AcDbXrecord
280
     1
270
     1
271
     1
  0
XRECORD
  5
14
102
{ACAD_REACTORS
330
12
102
}
330
12
100
AcDbXrecord
280
     1
270
     1
271
     1
  0
XRECORD
  5
13
102
{ACAD_REACTORS
330
12
102
}
330
12
100
AcDbXrecord
280
     1
270
     1
271
     1
  0
XRECORD
  5
AC
102
{ACAD_REACTORS
330
12
102
}
330
12
100
AcDbXrecord
280
     1
 70
     1
 90
1959938040
 71
     1
  1
CA979027-7F0B-4882-8A60-3D692536C8D4
311
504B03041400060808006B94ED4AF6A01E39FA000000A80100004F00000043353344463842322D314546382D343339412D413642332D4332344244424634374134302F4173736574446174612F446566696E6974696F6E4974657261746F7250726F706572746965732E62696EBD50B14EC4300C0D2C888181819D81D5244D
311
D326454228692E2CB0C007A050C25DA5B6776A5AA1DB6EE4AFC1D1955FC0D273ACE7D8EFC9DF84909F25B024278803E60B7C1FC310C6B6796D36A1F7E40C19B37FF2FB30DE60C9AC31DC650CAC561A84940A2AA34B58D98C65463A55ABE214FFA5311B3EFDDC4D69E7731B9BD0757E08DB395E22B1885CF77E4231DFDDA6A1
311
7392F20141C85F23A64DEBA3A5E4F20BE13F76770F3EC630DDD3BAC8AD538643B6720A445E69D0A5C9A1E6C258E384D482D19710B7F3D884486B5DC98A7109D2310342290E4A970C725B56BCC8CB5A5941A74D3ACD152ACDFDFBE0DB8E32BA5878DB0D6BE4FF2B7E01504B03041400060808006B94ED4ACE140E8836010000
311
300200004500000043353344463842322D314546382D343339412D413642332D4332344244424634374134302F4173736574446174612F496E7374616E636550726F706572746965732E62696E6D513B4EC340105D3E120DA01C21B25284628D77D7DF2889BF09070815A259D92B25023B92ED88D6255DCE43CB1938004770
311
430D63C7D82067A4F9BD796F56DA7945087D3706253A012F205E41BE13894837E12A5C8B988F00F05DCBB0146A6063A97858354D8A4D5757300B748B6A4CF7CD40BDE884958411355850CDC29AAA32ACEA94606FE90598184CF175DFB7DC8505B4FA5D74F3B87FFF1A7FD8904F012BC07FFB3A430F56DA07364203070D6AA8
311
0E23A7AB8F56203C585B1CA501D812CA33E80AF046FAD9E44B80FA56FD63376997F488D19BD3C3FE017D69B57AFC8753DAE7D055D7BA065FBDF03C5C632FE54924A26A220DC3679E653329ABAF27F35DBE8D44F624473CE7329153916D776928A4F934DFC46298F058CCA430153C179134A70A31B06260C2EE893961DA84B2
311
87E92D307F00504B03041400060808006B94ED4A88E57597CD3F0000904100006B00000043353344463842322D314546382D343339412D413642332D4332344244424634374134302F5265736F75726365732F43413937393032372D374630422D343838322D384136302D3344363932353336433844342F7468756D626E61
311
696C2F302F67656E657269635F706E67355B773CD4FF1FBF73E71C0E67EF7576C9DEF3EC995D46C6A1EC5046649CBDF79E192942562825CE965D8A868C2842C8DE9FDFD1F7E7F138F7078FCF6B3F5FCFD7EBFDFEC41B196891913091804020321D6D7513FC77D8C5070EC3FFEE51B21F068154CC75D455CC028A3EA6899280
311
3810109FDDE5D5CEC5521B28A1B422BF80741695D5B529DA1C2D058AD2388BDA9F476F7C2CADC939304173DBF48A452BF8A700C0C70C3D121C1AA15A5270C22E2B9E28763651F7DA0D12CE11077B2ECD0D560B5E3DE2368B1E65C5E1C87384A4CC5F2D9FB8BE39E9B77C753783A37998F5CEF1B4FEE553463245C971227088
311
0DF339E0B882A6BA713D865F6F384C842D440934EF264F4A304F8DE4EEFA1E2BF5E2D91F5ADD9613D6E31DDB33ED31DB1D7916CAF091286EA3D31B9CFECB78BB0060245B943C4C040119FF780A74DD308BA9D028678674EB5504ECF284EE814DAED07440BAF649BE4B55DA2890F4D73E2D489A59EE54FDB0A85B59F2F52C48
311
58A02705C4815A792B0C4A996A2023ECB195073E115E3E3647F64243A8338F2000BCB58DA5692C7E7C3D413F963FEDF3CF00FBB0F831A9D51360FECA43819F527B89FA260EB63C5DA676830AA3626A3693B23F1A17A0DFFCE3EE164E31B5365EDF0C89EF64D8E38AB0BA9A1117D7C3A0EC44F44F4023095E80BA610DE336D0
311
F99593A88BFC5306E72DF98F7FD132ED95878DF2964EA7E43071359FD83B2BDF9C6B5BDF768F0F3C0FC351199526F53D9460A34511F75D1B63E488178569472C91A94497807A3FD4A390C6558F26D416365C3656DE6E769DA9D8FC73774E1709812842DD8EF96AED1960F79D21B395CDDFE6F92CB4EB962A4668C76990E2EF
311
29798C8941D67DA50F4A5F947872460F1F6FDB794E8A29FD7AC0C0D6E0714339CE258FB17AE8535221E3464A10F29A0BE5EEECEFC5675926A89F49EB14E5711894F6586DB5754EB4D5DA9C6437EBA57DB97A24F8B8A8DB295FFD73266CF57E82694DF5166DDF93573AFE9C9C5EB05F8FEF8E89E0A8917B0B3724DB7BEBB532
311
52581EFC3E38166BA131A3A5B42FE2AD00A769BBFA4458D2DE7822F8C4F63D0B8E21B285AE13325F3410A435C648C9D91FDEB109E73CEDA7BC796961AF79175E1A3CE4C5E8B0D009B0C9E29EFD98BC8E97554E3D8D838424E270F7685226E5AC268E021EDE3522D583E8F20C0BDE2959EF5BBFEEDAB32FE9A3ED0E39F211A8
311
6AA9DEBFC68182EDED132AB8BB794442D2D7EA9F4D8BFF52BC4D55BB165124EE90A42D101E67BBBB292FFB4F66DE5BF2300E44546757DA7CEF8932BFC9F92A0707953491A55C5A5ACEDABD9FA1AEA01BAC3DC5A24E22E7C47213493996EFBC369D086ED9397C9BA6C7F9855C7BD5E15BFC8C53DB3D2A4C5901A57ACD2FBDF4
311
D1676E95338B2C2BCE65FDA4C64F5FEFDC7D9CA5AA1FCF11E193F2FDABF0F4916BF13FB916A224380E6462A9815F2300DC49CC4DF8D055CEF76462F4B7A7ACA7365C2707891370BC1D0AA6203C44CCAB47084FEC057F27FFCD57F89B8B9852459798A675C66BD7CE572CAF71FF7E6D7ECF7BF62CAB7B3F1107DCD04DC55A3F
311
9961700286141C94A4F771FEB2BCDA2DDEE0CB0BAE402FF1DB0100F8E475DFFFC074DDB4498AB7D186A7654DDB1CB680D703D47CEB4E72F8CB13D86A4AA68116E26387B93FD6738779B34FEDB8E517EDF2BAF28D9BE93A1D3A164320E07D42E514725C29515FF361754213EDE06B079A2E99EB1CA82A02019EADEEB87B9AF0
311
05BD04BBCECB14AACD6B24EFBE482194A97DD32400685FF1FEF1544D1B14EFB1E7F08E6D2CD2AF52DE757F35F5E62332EE88EA26417AD5C3E0E319D68F25414E6D672BD4522B278C57D18F0113921C71D96527E091F00CEB15AE23D24667369BD3CEFA10C7549D930890BA4366F4EBC55F01F746109F98ABCDD5A3EE06619C
311
6AD78AB33E48E4C9BD21BF7478B385EC05C4F8987E2C1BFA0A60EBEDAA0AE0B015C2720ECE180FB6F2DEFBEB822D96338C9B63822183BBF52FB664A7AE57003AABCE512BF77E7E31BDA2E739AC4C131657DDFE5225E900FB56CC01CDE808FA4A9C9DA16AC679656BB64796283D89812B8F91136AE18EE5EBBAF47A73BE3C15
311
3EB5D4CD491B4BFB4FE690A4CF9ABA08C0D8AA64220C438C96EA6CA80B58FE5761E697B3A292EB9FBDA502FA863E49FE694ADDFFF9D62C520BDD1A22014147A0903A05B9B729F54272EF83931FEEC057BFF8C8055C279EAC5C0011804828734024F6CFA319C9CC6867C727184465CD9BB7ED386AFFD96B294A85E3802FAE47
311
244602D8273615952B98C4F23F7EAE4463D9D638EEE374A20959E0FE519C4CFB0FBFE5DD80C2AA3F9DB961D1BDE57E67C9BB47B77FDD74EE3094F5DBBE3EBC1FBDB7393F5116263009E2EFE1AF9A221B2AE234C902BF70E9F280ED23E73908361565964333A3F01D0B006AF32FB21AA1316744B489D5A198E85299241735BE
311
559675130955C902A8ED761FC0DBE337A9F91919AF5CE32AF902ADF9AB2615E00E8A94586BA1A90839B61832FF1BFB76D2EFADE6DB1BA04CCAD3DA649E7E2A0219F592E22F2AD54847EEA8E42271011E9074F8F3DD9FBA6CDF88FFC9FC7E811AD1CA8F4557CE4AFC7BBEDCF0114A48689F20A584520C74DA8127124B767E2F
311
B91A6B186246727BE63C9445BAE02088D58B8EFDC0F1072407CD9B89A13F6303B4A928F593AD489B58E6869325790ADC406036C591729FE14021F94B7796BB11848D463536A092A26F077F94639F7CEEE2A724C66EC885F4A24F8B8A0AC321F8FD149BA529460FAA34E4663C02D41FDF80BCA222D42F0ABFF8490F4FA74C67
311
3807C2051D8E467B47B616072860069A9A303ABA9B319D58404461401B0A0F9BE5E1E151C14BC33B32ABE03DDE91708DFAEB15E7C0D593C86BB7D7EC17BE56E57975F077BFD5525F3A1A361D584A75E08CF29FC7B44B2B3085014F3A5A14517377C3F6B8F37E59514C3B12F8AACDEDDA4DFC49BE5710101534CD6FB6DE15B5
311
0F11A09472AABA727F0C49D9CB906B158030065F48EB3625E010CEC1D511D0053474B11E6A4F01C0D6EF1BED3A944FDEC70E0DDCDC756C86545910E0DAE3BE3AA9A404574C2995CD5CAF9549226BC94B4F4F0F5F9086F418F6B32346464610D8BC7391D3C3A3CCF04CFC1FB2A3A3170E369511868F14EEA4E5E438CC73DB1F
311
3248AA94B6B2FF33B222FF3D1E7BF146CAD229770158063BCE4F5391964DF62F7E52A7BE0EEA829C9E13C4C147D6F93FE59E111DAB5E4594D6F3CD1AD375EE039930EFE5AF2BB2D41C83C7DABD8C659BAFBE8FAB392CA634F3D15C1D945DB4588D2B0824A4EC928AAC565557CA2F0DAA588CA5BE30B3A8004F7BF005E96CBF
311
891D7F18112A3619FDF530DC8AA64954258E1811789B5189B49B4EB53F5F89F7D37523894F3EB57B373763C91E502F52CC99EB7BDDF933FC324C4FFC2561DFFA7339FAFDD0A4BFBE6D3A8FF9ED1FC49898139864602458968913181918F719CCF5A68B2EE9C1FF050E34E63107003B8120FA982C21B30A874E4F5E4B38D5A8
311
290C4B8D9BE48A0BE31EA995BDC37AC6DE90BA17D259DEF53605D55922FEB1855D915B659FBEB350EE0DFB2F9F766E1C84CC8964B75D08667445EAB966015F63A18A9E0A325C1B3DC628C0D3CB60F767FA93CC65F25458BD23C3B312716E5F40E5858AC06EBA9AB14F95DB99147B832069201541D09A0D856E12C629CF3268
311
3760EE855537D1901988D5EBC156676C7DD51D7207CF3267AF1D76C2AD867315E44618015313A98B19941C696FED3461CAA9B5415F918556D7802EDACEFD6B2E45853A9735DFC9DBF7E440F9319F8B6805A973BCCDC76C069A9144E51F187EDCC12FC31B5DEAAF0A76137199B106EC84ADA6B6EE697D4E6A96E007417F4E88
311
0E8B1E89B4BCE9D81EF611E2ED8F0C1A6C25F620FAFAAB656A7C42D464880E8AFAB0E0FC8EA38CA9A8AEEAEE3E4648BA4680270A89743CDD3E6C6CBF34B7B640EFA285ABC7EA0A1E28F3CC963D114A80123EE66D0AF7D5380EB41909B605AB4765B709B808590458157E69BA1378FEC4B48CAF6A730E3BE3C5EF2DD1A5EAF9
311
4B1DDE50CEB55DDFD7EE9A16747FA4B223359FB1FCC69E1194892BABB93A1D5C4E807AC0EA2E30180811E77A2291F6E7F7FAA5E0F60215BC6024E48DE436C511F0628B8CA189982D4D83CCA17D305A7E923C37941CFDFDCD93ACAF735EF5F0E61BBD3E6C41A59B242790D3A3BAC7064DCD89AA2E37214EC839820949D5CAA3
311
1E240D2948E48F690298974A96BA9A8432BC90F5071D6537C9666EA4564796B7AFFFA548077BEEA75F63083435074BA182F3699557397F71548383FDA8CA34D99B981E72835ECDA5DDDC151315173D05A21F651AAF8524E88209E2E7A737ED1045800CE3390050BCFB8BE588DF111617874C62575039CA588EEFDEFEFE319B
311
739DE2EDC147092A262611E159650E787917885EF08F1F51B8F2D8A71D60B58B190FEF9541A1BE94BC19FEA50784DA1419FE4B0FB51B8D36B5FF8E1286FD8AF42B91E59A5F1CC4D60174E764045FD8C57B18209B217F89A62252BD20BE0E63E12B8E8F029FE19E0E8D0870F58721A557082250D5424F7909369376E41666C0
311
EE77CD87CB283F661D5FB6D0DA023CB67320A20DC7BE661E9E1BFE5463085C557DA1FF9BE835733766C3D139F2CF9E2208873AD0EB4814DE9E6BF2CAF81614D4D43906ED1C05A3265CABBFE192770FC2F64F940CB6B17B5F166F133C9AEEAD2641807C3E69515171DD74C4A85311513D6EC9530B3B601B6BA3EBFF3B5C3D2F
311
7D69765141E345F75433953D013ADDF8F6AA7DC3F4A7563FE5C7D367937E2900D7EAD0F9FC9A4A1A9B5BDF1FEF08532660C01C5D6DE22199AA774383E306DAB87E301ABB7D213887F9869D4942D0D71E94B27EDF216A318BD488D45DF84529EF575AF3C3938C0AAA0215B01994153E2054A0B894DA5C784980633AAD485769
311
57CF4AEAEAFADC7C587368551C73DBE1E57C58AC713303A8BFC258BD04B51724459FF9E24C03A81E0E0679CEB9B348C0DC998FEB9C6D6EFA77D247CC8F92D3848599ED89A23218D0636465AD1CEEB7DC140D7426F83491C4E8E8281C2FB35240918FFECE880CA2A42D70E8B20B34DF5221C7DB0CF90ECCB9C745B37A47E9B7
311
16FF7A97B7A252C1F3814DC7B1E1A7F72B8751D524EF7CAE45B0C73B3BE7D08ED39781B380DDFC9AA4A4749C9493DB5BAD07A6EA6C092FBD0E85DB004DF06B8C9D3089C5320187E4CE1846158C7EA7DDAE8AD9AFFF21AA3A1026BB06A259845E8232DEE62811A4DA9CEAB3A4887320B76E2AE5615EAB7BDF738CBDD01F1E64
311
064BC13D9EC53576751CA8CACD58B3CEB0E6CA585BD089B2A59B9FC101403387AADBDBE70586B93D64BF3AD4453EF9C3B6A93817E8346991798601344F79A83C51F3D50F7BF2683A3605F51A72449489E0EE6169C749C60B1035651103AEE24D24E51A759C840DD3FC6504DA6FE107510E447B43461C79D22970B75DE5E1BD
311
3007D1AFC619A4A4A69B5626AF5E9B8374E20677F77E2F8E73DF868E8BEC7EBA7B6A75EEF7205E1AB9486CB642741D6E03FF13FCCEDB1C4AC129886268B01CDF4B124AF797CF784F3C6DEC97A17D4B558070A0F1C04DA4FF9BDBF34159AEFE958479824B3F58EBD1E19088A2AFDE501B6F2052368A3FD0E650A179EFAB1561
311
E1D27527077136E652676C3670F42DCB3352F48F6BC86D2C3B0051727E41A0A4DC6CE2BE9D47F5CAA2935A3C0539AF080665997194ABECD723B08129CC5B6B21D2E7D54CD4D12610E7E9FB8306771A89576C7A982002775ED44F3F744CF21EEBB27A631671D921938AAEE3EB0D19CD1E083727F607823E817BF599DCED5394
311
E37EEBC2E88782E638920CA641EF74D4CDFCDEF06F4278ECB18E31E7E9876F2D783C8BF429C75395F57E98C2B495A3DA077EB3AC3C158608B6B57FE3EA48484D9A480096FCEE0DE880950E7E5A5714131C5C41AAA29FD19AE81AC145FA1B9E85C7169A5AB837B213493DF7E9AA4B5FBF9CDEB36EBD21EF1181B7CF7366AB2A
311
951D01E37AF4EB835D1BE8C117CFBE7625D2EBCDB0B20C5A4B45CED0BCDE3EE8DA9DA78C2E21DEAAFFD1197E463C33CC6A80FB785669B856EFF7A8CCCA2841B5A5369173320B1170C368B2748D81062EA0296E5E2D95D7667A4A46D98A6FF475C76AAB0A8C8D45E226FAFC9FE0133EA9F60111F99CA81ACE03A1D14C89E8B0
311
D69079C91464FA1D99E651D0EAF606F345C42A8A1AA9BA391031582B96D5B4176A77AADB01F12FD298A75DEEBB2C82F0B8650E880722F8DDD90C56A7A058E5FDEF1AC93545BA27367C76F5D8F9690CB6F8DAE141EDD7971F0FB548A2AE435F224D6E5954CA155512F7332029D5A1230854B79F258EC5FFDB09F5F6343A8EB1
311
93229B7F7E79B3E48F8E183860B38C8269D1B53738FF1E0BACF6AADA6D4869E9DE708E79B5DADCC09B1BC76F649731CFAF59A83FD8BAE4C749D66FA87A3810D4D62FFE826FA400C0F325D2BC0F3CA35F5847B82A2ACC7961745C823E4D863D54460AF792CE6F79B5C7A33B25C3AEA6CDE15A919B6367D781E9D44F61BF8286
311
72594A3E1D9EDD6DF179A81F27EAC05B936575D73E05C209DDD2115CFB705DF9BBF3C911589B3640735E9E618FC9C36A7326C82B2205E244C55D56FDB9D5DC93CE958D4BF8174D2B3DA54CB3C09F2C2A6DFF73D23B2197355761AD421EC581284A7EF8DE2CE3497C0C804D49B41DFD6A7360844E5BEFFB495CFCDB97A45959
311
11CDBA623274CE852B5E278AF0BEB1770E9D37CD977B2766A7DED0E94B840E1E95E8C77DE5CB6354AF7871427C28ADBEEF7BA0A28E19DE9ACD75F379FE373EAE6DDDAE3834692F9C2B03B4FCA8FCA9ABE8EEEBEBB725B88A7C90941E850682CA04061A7DF0CE82ED49BFAFFD42C309818FAE14755CAAE78B0F73243ECCCAD7
311
DF58FCB9CDFAE7A4D3E6671A613639130D056C8383C8F4FCF4808C331E544DD26E4755D09EA05253B3049A1E32587CC25D72E073E2CD96D04A71BBCB0038FEC3F53D254199C3CDC67CD66640269431860225392B2CB3ECD0B4498AAE78BA1994246AE1EE78F2EDFB79F6C6CB6B5E279C4D373FBC21CB2698C9ACBBEB6A4BB6
311
B39E16AB0E421CCBFC7654D81ED86022F9BB522146F9F4772E2D0E4FA70120C95A85A417BF5078B232F4754363EB1750B2AC2148EB46B1EA72AD9B4D23ADCBC589D70106C3EC2ABEEED84DFE28E718C6C83502C28E9FDD3B09DA0A6F6F7B72B706A31C9E2A331EE70DA56A083D2177BFD63C55B11D8D949FAFCF90B23A1E24
311
B9B5018B9A17E99F2890EC302F330FE7936E2C23F0D237EC8916F5166AB84B62A21BB0B950146962D754F92CC2C8877BED8FC7B7B25726DD19545392570B3A2C66B58F027BEF412E552D12A588C4A3CC5C3193FCB3485EFFF700D0B9EEC077754A33DC1FB9E25AF814628F91DDFECB667D3F7690803F38D13F8AE39353523B
311
B08FC6760144AFA2CE28236F65EDBB3D5F59A57D612B99E3D7E5F8A851666BF9B5A6658EFC96EEB37A378ABB0EB3FDDF1303AF32C41BD1C8560745D7BD81066B0D6313359CF488563D3BA3F8E2185D1FAA3EBA1397C9D0E3DD232180A4DCADB6AF25DB3AC3CC26589C8239E66E81547BC7E2F328F9884764CA37EB5DBE390D
311
FC03A5246B456A7C3684C4377D0EEF9A350680FA9A077E8B2957B489E09AB1AD41316944C2254B5984830F691C93CAA767EECF976FA5647538830B5E63236A6F0365C1E0F3E327F24FE35EDDBD7360B0F7374837409F7A6311BECC12B7026D4FA1AE204FA3F5FE904B1F420C7A9044AE58E403E7C4848E7DA25DC9EDAC79DD
311
756FAA26B9EA83ACE8A214A2612A22AFA19DAE7DBAC5F8CDE1292A485F98DAC731A29FE01A3966E96BCB9FB5A4C8830E1B9AF0C54B87FBE221A097036E5D28D1F869F810C06A9BB0AC0612F69AEBAF893C6E7AD59460208BAB3A6B09CA4F6BDDAB8CF0D1F84B72487498395A70DCD754796E271099A567A55CF242BBED6469
311
6378BB6CF25EF0FCDB589F3A82F1116D010A9AB9FA4358809EE0C973A2B4229BAA876A70B03AB49CBA7FBE71DB1832FFD32F9BF2C8E98075CACAFB36921235D0F552B6A67E94E094097A5D7DF681B40623DA535ADA7A9AD8E9A62407D7C9A5AE51D62A17A83A23728DE86BB56115804D3F2675F2C6B87541A0FC497BF0CA86
311
420F558C9859EBE9FAD62747E323E3AADC03FDCDDFE7407B09DA90B44E3185723C5381EAEF589765E2F7A099BA46695BAD60CEF3491B8A171F5F56444F7CE9455312C3498C74173AEA0214EC029833B34B650CBB5A5508D5091665309642791708ECF27CF11DB3D797D6CFE474453BD4BFADB768094B2147814D81C7CBAF82
311
28DCAF5564B5891F5EF6A860EB2E323CB82AB868D8EA048880D63B0DE5341F1B3D53297B928A11E15F25E5148990F710747C3509ED14909C552EBE3973246FCE55D00564D8310BC3EBC5085D08D806799B77D6C57FDF5E55837F9E934F09C03C729271B64F12D0A9F9E938107CAF7BF1EC8CF1BB9B42363D33070F4CACB425
311
E605DDB0A34A12BB936DE286B9887A4E2E558F0886498BFF49C311D96C277CF6A9FC0D75AD0ECC5226D7E0E3572012E56D7FDE4410CEC7A6D0F997F225A2055B8B92E3956E875AE4993CB3D4C9063AF98FD45E1BAB165640A43439A2C9181A7C355B297C0A0CCFFAE19B6FA3C2BA238A885FBC98B8F6DAF4B94B97304878DF
311
4D8BFF6A4AEDF79E90ED4E68F00CD7299F4E0D83E35601AF0CBEF18C1E870E74758FA91F5131075004DB3CFCF09AE1DABC11957FD9808C92E8A678CE9DBE40DDA0E0D1D505AAFBCBA208232BFB6FB3704E8985E61ADE53DE74152F5C7DE74B1DEDCD37DC3E8FB30D7EBA8B9EFFC3606BF90B8D438279CB7709FC7C00D327F4
311
1817EEA71CD9E49FE9C8C9A81C70915D9F0F15958EC5AA4C3BBFAF46986B90F188BDB24B89DE3C6F29EC3E6F66D84856EE96A35E657CA41B41EFD8DBFA16AD6E91439EA92B40B21C053249F51AE50EB0B24C770FFAF40DF12C8436366819C48E36547D4E7B72FE2BBF10828583057814A668BDF183F6B2E58DFB151103E563
311
03E63D00F39C27C4661605DB644D19175D02E3F0241E8FC3458D17AAAADB117CE9EEA690D0DB01E634878C04C2C9310B69FCAB831151E3AD293BEF6E46B0ABCECB50F5939B39C613D41E81FAE8D34CAE3C4566B761D37185FE864AC32FCB71AEF39DAA5BAB88609BB980CD2F07A8F941653B529567726E2B2A58D079DD57E1
311
E5E31426CF184A04D7B03B985F276D47406AF276FE32E3328BA866EB1FD39BEF57863A317634AA5FE467409B3873F5069EF0D71AF00AD189D17BA1974ECDB2D623E9E14086386A6AAB5807825C37B015BFE892AFD154920EC437EB945D958E18622E1E0FE2FA06557CE4BB9BBD05A2D40E774DA2B65473791E314B7D6C8868
311
20B2FCFE4AA272B3B8B15E7344A145E8AF919B5454D89D36D413E87211186BF6F645E5EC94DCCE8E1C799022E4EC9BC86D7A0F2AFB1FC4B2CE48F84B3F49ECE65BAD24CADCC07EFF39AB06BE9E6B27A059938EA7208838455383DDBCFCD967DDE4650EF92A14FF933C975DB20BD7FEEBC4487576485963D757D16340D9599F
311
EB362F775F38CA4185A86F74B629C81B133644A3B18FD056E997E0734F9BE26D11C0AAFC669E2AC9FC41D281F8B2E1C35AE27BCE05F3DA295488096688719D974DF1B5D182DB7792288697F8763CFB43562C1CDEE11C4AABD5C22B6E33F6F389CFC3477C5919DC0D533F8A7A1846B7ADB60ABDC26C43D0CFC8910B7C15EE22
311
675BD02702ED39DB77A87A192CA7A543E6205B979B9F5A6B512A3CA799E198B2D5797C0AF8D1D872CA455D4D431A7879D4DD76110B5FF7F4176B54477A9EB5E4A5D11214FDA585F0382751D8E2582BA5D2075053298FEB8F1537304E32CB22C2E2B693DC0A760B1DFCA751BDC445AFDCBB12820ED85F6D5298933C7EF1211E
311
9E057684056CDA3FEF3BB6052355E162DF27C59E965A8DDB7F9437EB72CDDA3A090DE65A5B2F50326247B7EC67B73ACC7047FC9B353D6EE990F772207C6EC52B39DC2F3C0754821DAB559F7C1809C7D0DD5B0499D0442E0A6E391B3D5DB46D11E731E6794EC77523FBDAA242ED67F9FA1FB684255671F63C9BCFE6E7E896D5
311
1001A6113EF2298BA494E0B0980D1FA5B9D60796554C02256B1E0345FB7C6186B6A19D2DCA270416262845FA4F42DB5D9B0A0B6F07FCA2E56C242522E001E0CEB734AF310FC8BFB57E38E03AACE93B3326A2197891E68452B26A6307FDABFEE0223D3C03C3C73D2D5BC054C8311F12004CAE488E5C29287F8156A2CAA4AD0D
311
7BE6B97264E4139F437CE73ADF52E5134C52B819777C18B323A5924E4F67AFD13B1CDC3A61793A79FAF5C0CEB718E441071E797C6DCCB9EFCF7E4A1E9F3DF3C2F9C9E8294E9586868788C972857FB0556D7A26941A7EEB9B580AD78EC40B85DC906B4120A563CA3B87797ED612D3B035962BB75F6515A393F4CB057F564CDF
311
54F2E5A024514E6A1F901DB80C7E70B1FC05E356A7E72FABF4775B3E3FB8F70A2A8E7B6A94542BB304157978CCC999E707A29CC795E67A59CC546A5D47B368954CA7B6E75EC9E1F6FC73CE3B4F71F8CB1A6B15923D61EAAEB14626AAA9D04A26EB9C66CD1BE86CA31A5D8703DE04CD1EBCE4F5CCB62F93909AD11E55799A78
311
1A956ED27D3E738F4538CB04ADABC7DAEF20BC35BA6A90BCC1DC61BA05F20D8832FFB9BC9B15E2DB838A0AFBB7E0C82A562127E0446894F427794C3037186F622BF24DE1B00AA10A23BFA47B2A180D6DA5AD6F7326FEB8C100C2D7142EB2A0B2A9D1008A09BA343D70E054AB69E2A7EDB783CBD92537FAF4A44D1296AC2792
311
729104B3276C276C951D0CF3CF3F1E6B017720A7B8505A5FF9589365979678C36F1BAF759EAF57C60F1FF5FE9DCF5F8E764FF25A2D06CF25117A8FED51884C13B2B750DB0E4F5E3D64124FCF11F0AD8F1CC3B3DA4B38ED22BF1CB2585EE6BFEBBA63FBFD44F9537B9B37BDD6B358720F98A8125AED4349CCFEB0E135F19E20
311
8A04CA7E2B10711185D72E381F448036EF57C9F874E54A971CA37A639E986AC0226DC5AA00D5B14FEA9192234B3DE617814FC221C92F33F1D392F297731B567FD98FD91D989379AF567A65B8ADF177591DB90FBEA99BF4ED11B16E50A0AB1DBF1156D034BBE04D69D08F939D8E92BF525A1DDAFF80ECBC95D8F45D3FDD289F
311
D23F7D8B452F8EBB34EC082DEEE68E18EDDF072060FAD2AB1504DD4879BF67099FC58F6E9DEFBF645D16334A3E9A127C6F1AF6132CF287E433B43A0EE93812B4AA0B194E03EE3FF91EF9C6ED0074A2F6EB18A96A7C9890B1FCDA1F2095E944DB911ED54C60DF16FB74C8CE9BDC7C54C4F14078CF73C2FFF1F1BBCCD7CF64F7
311
1407EA1683DBC410D226627F66E509060D5C0AFD611DE681D509DB8DD12FB1265B03C6F5C55FF4C30BD94187FF692B4F152982502F193098A789526A038AB529A52BC0DC4FB6285CBAC10A8B8DB75DCD9BDABBB221E27D1F8DA9F5EE5926A1C8AA9BA9BC09239C6A7F12914EA3B59EFF7AAEC3FFCCE56F1C5C2980AD072793
311
527565E774F4631DB178CEEC691B1F367BEA0CF2907E1D6B854D527065979DDEF002D8B2ACEA7CE21AE297737EDE1D45B31233B73FEA35BCFDD0B09721FDBAF6432681F2FD10C3E9EFB246FD6E854B344ACC9D8A0EEF876A7314B49B6A499FC650B099D650DBFEC7638ADFD245E2B7839DA5AC5F7D5623FC0ECEEC8653FC9B
311
2BDD1AD4D00A566FBA7186DD3C9CD26512551637498CADB950FEC71ADB9A5524285DE328B8EC7EC75D2345AEC6A27C42AF6D9B92155315C80DBFCABBB7DA0FAE425C4FB896B15C9BFAC4FE67DF5A23D30C93DA4D8F36FB15D100050DA6062E22AEC5F4DAC4F6FEEF97AE05DE63C6D38F9E068A20BC5E3B6BCD75320C509092
311
4E7F93640A7735B1A43451C2D91EE62C6238B797349E59890AF3A520DF4A87095F3ABEC2E61F0593416CE46CDCBE0E00E2523FCCD04408588B5B6C9DB6459C786CE378770B54F51DA3A5E1DF2A3349BEAAC234A6CF8993B598B3B25B4B113E353A4D750FA7534749430F3EBF2512E7EA3FD43C6AB9A1F765A58463B306721A
311
15D224FAFE8C6F5E3432D57EE697DA0DD5A9D4866A8BCCAAA9DFF1F06047851408FEC060471D0E3EB86BFAF46E4B5E60311DC3E3CEA147C75CF971BE74689507154FF2D2E92F15CDB2B9182B11459FD8ACAC5A85F174BC94A7F4EE4C4F5CAFA7C02E37BF0BC77B7DCD0C047BC316F562A01A441AFA7931CC84A28CB9F4AA36
311
7EB515778F29BFE61195FA671F4352E5E46E3A64773F1F76EE5EB36D7BCE9BCEAD837A4D77F8DB8C92AEEF6711920D7C7D0F76B0FD0EB7AB83724CD35BCA7D36DDDF5FBB7FF6F04A91F3E2BB3B8F1A43CD659639507FF6331C5F697BCC782AE57D757A27D97F1AB9E0AEDB43F92F1B2AACDF5FEC8ADBAF9F814E2027003BA2
311
F9E144B1938A7A04050AE5D953B82C45619165C813A10E76DD6906B3C16438064D14CDA713AEC420034613E1AC7241904A49FBF87409AFB1FCB9B72FE7933A87D8FBEDACECE4EDCF6A4FE9FB94D5DEB74FAB7CFEAE17EE965DF980DCCA2D04134994F9A2E94D2265DA4FE6AA7B7AC15FACAC2B5ABBCD7DFF542C5314FDAB2E
311
1B9D8B65220B8E2B638BE008E8DCA22678C820C5053664D15E89F2D735B51A84955E81A443545E9FF787BE0FA700A76D136C27DA179A7C6E8939E01BE756E19CB292798063D8B97F44E8A27BCF3A614FEB8BE974A718E86F7EC99B53CA35FA24F61F2B07266684623A3D4CF073E511F3A10A8FDAFAF0078C577F4DF9D339FE
311
7862E5FA47CF4344209E5BF76D783B1B48E152AD281B15FCB934DCDA49CEC5706B1EE8B460F435324A5CAD154725E21AB8044B75A557A79F6C807B9340AA3D92503E866F4274412926C8C504E4D5EF8C0E68DD0B028781A6B4054F11CF18941F101C57CCC796773ABC8DED9CD91FE5788806C05E548895354AEAC96546D55B
311
0E94A59F148D061F42AA398D822CDECA4CDE79E13469BDCC44FDC990F366BA5978C15F97ED80CBFD73B0CD9B8B83A4F6845BDFBFAF034019473FB9A63BD55D3A4A7284757071574029A4D016DCCBE95DD679EF3C4880BF169422F8C89B68A988D2B13793CAED4F74DE7486C72DC94DF46B8E93D8E02EFCB1FF9B3BA10C8AE7
311
F653DF94F4AF466CDDCEF5776687F7C4C14B63E4EED1719DC2EC482D7DBCC7AE518CDE3D5FF86D39000EC3673C0044E1D308BF05F74D1B5F033A7D1BE7F74BC55BBE3E4A20F920946CA0271EB17BD2B80E5660ACB8A29A79F5E4BBA49D4D945B6EEF4A7EFEAA65E5555BBB57A7E15D2F83C69F30BBB978D2B39F1F26FC0974
311
24D39BB33CA3D87ABF64E307938B685BAD44F71556A30B7E712CA4FE600613C3E554B69ADE949A7CFE214DF1FFF05CB82151EC6FC31950239F94CF7AD39DC473F6EA356E5EC2C4EFA04383CEFE985A127484366FBEE3C0EC4FEA363E4F6632AE781392FD45D67B63FB8DF70E82734F431FD3443172A0E30A83D60982D55FA6
311
A2CF86DBA8382502ACC6CDEF3B907982EED1160E14863FA242F9757347E1544275CCDCF71ECD5F8621CBEA326B8BA884AD7F825781923E66971F04010D574C541D8427A438A37EEF8AF88240EED7362C953F5A81DE2D56109CDE2524EA0F5D2F87308C0C47BD97AD605878AB8589E17CA83930CB5E0DCCD75853D68B1AB136
311
594926DE426C367428E9334AFAFF90ECE221BB5DC9E5BB53D2CDEF954EAA9CD814F0E5725F1965DD458E5F8487683AD86B9D0076BE3EE91EB1CECC5331A67A3F79D8B27587C12EC2A6A70474749F27B4C0BBAFB94B34189E88DC18964BE4121B9137FD516C7755356E50D6714E31ACD222621EBBCD1CFF81D87479056A9DA0
311
E0B8EA19D24CF937DA89F78E8650CCBDC110AAB6C4E46DCBFD0446BA9E2060E81F314AC2031E88135E5476AC0160EF5C0DD2EEF1B8B5CB2D198BE9A554A9093B5F7D7E4B5407DDFCA1D9C152FD97F55BFFFDFE802954DFEC8995B983E28AC92F1971E28F531DC407A1280EB125F64A72E617EFB27DFBCEDCDA2D6F2BDADA36
311
873EE46B9BE1782998C63DA7182BC383FB6FD15DA472B175D7E8B4FC88F38D6E07FEAA3FA3CBB8F6B449ECF14D2175E5C5CCA3A42ABF24CA6C9395AF74535F4DDB38CB84F56614B0FD32D7E19CA5CF988DB4449C40E23DF2B16772594554579094450F56F253CD25EA7F77366FB1CFE79696C428BB64D5A41E986189427E5E
311
4D7E2DAE3D5BB4972B3DC44EAABDDDD63A2264ECFA5C786EB0EE1FDC5BE34FA0F08376869FD1E61EA06CAE15191135445EE8F0394161C3266A596AA035572BB0C8876180D8B9C77D307DF9DCDF7365ABDA6F3A2366436457A4DFC1F259666569A9E4A79C817BDD5610E5200FCE894A358EC72858D50EF67545DA81C6FACE3D
311
457BAF70367E1E6BDD9A952FB4F56247F58F523B97E640246051A72F79BE42FFA0B3187F63097F91C48B868586F714B0EBD5A00A8412C1236E1298F60C72BE6C96B82B404CADAA304AE9F303176B14BA53FBC2D5E86377E35542019E24D97B96A49B2C0E5006E7795954DEAF5DA58958839043C6C70BD3B1B33B6DC5C31316
311
D8A6923F142E26F6711A2258AF977DDF1F970ECC4F1F2B434B96D81BEB6E89BF3BBB3C7C8CC80505070723D6D7D7D3C8CA27CA164A26024FED94B12A86031867241DA53D929636DA600F050BC40CE48B8BA03D69224720DEE2ED2127390BDF5E6EA64527BBD4C4C63FA76BB801FEEC0E61218EC98A8A86CD8313781617877E
311
66692839B9468CF4DB8E50A73986E558E309C0D6F676F921BE02F1185454DC75B111572FF9D27D85EA14C05AD7271225B391C4275659CA4A43759D0BA44639BE4C30A84DB7F67A41399FB95CBF923B1B1672ABC807C1590557FB18D811983FA97F5E609516D62281D38B1281F68FC75528C35E4CD7DF0F7DBB5E5DD69C414E
311
BEA2F4A5B241B996BA77AE6C772E367408C633EA3E438B68563EA8BE7667F3A4C4FDEEA52ABD78A2820F443B7914A15F180018D231E64519C56A12F6CA7C8DAE18F06F6B769DBF92329EF6A5D18FBCE600F36BD8E8198DE5CDAA96181F3A756EBA5501CEE58F497EA4F418A2B82565B9BCC611713C0B708CCA1F398B78C5F7
311
D03B3437CC18F13061F55C7BEDADD5ACB1DB0E36D3CE47FF6EA1A563A57E9649EA5D14D1A50EAA457463381C073777EF1600607BAF6428A7DDC079D47A204EF1E1F1F0589FB054D45E02CE623B3823C317C601E589E22B1E88B448524B86A82828E32345EC18AE17214B42F8C41C6D428016D9BA31DDCB47572561E5A402E5
311
BA4FCE55F78AF7268524AA04130F3A20BA5D1E9F9948EA48FC8F5314FDB35E21898198060034ACE5E3E2BBCA34092518F275190AF65F45867FF0900AA4B81F25427414C372BF51DC29AA855C5428EE1EEDD6B849AD60F6E73475C2D2523F8A2772C840A478DED18A8C5C91B085F255DC4F54EA7AA8947354FD17ECF8FB3B4A
311
0DE7B483CAF3A1165EE05BBA413E5C1FEF3DE1D6B8F2F3F3251C17D9FCAB48A9AAF63AC773A0E413BBC46A9ADF84A566FC920E4D8C52C9769EE3301CADEEEDD92B312E02E2A7E35B7F1E7D203FE5A7D75578B06E99D0E46FFADB8FDA17ED8880390DA29094202D6F645F76F6F96409CDA05495A96E84B04A00D1A6C6C81D7F
311
3DE9376E828CCF144EE50E364ACCE7237EA0BFB5607ED1AC3CFE73794E5B61739D14DF1743441B1AC98F00ECEDE9E7301FA29755FBEFA68C91EF2B314CF510537EF1ABFC9A762496280B546F5EDAAF8A5B387D469FC9A878A92828C88608453ACEC6094DCA54111E7AD5B2663DFE2DD151B7F123B9F4FEF8EE36AB125FD7AD
311
52A59B1B765B3E3F73E3F73DEA93875004D2AFFE3CDE9493B87A9904DD052028949041A91DC0E1BA47BA714343FD5B25E0A6A09503AFC17C790058A836A324FE31D7893512E28230332F153181C1E018E1124EBE1BA262AA428A518237D1EA7275E48C5C561BD19ED6912EDD8367DA0F31E40EEAE9683DA9257525AEA7B632
311
B97119E17145A90231768A4F3B9120FF32E8319B015E3CBE26F1A754177D8185345817C096B0CE443A955D13AC15E1FB5DEEA0239EC32A3C92241A237B0B02FFCB4F93CF2B02570C8D192E2F2A68CEEB42F12E6F8CEEFF46C251E22B4341C56FB08CCE550E7A9D6F4D6564B9EA52A83D5BF2C6E03FA19D2775E15A8A7ACF30
311
A13C259EE7F5EF2AC3BA354F1500E1A07FC63FB4686E2F12EC69719F9ECF5FE3F35598DF2CE944008CE78F0911BA5BE5D0A34E0098FF038669C26030BA9B300303039852A8F6F496341737CA7E0D2E3AAA36DE0A70AA7D9CA0D54D9AD84B18A44C9E625475E1C97B93BEBB38DCE7D227E67A2D00F531436136355F243D1FC0
311
D712C5765754FA22FCFFAE97919161F46D6E61ACB37D83777B385889770B50765B127768443A5C4D3A4E35A3151111F146B7CA116F918A049F1C272F2CD7976C69A0068773451659A97E0F4A08FE604C3FF6CE7385DB19F4D3ABC8A0D80DA8A42096AC377DB49382B36E270B6FA7570188B4B7D1DDDDA82ACA487CCA5D38BD
311
3BD039ADBAFA4ACFF27809239B722081E2EB9F145320553D183F28471C388BC8814E5045676767AB58A8E72D1CED2CA731379515D2E533E4CF0B39DFC625F97AC4836831A4DE330E87A8126FA17EBE583D614E71E22A8DBF2825599743E0640037303E8E1B1E8EA4E1ABFA4F62907B5E4E0E5DCFDAB417C36C6848A2B8D15F
311
1E505434C0707E16B1CFC2A1C36A42BBF55734F8F4301DDC2A5110CEE8C0747F69519265012A2174BF4E955ECD4FDE095A3ABC70536B7AD0B9D7892F81287D667C108703C9B66A221E9A0929D030008F77FF6F5D2108EF5706FC87A3069B976F7C9FC3239D13D283CDEA83597461079FEEE049B0F392889898B7D87D31F8D6
311
0ED7B56B91823A8E4EDDB36C6172ECEE42BD42B12CD67994FA0F0DFAE9389356F4CD4425A4B8AA55CBF7ECD585C6A2C2316791E43D5C06841ADBB226A87FD61515FFBB0167B74E56BD7F3E90A57A97FEDCBDF483A0D6699A8C0849CAEB4947FAA90D8E332D9DEBD9F4738C37DA0CAF9CF3DAA68BCB67C420459C7A64498D6E
311
848E5CADE92BB6901F607AA331104A67F7CD650EE169B1DAE94D2C31C2F993632259B6957E246EFE4C5481107B07118607700040E5812A2A2A38DA0076875258C753F60E0F2662C748EDD5F3F3686B8FC3BD6FE631ECCAA1E8B1C1E565AD117E54893E79F4672E32F9E46B2A183DFDCF3EECB4D4D077DBEA0DA254D2560451
311
09670050129E9B9B1A9E4A11344D61497A992778095151510C4BB7EF2009B63AA4360635312E4CF668B7E0D3D85A8688E2BD83B569439892ADB63461930D428E0DE42E4AC57CE48DA5CC1449530D8BD3D6A0F08DF20C8E8F570F2CFFFCEA286E30969B4654D498A58D9DA782E19FE3F002181838925592C4A1EF0B332D88B6
311
1A92C644547BED490D3A42CFFAB70E36D961F694F6307F72FF15A1C79D5B1B5CEFD353D9E2B52566DEC8F8F09CB3E8359C0F68EBBB7898243E34E12A015B2685AB303C04D3A9E00671FF3DFF0A184E4A2ABEB2B666AF5B3A209C73D8EF29DCDB069C9F391EEE9DD0F74C7BCDE16F8F02E3B8816122BBEB50665775B600549D
311
8BB33A54A6BF940C028118BC6878C79958D6784F9DEAA6E26748386FFAF8D0D0101E2847B6563F5D8DC1D78F787BE00E2C941AE12148D4A81599FE8F68D4DA5CDED75530ADE138240300EE13B0FC13A1687FED6774662C05A2B7DFB186732F0D7A93545D8B0A6390AE5054D9CB582DA846D7A061B3358B45E2B52DDE63E114
311
397EDB7E09233A579155D795BE76102CF277F4DF8B188C4F2879BEAE3C08347124BF9ED23B128259FE107D31E34A652F090B30B39E0D9AF917B76A2806135621A8A60681F16AF216514BBD02711585B5B1AE823F4B2D0369EA5B6BCB863072727FFC871CA6C9AB79A814D989057E9470A3D238BC87CBB4A0EA49AFE2B86F22
311
E499793CAA9047080450166BDC357524561E258C77CB697F1ABB32562CF87C3B7AA12F911EF19FB3E5C02222E887D08202A60A17151F5E053A86B437771088B4FEE14D652C43E8D939995D34545E12E2FF93D4E366EAD25F10CB7DED141563C3D0C447AF06078A91135FD4B9611583CB4BF3BD167F2399CEAB0E0100F8FFC3
311
05F00F1711717173138B4B48C83022295DE657EFEDD97F238ECA80F528AFB4F8D67AD4E2594B9A3AA86D7487EFC313BA95745C186F0CDD84CC12DC9CB0424B42203D351FD9C0A3AF10CC7F388E0329279087386421F194F4A29464C1DEF7EF8BE515E4A199DCD5B909342598D8FE6A231F71336248D5CEC5454455C7BE383B
311
3BC7B260FED27F703FDC39A170F3827239102F59D4DEE7FEF82EAA1A5E4BA94DCC4CC44E7E2EDE20F24244E4454369D2E87C3F823F193FD4FD27E1C23984B01898D15ABC20711A8A558054951A6AE280096BA36CBA439603B7B0B4C45F248C14B2383B4B5CD8ECECE4FF859AD4A6CA2326D020EF090F4041D28DB66E5256B5
311
6232CC52829DE8060BAE6BBF37D4B7469B822454FE93210A3E8D15E69FFCF01123222611C51C4FD0A041A0CFA2471CF6BE38D2B20FA4C3525B5B8B586759475CF80ADFE67A284AC24651E52B8E683D24C2622642F27E7C3C22783BCF63648BC398BD6CD0D9C97E7E7E3EACB6126DB7A6C1FD9F1031302EE67ED96F22B77C7C
311
A0239BB324207559B105E4693EB26EC46182A92C9C0DBD24F29B31C5C5AC1F84300E0E17CEEAC15F5736FA4A98971E2F1423BFCD68D4BBD5F86E74B40A369F39507C88FCDB35D2DD8DEBEA4AF999E23CF2816D204200DF6E611781B9884C1AC8888B4DE397320472959434323A5A36B22A8E1F721A270DF3BD65E4A31C11FF
311
048AFB0D8B7B6881423793963A23CFCE935FC189ED36FAE35C46DA3574C979E4394BE52084F3081837BE033396D2EBD80F1F691B273F660D2B32FA27A33B1DE4ADA5F0FA4651511102DFA410DDA86E065272CA314D5249DF91B06BB92807B28EFD54F08F7B525252782CD276DD02E6B0319B13DF87B1F6361AD6B28FC0D711
311
CF445429B9E5A433CD493051C49A9E03DDB1B147D880253514A5DED88009018620EE229101C041950E2D8AA8E1F5F5438E0C0C0C60EEDEE9E3E0C051948C69F84BB7B2A48A1F3C8EB9E6864687F4F4F6F6E2FA87608ADAF9C5E117B7C1A737E710769DA1D15ECE6A84502AA855398712D5FB51BE92E4EF824969CE18278798
311
AC303C2C7980DD2500ADF8FB1E6D6C2FAAFF9987178923334A244758BAA01A9A1B70FA5097D01E1CC2A58DAD0EC94CE6430AA9B0C10D75E3C6BAC670EFBADEE1607739CE0FC18A2587E3EC3058562014C64219C69BC269082D5C2F4A659278D585755912176D78A1B641719C2A394CED495A1AC5D583FD2F5EDD93308EA7EA
311
E8A6DD396598BDBD3D4CFED62D18A5BDFDE0DD5C80D1A89BA62697B131AE7CE9A6594138582F1B37D68F1749AC7CB67A70695D48A4A056AC1FBD4E82358CEAE38F54B95A9016F9000F9879C0D9D131768635CA798895F27D6F1614F11F2838A83611AA51C9A3DDB539D42979C29F10465655C17BEC3E2760B80DCBF609198C
311
7B171A531905F3EC218D696025975E986C6B4C666666787271F202805577DD5A3EF0CAFAF91B62DC4B2DB4217A7606282F31D8DDBC290593BAA93EA6353AFA9939B877978481E15CFC9F2755CDC00C538F63A4BA3E80AE009B73CA0185687D339A507D165B74290D6EE46D5C58148F020C3668ABE9EF2F7549170DC80DB41F
311
FC1D678FF19AEB10C7133832B104B80F691B3138F97A92D26E551F1F110400D45AC71A9B9AC41A1A1B1DAEED0B0810638EFFB511D46B121C6FEA0F38CD00E03CFFEB9713FE1F9C263E4DDEC160D0497FA9A132BA608584057FB15380825DE6C7FC3C667EE947D488A09898D8E939C4953BF4EC9836344D2CC6B2971B2A21A5
311
72B06096F4982D2CC7232D46E8EA69DC83722E267754D777F97F96D5DA74E1E75178084D0E70F12AD33E5F71EF2AFA599B2BEBF60A5BE475F444F240CBFE8143C334E7ED9150FEEFEF7EB020C4DBED388DD1D6A167A76F3CBF119B578AE8CFA7736ACAFA4440A1C47185638A0D2F3EB5BDDEFDA958FB13CE4AA4923D5BF840
311
392D45544329525749734866684BF7F8D9D54D892E19BCA9F829A0F8BFCBEEA6CFDFC61D74EA1A645ED7A1FF241739F15694BD835B66FEC5677E40FE69BD3F91AE402F036537218A401CB0828604AD189E575015C6F3F6BBC8AC79CF6C70653847254B31551EFCBEB5978B9DB85D58D0FA41A9DFE9C624834AA04949D24B5A
311
E6D299E072D152D12097920F14AA92C31C3B97E28B6C2E6E9C23D63043ECBBC0A60FDF5BD0C33C127EA8A3308B8B6AFFEB28B4455BF6E7AF4FC6222728357EB8E46E85053E6A8843AB23295BF838ABDA94658FEF3F832F147046B4ACD6F7D48E8FCC9618582961C898D1C7A253C91BFECBDA6BA18A1FCF70755DCCEE2222F4
311
1B76D23CA98D0CB3D95F0CF66D57FFF65E2A90F5DF40FC3187621E981BD0BC1D992787212688976B94A8F0C6EF646624B570B78E068826F87CE27041A95C9A4871FF65CC17FCB1639629AD6A9517000D63AC231F3D741CB8430777E7ECF80CE7A3F73C0F162F7E56AA71F4DA80A33CD6ACEE78E2C11FAC03DAFCE929B106F8
311
F6B3ED2DC71FF994BD9CEF4E9A94896EF1B6E2B7B4978168BCF0847A3D2A4F1B0500B926E634B174548E9FBAD27153FB5FC36799B1E6C7C38A94E1F9E996796D7B485E635D5287A2AE76FBD11A341DB3F8F810385BB7296391973DC6C37C452A9305AEBBE0CDB6C566DB59FE60C8E94B1FD090354BF51439FFD1B48D725228
311
FFA88C84F686F547107A7A235665A4593B7C34D748C1AC8D56DD5DA861EEFBADDECBBD65117E65851F90351AEB65F0EFCFF4BCFEF24CB7A5879699FAC437A7AF9099186CF006BB923A59E37D7A36A29FD8D2CBB914A5E9D0A8FD212FBF796AE9A67958FF1D5D8B85F78F96219D4714EB919929241B6C018AAE0C02069F8D91
311
9961EC5DDFBFB7573E3AC8E08BFB7C8534BE6DE045B3CD63DBD71F7638BA2309CAE398EA3A7D8F98BBBC7AEB367EFA5CFA27A9F8F2F52FE878058E6209C026453F8E7E8A237DFC389E9590F6059B397CFD65183BBF936E86896612A5B5FEE49DAC8455D026218AFEBEC12B3523A45B57B82C9C97E02ACFA1184DB18E48CF61
311
5DBF39C3CC6F0B4AE6BBEEA2E39D944E290302FA3DE33FA7E40296E2EF7BF1CD855BBECFAD0FD622BEE9746FC4FDFDE545AE6E3BC234CADF83A0FB76DFB145BF3828AE3436368AC24989454F8FF70A177672C711CAA1A76107218CF948CA01F873520E7A2B118EBB161ABAD432932029628B6761590C98AB590C8C8C79798C
311
E9F715BA696E839E9131A4BB68BE923F1747FBFF165331FFDD4D05997ACD168F12CA75348DAC04C7F509FE83898A8B421181AF492861CE81E4A2DD0A30850CFA95E05F097FF70F9E777310D584A75BA7018922E271DAB1D785671157685B7D383D3E074DDB4F1E44EF04B07BAAC75A062077C54B9752C738C9D804D402E028
311
51F3F89605AF189738C18C021D2139EAF72513824E10DDD3047BACC8521ED7E98B257D1166903B1B08FA6F918FD7E162913FEC7D0EF4787E29C35FBA8C6E2C9C20E9AB30AE42CA2A01A090E7D010C1B5BF9CEE2A304BF3A987FB40D836979B79E18D70F257DA61E808472DD85B82761825779D6B90CAEB0F23360C6F80A7D7
311
D77545E95B3DFF0CF96A827F9B5BCECD2C9698718417EF80FEEDEE938AFF55859D0D540B7FE09435583A6F04874A0C7E8CF234DF4879722000167F5872CEC6BF3EF7E5A8CC8121E6A359227C8A29C95212F9F735BC72A887D56B8F309FC525BFB4FD767AAEC4AEFF249CFBBD2DE1AB9969A6155C7D8DABC307E47324C1F916
311
C7BCFF40ABA5644E9FFB9238D19ADADA49D9610F01ABBA57E4DFCBDCCBB2B93C8953206C91DE01B0E2651A6D6C31721915B31F7B7CBCE55466F6D70402788FA91D73BE4ADCBA99A35F17D6B83383704917D6833F0FA3CD45C926ADB8BC17999A4A0AFBCE2541F7B8CF4C2F5FBA611B3E626D64407CB32C122DFF4EF8674D6E
311
DBB86C8F7C6A16D50FA685E2CCA34F8F7D1D8265BB0042E9D7F1F666F7BE5FAA5184DF58E12122A42EF02F461B3F369AC746F96528AD208512AB56844CF75B97F352DF7995024FB02855385854F3798670D01CAC771AC3E1889EC25F61A20C1F8CAB46898817F9C47E2CDA1F286BF2F358298709FE567C91133E2638C8B539
311
75E753EA8BFD3578B5F7186B7BF084EBA3F77BAC3132A5779902EC22AF2D2E79F42D324E083386DAEE9810D1B44A5DAA54513C7A71E52A4AB9257D975B621308FE4D2141CC3DCFE946C154A3C1DFCCA7629EC69ACFA831634ADDA93C0388D2A9A2DDAFCF957C6995BCE7FBB6DC4EBAE79E63EB08E9A25F52F67076F7093CA5
311
45CA3053B5BF576DEAD4E0017143C5F759F32B2D6F145B52B67B48909B7C7FCA6586EE385A2189C16932CB6DDFD9152AE317C430492A578ED27B72D85D40C7C93C097939E1B50F4D67F05334FE9DC362C30B7FF561B95259138ECFD9274C8D695C31B14D4EAA9F3D7FA8DDF652F8C5DEFA23284C799B7D94416DEE81E05A86
311
6302DC70192A5368EA65E1CED8BF107A1E2D3119A71E85DC1A7B0C1E93274CE04DD0F2ABC8AC7C987FDB002B6F81757B43502EF7A0D92E416494FAEEA4C9C090CD9557AA4D532F4996A272B94355C5A0E4974EEA9627476F30809B94D8D8D860062E02204643BEC7D0438AF800FC7E2B26955D595421E83C69E1A07E0E3122
311
285835F014AD538188CF9737CE76D464A353FA55A001AB2526B84E985083693BC76FE211CA1D000679C889E3C009832C87E1AC2EDD05C302557422DF0800E316FCAC86978A371F025A6C7DAA9F333E7BD160403A1A06EA75AA9888FF01504B03041400060808006B94ED4A28BB58AF800100009E0500003D00000043353344
311
463842322D314546382D343339412D413642332D4332344244424634374134302F536368656D61732F436F6D6D6F6E536368656D612E786D6CBD544D4FC23018BEFB2B96DE15493C78601010A34B880709DEDFB52FD0D8B54BD70DF6EFED3AC0B12E6442E2716BFB3CEFF3D18E26FB440405EA8C2B1992E1C323095052C5B8
311
DC842437EBFB673219DF8DA659866649B798C078B48AE6410122242F2A4994AC7F93815DF85C049C8564CA0A901499DD886B2EB9B1E02448F358701A9235880C49A0119892A20C89D1B9FD768815CAD268CB5E0355B40B1E47F3E37A2020464BED06AA57CE8FCC20C3C3446D46761A2632A8C1283D07031EFF2AE7CCB1BFEE
311
E916E406DFAC8E36FFD99A9D60A6944090EEDC3B670C7DC13DE86B6B2C5C240D6E503BB85ACD579D513F1B9F9A69DC9CC22AFA80C426D40AF0B21EA168559156B6276F0F726A6BFF04DCD513A87A62CAD41FB24FCB2858B3952E3D852084DA25B9303C15687973CC8E8AAE11DF2836C38C6A9E765E8C1BA1BFB1DC29CDFE51
311
8C8B5A7655A4ED7E77291ABEB80DBD82EC866ADE1B8D05AF9E35CF09D7A061F38A986D9EC412B8F0F65E5D81534D9B231D1E5A8FE577A241F3A5FD01504B03041400060808006B94ED4A2CCEBD668A040000E01200003E00000043353344463842322D314546382D343339412D413642332D4332344244424634374134302F
311
536368656D61732F47656E65726963536368656D612E786D6CD5586D6FDB380CFE7EBF42F0F7A649B70E1B90744856B4970F450FCD7A5F05459613EDE4174872DADCAF3F522F8ED3B88D2F1D06AC4050DBA2493EE4438AF2F8EB73AEC8466823CB62928C06C384888297A92C5693A4B6D9D9E7E4EBD51FE3A931C22EF85AE4
311
EC6AFC38BF261BA626C9AD288496DC3F4FCEAFC63366845F7A10452AF41DB320C0D44EC26EAB20918735565582695670811A6A49643A49A6E9069FA4604A64B29016DC4B48552F95E4932463CA888468C1D2B250DB4962750DF7CE273069CE8363F1FF4EDB00E0A21999574AE4A2B00C353B93F3BD4777B8A61ED8F604ABFE
311
DD79CE56A2B7BDFBDBC50996E0ADDE16FED26223C5D30956C29BDF4A55EA686E5E58B112DA45CE67F76F4FA27EFA3FB672FD7372FC388FAECDCA5209E693CAD167BADCD272F943701B3812F8A3D852008B1D2E32DB927B2F833C6EA95879925356D254582695095A3CE982924720BE5774A3CB9CDCDB350427D2DF20DA1B55
311
32EBE2D5D6288D75D4F7E4FD9890A0EF8E3D93EBB8F8BA4758158EF6FB90A6F9520281C93DE7AAC6D24607DA296BB96018123F821A7D6A5C5884050C475DA4865442732C8B95684A50165CBB3A32F25F783A4A480ED59AD7F924B968AEA50131F46303223E6A397B0E52976030DC1DCA81D7E7C1EDEEA42C19FF27635C505E
311
2BD5198A599020DF50A2330FCB3AAF28CB0124108429553EF1B228802E2265D8F7CC2401042B155BCC7070F1E5C55F13B4A9577362CCCE46C32174E010C3C378C44841A4BDA00FE3A12006CE11EE6AEC59894D3526DDE1CD59D503ECC324017F8061B7F162162FA62EDD81AE3308617770796DCBDAD2B2625C5AE8A63DE20B
311
2C8AA5E95E76E5730823955956E33E705425A2187C185D36489A1B44D3DCEC2172F6BA2105C3546287A7194B2331768EBBE64F6E70A9930ABE0ADEA89E9E2C38523B810287AD67A54A039C1606EAFE68F8304610BB9093DBDDABC0B2AE4E290DCDA15376D7E39F72B556F0B32EAB5D3D498B4C41ABADEC3A1434C422D87E80
311
25A84BDCB2B1417ED750FAE4DA8976863974C577C7F902D3F156AD354DEA3540DE6BEAE2BEA52F7A2EB4CA43802ECE5BF2CE2EDC9347179FFB023CE412E60BE16DA0BE29B374988A553F561DC04615DD35F7D2C8979F60E5955CE93DF29DED8AFA1EE6642D53418086C03C47C377910F75F7E8F5EF665F70B60FFB22AEDF89
311
7D119E8423C773E819A3C1E55E550599EE6EDCA34D0C86FD72057DF2CD46F16A470682471C164E4346D5306BF12D7D12D82CFF673D41636C347443FEB51B50D72EA171A8E4A58623A4A16E0FA2B8B10A0D23268D87C33896EE8FB73305A74BF224EDBADFA0BD674AB354D63DB7BD5D83426761C077DE767728235446A55275
311
4EB93B755891C3C4CC6CADE37CF0E912A7BB38DBA010F9DE1282EDF470CA69A9CDA482E334C4A6EA4107987980B17E72F31730EBF88BBD39E7C629F56797A3C0009C2C5AE7951D9A05A02773440F02EEB4DE396A3B6A570C72CCFBCD823B0B8ED3F1D5CEDDFED772FA70236C83FB7D86C385D570B87107535572A60A96035F
311
8F7C6A7192F13007246BBE0521855E6AC46F3E27689CEE7D186A6FD679D98CDCAD13333E04EBE7ED6F55FF01504B03041400060808006B94ED4A6180134D5F0100006B0300004500000043353344463842322D314546382D343339412D413642332D4332344244424634374134302F536368656D61732F52656E6465724D61
311
74657269616C536368656D612E786D6CA5934D6FC2300C86EFFB1551EEE343DBA41D1A103009551ADAD40EAE28A4A68D9426284961FCFBE5A340113B2071746D3F765EBF4DC6BFB5407BD0862B49F0B037C0082453059725C18DDD3EBFE3F1E829991803366715D474942CD30FB4A782E00C64017A412D684E454CE3FE2899
311
5203B162A6EA5AC94B66997D225E109CD63B0135484BAD1B3C07E9080CA35DB3119C11BCA5C200461A68A1A438126C75E3E230D40FF81FB3F03C91D1E3A3A0AF79FE28E25BC39EC3E17E4C2A2D94A0833A51AF55BCCA7D88572FCBAC529C4140B020FC3AAFA886621DCED7EAD7664CC86024E806DC297DA1BB393E41565434
311
57A4537DB8817349A70F8ACBF09B3EEE2CB2F33E91B65D60786E4E3B39B77E3FEEEF5650424525DA657FB8B46BE6BF064646F0A0F7327C0BC1BC1B4CBBC1C419FA3CCB23500007872A2580CAAE5461865565294E4EDB4617B62FF579DF9A5B2F54E834076A597573A020912FED777F9B3F504B03041400060808006B94ED4A
311
EA385FF151000000570000004700000043353344463842322D314546382D343339412D413642332D4332344244424634374134302F4173736574446174612F41737365745461626C654F66436F6E74656E74732E62696E536160607076B434B7343032D735773370D235B1B030D2B5703433D0357631B33432353673B67031
311
1102AACB4D2C492DCA4CCC492C28484D2C4ACC4B4E050A82012F90744FCD03CA26072767A4E6260200504B03041400060808006B94ED4AF865834058000000680000004500000043353344463842322D314546382D343339412D413642332D4332344244424634374134302F4173736574446174612F53747265616D566572
311
73696F6E5461626C652E696E66558CBD0A80300C06F73E4B117FB66E451741D041DC5BF98480A492E4FDD18EAEC7DD4555D89EF28DF51A0B1BD8340C4DE7DD848B988C0ACF0649566493F2408C508DDEBB99D5129FF8F1AF8CF5B9503E20FAE5A16B5AF702504B03041400060808006B94ED4AAEF21A3C38010000A2040000
311
3600000043353344463842322D314546382D343339412D413642332D4332344244424634374134302F4173736574446174612F636E782E786D6CCD94316BC3301085FF8A1174B464279484202B9476C9D44243876E17F99C88C89291CEA5FDF795120F2D299D32643DBEBB7B7AE89D5C7FF6B6F8C0108D770DAB79C50A74DA
311
B7C6ED1B3652572E59B15632784F3F305638E8B161B9CC94DC073F0E53A9C50E469BABD6B8E3547C8811690B3B8BCFDDA377848E222BB485181B16F5017BE030926F311E790B04BCE601A31F83C634894C8FD3241D10085BA66655BD28AB4559CFB7F57235BF5FCDE6EF526452C99DF776E24D5A16FC7037ABF4792F539514
311
1950720C66A2F26B98FA4B25DF19274522958C14922B53077D0DA90386C11A0D94CC135E13529920845E8A33ACA4C82EFCF2E2093BE34C6ED92469403EBC248118C8E00D7AF29FDAEB7BB37191C069BC65472E355EDF87D7D32F7A3BC7F2949BDB4BCBA5466E5C7785AC88D33949D1C9D7457D03504B03041400060808006B
311
94ED4AC70751DAE7000000600100006700000043353344463842322D314546382D343339412D413642332D4332344244424634374134302F5265736F75726365732F43413937393032372D374630422D343838322D384136302D3344363932353336433844342F7468756D626E61696C2F302F636E782E786D6C4D90CD6EC4
311
200C845F2542EA31213FAA76B572D897D8532F1525DE142DC1084CD5BE7DA1E5B0A7B1C69F2CCFC0F5FB70DD17C664C9AF621A46D1A137B459BFAF22F3BD3F8BEEAA2012F113263AAF0F5C45B585823D520ECDDAF0AEB3ABAEB3FED1CC1D3D466BDE83DF45679C4E6915C97CE2A1079D99364C8F61D3AC87698898284783E5
311
00DB03DB011351336E42CDE374EAC7533F2DB7E97C595E2FF3F206B2920A3E885CE3AD678C145EE6D150197DF9670459010539DA46D510423D3D07B22C15248E257F83F827144887E0ACD15C6A926418B92F10EA03E43FAC40D6BC45FECA285ABB51BF504B03041400060808006B94ED4AA233C2345D000000800000006500
311
000043353344463842322D314546382D343339412D413642332D4332344244424634374134302F5265736F75726365732F43413937393032372D374630422D343838322D384136302D3344363932353336433844342F7468756D626E61696C2F636E782E786D6C4D8B490E80201004BF42E6EE76F3C0F216234B883063108C
311
CF170C074F95AE5473F5C4C06E932E4F28601967600677D21E9D8092EDB002539227A2FCCB80E1168D80A6417297A89C5D6963B7129A0D1E8F2EE73AA7B62BBEB8B27DE50B504B03041400060808006B94ED4ABE89762363000000880000005B00000043353344463842322D314546382D343339412D413642332D43323442
311
44424634374134302F5265736F75726365732F43413937393032372D374630422D343838322D384136302D3344363932353336433844342F636E782E786D6C4DCC3B0E80201004D0AB90EDFD75167CCE820A4A845D83603CBE602CAC26799919AEEEE0D965E2E908050C6D0FCCE04C8BC355404EB6198129C92351FAD580A1
311
0E464065907C8D948F8F166375F655BDC3FDC3B4E530A176BE7057BDC43B2A593FE403504B03041400060808006B94ED4AE328A7D27F000000A30000003600000043353344463842322D314546382D343339412D413642332D4332344244424634374134302F5265736F75726365732F636E782E786D6C4D8CDF0E82201C46
311
5F85FDEE2942E3CF2638D3F51E2ED131111A49EBF183E64557DF76F69DD3B49FCDA1B7892F1BBC82CB890032FE1126EB1705699FB100D4EA2686B0FFDD00F971330A0A06DD2C31A4E78126338FC915EAAC5F0FD877924B4239E67772C3B510148B8E115C0D4CD26BC57A31D4D9381725CFAF97B7E4F517504B030414000608
311
08006B94ED4A7F475CD50C010000550300003400000043353344463842322D314546382D343339412D413642332D4332344244424634374134302F536368656D61732F636E782E786D6CCD933B6F03211084FFCA0929E5C13D14D9B2385CA448952649958EC0DA46E6D8138F28F9F7810B852DA54B0A7730FAB49A1958BEFF
311
9C6DF3013E187413E969471A700AB571C789A47868B7A4D90BEE11E305461A276798489189E0478F69A99286834CB6A8D6B873151F709ED1BDA813CC9234CACA102612D62B9529A28670A65A46497BEA2160F20AF2846866A81394071941133174FDA6ED366D3FBEF6DBDD78BF1BC637CE0A29F83BA2ADBC71113C2E7743A7
311
301F5D36D4715600C19337952A2988B87447731F9C6542F0107D6EA192F16BC9A45C166B948CB92CB6823F8CE0AC84BD8AFC080EBC51B79AF9CADEBF857E06A7C13FE597F246DA5BCDFE9BCBBF55C0D60DC8DFA02C84F806504B03041400060808006B94ED4AE3603EBE7A000000C20000002C00000043353344463842322D
311
314546382D343339412D413642332D4332344244424634374134302F636E782E786D6C6DCD410EC2201085E1AB90D9DBEACE05D09878023D01A1D34A8419C380F1F82DA68B9AB8FDFEC93C3D7C52546FCC12980C9CBA232824CF63A0D9402DD3E10C6AB03A3397DD192872090D3406ABE7CCF5B5D18893ABB1690CF4DCF022
311
82E5EA8A5BB96FFE536F285CB347F95BEFFE81C9ED5AFF9D5B1FB575BB00504B03041400060808006B94ED4A20F7BE2C7F000000A300000007000000636E782E786D6C4D8CD10E822018465F85FDF7940A156D80038DF77089CE85D0485A8F1F342FBAFAB6B3EF1CDE7E5687DE36BE96E005D4870A90F5F7302E7E1690B609
311
3340ADE43184EDEF06C80FAB155030483EC7909E3B1AED342457A85BFC6387DD89F486E906D737C330255785D55913DC3554F7DAD08BA255368E45C9F3EBE52D79F905504B03041400060808006B94ED4ACA1DF9C9A900000073010000130000005B436F6E74656E745F54797065735D2E786D6CA590410EC2300C04BF12E5
311
DEBA70400835E500FC800F84E0B411AD13252E2ABF27A55740421CEDDDD9B55CEFA7A117778CC979527255565220197F75D42A39B22DB652EC9BFAFC089844F65252B2630E3B80643A1C742A7D40CA8AF571D09CC7D842D0E6A65B8475556DC07862242E78CE904D7D44ABC79EC569CAEBA537E3521C16DF5CA5A40EA17746
311
733E0B6615DE7217475F386F18B9481C510F1F021CD9FF027EA0E1F5C4E609504B03041400060808006B94ED4A3DEE336E64000000790000001B0000006175746F6465736B2D64657369676E2D7061636B6167652E786D6C35CBC10E83200C00D05F21DCA56CA76D41FC96062B120735B69A7DBE268BB7777961F8D5AF3968
311
93C2ADB70FE7ADA196782C2DF776D7A97B5933C430F15651E5469C55D70F80A4992A3ADC954792C525AE70A1E4D6AD9816CC044FEFDF01FE3FDE907802504B03041400060808006B94ED4A6961D1B3F9000000960100003700000043353344463842322D314546382D343339412D413642332D433234424442463437413430
311
2F4173736574446174612F636F72652E786D6C8550CB6E833010FC15B477836D4A1322E38852F2053DF56619875A0936F2A3EAE7D70E546A4F3DED6A76667677D8F96BB9179FCA796D4D07A4C4502823EDA4CDDC410C577484E2CC99B336FCA24161C4A23AC83070363B1BD71D92D60465326AECA4765078AF0214F29E9A0E
311
BCFC508B28450C89E16FE52AE44DCCAA24E5C6E32C463DED523D25377DD5CA01BF0C97E6998C3DC2C30B454F03A1A8ED5B8C6ADA8EC380C763435A56653167412F3FDBA55322A80938C5E480F00191FA8D1C4F7573A2F53BAB3293331F5CFA795F9ABF03DEE7AB5F4510ACDAA67F5CE33AFDEF1AB50935DD5D3785074ED291
311
8F0167554E29954784A9E644F937504B03041400060808006B94ED4A30643D59F40000008E0100006800000043353344463842322D314546382D343339412D413642332D4332344244424634374134302F5265736F75726365732F43413937393032372D374630422D343838322D384136302D334436393235333643384434
311
2F7468756D626E61696C2F302F636F72652E786D6C8550CB6E833010FC15B477836D4A0391719422F2053DF5661987580936F2A3EAE7D70E546A4F3DED6A76667677D8E96B79149FCA796D4D0FA4C4502823EDA4CDDC430C57D44271E2CC591B7ED1A03062513D6418389B9D8DEB0E496B8232193576523B28BC57010AF948
311
4D0F5EDED4224A114362F87BB90A7917B32A49B9F1388B514FBB544FC94D5FB572C02FC3A57925E319E1E18DA2978150D49D3B8C6ADA8DC380C7B6211DABB298B3A0979FEDD22911D4049C627240F88048FD4EDA63DD1C69FDC1AACCE4CC07977EDE97E6EF8063566DE81FB7B84EFFBB456D424D77B74DE1819374DC73C059
311
95D349E5195DAA3949FE0D504B03041400060808006B94ED4A09AFE0B1FA000000960100006600000043353344463842322D314546382D343339412D413642332D4332344244424634374134302F5265736F75726365732F43413937393032372D374630422D343838322D384136302D3344363932353336433844342F7468
311
756D626E61696C2F636F72652E786D6C8550416E833010FC0ADABB019BD040641CA588BCA0A7DE5CDB2156C046D8AEFAFCDA814AEDA9A75DCDCECCEE0E3D7FCD53F6A956A7ADE900E72564CA082BB5193B08FE861AC8CE8CAED6FA5F34C80C9F5507090646C7D586658784355E99841A2BD50E72E794874C4CB1E9C089BB9A
311
79CE838F0CF7C8172E1E7C5439CE371EA32168B94BB58C6EFAA6D50AECDA5FEB173C5C50D9BF1274E83141EDA52D5145DAA1EFCBA1A9714B8B2466D4EBF967BB5815F74A0223253EA2F28870F5869B53559F48F54E8BC464D4F935FEBC2F4DDF01F3F7307F18AE275A6CD33FAE6191FFBB066D7C4576D74DE180E178E473C0
311
6891528AE51961AC2951F60D504B03041400060808006B94ED4ACD7DDCFB0D010000B10100005C00000043353344463842322D314546382D343339412D413642332D4332344244424634374134302F5265736F75726365732F43413937393032372D374630422D343838322D384136302D3344363932353336433844342F63
311
6F72652E786D6C8590416EC3201444AF62B1C7061CDB106122872427E8AA3B6413172586C840D5E31712576A575D7D34CCF0F8C30F5FCBBDF8D4AB37CEF600970814DA8E6E3276EE410C57484171107C752EFCB281C2AA45F720CB40F07975F1B149A3B341DBAC5A37E94D54DEEB008AF19E0E3DF0E3875E54A962480E7F2B
311
1F6ABCA95997B87CF9048FD14C5BD44CE93573357A05E2222F4D8BCF0344F248E04E6202D9C010AC093B4B89CEB4C18C57392C7830CB0F7D5CB50A7A028220DC41D4415CBF61BAAF9B3DA9DF79959D82FBB0A69D3768DE0E0839B08E21D2C1EE828E70472981746813EED432D2D4ADA4A71DAF5EC13FC0F898FE074663434D
311
36E02BE181C0E9FFCF0BC1AB5C601ACF76D3CC658B6F504B03041400060808006B94ED4AFD3DB6EEFA000000960100003700000043353344463842322D314546382D343339412D413642332D4332344244424634374134302F5265736F75726365732F636F72652E786D6C8550CB6E833010FC15B4770386D240641CA5887C
311
40D5536F96D9502BC1467E54FDFCDA814AEDA9A75DCDCECCEE0E3B7D2DF7EC13AD5346F740F31232D4D24C4ACF3D047F252D6427CEAC31FE170D322D16EC21C1C0D96C4D5877481AED5127549B09775038871E32798F4D0F4E7EE02272117C64B85BBE0A791333E634DF789C85A0A65DAAA6E8A6AE0A2DF0CB70699EE97826
311
E5F05291A78156A43B7725A9AB6E1C86726C1BDAB1228939F36AF9D92E2D0A8F13F0AAA407521E08ADDF687BAC9B6355BFB322313973DEC69FF7A5E93BE0AFE84CB0121D2BB6E91FD7B04EFFBB06A57D5DEDAE9BC201A7F1C8C780B322A514CB23C25853A2FC1B504B03041400060808006B94ED4A3A0A5419F70000009401
311
00003500000043353344463842322D314546382D343339412D413642332D4332344244424634374134302F536368656D61732F636F72652E786D6C8550416EC32010FC8AB5776CC07513479828B59C0FB4A7DE1010172506CB40D5E7176C576A4F3DED6A76667677D8F96B7A149F7AF1C6D90E4889A1D0563A65ECD8410C37
311
7484E2CCD9E25CF84583C28A49779061E06C5C5C9C77483A1BB4CDA8754AEFA0F05E0728E423351D78F9A127518A1812C3DFCB59C8BB187549CA8DC7598C46ED52A3929BB919BD00BFF6D7E6990C1784FB178A9E7A42517B6931AA693BF43D1E8E0D695995C59C0533FD6C978B16412BE0149303C20744EA37723CD5CD89D6
311
EFACCA4CCE7C58D2CFFBD2FC1DF0D7F54ECFAA6DF6C733CEEA7FCF686CA8E9EEB9293C70924E5C079C5539A354D60053CD79F26F504B03041400060808006B94ED4A95B1802802010000D80100002D00000043353344463842322D314546382D343339412D413642332D4332344244424634374134302F636F72652E786D6C
311
95914D6EC3201085AF62B1C736C669DC0813D9497D82AEBAA366E2A0C460F153F5F885DA95D25DBB023DDE37C39B61C7CFF99E7D8075CAE81691BC4419E8D148A5A716057FC10DCA8E9C5963FC830D655ACCD0A22423CE266BC2B249A3D11E7452B591B089C239F0281BEFF1D222375E6116B9083E3ADC2D5FC4781313E424
311
5F7D9C7935FFA0A305E141225E95648FCB3D26F4953407BA3B54F48D15C9C95950DAD36A6B06F33BC8CC2C3E468A1861C5FA1C6D41C9CDA464FCA4BA28B0889F76F43C347D85C9CBD0E09A3E77B87BEA293E55757FEE877ADFD5652C1261CE9CB771345B913484BFE22BF82B5A58E43FA3AD8443FC215491E6CC59F1BD8478
311
A69DF02F504B03041400060808006B94ED4AB432A47F07010000B201000008000000636F72652E786D6C8D50C16E842014FC15F2EE2860EDEA06D96C8DFB053DF54685B564158CE0A6FDFBC26A93F6D6D32333F3DE0CC34F9FD388EE7AF1C6D90668460069DB3B65ECD0C01AAEB80274127C712EFC9201B272D20D2418041F
311
16B7CE3BD43B1BB44DA8754AEFA0F45E0740FD181F0DF8FE434F32936B880A7FCB66D9DFE4A0339A6D3AC183997E56FB45CBA0150846E8019303A6C52BAD8E457964C51BCF9352F075356AB7322ABA9BABD10B884B7B299F6977C6A47D61F8A9A50CD7E79AE082D55DDB92AE2A69CDF3B42CB80F4BFCF37E24E60CC8CB7BF2
311
E5F94609FEEEDCB80B6228859C1DBF40109E27E24FE87556FF086D6C28D87E70DBF020680CF420A2716A308E47BD71A6B6C537504B010214001400060808006B94ED4AF6A01E39FA000000A80100004F000000000000000000000000000000000043353344463842322D314546382D343339412D413642332D433234424442
311
4634374134302F4173736574446174612F446566696E6974696F6E4974657261746F7250726F706572746965732E62696E504B010214001400060808006B94ED4ACE140E88360100003002000045000000000000000000000000006701000043353344463842322D314546382D343339412D413642332D4332344244424634
311
374134302F4173736574446174612F496E7374616E636550726F706572746965732E62696E504B010214001400060808006B94ED4A88E57597CD3F0000904100006B000000000000000000000000000003000043353344463842322D314546382D343339412D413642332D4332344244424634374134302F5265736F757263
311
65732F43413937393032372D374630422D343838322D384136302D3344363932353336433844342F7468756D626E61696C2F302F67656E657269635F706E67504B010214001400060808006B94ED4A28BB58AF800100009E0500003D000000000000000000000000005643000043353344463842322D314546382D34333941
311
2D413642332D4332344244424634374134302F536368656D61732F436F6D6D6F6E536368656D612E786D6C504B010214001400060808006B94ED4A2CCEBD668A040000E01200003E000000000000000000000000003145000043353344463842322D314546382D343339412D413642332D4332344244424634374134302F53
311
6368656D61732F47656E65726963536368656D612E786D6C504B010214001400060808006B94ED4A6180134D5F0100006B0300004500000000000000000000000000174A000043353344463842322D314546382D343339412D413642332D4332344244424634374134302F536368656D61732F52656E6465724D6174657269
311
616C536368656D612E786D6C504B010214001400060808006B94ED4AEA385FF151000000570000004700000000000000000000000000D94B000043353344463842322D314546382D343339412D413642332D4332344244424634374134302F4173736574446174612F41737365745461626C654F66436F6E74656E74732E62
311
696E504B010214001400060808006B94ED4AF8658340580000006800000045000000000000000000000000008F4C000043353344463842322D314546382D343339412D413642332D4332344244424634374134302F4173736574446174612F53747265616D56657273696F6E5461626C652E696E66504B0102140014000608
311
08006B94ED4AAEF21A3C38010000A204000036000000000000000000000000004A4D000043353344463842322D314546382D343339412D413642332D4332344244424634374134302F4173736574446174612F636E782E786D6C504B010214001400060808006B94ED4AC70751DAE700000060010000670000000000000000
311
0000000000D64E000043353344463842322D314546382D343339412D413642332D4332344244424634374134302F5265736F75726365732F43413937393032372D374630422D343838322D384136302D3344363932353336433844342F7468756D626E61696C2F302F636E782E786D6C504B010214001400060808006B94ED
311
4AA233C2345D0000008000000065000000000000000000000000004250000043353344463842322D314546382D343339412D413642332D4332344244424634374134302F5265736F75726365732F43413937393032372D374630422D343838322D384136302D3344363932353336433844342F7468756D626E61696C2F636E
311
782E786D6C504B010214001400060808006B94ED4ABE89762363000000880000005B000000000000000000000000002251000043353344463842322D314546382D343339412D413642332D4332344244424634374134302F5265736F75726365732F43413937393032372D374630422D343838322D384136302D3344363932
311
353336433844342F636E782E786D6C504B010214001400060808006B94ED4AE328A7D27F000000A30000003600000000000000000000000000FE51000043353344463842322D314546382D343339412D413642332D4332344244424634374134302F5265736F75726365732F636E782E786D6C504B01021400140006080800
311
6B94ED4A7F475CD50C010000550300003400000000000000000000000000D152000043353344463842322D314546382D343339412D413642332D4332344244424634374134302F536368656D61732F636E782E786D6C504B010214001400060808006B94ED4AE3603EBE7A000000C20000002C000000000000000000000000
311
002F54000043353344463842322D314546382D343339412D413642332D4332344244424634374134302F636E782E786D6C504B010214001400060808006B94ED4A20F7BE2C7F000000A30000000700000000000000000000000000F3540000636E782E786D6C504B010214001400060808006B94ED4ACA1DF9C9A900000073
311
0100001300000000000000000000000000975500005B436F6E74656E745F54797065735D2E786D6C504B010214001400060808006B94ED4A3DEE336E64000000790000001B00000000000000000000000000715600006175746F6465736B2D64657369676E2D7061636B6167652E786D6C504B010214001400060808006B94
311
ED4A6961D1B3F90000009601000037000000000000000000000000000E57000043353344463842322D314546382D343339412D413642332D4332344244424634374134302F4173736574446174612F636F72652E786D6C504B010214001400060808006B94ED4A30643D59F40000008E010000680000000000000000000000
311
00005C58000043353344463842322D314546382D343339412D413642332D4332344244424634374134302F5265736F75726365732F43413937393032372D374630422D343838322D384136302D3344363932353336433844342F7468756D626E61696C2F302F636F72652E786D6C504B010214001400060808006B94ED4A09
311
AFE0B1FA000000960100006600000000000000000000000000D659000043353344463842322D314546382D343339412D413642332D4332344244424634374134302F5265736F75726365732F43413937393032372D374630422D343838322D384136302D3344363932353336433844342F7468756D626E61696C2F636F7265
311
2E786D6C504B010214001400060808006B94ED4ACD7DDCFB0D010000B10100005C00000000000000000000000000545B000043353344463842322D314546382D343339412D413642332D4332344244424634374134302F5265736F75726365732F43413937393032372D374630422D343838322D384136302D334436393235
311
3336433844342F636F72652E786D6C504B010214001400060808006B94ED4AFD3DB6EEFA000000960100003700000000000000000000000000DB5C000043353344463842322D314546382D343339412D413642332D4332344244424634374134302F5265736F75726365732F636F72652E786D6C504B010214001400060808
311
006B94ED4A3A0A5419F70000009401000035000000000000000000000000002A5E000043353344463842322D314546382D343339412D413642332D4332344244424634374134302F536368656D61732F636F72652E786D6C504B010214001400060808006B94ED4A95B1802802010000D80100002D00000000000000000000
311
000000745F000043353344463842322D314546382D343339412D413642332D4332344244424634374134302F636F72652E786D6C504B010214001400060808006B94ED4AB432A47F07010000B20100000800000000000000000000000000C1600000636F72652E786D6C504B0506000000001A001A00210B0000EE61000000
311
00
310
504B03041400060808006B94ED4A000000000000000000000000370000006662782F38393834394632412D353534432D343033392D414345342D3646344534324242433843312F617474726962757465732E62696E504B03041400060808006B94ED4A000000000000000000000000350000006662782F3839383439463241
310
2D353534432D343033392D414345342D3646344534324242433843312F76657274696365732E62696E504B03041400060808006B94ED4AF270F1330600000004000000360000006662782F38393834394632412D353534432D343033392D414345342D3646344534324242433843312F747269616E676C65732E62696E6366
310
60600000504B03041400060808006B94ED4A88E57597CD3F000090410000420000006662782F38393834394632412D353534432D343033392D414345342D3646344534324242433843312F7265736F75726365732F322F305F67656E657269632E706E67355B773CD4FF1FBF73E71C0E67EF7576C9DEF3EC995D46C6A1EC50
310
46649CBDF79E192942562825CE965D8A868C2842C8DE9FDFD1F7E7F138F7078FCF6B3F5FCFD7EBFDFEC41B196891913091804020321D6D7513FC77D8C5070EC3FFEE51B21F068154CC75D455CC028A3EA68992803810109FDDE5D5CEC5521B28A1B422BF80741695D5B529DA1C2D058AD2388BDA9F476F7C2CADC939304173
310
DBF48A452BF8A700C0C70C3D121C1AA15A5270C22E2B9E28763651F7DA0D12CE11077B2ECD0D560B5E3DE2368B1E65C5E1C87384A4CC5F2D9FB8BE39E9B77C753783A37998F5CEF1B4FEE553463245C9712270880DF339E0B882A6BA713D865F6F384C842D440934EF264F4A304F8DE4EEFA1E2BF5E2D91F5ADD9613D6E31D
310
DB33ED31DB1D7916CAF091286EA3D31B9CFECB78BB0060245B943C4C040119FF780A74DD308BA9D028678674EB5504ECF284EE814DAED07440BAF649BE4B55DA2890F4D73E2D489A59EE54FDB0A85B59F2F52C4858A02705C4815A792B0C4A996A2023ECB195073E115E3E3647F64243A8338F2000BCB58DA5692C7E7C3D41
310
3F963FEDF3CF00FBB0F831A9D51360FECA43819F527B89FA260EB63C5DA676830AA3626A3693B23F1A17A0DFFCE3EE164E31B5365EDF0C89EF64D8E38AB0BA9A1117D7C3A0EC44F44F4023095E80BA610DE336D0F99593A88BFC5306E72DF98F7FD132ED95878DF2964EA7E43071359FD83B2BDF9C6B5BDF768F0F3C0FC351
310
199526F53D9460A34511F75D1B63E488178569472C91A94497807A3FD4A390C6558F26D416365C3656DE6E769DA9D8FC73774E1709812842DD8EF96AED1960F79D21B395CDDFE6F92CB4EB962A4668C76990E2EF29798C8941D67DA50F4A5F947872460F1F6FDB794E8A29FD7AC0C0D6E0714339CE258FB17AE8535221E346
310
4A10F29A0BE5EEECEFC5675926A89F49EB14E5711894F6586DB5754EB4D5DA9C6437EBA57DB97A24F8B8A8DB295FFD73266CF57E82694DF5166DDF93573AFE9C9C5EB05F8FEF8E89E0A8917B0B3724DB7BEBB53252581EFC3E38166BA131A3A5B42FE2AD00A769BBFA4458D2DE7822F8C4F63D0B8E21B285AE13325F3410A4
310
35C648C9D91FDEB109E73CEDA7BC796961AF79175E1A3CE4C5E8B0D009B0C9E29EFD98BC8E97554E3D8D838424E270F7685226E5AC268E021EDE3522D583E8F20C0BDE2959EF5BBFEEDAB32FE9A3ED0E39F211A86AA9DEBFC68182EDED132AB8BB794442D2D7EA9F4D8BFF52BC4D55BB165124EE90A42D101E67BBBB292FFB
310
4F66DE5BF2300E44546757DA7CEF8932BFC9F92A0707953491A55C5A5ACEDABD9FA1AEA01BAC3DC5A24E22E7C47213493996EFBC369D086ED9397C9BA6C7F9855C7BD5E15BFC8C53DB3D2A4C5901A57ACD2FBDF4D1676E95338B2C2BCE65FDA4C64F5FEFDC7D9CA5AA1FCF11E193F2FDABF0F4916BF13FB916A224380E6462
310
A9815F2300DC49CC4DF8D055CEF76462F4B7A7ACA7365C2707891370BC1D0AA6203C44CCAB47084FEC057F27FFCD57F89B8B9852459798A675C66BD7CE572CAF71FF7E6D7ECF7BF62CAB7B3F1107DCD04DC55A3F9961700286141C94A4F771FEB2BCDA2DDEE0CB0BAE402FF1DB0100F8E475DFFFC074DDB4498AB7D186A765
310
4DDB1CB680D703D47CEB4E72F8CB13D86A4AA68116E26387B93FD6738779B34FEDB8E517EDF2BAF28D9BE93A1D3A164320E07D42E514725C29515FF361754213EDE06B079A2E99EB1CA82A02019EADEEB87B9AF005BD04BBCECB14AACD6B24EFBE482194A97DD32400685FF1FEF1544D1B14EFB1E7F08E6D2CD2AF52DE757F
310
35F5E62332EE88EA26417AD5C3E0E319D68F25414E6D672BD4522B278C57D18F0113921C71D96527E091F00CEB15AE23D24667369BD3CEFA10C7549D930890BA4366F4EBC55F01F746109F98ABCDD5A3EE06619C6AD78AB33E48E4C9BD21BF7478B385EC05C4F8987E2C1BFA0A60EBEDAA0AE0B015C2720ECE180FB6F2DEFB
310
EB822D96338C9B63822183BBF52FB664A7AE57003AABCE512BF77E7E31BDA2E739AC4C131657DDFE5225E900FB56CC01CDE808FA4A9C9DA16AC679656BB64796283D89812B8F91136AE18EE5EBBAF47A73BE3C153EB5D4CD491B4BFB4FE690A4CF9ABA08C0D8AA64220C438C96EA6CA80B58FE5761E697B3A292EB9FBDA502
310
FA863E49FE694ADDFFF9D62C520BDD1A22014147A0903A05B9B729F54272EF83931FEEC057BFF8C8055C279EAC5C0011804828734024F6CFA319C9CC6867C727184465CD9BB7ED386AFFD96B294A85E3802FAE47244602D8273615952B98C4F23F7EAE4463D9D638EEE374A20959E0FE519C4CFB0FBFE5DD80C2AA3F9DB961
310
D1BDE57E67C9BB47B77FDD74EE3094F5DBBE3EBC1FBDB7393F5116263009E2EFE1AF9A221B2AE234C902BF70E9F280ED23E73908361565964333A3F01D0B006AF32FB21AA1316744B489D5A198E85299241735BE559675130955C902A8ED761FC0DBE337A9F91919AF5CE32AF902ADF9AB2615E00E8A94586BA1A90839B618
310
32FF1BFB76D2EFADE6DB1BA04CCAD3DA649E7E2A0219F592E22F2AD54847EEA8E42271011E9074F8F3DD9FBA6CDF88FFC9FC7E811AD1CA8F4557CE4AFC7BBEDCF0114A48689F20A584520C74DA8127124B767E2FB91A6B186246727BE63C9445BAE02088D58B8EFDC0F1072407CD9B89A13F6303B4A928F593AD489B58E686
310
9325790ADC406036C591729FE14021F94B7796BB11848D463536A092A26F077F94639F7CEEE2A724C66EC885F4A24F8B8A0AC321F8FD149BA529460FAA34E4663C02D41FDF80BCA222D42F0ABFF8490F4FA74C673807C2051D8E467B47B616072860069A9A303ABA9B319D58404461401B0A0F9BE5E1E151C14BC33B32ABE0
310
3DDE91708DFAEB15E7C0D593C86BB7D7EC17BE56E57975F077BFD5525F3A1A361D584A75E08CF29FC7B44B2B3085014F3A5A14517377C3F6B8F37E59514C3B12F8AACDEDDA4DFC49BE5710101534CD6FB6DE15B50F11A09472AABA727F0C49D9CB906B158030065F48EB3625E010CEC1D511D0053474B11E6A4F01C0D6EF1B
310
ED3A944FDEC70E0DDCDC756C86545910E0DAE3BE3AA9A404574C2995CD5CAF9549226BC94B4F4F0F5F9086F418F6B32346464610D8BC7391D3C3A3CCF04CFC1FB2A3A3170E369511868F14EEA4E5E438CC73DB1F3248AA94B6B2FF33B222FF3D1E7BF146CAD229770158063BCE4F5391964DF62F7E52A7BE0EEA829C9E13C4
310
C147D6F93FE59E111DAB5E4594D6F3CD1AD375EE039930EFE5AF2BB2D41C83C7DABD8C659BAFBE8FAB392CA634F3D15C1D945DB4588D2B0824A4EC928AAC565557CA2F0DAA588CA5BE30B3A8004F7BF005E96CBF891D7F18112A3619FDF530DC8AA64954258E1811789B5189B49B4EB53F5F89F7D37523894F3EB57B373763
310
C91E502F52CC99EB7BDDF933FC324C4FFC2561DFFA7339FAFDD0A4BFBE6D3A8FF9ED1FC49898139864602458968913181918F719CCF5A68B2EE9C1FF050E34E63107003B8120FA982C21B30A874E4F5E4B38D5A8290C4B8D9BE48A0BE31EA995BDC37AC6DE90BA17D259DEF53605D55922FEB1855D915B659FBEB350EE0DFB
310
2F9F766E1C84CC8964B75D08667445EAB966015F63A18A9E0A325C1B3DC628C0D3CB60F767FA93CC65F25458BD23C3B312716E5F40E5858AC06EBA9AB14F95DB99147B832069201541D09A0D856E12C629CF32683760EE855537D1901988D5EBC156676C7DD51D7207CF3267AF1D76C2AD867315E44618015313A98B19941C
310
696FED3461CAA9B5415F918556D7802EDACEFD6B2E45853A9735DFC9DBF7E440F9319F8B6805A973BCCDC76C069A9144E51F187EDCC12FC31B5DEAAF0A76137199B106EC84ADA6B6EE697D4E6A96E007417F4E880E8B1E89B4BCE9D81EF611E2ED8F0C1A6C25F620FAFAAB656A7C42D464880E8AFAB0E0FC8EA38CA9A8AEEA
310
EE3E4648BA4680270A89743CDD3E6C6CBF34B7B640EFA285ABC7EA0A1E28F3CC963D114A80123EE66D0AF7D5380EB41909B605AB4765B709B808590458157E69BA1378FEC4B48CAF6A730E3BE3C5EF2DD1A5EAF94B1DDE50CEB55DDFD7EE9A16747FA4B223359FB1FCC69E1194892BABB93A1D5C4E807AC0EA2E30180811E7
310
7A2291F6E7F7FAA5E0F60215BC6024E48DE436C511F0628B8CA189982D4D83CCA17D305A7E923C37941CFDFDCD93ACAF735EF5F0E61BBD3E6C41A59B242790D3A3BAC7064DCD89AA2E37214EC839820949D5CAA31E240D2948E48F690298974A96BA9A8432BC90F5071D6537C9666EA4564796B7AFFFA548077BEEA75F6308
310
3435074BA182F3699557397F71548383FDA8CA34D99B981E72835ECDA5DDDC151315173D05A21F651AAF8524E88209E2E7A737ED1045800CE3390050BCFB8BE588DF111617874C62575039CA588EEFDEFEFE319B739DE2EDC147092A262611E159650E787917885EF08F1F51B8F2D8A71D60B58B190FEF9541A1BE94BC19FE
310
A50784DA1419FE4B0FB51B8D36B5FF8E1286FD8AF42B91E59A5F1CC4D60174E764045FD8C57B18209B217F89A62252BD20BE0E63E12B8E8F029FE19E0E8D0870F58721A557082250D5424F7909369376E41666C0EE77CD87CB283F661D5FB6D0DA023CB67320A20DC7BE661E9E1BFE5463085C557DA1FF9BE835733766C3D1
310
39F2CF9E2208873AD0EB4814DE9E6BF2CAF81614D4D43906ED1C05A3265CABBFE192770FC2F64F940CB6B17B5F166F133C9AEEAD2641807C3E69515171DD74C4A85311513D6EC9530B3B601B6BA3EBFF3B5C3D2F7D69765141E345F75433953D013ADDF8F6AA7DC3F4A7563FE5C7D367937E2900D7EAD0F9FC9A4A1A9B5BDF
310
1FEF08532660C01C5D6DE22199AA774383E306DAB87E301ABB7D213887F9869D4942D0D71E94B27EDF216A318BD488D45DF84529EF575AF3C3938C0AAA0215B01994153E2054A0B894DA5C784980633AAD48576957CF4AEAEAFADC7C587368551C73DBE1E57C58AC713303A8BFC258BD04B51724459FF9E24C03A81E0E0679
310
CEB9B348C0DC998FEB9C6D6EFA77D247CC8F92D3848599ED89A23218D0636465AD1CEEB7DC140D7426F83491C4E8E8281C2FB35240918FFECE880CA2A42D70E8B20B34DF5221C7DB0CF90ECCB9C745B37A47E9B716FF7A97B7A252C1F3814DC7B1E1A7F72B8751D524EF7CAE45B0C73B3BE7D08ED39781B380DDFC9AA4A474
310
9C9493DB5BAD07A6EA6C092FBD0E85DB004DF06B8C9D3089C5320187E4CE1846158C7EA7DDAE8AD9AFFF21AA3A1026BB06A259845E8232DEE62811A4DA9CEAB3A4887320B76E2AE5615EAB7BDF738CBDD01F1E64064BC13D9EC53576751CA8CACD58B3CEB0E6CA585BD089B2A59B9FC101403387AADBDBE70586B93D64BF3A
310
D4453EF9C3B6A93817E8346991798601344F79A83C51F3D50F7BF2683A3605F51A72449489E0EE6169C749C60B1035651103AEE24D24E51A759C840DD3FC6504DA6FE107510E447B43461C79D22970B75DE5E1BD3007D1AFC619A4A4A69B5626AF5E9B8374E20677F77E2F8E73DF868E8BEC7EBA7B6A75EEF7205E1AB9486C
310
B642741D6E03FF13FCCEDB1C4AC129886268B01CDF4B124AF797CF784F3C6DEC97A17D4B558070A0F1C04DA4FF9BDBF34159AEFE958479824B3F58EBD1E19088A2AFDE501B6F2052368A3FD0E650A179EFAB1561E1D27527077136E652676C3670F42DCB3352F48F6BC86D2C3B0051727E41A0A4DC6CE2BE9D47F5CAA2935A
310
3C0539AF080665997194ABECD723B08129CC5B6B21D2E7D54CD4D12610E7E9FB8306771A89576C7A982002775ED44F3F744CF21EEBB27A631671D921938AAEE3EB0D19CD1E083727F607823E817BF599DCED5394E37EEBC2E88782E638920CA641EF74D4CDFCDEF06F4278ECB18E31E7E9876F2D783C8BF429C75395F57E98
310
C2B495A3DA077EB3AC3C158608B6B57FE3EA48484D9A480096FCEE0DE880950E7E5A5714131C5C41AAA29FD19AE81AC145FA1B9E85C7169A5AB837B213493DF7E9AA4B5FBF9CDEB36EBD21EF1181B7CF7366AB2A951D01E37AF4EB835D1BE8C117CFBE7625D2EBCDB0B20C5A4B45CED0BCDE3EE8DA9DA78C2E21DEAAFFD119
310
7E463C33CC6A80FB785669B856EFF7A8CCCA2841B5A5369173320B1170C368B2748D81062EA0296E5E2D95D7667A4A46D98A6FF475C76AAB0A8C8D45E226FAFC9FE0133EA9F60111F99CA81ACE03A1D14C89E8B0D69079C91464FA1D99E651D0EAF606F345C42A8A1AA9BA391031582B96D5B4176A77AADB01F12FD298A75D
310
EEBB2C82F0B8650E880722F8DDD90C56A7A058E5FDEF1AC93545BA27367C76F5D8F9690CB6F8DAE141EDD7971F0FB548A2AE435F224D6E5954CA155512F7332029D5A1230854B79F258EC5FFDB09F5F6343A8EB193229B7F7E79B3E48F8E183860B38C8269D1B53738FF1E0BACF6AADA6D4869E9DE708E79B5DADCC09B1BC7
310
6F649731CFAF59A83FD8BAE4C749D66FA87A3810D4D62FFE826FA400C0F325D2BC0F3CA35F5847B82A2ACC7961745C823E4D863D54460AF792CE6F79B5C7A33B25C3AEA6CDE15A919B6367D781E9D44F61BF828672594A3E1D9EDD6DF179A81F27EAC05B936575D73E05C209DDD2115CFB705DF9BBF3C911589B3640735E9E
310
618FC9C36A7326C82B2205E244C55D56FDB9D5DC93CE958D4BF8174D2B3DA54CB3C09F2C2A6DFF73D23B2197355761AD421EC581284A7EF8DE2CE3497C0C804D49B41DFD6A7360844E5BEFFB495CFCDB97A4595911CDBA623274CE852B5E278AF0BEB1770E9D37CD977B2766A7DED0E94B840E1E95E8C77DE5CB6354AF7871
310
427C28ADBEEF7BA0A28E19DE9ACD75F379FE373EAE6DDDAE3834692F9C2B03B4FCA8FCA9ABE8EEEBEBB725B88A7C90941E850682CA04061A7DF0CE82ED49BFAFFD42C309818FAE14755CAAE78B0F73243ECCCAD7DF58FCB9CDFAE7A4D3E6671A613639130D056C8383C8F4FCF4808C331E544DD26E4755D09EA05253B3049A
310
1E32587CC25D72E073E2CD96D04A71BBCB0038FEC3F53D254199C3CDC67CD66640269431860225392B2CB3ECD0B4498AAE78BA1994246AE1EE78F2EDFB79F6C6CB6B5E279C4D373FBC21CB2698C9ACBBEB6A4BB6B39E16AB0E421CCBFC7654D81ED86022F9BB522146F9F4772E2D0E4FA70120C95A85A417BF5078B232F475
310
4363EB1750B2AC2148EB46B1EA72AD9B4D23ADCBC589D70106C3EC2ABEEED84DFE28E718C6C83502C28E9FDD3B09DA0A6F6F7B72B706A31C9E2A331EE70DA56A083D2177BFD63C55B11D8D949FAFCF90B23A1E24B9B5018B9A17E99F2890EC302F330FE7936E2C23F0D237EC8916F5166AB84B62A21BB0B950146962D754F9
310
2CC2C8877BED8FC7B7B25726DD19545392570B3A2C66B58F027BEF412E552D12A588C4A3CC5C3193FCB3485EFFF700D0B9EEC077754A33DC1FB9E25AF814628F91DDFECB667D3F7690803F38D13F8AE39353523BB08FC6760144AFA2CE28236F65EDBB3D5F59A57D612B99E3D7E5F8A851666BF9B5A6658EFC96EEB37A378A
310
BB0EB3FDDF1303AF32C41BD1C8560745D7BD81066B0D6313359CF488563D3BA3F8E2185D1FAA3EBA1397C9D0E3DD232180A4DCADB6AF25DB3AC3CC26589C8239E66E81547BC7E2F328F9884764CA37EB5DBE390DFC03A5246B456A7C3684C4377D0EEF9A350680FA9A077E8B2957B489E09AB1AD41316944C2254B5984830F
310
691C93CAA767EECF976FA5647538830B5E63236A6F0365C1E0F3E327F24FE35EDDBD7360B0F7374837409F7A6311BECC12B7026D4FA1AE204FA3F5FE904B1F420C7A9044AE58E403E7C4848E7DA25DC9EDAC79DD756FAA26B9EA83ACE8A214A2612A22AFA19DAE7DBAC5F8CDE1292A485F98DAC731A29FE01A3966E96BCB9F
310
B5A4C8830E1B9AF0C54B87FBE221A097036E5D28D1F869F810C06A9BB0AC0612F69AEBAF893C6E7AD59460208BAB3A6B09CA4F6BDDAB8CF0D1F84B72487498395A70DCD754796E271099A567A55CF242BBED64696378BB6CF25EF0FCDB589F3A82F1116D010A9AB9FA4358809EE0C973A2B4229BAA876A70B03AB49CBA7FBE
310
71DB1832FFD32F9BF2C8E98075CACAFB36921235D0F552B6A67E94E094097A5D7DF681B40623DA535ADA7A9AD8E9A62407D7C9A5AE51D62A17A83A23728DE86BB56115804D3F2675F2C6B87541A0FC497BF0CA86420F558C9859EBE9FAD62747E323E3AADC03FDCDDFE7407B09DA90B44E3185723C5381EAEF589765E2F7A0
310
99BA46695BAD60CEF3491B8A171F5F56444F7CE9455312C3498C74173AEA0214EC029833B34B650CBB5A5508D5091665309642791708ECF27CF11DB3D797D6CFE474453BD4BFADB768094B2147814D81C7CBAF8228DCAF5564B5891F5EF6A860EB2E323CB82AB868D8EA048880D63B0DE5341F1B3D53297B928A11E15F25E5
310
148990F710747C3509ED14909C552EBE3973246FCE55D00564D8310BC3EBC5085D08D806799B77D6C57FDF5E55837F9E934F09C03C729271B64F12D0A9F9E938107CAF7BF1EC8CF1BB9B42363D33070F4CACB425E605DDB0A34A12BB936DE286B9887A4E2E558F0886498BFF49C311D96C277CF6A9FC0D75AD0ECC5226D7E0
310
E3572012E56D7FDE4410CEC7A6D0F997F225A2055B8B92E3956E875AE4993CB3D4C9063AF98FD45E1BAB165640A43439A2C9181A7C355B297C0A0CCFFAE19B6FA3C2BA238A885FBC98B8F6DAF4B94B97304878DF4D8BFF6A4AEDF79E90ED4E68F00CD7299F4E0D83E35601AF0CBEF18C1E870E74758FA91F5131075004DB3C
310
FCF09AE1DABC11957FD9808C92E8A678CE9DBE40DDA0E0D1D505AAFBCBA208232BFB6FB3704E8985E61ADE53DE74152F5C7DE74B1DEDCD37DC3E8FB30D7EBA8B9EFFC3606BF90B8D438279CB7709FC7C00D327F41817EEA71CD9E49FE9C8C9A81C70915D9F0F15958EC5AA4C3BBFAF46986B90F188BDB24B89DE3C6F29EC3E
310
6F66D84856EE96A35E657CA41B41EFD8DBFA16AD6E91439EA92B40B21C053249F51AE50EB0B24C770FFAF40DF12C8436366819C48E36547D4E7B72FE2BBF10828583057814A668BDF183F6B2E58DFB151103E56303E63D00F39C27C4661605DB644D19175D02E3F0241E8FC3458D17AAAADB117CE9EEA690D0DB01E634878C
310
04C2C9310B69FCAB831151E3AD293BEF6E46B0ABCECB50F5939B39C613D41E81FAE8D34CAE3C4566B761D37185FE864AC32FCB71AEF39DAA5BAB88609BB980CD2F07A8F941653B529567726E2B2A58D079DD57E1E5E31426CF184A04D7B03B985F276D47406AF276FE32E3328BA866EB1FD39BEF57863A317634AA5FE46740
310
9B3873F5069EF0D71AF00AD189D17BA1974ECDB2D623E9E14086386A6AAB5807825C37B015BFE892AFD154920EC437EB945D958E18622E1E0FE2FA06557CE4BB9BBD05A2D40E774DA2B65473791E314B7D6C886820B2FCFE4AA272B3B8B15E7344A145E8AF919B5454D89D36D413E87211186BF6F645E5EC94DCCE8E1C7990
310
22E4EC9BC86D7A0F2AFB1FC4B2CE48F84B3F49ECE65BAD24CADCC07EFF39AB06BE9E6B27A059938EA7208838455383DDBCFCD967DDE4650EF92A14FF933C975DB20BD7FEEBC4487576485963D757D16340D9599FEB362F775F38CA4185A86F74B629C81B133644A3B18FD056E997E0734F9BE26D11C0AAFC669E2AC9FC41D2
310
81F8B2E1C35AE27BCE05F3DA295488096688719D974DF1B5D182DB7792288697F8763CFB43562C1CDEE11C4AABD5C22B6E33F6F389CFC3477C5919DC0D533F8A7A1846B7ADB60ABDC26C43D0CFC8910B7C15EE22675BD02702ED39DB77A87A192CA7A543E6205B979B9F5A6B512A3CA799E198B2D5797C0AF8D1D872CA455D
310
4D431A7879D4DD76110B5FF7F4176B54477A9EB5E4A5D11214FDA585F0382751D8E2582BA5D2075053298FEB8F1537304E32CB22C2E2B693DC0A760B1DFCA751BDC445AFDCBB12820ED85F6D5298933C7EF1211E9E057684056CDA3FEF3BB6052355E162DF27C59E965A8DDB7F9437EB72CDDA3A090DE65A5B2F50326247B7
310
EC67B73ACC7047FC9B353D6EE990F772207C6EC52B39DC2F3C0754821DAB559F7C1809C7D0DD5B0499D0442E0A6E391B3D5DB46D11E731E6794EC77523FBDAA242ED67F9FA1FB684255671F63C9BCFE6E7E896D51001A6113EF2298BA494E0B0980D1FA5B9D60796554C02256B1E0345FB7C6186B6A19D2DCA270416262845
310
FA4F42DB5D9B0A0B6F07FCA2E56C242522E001E0CEB734AF310FC8BFB57E38E03AACE93B3326A2197891E68452B26A6307FDABFEE0223D3C03C3C73D2D5BC054C8311F12004CAE488E5C29287F8156A2CAA4AD0D7BE6B97264E4139F437CE73ADF52E5134C52B819777C18B323A5924E4F67AFD13B1CDC3A61793A79FAF5C0
310
CEB718E441071E797C6DCCB9EFCF7E4A1E9F3DF3C2F9C9E8294E9586868788C972857FB0556D7A26941A7EEB9B580AD78EC40B85DC906B4120A563CA3B87797ED612D3B035962BB75F6515A393F4CB057F564CDF54F2E5A024514E6A1F901DB80C7E70B1FC05E356A7E72FABF4775B3E3FB8F70A2A8E7B6A94542BB3041579
310
78CCC999E707A29CC795E67A59CC546A5D47B368954CA7B6E75EC9E1F6FC73CE3B4F71F8CB1A6B15923D61EAAEB14626AAA9D04A26EB9C66CD1BE86CA31A5D8703DE04CD1EBCE4F5CCB62F93909AD11E55799A781A956ED27D3E738F4538CB04ADABC7DAEF20BC35BA6A90BCC1DC61BA05F20D8832FFB9BC9B15E2DB838A0A
310
FBB7E0C82A562127E0446894F427794C3037186F622BF24DE1B00AA10A23BFA47B2A180D6DA5AD6F7326FEB8C100C2D7142EB2A0B2A9D1008A09BA343D70E054AB69E2A7EDB783CBD92537FAF4A44D1296AC2792729104B3276C276C951D0CF3CF3F1E6B017720A7B8505A5FF9589365979678C36F1BAF759EAF57C60F1FF5
310
FE9DCF5F8E764FF25A2D06CF25117A8FED51884C13B2B750DB0E4F5E3D64124FCF11F0AD8F1CC3B3DA4B38ED22BF1CB2585EE6BFEBBA63FBFD44F9537B9B37BDD6B358720F98A8125AED4349CCFEB0E135F19E208A04CA7E2B10711185D72E381F448036EF57C9F874E54A971CA37A639E986AC0226DC5AA00D5B14FEA9192
310
234B3DE617814FC221C92F33F1D392F297731B567FD98FD91D989379AF567A65B8ADF177591DB90FBEA99BF4ED11B16E50A0AB1DBF1156D034BBE04D69D08F939D8E92BF525A1DDAFF80ECBC95D8F45D3FDD289FD23F7D8B452F8EBB34EC082DEEE68E18EDDF072060FAD2AB1504DD4879BF67099FC58F6E9DEFBF645D1633
310
4A3E9A127C6F1AF6132CF287E433B43A0EE93812B4AA0B194E03EE3FF91EF9C6ED0074A2F6EB18A96A7C9890B1FCDA1F2095E944DB911ED54C60DF16FB74C8CE9BDC7C54C4F14078CF73C2FFF1F1BBCCD7CF64F71407EA1683DBC410D226627F66E509060D5C0AFD611DE681D509DB8DD12FB1265B03C6F5C55FF4C30BD941
310
87FF692B4F152982502F193098A789526A038AB529A52BC0DC4FB6285CBAC10A8B8DB75DCD9BDABBB221E27D1F8DA9F5EE5926A1C8AA9BA9BC09239C6A7F12914EA3B59EFF7AAEC3FFCCE56F1C5C2980AD072793527565E774F4631DB178CEEC691B1F367BEA0CF2907E1D6B854D527065979DDEF002D8B2ACEA7CE21AE297
310
737EDE1D45B31233B73FEA35BCFDD0B09721FDBAF6432681F2FD10C3E9EFB246FD6E854B344ACC9D8A0EEF876A7314B49B6A499FC650B099D650DBFEC7638ADFD245E2B7839DA5AC5F7D5623FC0ECEEC8653FC9B2BDD1AD4D00A566FBA7186DD3C9CD26512551637498CADB950FEC71ADB9A5524285DE328B8EC7EC75D2345
310
AEC6A27C42AF6D9B92155315C80DBFCABBB7DA0FAE425C4FB896B15C9BFAC4FE67DF5A23D30C93DA4D8F36FB15D100050DA6062E22AEC5F4DAC4F6FEEF97AE05DE63C6D38F9E068A20BC5E3B6BCD75320C5090924E7F93640A7735B1A43451C2D91EE62C6238B797349E59890AF3A520DF4A87095F3ABEC2E61F0593416CE4
310
6CDCBE0E00E2523FCCD04408588B5B6C9DB6459C786CE378770B54F51DA3A5E1DF2A3349BEAAC234A6CF8993B598B3B25B4B113E353A4D750FA7534749430F3EBF2512E7EA3FD43C6AB9A1F765A58463B306721A15D224FAFE8C6F5E3432D57EE697DA0DD5A9D4866A8BCCAAA9DFF1F06047851408FEC060471D0E3EB86BFA
310
F46E4B5E60311DC3E3CEA147C75CF971BE74689507154FF2D2E92F15CDB2B9182B11459FD8ACAC5A85F174BC94A7F4EE4C4F5CAFA7C02E37BF0BC77B7DCD0C047BC316F562A01A441AFA7931CC84A28CB9F4AA367EB515778F29BFE61195FA671F4352E5E46E3A64773F1F76EE5EB36D7BCE9BCEAD837A4D77F8DB8C92AEEF
310
6711920D7C7D0F76B0FD0EB7AB83724CD35BCA7D36DDDF5FBB7FF6F04A91F3E2BB3B8F1A43CD659639507FF6331C5F697BCC782AE57D757A27D97F1AB9E0AEDB43F92F1B2AACDF5FEC8ADBAF9F814E2027003BA2F9E144B1938A7A04050AE5D953B82C45619165C813A10E76DD6906B3C16438064D14CDA713AEC420034613
310
E1AC7241904A49FBF87409AFB1FCB9B72FE7933A87D8FBEDACECE4EDCF6A4FE9FB94D5DEB74FAB7CFEAE17EE965DF980DCCA2D04134994F9A2E94D2265DA4FE6AA7B7AC15FACAC2B5ABBCD7DFF542C5314FDAB2E1B9D8B65220B8E2B638BE008E8DCA22678C820C5053664D15E89F2D735B51A84955E81A443545E9FF787BE
310
0FA700A76D136C27DA179A7C6E8939E01BE756E19CB292798063D8B97F44E8A27BCF3A614FEB8BE974A718E86F7EC99B53CA35FA24F61F2B07266684623A3D4CF073E511F3A10A8FDAFAF0078C577F4DF9D339FE7862E5FA47CF4344209E5BF76D783B1B48E152AD281B15FCB934DCDA49CEC5706B1EE8B460F435324A5CAD
310
154725E21AB8044B75A557A79F6C807B9340AA3D92503E866F4274412926C8C504E4D5EF8C0E68DD0B028781A6B4054F11CF18941F101C57CCC796773ABC8DED9CD91FE5788806C05E548895354AEAC96546D55B0E94A59F148D061F42AA398D822CDECA4CDE79E13469BDCC44FDC990F366BA5978C15F97ED80CBFD73B0CD
310
9B8B83A4F6845BDFBFAF034019473FB9A63BD55D3A4A7284757071574029A4D016DCCBE95DD679EF3C4880BF169422F8C89B68A988D2B13793CAED4F74DE7486C72DC94DF46B8E93D8E02EFCB1FF9B3BA10C8AE7F653DF94F4AF466CDDCEF5776687F7C4C14B63E4EED1719DC2EC482D7DBCC7AE518CDE3D5FF86D39000EC3
310
673C0044E1D308BF05F74D1B5F033A7D1BE7F74BC55BBE3E4A20F920946CA0271EB17BD2B80E5660ACB8A29A79F5E4BBA49D4D945B6EEF4A7EFEAA65E5555BBB57A7E15D2F83C69F30BBB978D2B39F1F26FC097424D39BB33CA3D87ABF64E307938B685BAD44F71556A30B7E712CA4FE600613C3E554B69ADE949A7CFE214D
310
F1FFF05CB82151EC6FC31950239F94CF7AD39DC473F6EA356E5EC2C4EFA04383CEFE985A127484366FBEE3C0EC4FEA363E4F6632AE781392FD45D67B63FB8DF70E82734F431FD3443172A0E30A83D60982D55FA6A2CF86DBA8382502ACC6CDEF3B907982EED1160E14863FA242F9757347E1544275CCDCF71ECD5F8621CBEA
310
326B8BA884AD7F825781923E66971F04010D574C541D8427A438A37EEF8AF88240EED7362C953F5A81DE2D56109CDE2524EA0F5D2F87308C0C47BD97AD605878AB8589E17CA83930CB5E0DCCD75853D68B1AB136594926DE426C367428E9334AFAFF90ECE221BB5DC9E5BB53D2CDEF954EAA9CD814F0E5725F1965DD458E5F
310
8487683AD86B9D0076BE3EE91EB1CECC5331A67A3F79D8B27587C12EC2A6A70474749F27B4C0BBAFB94B34189E88DC18964BE4121B9137FD516C7755356E50D6714E31ACD222621EBBCD1CFF81D87479056A9DA0E0B8EA19D24CF937DA89F78E8650CCBDC110AAB6C4E46DCBFD0446BA9E2060E81F314AC2031E88135E5476
310
AC0160EF5C0DD2EEF1B8B5CB2D198BE9A554A9093B5F7D7E4B5407DDFCA1D9C152FD97F55BFFFDFE802954DFEC8995B983E28AC92F1971E28F531DC407A1280EB125F64A72E617EFB27DFBCEDCDA2D6F2BDADA36873EE46B9BE1782998C63DA7182BC383FB6FD15DA472B175D7E8B4FC88F38D6E07FEAA3FA3CBB8F6B449EC
310
F14D2175E5C5CCA3A42ABF24CA6C9395AF74535F4DDB38CB84F56614B0FD32D7E19CA5CF988DB4449C40E23DF2B16772594554579094450F56F253CD25EA7F77366FB1CFE79696C428BB64D5A41E986189427E5E4D7E2DAE3D5BB4972B3DC44EAABDDDD63A2264ECFA5C786EB0EE1FDC5BE34FA0F08376869FD1E61EA06CAE
310
15191135445EE8F0394161C3266A596AA035572BB0C8876180D8B9C77D307DF9DCDF7365ABDA6F3A2366436457A4DFC1F259666569A9E4A79C817BDD5610E5200FCE894A358EC72858D50EF67545DA81C6FACE3D457BAF70367E1E6BDD9A952FB4F56247F58F523B97E640246051A72F79BE42FFA0B3187F63097F91C48B86
310
8586F714B0EBD5A00A8412C1236E1298F60C72BE6C96B82B404CADAA304AE9F303176B14BA53FBC2D5E86377E35542019E24D97B96A49B2C0E5006E7795954DEAF5DA58958839043C6C70BD3B1B33B6DC5C31316D8A6923F142E26F6711A2258AF977DDF1F970ECC4F1F2B434B96D81BEB6E89BF3BBB3C7C8CC80505070723
310
D6D7D7D3C8CA27CA164A26024FED94B12A86031867241DA53D929636DA600F050BC40CE48B8BA03D69224720DEE2ED2127390BDF5E6EA64527BBD4C4C63FA76BB801FEEC0E61218EC98A8A86CD8313781617877E66692839B9468CF4DB8E50A73986E558E309C0D6F676F921BE02F1185454DC75B111572FF9D27D85EA14C0
310
5AD7271225B391C4275659CA4A43759D0BA44639BE4C30A84DB7F67A41399FB95CBF923B1B1672ABC807C1590557FB18D811983FA97F5E609516D62281D38B1281F68FC75528C35E4CD7DF0F7DBB5E5DD69C414EBEA2F4A5B241B996BA77AE6C772E367408C633EA3E438B68563EA8BE7667F3A4C4FDEEA52ABD78A2820F44
310
3B7914A15F180018D231E64519C56A12F6CA7C8DAE18F06F6B769DBF92329EF6A5D18FBCE600F36BD8E8198DE5CDAA96181F3A756EBA5501CEE58F497EA4F418A2B82565B9BCC611713C0B708CCA1F398B78C5F7D03B3437CC18F13061F55C7BEDADD5ACB1DB0E36D3CE47FF6EA1A563A57E9649EA5D14D1A50EAA45746338
310
1C073777EF1600607BAF6428A7DDC079D47A204EF1E1F1F0589FB054D45E02CE623B3823C317C601E589E22B1E88B448524B86A82828E32345EC18AE17214B42F8C41C6D428016D9BA31DDCB47572561E5A402E5BA4FCE55F78AF7268524AA04130F3A20BA5D1E9F9948EA48FC8F5314FDB35E21898198060034ACE5E3E2BB
310
CA34092518F275190AF65F45867FF0900AA4B81F25427414C372BF51DC29AA855C5428EE1EEDD6B849AD60F6E73475C2D2523F8A2772C840A478DED18A8C5C91B085F255DC4F54EA7AA8947354FD17ECF8FB3B4A0DE7B483CAF3A1165EE05BBA413E5C1FEF3DE1D6B8F2F3F3251C17D9FCAB48A9AAF63AC773A0E413BBC46A
310
9ADF84A566FC920E4D8C52C9769EE3301CADEEEDD92B312E02E2A7E35B7F1E7D203FE5A7D75578B06E99D0E46FFADB8FDA17ED8880390DA29094202D6F645F76F6F96409CDA05495A96E84B04A00D1A6C6C81D7F3DE9376E828CCF144EE50E364ACCE7237EA0BFB5607ED1AC3CFE73794E5B61739D14DF1743441B1AC98F00
310
ECEDE9E7301FA29755FBEFA68C91EF2B314CF510537EF1ABFC9A762496280B546F5EDAAF8A5B387D469FC9A878A92828C88608453ACEC6094DCA54111E7AD5B2663DFE2DD151B7F123B9F4FEF8EE36AB125FD7AD52A59B1B765B3E3F73E3F73DEA93875004D2AFFE3CDE9493B87A9904DD052028949041A91DC0E1BA47BA71
310
4343FD5B25E0A6A09503AFC17C790058A836A324FE31D7893512E28230332F153181C1E018E1124EBE1BA262AA428A518237D1EA7275E48C5C561BD19ED6912EDD8367DA0F31E40EEAE9683DA9257525AEA7B632B97119E17145A90231768A4F3B9120FF32E8319B015E3CBE26F1A754177D8185345817C096B0CE443A955D
310
13AC15E1FB5DEEA0239EC32A3C92241A237B0B02FFCB4F93CF2B02570C8D192E2F2A68CEEB42F12E6F8CEEFF46C251E22B4341C56FB08CCE550E7A9D6F4D6564B9EA52A83D5BF2C6E03FA19D2775E15A8A7ACF30A13C259EE7F5EF2AC3BA354F1500E1A07FC63FB4686E2F12EC69719F9ECF5FE3F35598DF2CE944008CE78F
310
0911BA5BE5D0A34E0098FF038669C26030BA9B300303039852A8F6F496341737CA7E0D2E3AAA36DE0A70AA7D9CA0D54D9AD84B18A44C9E625475E1C97B93BEBB38DCE7D227E67A2D00F531436136355F243D1FC0D712C5765754FA22FCFFAE97919161F46D6E61ACB37D83777B385889770B50765B127768443A5C4D3A4E35
310
A3151111F146B7CA116F918A049F1C272F2CD7976C69A0068773451659A97E0F4A08FE604C3FF6CE7385DB19F4D3ABC8A0D80DA8A42096AC377DB49382B36E270B6FA7570188B4B7D1DDDDA82ACA487CCA5D38BD3BD039ADBAFA4ACFF27809239B722081E2EB9F145320553D183F28471C388BC8814E5045676767AB58A8E7
310
2D1CED2CA731379515D2E533E4CF0B39DFC625F97AC4836831A4DE330E87A8126FA17EBE583D614E71E22A8DBF2825599743E0640037303E8E1B1E8EA4E1ABFA4F62907B5E4E0E5DCFDAB417C36C6848A2B8D15F1E505434C0707E16B1CFC2A1C36A42BBF55734F8F4301DDC2A5110CEE8C0747F69519265012A2174BF4E95
310
5ECD4FDE095A3ABC70536B7AD0B9D7892F81287D667C108703C9B66A221E9A0929D030008F77FF6F5D2108EF5706FC87A3069B976F7C9FC3239D13D283CDEA83597461079FEEE049B0F392889898B7D87D31F8D60ED7B56B91823A8E4EDDB36C6172ECEE42BD42B12CD67994FA0F0DFAE9389356F4CD4425A4B8AA55CBF7EC
310
D585C6A2C2316791E43D5C06841ADBB226A87FD61515FFBB0167B74E56BD7F3E90A57A97FEDCBDF483A0D6699A8C0849CAEB4947FAA90D8E332D9DEBD9F4738C37DA0CAF9CF3DAA68BCB67C420459C7A64498D6E848E5CADE92BB6901F607AA331104A67F7CD650EE169B1DAE94D2C31C2F993632259B6957E246EFE4C5481
310
107B07118607700040E5812A2A2A38DA0076875258C753F60E0F2662C748EDD5F3F3686B8FC3BD6FE631ECCAA1E8B1C1E565AD117E54893E79F4672E32F9E46B2A183DFDCF3EECB4D4D077DBEA0DA254D256045109670050129E9B9B1A9E4A11344D61497A992778095151510C4BB7EF2009B63AA4360635312E4CF668B7E0
310
D3D85A8688E2BD83B569439892ADB63461930D428E0DE42E4AC57CE48DA5CC1449530D8BD3D6A0F08DF20C8E8F570F2CFFFCEA286E30969B4654D498A58D9DA782E19FE3F002181838925592C4A1EF0B332D88B61A92C644547BED490D3A42CFFAB70E36D961F694F6307F72FF15A1C79D5B1B5CEFD353D9E2B52566DEC8F8
310
F09CB3E8359C0F68EBBB7898243E34E12A015B2685AB303C04D3A9E00671FF3DFF0A184E4A2ABEB2B666AF5B3A209C73D8EF29DCDB069C9F391EEE9DD0F74C7BCDE16F8F02E3B8816122BBEB50665775B600549D8BB33A54A6BF940C028118BC6878C79958D6784F9DEAA6E26748386FFAF8D0D0101E2847B6563F5D8DC1D7
310
8F787BE00E2C941AE12148D4A81599FE8F68D4DA5CDED75530ADE138240300EE13B0FC13A1687FED6774662C05A2B7DFB186732F0D7A93545D8B0A6390AE5054D9CB582DA846D7A061B3358B45E2B52DDE63E114397EDB7E09233A579155D795BE76102CF277F4DF8B188C4F2879BEAE3C08347124BF9ED23B128259FE107D
310
31E34A652F090B30B39E0D9AF917B76A2806135621A8A60681F16AF216514BBD02711585B5B1AE823F4B2D0369EA5B6BCB863072727FFC871CA6C9AB79A814D989057E9470A3D238BC87CBB4A0EA49AFE2B86F22E499793CAA9047080450166BDC357524561E258C77CB697F1ABB32562CF87C3B7AA12F911EF19FB3E5C022
310
22E887D08202A60A17151F5E053A86B437771088B4FEE14D652C43E8D939995D34545E12E2FF93D4E366EAD25F10CB7DED141563C3D0C447AF06078A91135FD4B9611583CB4BF3BD167F2399CEAB0E0100F8FFC305F00F1711717173138B4B48C83022295DE657EFEDD97F238ECA80F528AFB4F8D67AD4E2594B9A3AA86D74
310
87EFC313BA95745C186F0CDD84CC12DC9CB0424B42203D351FD9C0A3AF10CC7F388E0329279087386421F194F4A29464C1DEF7EF8BE515E4A199DCD5B909342598D8FE6A231F71336248D5CEC5454455C7BE383B3BC7B260FED27F703FDC39A170F3827239102F59D4DEE7FEF82EAA1A5E4BA94DCC4CC44E7E2EDE20F24244
310
E4454369D2E87C3F823F193FD4FD27E1C23984B01898D15ABC20711A8A558054951A6AE280096BA36CBA439603B7B0B4C45F248C14B2383B4B5CD8ECECE4FF859AD4A6CA2326D020EF090F4041D28DB66E5256B56232CC52829DE8060BAE6BBF37D4B7469B822454FE93210A3E8D15E69FFCF01123222611C51C4FD0A041A0
310
CFA2471CF6BE38D2B20FA4C3525B5B8B586759475CF80ADFE67A284AC24651E52B8E683D24C2622642F27E7C3C22783BCF63648BC398BD6CD0D9C97E7E7E3EACB6126DB7A6C1FD9F1031302EE67ED96F22B77C7CA0239BB324207559B105E4693EB26EC46182A92C9C0DBD24F29B31C5C5AC1F84300E0E17CEEAC15F5736FA
310
4A98971E2F1423BFCD68D4BBD5F86E74B40A369F39507C88FCDB35D2DD8DEBEA4AF999E23CF2816D204200DF6E611781B9884C1AC8888B4DE397320472959434323A5A36B22A8E1F721A270DF3BD65E4A31C11FF048AFB0D8B7B6881423793963A23CFCE935FC189ED36FAE35C46DA3574C979E4394BE52084F3081837BE03
310
3396D2EBD80F1F691B273F660D2B32FA27A33B1DE4ADA5F0FA4651511102DFA410DDA86E065272CA314D5249DF91B06BB92807B28EFD54F08F7B525252782CD276DD02E6B0319B13DF87B1F6361AD6B28FC0D711CF445429B9E5A433CD493051C49A9E03DDB1B147D880253514A5DED88009018620EE229101C041950E2D8A
310
A8E1F5F5438E0C0C0C60EEDEE9E3E0C051948C69F84BB7B2A48A1F3C8EB9E6864687F4F4F6F6E2FA87608ADAF9C5E117B7C1A737E710769DA1D15ECE6A84502AA855398712D5FB51BE92E4EF824969CE18278798AC303C2C7980DD2500ADF8FB1E6D6C2FAAFF9987178923334A244758BAA01A9A1B70FA5097D01E1CC2A58D
310
AD0EC94CE6430AA9B0C10D75E3C6BAC670EFBADEE1607739CE0FC18A2587E3EC3058562014C64219C69BC269082D5C2F4A659278D585755912176D78A1B641719C2A394CED495A1AC5D583FD2F5EDD93308EA7EAE8A6DD396598BDBD3D4CFED62D18A5BDFDE0DD5C80D1A89BA62697B131AE7CE9A6594138582F1B37D68F17
310
49AC7CB67A70695D48A4A056AC1FBD4E82358CEAE38F54B95A9016F9000F9879C0D9D131768635CA798895F27D6F1614F11F2838A83611AA51C9A3DDB539D42979C29F10465655C17BEC3E2760B80DCBF609198C7B171A531905F3EC218D696025975E986C6B4C666666787271F202805577DD5A3EF0CAFAF91B62DC4B2DB4
310
217A7606282F31D8DDBC290593BAA93EA6353AFA9939B877978481E15CFC9F2755CDC00C538F63A4BA3E80AE009B73CA0185687D339A507D165B74290D6EE46D5C58148F020C3668ABE9EF2F7549170DC80DB41FFC1D678FF19AEB10C7133832B104B80F691B3138F97A92D26E551F1F110400D45AC71A9B9AC41A1A1B1DAE
310
ED0B0810638EFFB511D46B121C6FEA0F38CD00E03CFFEB9713FE1F9C263E4DDEC160D0497FA9A132BA608584057FB15380825DE6C7FC3C667EE947D488A09898D8E939C4953BF4EC9836344D2CC6B2971B2A21A572B06096F4982D2CC7232D46E8EA69DC83722E267754D777F97F96D5DA74E1E75178084D0E70F12AD33E5F
310
71EF2AFA599B2BEBF60A5BE475F444F240CBFE8143C334E7ED9150FEEFEF7EB020C4DBED388DD1D6A167A76F3CBF119B578AE8CFA7736ACAFA4440A1C47185638A0D2F3EB5BDDEFDA958FB13CE4AA4923D5BF840392D45544329525749734866684BF7F8D9D54D892E19BCA9F829A0F8BFCBEEA6CFDFC61D74EA1A645ED7A1
310
FF241739F15694BD835B66FEC5677E40FE69BD3F91AE402F036537218A401CB0828604AD189E575015C6F3F6BBC8AC79CF6C70653847254B31551EFCBEB5978B9DB85D58D0FA41A9DFE9C624834AA04949D24B5AE6D299E072D152D12097920F14AA92C31C3B97E28B6C2E6E9C23D63043ECBBC0A60FDF5BD0C33C127EA8A3
310
308B8B6AFFEB28B4455BF6E7AF4FC6222728357EB8E46E85053E6A8843AB23295BF838ABDA94658FEF3F832F147046B4ACD6F7D48E8FCC9618582961C898D1C7A253C91BFECBDA6BA18A1FCF70755DCCEE2222F41B76D23CA98D0CB3D95F0CF66D57FFF65E2A90F5DF40FC3187621E981BD0BC1D992787212688976B94A8F0
310
C6EF646624B570B78E068826F87CE27041A95C9A4871FF65CC17FCB1639629AD6A9517000D63AC231F3D741CB8430777E7ECF80CE7A3F73C0F162F7E56AA71F4DA80A33CD6ACEE78E2C11FAC03DAFCE929B106F8F6B3ED2DC71FF994BD9CEF4E9A94896EF1B6E2B7B4978168BCF0847A3D2A4F1B0500B926E634B174548E9F
310
BAD27153FB5FC36799B1E6C7C38A94E1F9E996796D7B485E635D5287A2AE76FBD11A341DB3F8F810385BB7296391973DC6C37C452A9305AEBBE0CDB6C566DB59FE60C8E94B1FD090354BF51439FFD1B48D725228FFA88C84F686F547107A7A235665A4593B7C34D748C1AC8D56DD5DA861EEFBADDECBBD65117E65851F9035
310
1AEB65F0EFCFF4BCFEF24CB7A5879699FAC437A7AF9099186CF006BB923A59E37D7A36A29FD8D2CBB914A5E9D0A8FD212FBF796AE9A67958FF1D5D8B85F78F96219D4714EB919929241B6C018AAE0C02069F8D919961EC5DDFBFB7573E3AC8E08BFB7C8534BE6DE045B3CD63DBD71F7638BA2309CAE398EA3A7D8F98BBBC7A
310
EB367EFA5CFA27A9F8F2F52FE878058E6209C026453F8E7E8A237DFC389E9590F6059B397CFD65183BBF936E86896612A5B5FEE49DAC8455D026218AFEBEC12B3523A45B57B82C9C97E02ACFA1184DB18E48CF615DBF39C3CC6F0B4AE6BBEEA2E39D944E290302FA3DE33FA7E40296E2EF7BF1CD855BBECFAD0FD622BEE974
310
6FC4FDFDE545AE6E3BC234CADF83A0FB76DFB145BF3828AE3436368AC24989454F8FF70A177672C711CAA1A76107218CF948CA01F873520E7A2B118EBB161ABAD432932029628B6761590C98AB590C8C8C79798CE9F715BA696E839E9131A4BB68BE923F1747FBFF165331FFDD4D05997ACD168F12CA75348DAC04C7F509FE
310
83898A8B421181AF492861CE81E4A2DD0A30850CFA95E05F097FF70F9E777310D584A75BA7018922E271DAB1D785671157685B7D383D3E074DDB4F1E44EF04B07BAAC75A062077C54B9752C738C9D804D402E02851F3F89605AF189738C18C021D2139EAF72513824E10DDD3047BACC8521ED7E98B257D1166903B1B08FA6F
310
918FD7E162913FEC7D0EF4787E29C35FBA8C6E2C9C20E9AB30AE42CA2A01A090E7D010C1B5BF9CEE2A304BF3A987FB40D836979B79E18D70F257DA61E808472DD85B82761825779D6B90CAEB0F23360C6F80A7D7D77545E95B3DFF0CF96A827F9B5BCECD2C9698718417EF80FEEDEE938AFF55859D0D540B7FE09435583A6F
310
04874A0C7E8CF234DF4879722000167F5872CEC6BF3EF7E5A8CC8121E6A359227C8A29C95212F9F735BC72A887D56B8F309FC525BFB4FD767AAEC4AEFF249CFBBD2DE1AB9969A6155C7D8DABC307E47324C1F916C7BCFF40ABA5644E9FFB9238D19ADADA49D9610F01ABBA57E4DFCBDCCBB2B93C8953206C91DE01B0E2651A
310
6D6C31721915B31F7B7CBCE55466F6D70402788FA91D73BE4ADCBA99A35F17D6B83383704917D6833F0FA3CD45C926ADB8BC17999A4A0AFBCE2541F7B8CF4C2F5FBA611B3E626D64407CB32C122DFF4EF8674D6EDBB86C8F7C6A16D50FA685E2CCA34F8F7D1D8265BB0042E9D7F1F666F7BE5FAA5184DF58E12122A42EF02F
310
461B3F369AC746F96528AD208512AB56844CF75B97F352DF7995024FB02855385854F3798670D01CAC771AC3E1889EC25F61A20C1F8CAB46898817F9C47E2CDA1F286BF2F358298709FE567C91133E2638C8B53975E753EA8BFD3578B5F7186B7BF084EBA3F77BAC3132A5779902EC22AF2D2E79F42D324E083386DAEE9810
310
D1B44A5DAA54513C7A71E52A4AB9257D975B621308FE4D2141CC3DCFE946C154A3C1DFCCA7629EC69ACFA831634ADDA93C0388D2A9A2DDAFCF957C6995BCE7FBB6DC4EBAE79E63EB08E9A25F52F67076F7093CA545CA3053B5BF576DEAD4E0017143C5F759F32B2D6F145B52B67B48909B7C7FCA6586EE385A2189C16932CB
310
6DDFD9152AE317C430492A578ED27B72D85D40C7C93C097939E1B50F4D67F05334FE9DC362C30B7FF561B95259138ECFD9274C8D695C31B14D4EAA9F3D7FA8DDF652F8C5DEFA23284C799B7D94416DEE81E05A866302DC70192A5368EA65E1CED8BF107A1E2D3119A71E85DC1A7B0C1E93274CE04DD0F2ABC8AC7C987FDB00
310
2B6F81757B43502EF7A0D92E416494FAEEA4C9C090CD9557AA4D532F4996A272B94355C5A0E4974EEA9627476F30809B94D8D8D860062E02204643BEC7D0438AF800FC7E2B26955D595421E83C69E1A07E0E3122285835F014AD538188CF9737CE76D464A353FA55A001AB2526B84E985083693BC76FE211CA1D000679C889
310
E3C009832C87E1AC2EDD05C302557422DF0800E316FCAC86978A371F025A6C7DAA9F333E7BD160403A1A06EA75AA9888FF01504B03041400060808006B94ED4A51464CB48900000043010000360000006662782F38393834394632412D353534432D343033392D414345342D3646344534324242433843312F646972656374
310
6F72792E786D6C9D8F310EC2300C45AF127987122606C71DD918B841D4B851A43646695A717C52A85029031293A5A76FBF6FACEF7DA7264E43906840EF0FA03836E242F406C6DCEE4EA06AC22492573150D1F66C60C640E8938CB705396EEDD86DE9B5042FE27813D640EA63BB001C722AF6E55CB61E4863F58284D5D3F53D
310
D715CE1C3985E63FD7F1B7EBDD617E9F1E504B03041400060808006B94ED4AD1F4B8873C070000211C0000340000006662782F38393834394632412D353534432D343033392D414345342D3646344534324242433843312F6F626A656374732E786D6CDD59DB6EDB3810FD1542FBB2FBA09B6FB10BC7852F4961B4698B1A5D
310
EC9B40CBB4C38D6E20A5C4DEAFDF2145CA922CDB4AB6058A4D81C6A1A9E1CC999933C3D1F8FD3E0CD033619CC6D1ADE15A8E8148E4C71B1AED6E8D2CDD9A4303BD9FA0318BE3B4B4CF40110EC9AD21968DC978C7E22C514B1BB2C559505FBD9FFD85B84F2262203FC09CDF1ADC7F2421B67096C61BC29FAC0D4EB1B5DBEE2D
310
D7CA3756C5EE184E1E6B47259891280555613D02294A03B7FA2798644FC6B6D850D9D669B7AD7B619B2D0DAF2A4A239EE2C83FD1AA26A7D34EABAEDB5BDC75FA23B3DFEB75CDDEA0E39AB3FBD9C2746FBACE7C309F8FA67723034DC6EB380E0A072424DA80170FC6C41DDBE29BC27C854293DE7E1C45C45768366DD8102597
310
125EC7A402AC2B4D2B3924B7B5B4D06D69FC996DAD40A9A854415B1BA77F97A3375EFF0D20F03651CA381151CE5306BE56D8E7F9E08CED7CB5E217CA518853C2280E5040D70C3370106CCD1D541123B24588420233E9452DAFAC2B04F6F55C6AD2729B0581C85F632233CD837C2429979AD17F083B6A5F3E0D74026B331AA5
310
43656C7A4840C4686CCBC5FCBB6E477D990389B601DE41B480996253B753C36B2EB860B930261FEFD7FB95E087E6C313162784A522F26432ABBCD31E2C8516045F0B50725CABBE3BA2F20DA0FF0CC817BAA031788ED17D6FDFD3B6331CF16DCC42F00E7290E9C07F0E121F4F3E8DEDE2E1094215AE3C8729A4ED0FC2B46246
310
E5EC12A493F133047DCCBACAB8958F0388E9071A893C874041410C4BC0F7DBF5DE982C814C61119EC201580FFFC6B6F888E0572E07F8A6E6A126FA6DE1289D30F53C3BFAEA03C40CA37EE1AA8A8DE7F0EDFF107CA78BD5C755C6B6D8270F2AB117644B239A42316D56A8027A25E5BF2F3FCB8C3CB1A7B2CB877376B1208E06
310
BFAC945F90740CA822EA70EE1AB9F24021DD83004724CEB85A6F222A3F0E62E6AD0F5E9EC38D67FDA983203F0CF25B444023994175F7194D0428C644995730A175C449F0A00AC05DEE546F8DFD2701AFE70363BD450F885ACCEA42B330F170186791A0EFD3F0AE9B66751DF9E3BAA38E33EA0C47036D2C97E275F6686A2894
310
17E784383973C8BCE22DC51A5A729E473D60CB260B7CE899B2D48B13ECD3B439166A46A80C05B02FAABCA1DB6DC681D41B61A9696C75DD3E724AFF17875CD65E1DE2D110EF88B7C5A2C2359E5701A810AE2D68446617C49CD38870D9A19C30570D15C70222C8E3564B6D0842CABD90A4F82DF1274B5E2DFC18D9061EF452A9
310
E866AF479F565055CF731245E716479EB4FFE0711C2641DEA55DC3C0EDD44E68C455282D8E788678F370EA391B229BEE6BD20B5ED0F8B6923E7AB3F833F030FCD3E1D1475068BDA1465EF7AC6BF5DD91F81902A90CFA6EF7463BE21A56FAA854F42041065D937FF05E08DD3DB623B456E770126C3D1A0459E8E5F5202521B4
310
6038CD58AB7C1DF49D13E72B5EA82544E9A42D0DA0416E4D9AB2F7D0DD0758259B8F73A4593A068CA211DCD15A1972624563084B5FC8FBA8B8765DF7FEEBA5FE67BE2CDF539EC8E125669B464DAB6D84EEC074C320E85255B8228EA4E4C9B89C7CA1BCB85CC7A1A785287ECB6F092A421879A66230216F408DF707FE82531F
310
8874257F9B33C8880DD91C7B8A8A3835E6302670A896A6FBD4F24D07C84E948F4AE3B514841AC2B4010B9E7D101F826F185C0D9D1FB7555763E7EB4B51D82C18AC1CF5B820EBCB87554D0AACB47EFAABC088BCD424A8D5B968E42E88FABE3CF6AB3509CAA2EFCB0B8FA78F59B88E301595518405DE24EFDECBBBE4AD0D1705
310
7B381AF646F79DA9D9EFF7E666CFE98ECCE9FCAE670EEE7B77BDCE6C361FCE5D9B111E67CC27DCEED88EA77BA724DAE9C0C8A16B73A380A9C2F5AB9F8EE7BA83FFBF378AD9E1133E946FF59560FC556F1445BF273AB25A32B6BD513432F5FA75EDBF7BC2D4CD55EC55AD733E2CD0117EB96E011BE982DFBEB7D0A2752BD1AC
310
73A924BEB2F29EBDAEFCF4225361F4C60251D9D1C4F995F817C3A78632A5AFB792D8E6D3D1CDC8E9DC9837F7CECCEC0D871D73381D386677311875FADDC17CB828EA589DAEAE15965F824475152CCDD1601CCCE380C2549E6CD08EC4700582B1430B826521E1F26A031D80AAE3FA95408BA79FF3A16A8AD7817EDA7FC43099
310
0E5449CE7C988AC2B5E3D650EBE83798838A51A49C4E594F507954B41B2863F4D68010482914186B0DF32C393D94D26BF34A085C1CEDC4A5297FAAF8FBF898400762E56857B1A70D2ECAB24A74C27420912F0A80ED7447F276D3B53A08A7F0719DA58531C785A3350A04FD4620370EC67E4F0ADE3D10CF65BB5C4BEEA940D2
310
6A347F310E72A9668AD94ECED74B784F175F6D311A5F7E414990ED843B2F15FC8A2453341A41964FA1C61018CACC048B8BF8FC9DFD95C5F08E2944F7148200FDBE1F0EFEB0E77118C651BE644FD59B2AB47A84F74E1B5BCFFCA07371DC812D1B1F35D787C1152716DEF0275800D7322A86A339C4950028E8A91400DA23C217
310
F05865FF7281541128F5B0658A11F0C8A13E8244122F7344DA9437942690900BA095FCF2F8412F8C6D0653F0C9BF504B03041400060808006B94ED4A4B9D3AE7E2000000550100003C0000006662782F38393834394632412D353534432D343033392D414345342D3646344534324242433843312F7265736F75726365732F
310
322F636E782E786D6C4D90C16EC32010447FC542EAD118DBAA124598FC444EBD44046F5C1460AD05AAF6EF0329957ADAD5CCD36A76E4F9DBBBEE0B285A0C0B1BB9601D0483AB0DDBC272BAF747D69D9524C4F40F635DD01E165665A6E44698F726AD70D7D955D5D9F068A2B86E1080ACB9EE61639D713AC68545F3095E739D
310
13AE101F7CD549F3911344CC64A09C48D6433B6108748295A9498C875E1CFA71BE8CC7D3FC7E9AE60F395452C91BA26BBC0D0908F7B749182C6B2889841C2AA06426DBA8FA4631FEE2F1124F0EC55632262A1D342CFDEC05B35E6F30BC905F57C9A13E59C6AB81326B21EA09504B03041400060808006B94ED4AFF15A4A45D
310
000000800000003A0000006662782F38393834394632412D353534432D343033392D414345342D3646344534324242433843312F7265736F75726365732F636E782E786D6C4D8B3B0E80201005AF42B6F75B59F0390B113044D83508C6E30BC6C26AF226F3B8BA6360974DA7271430F523308B2B198F9B80925DB700539227
310
A2FCCB80A18E5640D320F996A81C9F32D6E9129A0D1EF74FCE750E6D57BC7165FBCA07504B03041400060808006B94ED4AEF5DB2A24301000056050000300000006662782F38393834394632412D353534432D343033392D414345342D3646344534324242433843312F636E782E786D6CCD94C16A032110865F65117A5CDD
310
4D2809C135D0439FA087D29BEB4EB636AE2E3A96E6EDABE9266929A13D04929B8C9FF0FF33BFC3D71F8329DEC107ED6C436A5A9102AC729DB67D43226ECA2529D6827BE7F01B460A2B0768482E13C17BEFE238953AD8C86872D568BB9D8A12D1EB36220452282343684850AF30482A23BA0EC296761225ADA987E0A25790DE
310
A31E607AAF3C48848E8859552FCA6A51D6F3A77AB99ADFAF66F317CE322978EB9C99786D11BC1BEF669572E968939C8AB30C081EBD9EA8EC81889336DA6ACB59BA173C24BDB69F38DC8D991B47A395C4D428E614029609023970F6050BCEB2E31FBE1F1F9E4F1AD2A9D31E143ABFBB5A1BEA736D384AA32911FFEBC21EFCCB
310
BC6BDF92E5EBCDFDACE149D8C5EC1E921B52747F2721E549DADEDCE207384ABB7CFED36241AD6ED1F441D9853CB3FD0A4C83CF1B517C02504B03041400060808006B94ED4AD921F0087E000000A30000000B0000006662782F636E782E786D6C4D8CD10A832018465F45FE7BB76A7F43218D927A8F581632D37039F6F8D3D1
310
C5AE3E387CE734ED67B3E4ADC3CB7827A0BC1440B47BF8D9B855403C16CA80B4B209DE1F7F37206EDAB4808C41366BF0713FD1AC9729DA4CAD71CF1332CE908F5547EB1A15C5E2C669A706A4F71107ACFA5E315526E39A9534BF5EDA9C975F504B03041400060808006B94ED4AA6D797065F0000008200000007000000636E
310
782E786D6C4DCB3B0E80201045D1AD90E9FD7516806B51190811670C8A61F982B1B0BAC9C97B72CA7B1037C6D3332918DA1E04D2CAC69353902EDB8C20262D23F3F59B81A079470595414B17391D1F19B4730A5583A7ED43BBE4025D9592775E5ADFFA01504B03041400060808006B94ED4AECFD112DA80000002601000013
310
0000005B436F6E74656E745F54797065735D2E786D6C7D4F4B0EC22010BD0A61DF525D18634ABB506FE00510A79458060253536F2FD89D5197F3FED3F68B9BD80362B21E25DFD40D6780DADF2C1AC9671AAA3D677DD75E9E0112CB5A4C928F44E12044D22338956A1F003333F8E814E5331A1194BE2B0362DB343BA13D1220
310
55543278D79E6050F344ECBC6478EDCD76CE8EABAE5449AE4298AC56946789C28AAFBEABC53F3EAF09A84A1441B91F0101CD4780756578C173A578FFDDBD00504B03041400060808006B94ED4A3DEE336E64000000790000001B0000006175746F6465736B2D64657369676E2D7061636B6167652E786D6C35CBC10E83200C
310
00D05F21DCA56CA76D41FC96062B120735B69A7DBE268BB7777961F8D5AF396893C2ADB70FE7ADA196782C2DF776D7A97B5933C430F15651E5469C55D70F80A4992A3ADC954792C525AE70A1E4D6AD9816CC044FEFDF01FE3FDE907802504B03041400060808006B94ED4AAAACF9C1F40000008E0100003D0000006662782F
310
38393834394632412D353534432D343033392D414345342D3646344534324242433843312F7265736F75726365732F322F636F72652E786D6C8550CB6EC32010FC156BEFD801EA47224C14D7EA17F4D41BC2C44189C1E251F5F30BB12BB5A79E76353B33BB3BECFCB53C8A4FE5BCB6A6075C1EA05046DA499BB98718AEA883
310
E2CC99B336FCA24161C4A27AC83070363B1BD71D92D60465326AECA4765078AF0214F2919A1EBCBCA945942286C4F0F77215F22E6655E272E37116A39E76A99E929BBE6AE5801F31796D2E84A28E0E04BD90CB88BA761C111EEB6EA0CDB16EDE0656653167412F3FDBA55322A8093839E0161D5A84E93BEE4EB43E11FAC1AA
310
CCE4CC07977EDE97E6EF129D551BFAC72DAED3FF6E519B40C9EEB6293C709C8E7B0E38AB723AA93CA34B3527C9BF01504B03041400060808006B94ED4A9A76D0EFF9000000960100003B0000006662782F38393834394632412D353534432D343033392D414345342D3646344534324242433843312F7265736F7572636573
310
2F636F72652E786D6C8550CB6EC32010FC156BEFD8019AC48930515CAB5FD0536F086F1C94182C1E553FBF90B8527BEA6957B333B3BB234E5FF3BDFA441F8CB31DD07A03155AED4663A70E52BC9016AA9314DEB9F88B069555337650609062F22E2D2BA49D8D680B6ADD882BA842C00895BEE7A683A0AF38AB5AA59819E156
310
2F4ADFD48435AD9F3C295232E32A3563763317831EE481B2D7DD9971D2F29E9117761E48BB1F0642876DDBF3DD61BB7BEB4553C4524433FF6CD71E55C41124DBD03DD9EC09E5EFB43DF2ED91F10FD114A61421FAFCF3BAB47C07D26370C96B0CA2794EFFB8A665FCDF35191B395B5D9F8A0092E6231F03299A92522E8F0873
310
2D89CA6F504B03041400060808006B94ED4AE17455C3F2000000B1010000310000006662782F38393834394632412D353534432D343033392D414345342D3646344534324242433843312F636F72652E786D6C8D50CB6EC32010FC156BEFD8C6C68D1361A2C44ABEA0A7DE10101725068B47D5CF2FC4AED4DE725A343BC3CC
310
0E3D7ECF8FE24B39AFAD1900973514CA082BB5990688E1867A288E8C3A6BC31F1A1486CF6A800C03A393B371D920614D5026A3C64AB581DC7B15A0108FF418C08B4F35F392C79018FE5E2E5CDCF9A44A5CAE3C46839E7FA5C2291E9404D6D47887EA1DC2ED3BEE0F6D7768DA0F5A6526A3316AB9596999DCF54D2B07ACDFF7
310
647F6D4EA8EBC88848DDEED169BC10F4762517D29CCF633F625A6531A33EB874F3F649BEEE55F92AFC97392EF285CCDA84B6D90C57850796F33C178C56B9C0349EEDA699CB663F504B03041400060808006B94ED4AF181B83654010000DD0200000C0000006662782F636F72652E786D6C8D52DB8E832014FC15C33B2AD88B
310
6D90A65DB35FB04FFB4691BAA40A06C1F4F317BCC4EDC376372648E69C33736602393DDA261A84E9A5560540710A22A1B8AEA4AA0BE0EC0DE6203A5162B4B63FDA40A4582B0A106040496DB4EB66886B65850AA8D2959841D6F7C2828837FE52809E7F8996C5CC59DFD1DFE38EF13BAB458CE2A98F12E764358FCACAB3C99B
310
1406D003C26FBB33CE609E5D30DCE07309F37D5942546EF34BB63B6C77EF179284614AAC6C17756E04B3A20214A7680FD33D44D907CA8FD9F688B34F92844E4A7A6BBCE75934B803F4767D9064C29FF85C57FDCDE7A4B2199EF9A6891E50E4D71B0B9424211FFF1BC37BCED00BFBFC2CBB368B85BB8706C1AD361B5FA9B45B
310
4B036B9CF0D469347E2499AA9E7924F88D07BFE079CDE18362AAF6AB31EBAF576783FAF34E9D3070B08F4869D3B2665D6E5A713D57A1274BCB38D78D36FF995EAC2E6126E161D26F504B03041400060808006B94ED4A5A5E2FEF07010000B201000008000000636F72652E786D6C8D50C16E842014FC15F2EEA84075DD0DB2
310
596BFA053DF54685B564158CE0A6FDFBC26A93F6D6D32333F3DE0CC3CF9FD388EE7AF1C6D906485600D2B677CAD8A181355C710DE82CF8E25CF8250364E5A41B4830083E2C6E9D77A87736689B50EB94DE41E9BD0E80FA313E1AF0FD879E6426D71015FE96CDB2BFC9416724DB74820733FDACF68B96412B10B420075C1C30
310
61AFA43EB1F244D91BCF9352F075356AB7322ABA9BABD10B8823A1CFD585325CB396E2277AE9707DE83A4CBAB26E59752CAB9796E76959701F96F8E7FD48CC199097F7E4CBF38D12FCDDB97117C4500A393B7E8128789E883FA1D759FD23B4B181D1FDE0B6E1419018E84144E3D4601C8F7AE34C6D8B6F504B010214001400
310
060808006B94ED4A0000000000000000000000003700000000000000000000000000000000006662782F38393834394632412D353534432D343033392D414345342D3646344534324242433843312F617474726962757465732E62696E504B010214001400060808006B94ED4A000000000000000000000000350000000000
310
0000000000000000550000006662782F38393834394632412D353534432D343033392D414345342D3646344534324242433843312F76657274696365732E62696E504B010214001400060808006B94ED4AF270F13306000000040000003600000000000000000000000000A80000006662782F38393834394632412D353534
310
432D343033392D414345342D3646344534324242433843312F747269616E676C65732E62696E504B010214001400060808006B94ED4A88E57597CD3F0000904100004200000000000000000000000000020100006662782F38393834394632412D353534432D343033392D414345342D3646344534324242433843312F7265
310
736F75726365732F322F305F67656E657269632E706E67504B010214001400060808006B94ED4A51464CB4890000004301000036000000000000000000000000002F4100006662782F38393834394632412D353534432D343033392D414345342D3646344534324242433843312F6469726563746F72792E786D6C504B0102
310
14001400060808006B94ED4AD1F4B8873C070000211C000034000000000000000000000000000C4200006662782F38393834394632412D353534432D343033392D414345342D3646344534324242433843312F6F626A656374732E786D6C504B010214001400060808006B94ED4A4B9D3AE7E2000000550100003C00000000
310
0000000000000000009A4900006662782F38393834394632412D353534432D343033392D414345342D3646344534324242433843312F7265736F75726365732F322F636E782E786D6C504B010214001400060808006B94ED4AFF15A4A45D000000800000003A00000000000000000000000000D64A00006662782F38393834
310
394632412D353534432D343033392D414345342D3646344534324242433843312F7265736F75726365732F636E782E786D6C504B010214001400060808006B94ED4AEF5DB2A2430100005605000030000000000000000000000000008B4B00006662782F38393834394632412D353534432D343033392D414345342D364634
310
4534324242433843312F636E782E786D6C504B010214001400060808006B94ED4AD921F0087E000000A30000000B000000000000000000000000001C4D00006662782F636E782E786D6C504B010214001400060808006B94ED4AA6D797065F000000820000000700000000000000000000000000C34D0000636E782E786D6C
310
504B010214001400060808006B94ED4AECFD112DA8000000260100001300000000000000000000000000474E00005B436F6E74656E745F54797065735D2E786D6C504B010214001400060808006B94ED4A3DEE336E64000000790000001B00000000000000000000000000204F00006175746F6465736B2D64657369676E2D
310
7061636B6167652E786D6C504B010214001400060808006B94ED4AAAACF9C1F40000008E0100003D00000000000000000000000000BD4F00006662782F38393834394632412D353534432D343033392D414345342D3646344534324242433843312F7265736F75726365732F322F636F72652E786D6C504B01021400140006
310
0808006B94ED4A9A76D0EFF9000000960100003B000000000000000000000000000C5100006662782F38393834394632412D353534432D343033392D414345342D3646344534324242433843312F7265736F75726365732F636F72652E786D6C504B010214001400060808006B94ED4AE17455C3F2000000B1010000310000
310
00000000000000000000005E5200006662782F38393834394632412D353534432D343033392D414345342D3646344534324242433843312F636F72652E786D6C504B010214001400060808006B94ED4AF181B83654010000DD0200000C000000000000000000000000009F5300006662782F636F72652E786D6C504B010214
310
001400060808006B94ED4A5A5E2FEF07010000B201000008000000000000000000000000001D550000636F72652E786D6C504B050600000000120012002D0600004A5600000000
  0
XRECORD
  5
17
102
{ACAD_REACTORS
330
12
102
}
330
12
100
AcDbXrecord
280
     1
270
     1
271
     1
  0
XRECORD
  5
16
102
{ACAD_REACTORS
330
12
102
}
330
12
100
AcDbXrecord
280
     1
270
     1
271
     1
  0
XRECORD
  5
18
102
{ACAD_REACTORS
330
12
102
}
330
12
100
AcDbXrecord
280
     1
270
     1
271
     1
  0
XRECORD
  5
15
102
{ACAD_REACTORS
330
12
102
}
330
12
100
AcDbXrecord
280
     1
270
     1
271
     1
  0
XRECORD
  5
24
102
{ACAD_REACTORS
330
22
102
}
330
22
100
AcDbXrecord
280
     1
270
     1
271
     1
  0
XRECORD
  5
23
102
{ACAD_REACTORS
330
22
102
}
330
22
100
AcDbXrecord
280
     1
270
     1
271
     1
  0
XRECORD
  5
27
102
{ACAD_REACTORS
330
22
102
}
330
22
100
AcDbXrecord
280
     1
270
     1
271
     1
  0
XRECORD
  5
26
102
{ACAD_REACTORS
330
22
102
}
330
22
100
AcDbXrecord
280
     1
270
     1
271
     1
  0
XRECORD
  5
28
102
{ACAD_REACTORS
330
22
102
}
330
22
100
AcDbXrecord
280
     1
270
     1
271
     1
  0
XRECORD
  5
25
102
{ACAD_REACTORS
330
22
102
}
330
22
100
AcDbXrecord
280
     1
270
     1
271
     1
  0
XRECORD
  5
3AE
102
{ACAD_REACTORS
330
3AD
102
}
330
3AD
100
AcDbXrecord
280
     1
102
ACAD_ROUNDTRIP_2012_MLEADER_STYLE
298
     1
  0
XRECORD
  5
3B0
102
{ACAD_REACTORS
330
3AF
102
}
330
3AF
100
AcDbXrecord
280
     1
102
DISPLAYNAME
  1
Imperial24
102
FLAGS
 90
        0
  0
CELLSTYLEMAP
  5
34A
102
{ACAD_REACTORS
330
349
102
}
330
349
100
AcDbCellStyleMap
 90
        3
300
CELLSTYLE
  1
TABLEFORMAT_BEGIN
 90
        5
170
     1
 91
        0
 92
    32768
 62
   257
 93
        1
300
CONTENTFORMAT
  1
CONTENTFORMAT_BEGIN
 90
        0
 91
        0
 92
      512
 93
        0
300

 40
0.0
140
1.0
 94
        5
 62
     0
340
55
144
0.25
309
CONTENTFORMAT_END
171
     0
 94
        0
309
TABLEFORMAT_END
  1
CELLSTYLE_BEGIN
 90
        1
 91
        1
300
_TITLE
309
CELLSTYLE_END
300
CELLSTYLE
  1
TABLEFORMAT_BEGIN
 90
        5
170
     1
 91
        0
 92
        0
 62
   257
 93
        1
300
CONTENTFORMAT
  1
CONTENTFORMAT_BEGIN
 90
        0
 91
        0
 92
      512
 93
        0
300

 40
0.0
140
1.0
 94
        5
 62
     0
340
55
144
0.18
309
CONTENTFORMAT_END
171
     0
 94
        0
309
TABLEFORMAT_END
  1
CELLSTYLE_BEGIN
 90
        2
 91
        1
300
_HEADER
309
CELLSTYLE_END
300
CELLSTYLE
  1
TABLEFORMAT_BEGIN
 90
        5
170
     1
 91
        0
 92
        0
 62
   257
 93
        1
300
CONTENTFORMAT
  1
CONTENTFORMAT_BEGIN
 90
        0
 91
        0
 92
      512
 93
        0
300

 40
0.0
140
1.0
 94
        2
 62
     0
340
55
144
0.18
309
CONTENTFORMAT_END
171
     0
 94
        0
309
TABLEFORMAT_END
  1
CELLSTYLE_BEGIN
 90
        3
 91
        2
300
_DATA
309
CELLSTYLE_END
  0
XRECORD
  5
388
102
{ACAD_REACTORS
330
387
102
}
330
387
100
AcDbXrecord
280
     1
102
RTVSPost2010Prop28
280
     1
102
RTVSPost2010PropOp28
 70
     1
102
RTVSPost2010Prop29
280
     1
102
RTVSPost2010PropOp29
 70
     1
102
RTVSPost2010Prop30
280
     0
102
RTVSPost2010PropOp30
 70
     1
102
RTVSPost2010Prop31
280
     0
102
RTVSPost2010PropOp31
 70
     1
102
RTVSPost2010Prop32
280
     0
102
RTVSPost2010PropOp32
 70
     1
102
RTVSPost2010Prop33
280
     0
102
RTVSPost2010PropOp33
 70
     1
102
RTVSPost2010Prop34
280
     0
102
RTVSPost2010PropOp34
 70
     1
102
RTVSPost2010Prop35
280
     0
102
RTVSPost2010PropOp35
 70
     1
102
RTVSPost2010Prop36
280
     0
102
RTVSPost2010PropOp36
 70
     1
102
RTVSPost2010Prop37
 90
       50
102
RTVSPost2010PropOp37
 70
     1
102
RTVSPost2010Prop38
140
0.0
102
RTVSPost2010PropOp38
 70
     1
102
RTVSPost2010Prop39
140
1.0
102
RTVSPost2010PropOp39
 70
     1
102
RTVSPost2010Prop40
 90
        0
102
RTVSPost2010PropOp40
 70
     1
102
RTVSPost2010Prop41ColorIndex
 90
       18
102
RTVSPost2010Prop41ColorRGB
 90
        0
102
RTVSPost2010PropOp41
 70
     1
102
RTVSPost2010Prop42
 90
       50
102
RTVSPost2010PropOp42
 70
     1
102
RTVSPost2010Prop43
 90
        3
102
RTVSPost2010PropOp43
 70
     1
102
RTVSPost2010Prop44ColorIndex
 90
        5
102
RTVSPost2010Prop44ColorRGB
 90
      255
102
RTVSPost2010PropOp44
 70
     1
102
RTVSPost2010Prop45
280
     0
102
RTVSPost2010PropOp45
 70
     1
102
RTVSPost2010Prop46
 90
       50
102
RTVSPost2010PropOp46
 70
     1
102
RTVSPost2010Prop47
 90
       50
102
RTVSPost2010PropOp47
 70
     1
102
RTVSPost2010Prop48
 90
       50
102
RTVSPost2010PropOp48
 70
     1
102
RTVSPost2010Prop49
280
     0
102
RTVSPost2010PropOp49
 70
     1
102
RTVSPost2010Prop50
 90
       50
102
RTVSPost2010PropOp50
 70
     1
102
RTVSPost2010Prop51ColorIndex
 90
      256
102
RTVSPost2010Prop51ColorRGB
 90
-16777216
102
RTVSPost2010PropOp51
 70
     0
102
RTVSPost2010Prop52
140
1.0
102
RTVSPost2010PropOp52
 70
     0
102
RTVSPost2010Prop53
 90
        2
102
RTVSPost2010PropOp53
 70
     1
102
RTVSPost2010Prop54
  1
strokes_ogs.tif
102
RTVSPost2010PropOp54
 70
     1
102
RTVSPost2010Prop55
280
     0
102
RTVSPost2010PropOp55
 70
     1
102
RTVSPost2010Prop56
140
1.0
102
RTVSPost2010PropOp56
 70
     1
102
RTVSPost2010Prop57
140
1.0
102
RTVSPost2010PropOp57
 70
     1
  0
XRECORD
  5
386
102
{ACAD_REACTORS
330
385
102
}
330
385
100
AcDbXrecord
280
     1
102
RTVSPost2010Prop28
280
     0
102
RTVSPost2010PropOp28
 70
     1
102
RTVSPost2010Prop29
280
     1
102
RTVSPost2010PropOp29
 70
     1
102
RTVSPost2010Prop30
280
     1
102
RTVSPost2010PropOp30
 70
     1
102
RTVSPost2010Prop31
280
     0
102
RTVSPost2010PropOp31
 70
     1
102
RTVSPost2010Prop32
280
     0
102
RTVSPost2010PropOp32
 70
     1
102
RTVSPost2010Prop33
280
     0
102
RTVSPost2010PropOp33
 70
     1
102
RTVSPost2010Prop34
280
     0
102
RTVSPost2010PropOp34
 70
     1
102
RTVSPost2010Prop35
280
     0
102
RTVSPost2010PropOp35
 70
     1
102
RTVSPost2010Prop36
280
     0
102
RTVSPost2010PropOp36
 70
     1
102
RTVSPost2010Prop37
 90
       50
102
RTVSPost2010PropOp37
 70
     1
102
RTVSPost2010Prop38
140
0.0
102
RTVSPost2010PropOp38
 70
     1
102
RTVSPost2010Prop39
140
1.0
102
RTVSPost2010PropOp39
 70
     1
102
RTVSPost2010Prop40
 90
        0
102
RTVSPost2010PropOp40
 70
     1
102
RTVSPost2010Prop41ColorIndex
 90
       18
102
RTVSPost2010Prop41ColorRGB
 90
        0
102
RTVSPost2010PropOp41
 70
     1
102
RTVSPost2010Prop42
 90
       50
102
RTVSPost2010PropOp42
 70
     1
102
RTVSPost2010Prop43
 90
        3
102
RTVSPost2010PropOp43
 70
     1
102
RTVSPost2010Prop44ColorIndex
 90
        5
102
RTVSPost2010Prop44ColorRGB
 90
      255
102
RTVSPost2010PropOp44
 70
     1
102
RTVSPost2010Prop45
280
     0
102
RTVSPost2010PropOp45
 70
     1
102
RTVSPost2010Prop46
 90
       50
102
RTVSPost2010PropOp46
 70
     1
102
RTVSPost2010Prop47
 90
       50
102
RTVSPost2010PropOp47
 70
     1
102
RTVSPost2010Prop48
 90
       50
102
RTVSPost2010PropOp48
 70
     1
102
RTVSPost2010Prop49
280
     0
102
RTVSPost2010PropOp49
 70
     1
102
RTVSPost2010Prop50
 90
       50
102
RTVSPost2010PropOp50
 70
     1
102
RTVSPost2010Prop51ColorIndex
 90
      256
102
RTVSPost2010Prop51ColorRGB
 90
-16777216
102
RTVSPost2010PropOp51
 70
     0
102
RTVSPost2010Prop52
140
1.0
102
RTVSPost2010PropOp52
 70
     0
102
RTVSPost2010Prop53
 90
        2
102
RTVSPost2010PropOp53
 70
     1
102
RTVSPost2010Prop54
  1
strokes_ogs.tif
102
RTVSPost2010PropOp54
 70
     1
102
RTVSPost2010Prop55
280
     0
102
RTVSPost2010PropOp55
 70
     1
102
RTVSPost2010Prop56
140
1.0
102
RTVSPost2010PropOp56
 70
     1
102
RTVSPost2010Prop57
140
1.0
102
RTVSPost2010PropOp57
 70
     1
  0
XRECORD
  5
394
102
{ACAD_REACTORS
330
393
102
}
330
393
100
AcDbXrecord
280
     1
102
RTVSPost2010Prop28
280
     0
102
RTVSPost2010PropOp28
 70
     1
102
RTVSPost2010Prop29
280
     1
102
RTVSPost2010PropOp29
 70
     1
102
RTVSPost2010Prop30
280
     1
102
RTVSPost2010PropOp30
 70
     1
102
RTVSPost2010Prop31
280
     0
102
RTVSPost2010PropOp31
 70
     1
102
RTVSPost2010Prop32
280
     0
102
RTVSPost2010PropOp32
 70
     1
102
RTVSPost2010Prop33
280
     0
102
RTVSPost2010PropOp33
 70
     1
102
RTVSPost2010Prop34
280
     0
102
RTVSPost2010PropOp34
 70
     1
102
RTVSPost2010Prop35
280
     0
102
RTVSPost2010PropOp35
 70
     1
102
RTVSPost2010Prop36
280
     0
102
RTVSPost2010PropOp36
 70
     1
102
RTVSPost2010Prop37
 90
       50
102
RTVSPost2010PropOp37
 70
     1
102
RTVSPost2010Prop38
140
0.0
102
RTVSPost2010PropOp38
 70
     1
102
RTVSPost2010Prop39
140
1.0
102
RTVSPost2010PropOp39
 70
     1
102
RTVSPost2010Prop40
 90
        0
102
RTVSPost2010PropOp40
 70
     1
102
RTVSPost2010Prop41ColorIndex
 90
       18
102
RTVSPost2010Prop41ColorRGB
 90
        0
102
RTVSPost2010PropOp41
 70
     1
102
RTVSPost2010Prop42
 90
       50
102
RTVSPost2010PropOp42
 70
     1
102
RTVSPost2010Prop43
 90
        3
102
RTVSPost2010PropOp43
 70
     1
102
RTVSPost2010Prop44ColorIndex
 90
        5
102
RTVSPost2010Prop44ColorRGB
 90
      255
102
RTVSPost2010PropOp44
 70
     1
102
RTVSPost2010Prop45
280
     0
102
RTVSPost2010PropOp45
 70
     1
102
RTVSPost2010Prop46
 90
       50
102
RTVSPost2010PropOp46
 70
     1
102
RTVSPost2010Prop47
 90
       50
102
RTVSPost2010PropOp47
 70
     1
102
RTVSPost2010Prop48
 90
       50
102
RTVSPost2010PropOp48
 70
     1
102
RTVSPost2010Prop49
280
     0
102
RTVSPost2010PropOp49
 70
     1
102
RTVSPost2010Prop50
 90
       50
102
RTVSPost2010PropOp50
 70
     1
102
RTVSPost2010Prop51ColorIndex
 90
      256
102
RTVSPost2010Prop51ColorRGB
 90
-16777216
102
RTVSPost2010PropOp51
 70
     0
102
RTVSPost2010Prop52
140
1.0
102
RTVSPost2010PropOp52
 70
     0
102
RTVSPost2010Prop53
 90
        2
102
RTVSPost2010PropOp53
 70
     1
102
RTVSPost2010Prop54
  1
strokes_ogs.tif
102
RTVSPost2010PropOp54
 70
     1
102
RTVSPost2010Prop55
280
     0
102
RTVSPost2010PropOp55
 70
     1
102
RTVSPost2010Prop56
140
1.0
102
RTVSPost2010PropOp56
 70
     1
102
RTVSPost2010Prop57
140
1.0
102
RTVSPost2010PropOp57
 70
     1
  0
XRECORD
  5
39C
102
{ACAD_REACTORS
330
39B
102
}
330
39B
100
AcDbXrecord
280
     1
102
RTVSPost2010Prop28
280
     0
102
RTVSPost2010PropOp28
 70
     1
102
RTVSPost2010Prop29
280
     1
102
RTVSPost2010PropOp29
 70
     1
102
RTVSPost2010Prop30
280
     1
102
RTVSPost2010PropOp30
 70
     1
102
RTVSPost2010Prop31
280
     0
102
RTVSPost2010PropOp31
 70
     1
102
RTVSPost2010Prop32
280
     0
102
RTVSPost2010PropOp32
 70
     1
102
RTVSPost2010Prop33
280
     0
102
RTVSPost2010PropOp33
 70
     1
102
RTVSPost2010Prop34
280
     0
102
RTVSPost2010PropOp34
 70
     1
102
RTVSPost2010Prop35
280
     0
102
RTVSPost2010PropOp35
 70
     1
102
RTVSPost2010Prop36
280
     0
102
RTVSPost2010PropOp36
 70
     1
102
RTVSPost2010Prop37
 90
       50
102
RTVSPost2010PropOp37
 70
     1
102
RTVSPost2010Prop38
140
0.0
102
RTVSPost2010PropOp38
 70
     1
102
RTVSPost2010Prop39
140
1.0
102
RTVSPost2010PropOp39
 70
     1
102
RTVSPost2010Prop40
 90
        0
102
RTVSPost2010PropOp40
 70
     1
102
RTVSPost2010Prop41ColorIndex
 90
       18
102
RTVSPost2010Prop41ColorRGB
 90
        0
102
RTVSPost2010PropOp41
 70
     1
102
RTVSPost2010Prop42
 90
       50
102
RTVSPost2010PropOp42
 70
     1
102
RTVSPost2010Prop43
 90
        3
102
RTVSPost2010PropOp43
 70
     1
102
RTVSPost2010Prop44ColorIndex
 90
        5
102
RTVSPost2010Prop44ColorRGB
 90
      255
102
RTVSPost2010PropOp44
 70
     1
102
RTVSPost2010Prop45
280
     0
102
RTVSPost2010PropOp45
 70
     1
102
RTVSPost2010Prop46
 90
       50
102
RTVSPost2010PropOp46
 70
     1
102
RTVSPost2010Prop47
 90
       50
102
RTVSPost2010PropOp47
 70
     1
102
RTVSPost2010Prop48
 90
       50
102
RTVSPost2010PropOp48
 70
     1
102
RTVSPost2010Prop49
280
     0
102
RTVSPost2010PropOp49
 70
     1
102
RTVSPost2010Prop50
 90
       50
102
RTVSPost2010PropOp50
 70
     1
102
RTVSPost2010Prop51ColorIndex
 90
      256
102
RTVSPost2010Prop51ColorRGB
 90
-16777216
102
RTVSPost2010PropOp51
 70
     0
102
RTVSPost2010Prop52
140
1.0
102
RTVSPost2010PropOp52
 70
     0
102
RTVSPost2010Prop53
 90
        2
102
RTVSPost2010PropOp53
 70
     1
102
RTVSPost2010Prop54
  1
strokes_ogs.tif
102
RTVSPost2010PropOp54
 70
     1
102
RTVSPost2010Prop55
280
     0
102
RTVSPost2010PropOp55
 70
     1
102
RTVSPost2010Prop56
140
1.0
102
RTVSPost2010PropOp56
 70
     1
102
RTVSPost2010Prop57
140
1.0
102
RTVSPost2010PropOp57
 70
     1
  0
XRECORD
  5
38E
102
{ACAD_REACTORS
330
38D
102
}
330
38D
100
AcDbXrecord
280
     1
102
RTVSPost2010Prop28
280
     0
102
RTVSPost2010PropOp28
 70
     1
102
RTVSPost2010Prop29
280
     1
102
RTVSPost2010PropOp29
 70
     1
102
RTVSPost2010Prop30
280
     1
102
RTVSPost2010PropOp30
 70
     1
102
RTVSPost2010Prop31
280
     0
102
RTVSPost2010PropOp31
 70
     1
102
RTVSPost2010Prop32
280
     0
102
RTVSPost2010PropOp32
 70
     1
102
RTVSPost2010Prop33
280
     0
102
RTVSPost2010PropOp33
 70
     1
102
RTVSPost2010Prop34
280
     0
102
RTVSPost2010PropOp34
 70
     1
102
RTVSPost2010Prop35
280
     0
102
RTVSPost2010PropOp35
 70
     1
102
RTVSPost2010Prop36
280
     0
102
RTVSPost2010PropOp36
 70
     1
102
RTVSPost2010Prop37
 90
       50
102
RTVSPost2010PropOp37
 70
     1
102
RTVSPost2010Prop38
140
0.0
102
RTVSPost2010PropOp38
 70
     1
102
RTVSPost2010Prop39
140
1.0
102
RTVSPost2010PropOp39
 70
     1
102
RTVSPost2010Prop40
 90
        0
102
RTVSPost2010PropOp40
 70
     1
102
RTVSPost2010Prop41ColorIndex
 90
       18
102
RTVSPost2010Prop41ColorRGB
 90
        0
102
RTVSPost2010PropOp41
 70
     1
102
RTVSPost2010Prop42
 90
       50
102
RTVSPost2010PropOp42
 70
     1
102
RTVSPost2010Prop43
 90
        3
102
RTVSPost2010PropOp43
 70
     1
102
RTVSPost2010Prop44ColorIndex
 90
        5
102
RTVSPost2010Prop44ColorRGB
 90
      255
102
RTVSPost2010PropOp44
 70
     1
102
RTVSPost2010Prop45
280
     0
102
RTVSPost2010PropOp45
 70
     1
102
RTVSPost2010Prop46
 90
       50
102
RTVSPost2010PropOp46
 70
     1
102
RTVSPost2010Prop47
 90
       50
102
RTVSPost2010PropOp47
 70
     1
102
RTVSPost2010Prop48
 90
       50
102
RTVSPost2010PropOp48
 70
     1
102
RTVSPost2010Prop49
280
     0
102
RTVSPost2010PropOp49
 70
     1
102
RTVSPost2010Prop50
 90
       50
102
RTVSPost2010PropOp50
 70
     1
102
RTVSPost2010Prop51ColorIndex
 90
      256
102
RTVSPost2010Prop51ColorRGB
 90
-16777216
102
RTVSPost2010PropOp51
 70
     0
102
RTVSPost2010Prop52
140
1.0
102
RTVSPost2010PropOp52
 70
     0
102
RTVSPost2010Prop53
 90
        2
102
RTVSPost2010PropOp53
 70
     1
102
RTVSPost2010Prop54
  1
strokes_ogs.tif
102
RTVSPost2010PropOp54
 70
     1
102
RTVSPost2010Prop55
280
     0
102
RTVSPost2010PropOp55
 70
     1
102
RTVSPost2010Prop56
140
1.0
102
RTVSPost2010PropOp56
 70
     1
102
RTVSPost2010Prop57
140
1.0
102
RTVSPost2010PropOp57
 70
     1
  0
XRECORD
  5
392
102
{ACAD_REACTORS
330
391
102
}
330
391
100
AcDbXrecord
280
     1
102
RTVSPost2010Prop28
280
     0
102
RTVSPost2010PropOp28
 70
     1
102
RTVSPost2010Prop29
280
     1
102
RTVSPost2010PropOp29
 70
     1
102
RTVSPost2010Prop30
280
     1
102
RTVSPost2010PropOp30
 70
     1
102
RTVSPost2010Prop31
280
     0
102
RTVSPost2010PropOp31
 70
     1
102
RTVSPost2010Prop32
280
     0
102
RTVSPost2010PropOp32
 70
     1
102
RTVSPost2010Prop33
280
     0
102
RTVSPost2010PropOp33
 70
     1
102
RTVSPost2010Prop34
280
     0
102
RTVSPost2010PropOp34
 70
     1
102
RTVSPost2010Prop35
280
     0
102
RTVSPost2010PropOp35
 70
     1
102
RTVSPost2010Prop36
280
     0
102
RTVSPost2010PropOp36
 70
     1
102
RTVSPost2010Prop37
 90
       50
102
RTVSPost2010PropOp37
 70
     1
102
RTVSPost2010Prop38
140
0.0
102
RTVSPost2010PropOp38
 70
     1
102
RTVSPost2010Prop39
140
1.0
102
RTVSPost2010PropOp39
 70
     1
102
RTVSPost2010Prop40
 90
        0
102
RTVSPost2010PropOp40
 70
     1
102
RTVSPost2010Prop41ColorIndex
 90
       18
102
RTVSPost2010Prop41ColorRGB
 90
        0
102
RTVSPost2010PropOp41
 70
     1
102
RTVSPost2010Prop42
 90
       50
102
RTVSPost2010PropOp42
 70
     1
102
RTVSPost2010Prop43
 90
        3
102
RTVSPost2010PropOp43
 70
     1
102
RTVSPost2010Prop44ColorIndex
 90
        5
102
RTVSPost2010Prop44ColorRGB
 90
      255
102
RTVSPost2010PropOp44
 70
     1
102
RTVSPost2010Prop45
280
     0
102
RTVSPost2010PropOp45
 70
     1
102
RTVSPost2010Prop46
 90
       50
102
RTVSPost2010PropOp46
 70
     1
102
RTVSPost2010Prop47
 90
       50
102
RTVSPost2010PropOp47
 70
     1
102
RTVSPost2010Prop48
 90
       50
102
RTVSPost2010PropOp48
 70
     1
102
RTVSPost2010Prop49
280
     0
102
RTVSPost2010PropOp49
 70
     1
102
RTVSPost2010Prop50
 90
       50
102
RTVSPost2010PropOp50
 70
     1
102
RTVSPost2010Prop51ColorIndex
 90
      256
102
RTVSPost2010Prop51ColorRGB
 90
-16777216
102
RTVSPost2010PropOp51
 70
     0
102
RTVSPost2010Prop52
140
1.0
102
RTVSPost2010PropOp52
 70
     0
102
RTVSPost2010Prop53
 90
        2
102
RTVSPost2010PropOp53
 70
     1
102
RTVSPost2010Prop54
  1
strokes_ogs.tif
102
RTVSPost2010PropOp54
 70
     1
102
RTVSPost2010Prop55
280
     0
102
RTVSPost2010PropOp55
 70
     1
102
RTVSPost2010Prop56
140
1.0
102
RTVSPost2010PropOp56
 70
     1
102
RTVSPost2010Prop57
140
1.0
102
RTVSPost2010PropOp57
 70
     1
  0
XRECORD
  5
3AC
102
{ACAD_REACTORS
330
3AB
102
}
330
3AB
100
AcDbXrecord
280
     1
102
RTVSPost2010Prop28
280
     0
102
RTVSPost2010PropOp28
 70
     0
102
RTVSPost2010Prop29
280
     1
102
RTVSPost2010PropOp29
 70
     0
102
RTVSPost2010Prop30
280
     1
102
RTVSPost2010PropOp30
 70
     0
102
RTVSPost2010Prop31
280
     0
102
RTVSPost2010PropOp31
 70
     0
102
RTVSPost2010Prop32
280
     0
102
RTVSPost2010PropOp32
 70
     0
102
RTVSPost2010Prop33
280
     0
102
RTVSPost2010PropOp33
 70
     0
102
RTVSPost2010Prop34
280
     0
102
RTVSPost2010PropOp34
 70
     0
102
RTVSPost2010Prop35
280
     0
102
RTVSPost2010PropOp35
 70
     0
102
RTVSPost2010Prop36
280
     0
102
RTVSPost2010PropOp36
 70
     0
102
RTVSPost2010Prop37
 90
       50
102
RTVSPost2010PropOp37
 70
     0
102
RTVSPost2010Prop38
140
0.0
102
RTVSPost2010PropOp38
 70
     0
102
RTVSPost2010Prop39
140
1.0
102
RTVSPost2010PropOp39
 70
     0
102
RTVSPost2010Prop40
 90
        0
102
RTVSPost2010PropOp40
 70
     0
102
RTVSPost2010Prop41ColorIndex
 90
       18
102
RTVSPost2010Prop41ColorRGB
 90
        0
102
RTVSPost2010PropOp41
 70
     0
102
RTVSPost2010Prop42
 90
       50
102
RTVSPost2010PropOp42
 70
     0
102
RTVSPost2010Prop43
 90
        3
102
RTVSPost2010PropOp43
 70
     0
102
RTVSPost2010Prop44ColorIndex
 90
        5
102
RTVSPost2010Prop44ColorRGB
 90
      255
102
RTVSPost2010PropOp44
 70
     0
102
RTVSPost2010Prop45
280
     0
102
RTVSPost2010PropOp45
 70
     0
102
RTVSPost2010Prop46
 90
       50
102
RTVSPost2010PropOp46
 70
     0
102
RTVSPost2010Prop47
 90
       50
102
RTVSPost2010PropOp47
 70
     0
102
RTVSPost2010Prop48
 90
       50
102
RTVSPost2010PropOp48
 70
     0
102
RTVSPost2010Prop49
280
     0
102
RTVSPost2010PropOp49
 70
     0
102
RTVSPost2010Prop50
 90
       50
102
RTVSPost2010PropOp50
 70
     0
102
RTVSPost2010Prop51ColorIndex
 90
      256
102
RTVSPost2010Prop51ColorRGB
 90
-16777216
102
RTVSPost2010PropOp51
 70
     0
102
RTVSPost2010Prop52
140
1.0
102
RTVSPost2010PropOp52
 70
     0
102
RTVSPost2010Prop53
 90
        2
102
RTVSPost2010PropOp53
 70
     0
102
RTVSPost2010Prop54
  1
strokes_ogs.tif
102
RTVSPost2010PropOp54
 70
     0
102
RTVSPost2010Prop55
280
     0
102
RTVSPost2010PropOp55
 70
     0
102
RTVSPost2010Prop56
140
1.0
102
RTVSPost2010PropOp56
 70
     0
102
RTVSPost2010Prop57
140
1.0
102
RTVSPost2010PropOp57
 70
     0
  0
XRECORD
  5
39A
102
{ACAD_REACTORS
330
399
102
}
330
399
100
AcDbXrecord
280
     1
102
RTVSPost2010Prop28
280
     0
102
RTVSPost2010PropOp28
 70
     1
102
RTVSPost2010Prop29
280
     1
102
RTVSPost2010PropOp29
 70
     1
102
RTVSPost2010Prop30
280
     1
102
RTVSPost2010PropOp30
 70
     1
102
RTVSPost2010Prop31
280
     0
102
RTVSPost2010PropOp31
 70
     1
102
RTVSPost2010Prop32
280
     0
102
RTVSPost2010PropOp32
 70
     1
102
RTVSPost2010Prop33
280
     0
102
RTVSPost2010PropOp33
 70
     1
102
RTVSPost2010Prop34
280
     0
102
RTVSPost2010PropOp34
 70
     1
102
RTVSPost2010Prop35
280
     0
102
RTVSPost2010PropOp35
 70
     1
102
RTVSPost2010Prop36
280
     0
102
RTVSPost2010PropOp36
 70
     1
102
RTVSPost2010Prop37
 90
       50
102
RTVSPost2010PropOp37
 70
     1
102
RTVSPost2010Prop38
140
0.0
102
RTVSPost2010PropOp38
 70
     1
102
RTVSPost2010Prop39
140
1.0
102
RTVSPost2010PropOp39
 70
     1
102
RTVSPost2010Prop40
 90
        0
102
RTVSPost2010PropOp40
 70
     1
102
RTVSPost2010Prop41ColorIndex
 90
       18
102
RTVSPost2010Prop41ColorRGB
 90
        0
102
RTVSPost2010PropOp41
 70
     1
102
RTVSPost2010Prop42
 90
       50
102
RTVSPost2010PropOp42
 70
     1
102
RTVSPost2010Prop43
 90
        3
102
RTVSPost2010PropOp43
 70
     1
102
RTVSPost2010Prop44ColorIndex
 90
        5
102
RTVSPost2010Prop44ColorRGB
 90
      255
102
RTVSPost2010PropOp44
 70
     1
102
RTVSPost2010Prop45
280
     0
102
RTVSPost2010PropOp45
 70
     1
102
RTVSPost2010Prop46
 90
       50
102
RTVSPost2010PropOp46
 70
     1
102
RTVSPost2010Prop47
 90
       50
102
RTVSPost2010PropOp47
 70
     1
102
RTVSPost2010Prop48
 90
       50
102
RTVSPost2010PropOp48
 70
     1
102
RTVSPost2010Prop49
280
     0
102
RTVSPost2010PropOp49
 70
     1
102
RTVSPost2010Prop50
 90
       50
102
RTVSPost2010PropOp50
 70
     1
102
RTVSPost2010Prop51ColorIndex
 90
      256
102
RTVSPost2010Prop51ColorRGB
 90
-16777216
102
RTVSPost2010PropOp51
 70
     0
102
RTVSPost2010Prop52
140
1.0
102
RTVSPost2010PropOp52
 70
     0
102
RTVSPost2010Prop53
 90
        2
102
RTVSPost2010PropOp53
 70
     1
102
RTVSPost2010Prop54
  1
strokes_ogs.tif
102
RTVSPost2010PropOp54
 70
     1
102
RTVSPost2010Prop55
280
     0
102
RTVSPost2010PropOp55
 70
     1
102
RTVSPost2010Prop56
140
1.0
102
RTVSPost2010PropOp56
 70
     1
102
RTVSPost2010Prop57
140
1.0
102
RTVSPost2010PropOp57
 70
     1
  0
XRECORD
  5
37E
102
{ACAD_REACTORS
330
37D
102
}
330
37D
100
AcDbXrecord
280
     1
102
RTVSPost2010Prop28
280
     0
102
RTVSPost2010PropOp28
 70
     1
102
RTVSPost2010Prop29
280
     1
102
RTVSPost2010PropOp29
 70
     1
102
RTVSPost2010Prop30
280
     1
102
RTVSPost2010PropOp30
 70
     1
102
RTVSPost2010Prop31
280
     0
102
RTVSPost2010PropOp31
 70
     1
102
RTVSPost2010Prop32
280
     0
102
RTVSPost2010PropOp32
 70
     1
102
RTVSPost2010Prop33
280
     0
102
RTVSPost2010PropOp33
 70
     1
102
RTVSPost2010Prop34
280
     0
102
RTVSPost2010PropOp34
 70
     1
102
RTVSPost2010Prop35
280
     0
102
RTVSPost2010PropOp35
 70
     1
102
RTVSPost2010Prop36
280
     0
102
RTVSPost2010PropOp36
 70
     1
102
RTVSPost2010Prop37
 90
       50
102
RTVSPost2010PropOp37
 70
     1
102
RTVSPost2010Prop38
140
0.0
102
RTVSPost2010PropOp38
 70
     1
102
RTVSPost2010Prop39
140
1.0
102
RTVSPost2010PropOp39
 70
     1
102
RTVSPost2010Prop40
 90
        0
102
RTVSPost2010PropOp40
 70
     1
102
RTVSPost2010Prop41ColorIndex
 90
       18
102
RTVSPost2010Prop41ColorRGB
 90
        0
102
RTVSPost2010PropOp41
 70
     1
102
RTVSPost2010Prop42
 90
       50
102
RTVSPost2010PropOp42
 70
     1
102
RTVSPost2010Prop43
 90
        3
102
RTVSPost2010PropOp43
 70
     1
102
RTVSPost2010Prop44ColorIndex
 90
        5
102
RTVSPost2010Prop44ColorRGB
 90
      255
102
RTVSPost2010PropOp44
 70
     1
102
RTVSPost2010Prop45
280
     0
102
RTVSPost2010PropOp45
 70
     1
102
RTVSPost2010Prop46
 90
       50
102
RTVSPost2010PropOp46
 70
     1
102
RTVSPost2010Prop47
 90
       50
102
RTVSPost2010PropOp47
 70
     1
102
RTVSPost2010Prop48
 90
       50
102
RTVSPost2010PropOp48
 70
     1
102
RTVSPost2010Prop49
280
     0
102
RTVSPost2010PropOp49
 70
     1
102
RTVSPost2010Prop50
 90
       50
102
RTVSPost2010PropOp50
 70
     1
102
RTVSPost2010Prop51ColorIndex
 90
      256
102
RTVSPost2010Prop51ColorRGB
 90
-16777216
102
RTVSPost2010PropOp51
 70
     0
102
RTVSPost2010Prop52
140
1.0
102
RTVSPost2010PropOp52
 70
     0
102
RTVSPost2010Prop53
 90
        2
102
RTVSPost2010PropOp53
 70
     1
102
RTVSPost2010Prop54
  1
strokes_ogs.tif
102
RTVSPost2010PropOp54
 70
     1
102
RTVSPost2010Prop55
280
     0
102
RTVSPost2010PropOp55
 70
     1
102
RTVSPost2010Prop56
140
1.0
102
RTVSPost2010PropOp56
 70
     1
102
RTVSPost2010Prop57
140
1.0
102
RTVSPost2010PropOp57
 70
     1
  0
XRECORD
  5
380
102
{ACAD_REACTORS
330
37F
102
}
330
37F
100
AcDbXrecord
280
     1
102
RTVSPost2010Prop28
280
     0
102
RTVSPost2010PropOp28
 70
     1
102
RTVSPost2010Prop29
280
     1
102
RTVSPost2010PropOp29
 70
     1
102
RTVSPost2010Prop30
280
     1
102
RTVSPost2010PropOp30
 70
     1
102
RTVSPost2010Prop31
280
     0
102
RTVSPost2010PropOp31
 70
     1
102
RTVSPost2010Prop32
280
     0
102
RTVSPost2010PropOp32
 70
     1
102
RTVSPost2010Prop33
280
     0
102
RTVSPost2010PropOp33
 70
     1
102
RTVSPost2010Prop34
280
     0
102
RTVSPost2010PropOp34
 70
     1
102
RTVSPost2010Prop35
280
     0
102
RTVSPost2010PropOp35
 70
     1
102
RTVSPost2010Prop36
280
     0
102
RTVSPost2010PropOp36
 70
     1
102
RTVSPost2010Prop37
 90
       50
102
RTVSPost2010PropOp37
 70
     1
102
RTVSPost2010Prop38
140
0.0
102
RTVSPost2010PropOp38
 70
     1
102
RTVSPost2010Prop39
140
1.0
102
RTVSPost2010PropOp39
 70
     1
102
RTVSPost2010Prop40
 90
        0
102
RTVSPost2010PropOp40
 70
     1
102
RTVSPost2010Prop41ColorIndex
 90
       18
102
RTVSPost2010Prop41ColorRGB
 90
        0
102
RTVSPost2010PropOp41
 70
     1
102
RTVSPost2010Prop42
 90
       50
102
RTVSPost2010PropOp42
 70
     1
102
RTVSPost2010Prop43
 90
        3
102
RTVSPost2010PropOp43
 70
     1
102
RTVSPost2010Prop44ColorIndex
 90
        5
102
RTVSPost2010Prop44ColorRGB
 90
      255
102
RTVSPost2010PropOp44
 70
     1
102
RTVSPost2010Prop45
280
     0
102
RTVSPost2010PropOp45
 70
     1
102
RTVSPost2010Prop46
 90
       50
102
RTVSPost2010PropOp46
 70
     1
102
RTVSPost2010Prop47
 90
       50
102
RTVSPost2010PropOp47
 70
     1
102
RTVSPost2010Prop48
 90
       50
102
RTVSPost2010PropOp48
 70
     1
102
RTVSPost2010Prop49
280
     0
102
RTVSPost2010PropOp49
 70
     1
102
RTVSPost2010Prop50
 90
       50
102
RTVSPost2010PropOp50
 70
     1
102
RTVSPost2010Prop51ColorIndex
 90
      256
102
RTVSPost2010Prop51ColorRGB
 90
-16777216
102
RTVSPost2010PropOp51
 70
     0
102
RTVSPost2010Prop52
140
1.0
102
RTVSPost2010PropOp52
 70
     0
102
RTVSPost2010Prop53
 90
        2
102
RTVSPost2010PropOp53
 70
     1
102
RTVSPost2010Prop54
  1
strokes_ogs.tif
102
RTVSPost2010PropOp54
 70
     1
102
RTVSPost2010Prop55
280
     0
102
RTVSPost2010PropOp55
 70
     1
102
RTVSPost2010Prop56
140
1.0
102
RTVSPost2010PropOp56
 70
     1
102
RTVSPost2010Prop57
140
1.0
102
RTVSPost2010PropOp57
 70
     1
  0
XRECORD
  5
382
102
{ACAD_REACTORS
330
381
102
}
330
381
100
AcDbXrecord
280
     1
102
RTVSPost2010Prop28
280
     0
102
RTVSPost2010PropOp28
 70
     1
102
RTVSPost2010Prop29
280
     1
102
RTVSPost2010PropOp29
 70
     1
102
RTVSPost2010Prop30
280
     1
102
RTVSPost2010PropOp30
 70
     1
102
RTVSPost2010Prop31
280
     0
102
RTVSPost2010PropOp31
 70
     1
102
RTVSPost2010Prop32
280
     0
102
RTVSPost2010PropOp32
 70
     1
102
RTVSPost2010Prop33
280
     0
102
RTVSPost2010PropOp33
 70
     1
102
RTVSPost2010Prop34
280
     0
102
RTVSPost2010PropOp34
 70
     1
102
RTVSPost2010Prop35
280
     0
102
RTVSPost2010PropOp35
 70
     1
102
RTVSPost2010Prop36
280
     0
102
RTVSPost2010PropOp36
 70
     1
102
RTVSPost2010Prop37
 90
       50
102
RTVSPost2010PropOp37
 70
     1
102
RTVSPost2010Prop38
140
0.0
102
RTVSPost2010PropOp38
 70
     1
102
RTVSPost2010Prop39
140
1.0
102
RTVSPost2010PropOp39
 70
     1
102
RTVSPost2010Prop40
 90
        0
102
RTVSPost2010PropOp40
 70
     1
102
RTVSPost2010Prop41ColorIndex
 90
       18
102
RTVSPost2010Prop41ColorRGB
 90
        0
102
RTVSPost2010PropOp41
 70
     1
102
RTVSPost2010Prop42
 90
       50
102
RTVSPost2010PropOp42
 70
     1
102
RTVSPost2010Prop43
 90
        3
102
RTVSPost2010PropOp43
 70
     1
102
RTVSPost2010Prop44ColorIndex
 90
        5
102
RTVSPost2010Prop44ColorRGB
 90
      255
102
RTVSPost2010PropOp44
 70
     1
102
RTVSPost2010Prop45
280
     0
102
RTVSPost2010PropOp45
 70
     1
102
RTVSPost2010Prop46
 90
       50
102
RTVSPost2010PropOp46
 70
     1
102
RTVSPost2010Prop47
 90
       50
102
RTVSPost2010PropOp47
 70
     1
102
RTVSPost2010Prop48
 90
       50
102
RTVSPost2010PropOp48
 70
     1
102
RTVSPost2010Prop49
280
     0
102
RTVSPost2010PropOp49
 70
     1
102
RTVSPost2010Prop50
 90
       50
102
RTVSPost2010PropOp50
 70
     1
102
RTVSPost2010Prop51ColorIndex
 90
      256
102
RTVSPost2010Prop51ColorRGB
 90
-16777216
102
RTVSPost2010PropOp51
 70
     0
102
RTVSPost2010Prop52
140
1.0
102
RTVSPost2010PropOp52
 70
     0
102
RTVSPost2010Prop53
 90
        2
102
RTVSPost2010PropOp53
 70
     1
102
RTVSPost2010Prop54
  1
strokes_ogs.tif
102
RTVSPost2010PropOp54
 70
     1
102
RTVSPost2010Prop55
280
     0
102
RTVSPost2010PropOp55
 70
     1
102
RTVSPost2010Prop56
140
1.0
102
RTVSPost2010PropOp56
 70
     1
102
RTVSPost2010Prop57
140
1.0
102
RTVSPost2010PropOp57
 70
     1
  0
XRECORD
  5
384
102
{ACAD_REACTORS
330
383
102
}
330
383
100
AcDbXrecord
280
     1
102
RTVSPost2010Prop28
280
     0
102
RTVSPost2010PropOp28
 70
     1
102
RTVSPost2010Prop29
280
     1
102
RTVSPost2010PropOp29
 70
     1
102
RTVSPost2010Prop30
280
     1
102
RTVSPost2010PropOp30
 70
     1
102
RTVSPost2010Prop31
280
     0
102
RTVSPost2010PropOp31
 70
     1
102
RTVSPost2010Prop32
280
     0
102
RTVSPost2010PropOp32
 70
     1
102
RTVSPost2010Prop33
280
     0
102
RTVSPost2010PropOp33
 70
     1
102
RTVSPost2010Prop34
280
     0
102
RTVSPost2010PropOp34
 70
     1
102
RTVSPost2010Prop35
280
     0
102
RTVSPost2010PropOp35
 70
     1
102
RTVSPost2010Prop36
280
     0
102
RTVSPost2010PropOp36
 70
     1
102
RTVSPost2010Prop37
 90
       50
102
RTVSPost2010PropOp37
 70
     1
102
RTVSPost2010Prop38
140
0.0
102
RTVSPost2010PropOp38
 70
     1
102
RTVSPost2010Prop39
140
1.0
102
RTVSPost2010PropOp39
 70
     1
102
RTVSPost2010Prop40
 90
        0
102
RTVSPost2010PropOp40
 70
     1
102
RTVSPost2010Prop41ColorIndex
 90
       18
102
RTVSPost2010Prop41ColorRGB
 90
        0
102
RTVSPost2010PropOp41
 70
     1
102
RTVSPost2010Prop42
 90
       50
102
RTVSPost2010PropOp42
 70
     1
102
RTVSPost2010Prop43
 90
        3
102
RTVSPost2010PropOp43
 70
     1
102
RTVSPost2010Prop44ColorIndex
 90
        5
102
RTVSPost2010Prop44ColorRGB
 90
      255
102
RTVSPost2010PropOp44
 70
     1
102
RTVSPost2010Prop45
280
     0
102
RTVSPost2010PropOp45
 70
     1
102
RTVSPost2010Prop46
 90
       50
102
RTVSPost2010PropOp46
 70
     1
102
RTVSPost2010Prop47
 90
       50
102
RTVSPost2010PropOp47
 70
     1
102
RTVSPost2010Prop48
 90
       50
102
RTVSPost2010PropOp48
 70
     1
102
RTVSPost2010Prop49
280
     0
102
RTVSPost2010PropOp49
 70
     1
102
RTVSPost2010Prop50
 90
       50
102
RTVSPost2010PropOp50
 70
     1
102
RTVSPost2010Prop51ColorIndex
 90
      256
102
RTVSPost2010Prop51ColorRGB
 90
-16777216
102
RTVSPost2010PropOp51
 70
     0
102
RTVSPost2010Prop52
140
1.0
102
RTVSPost2010PropOp52
 70
     0
102
RTVSPost2010Prop53
 90
        2
102
RTVSPost2010PropOp53
 70
     1
102
RTVSPost2010Prop54
  1
strokes_ogs.tif
102
RTVSPost2010PropOp54
 70
     1
102
RTVSPost2010Prop55
280
     0
102
RTVSPost2010PropOp55
 70
     1
102
RTVSPost2010Prop56
140
1.0
102
RTVSPost2010PropOp56
 70
     1
102
RTVSPost2010Prop57
140
1.0
102
RTVSPost2010PropOp57
 70
     1
  0
XRECORD
  5
38C
102
{ACAD_REACTORS
330
38B
102
}
330
38B
100
AcDbXrecord
280
     1
102
RTVSPost2010Prop28
280
     0
102
RTVSPost2010PropOp28
 70
     1
102
RTVSPost2010Prop29
280
     1
102
RTVSPost2010PropOp29
 70
     1
102
RTVSPost2010Prop30
280
     1
102
RTVSPost2010PropOp30
 70
     1
102
RTVSPost2010Prop31
280
     0
102
RTVSPost2010PropOp31
 70
     1
102
RTVSPost2010Prop32
280
     0
102
RTVSPost2010PropOp32
 70
     1
102
RTVSPost2010Prop33
280
     0
102
RTVSPost2010PropOp33
 70
     1
102
RTVSPost2010Prop34
280
     0
102
RTVSPost2010PropOp34
 70
     1
102
RTVSPost2010Prop35
280
     0
102
RTVSPost2010PropOp35
 70
     1
102
RTVSPost2010Prop36
280
     0
102
RTVSPost2010PropOp36
 70
     1
102
RTVSPost2010Prop37
 90
       50
102
RTVSPost2010PropOp37
 70
     1
102
RTVSPost2010Prop38
140
0.0
102
RTVSPost2010PropOp38
 70
     1
102
RTVSPost2010Prop39
140
1.0
102
RTVSPost2010PropOp39
 70
     1
102
RTVSPost2010Prop40
 90
        0
102
RTVSPost2010PropOp40
 70
     1
102
RTVSPost2010Prop41ColorIndex
 90
       18
102
RTVSPost2010Prop41ColorRGB
 90
        0
102
RTVSPost2010PropOp41
 70
     1
102
RTVSPost2010Prop42
 90
       50
102
RTVSPost2010PropOp42
 70
     1
102
RTVSPost2010Prop43
 90
        3
102
RTVSPost2010PropOp43
 70
     1
102
RTVSPost2010Prop44ColorIndex
 90
        5
102
RTVSPost2010Prop44ColorRGB
 90
      255
102
RTVSPost2010PropOp44
 70
     1
102
RTVSPost2010Prop45
280
     0
102
RTVSPost2010PropOp45
 70
     1
102
RTVSPost2010Prop46
 90
       50
102
RTVSPost2010PropOp46
 70
     1
102
RTVSPost2010Prop47
 90
       50
102
RTVSPost2010PropOp47
 70
     1
102
RTVSPost2010Prop48
 90
       50
102
RTVSPost2010PropOp48
 70
     1
102
RTVSPost2010Prop49
280
     0
102
RTVSPost2010PropOp49
 70
     1
102
RTVSPost2010Prop50
 90
       50
102
RTVSPost2010PropOp50
 70
     1
102
RTVSPost2010Prop51ColorIndex
 90
      256
102
RTVSPost2010Prop51ColorRGB
 90
-16777216
102
RTVSPost2010PropOp51
 70
     0
102
RTVSPost2010Prop52
140
1.0
102
RTVSPost2010PropOp52
 70
     0
102
RTVSPost2010Prop53
 90
        2
102
RTVSPost2010PropOp53
 70
     1
102
RTVSPost2010Prop54
  1
strokes_ogs.tif
102
RTVSPost2010PropOp54
 70
     1
102
RTVSPost2010Prop55
280
     0
102
RTVSPost2010PropOp55
 70
     1
102
RTVSPost2010Prop56
140
1.0
102
RTVSPost2010PropOp56
 70
     1
102
RTVSPost2010Prop57
140
1.0
102
RTVSPost2010PropOp57
 70
     1
  0
XRECORD
  5
3A8
102
{ACAD_REACTORS
330
3A7
102
}
330
3A7
100
AcDbXrecord
280
     1
102
RTVSPost2010Prop28
280
     0
102
RTVSPost2010PropOp28
 70
     0
102
RTVSPost2010Prop29
280
     1
102
RTVSPost2010PropOp29
 70
     0
102
RTVSPost2010Prop30
280
     1
102
RTVSPost2010PropOp30
 70
     0
102
RTVSPost2010Prop31
280
     0
102
RTVSPost2010PropOp31
 70
     0
102
RTVSPost2010Prop32
280
     0
102
RTVSPost2010PropOp32
 70
     0
102
RTVSPost2010Prop33
280
     0
102
RTVSPost2010PropOp33
 70
     0
102
RTVSPost2010Prop34
280
     0
102
RTVSPost2010PropOp34
 70
     0
102
RTVSPost2010Prop35
280
     0
102
RTVSPost2010PropOp35
 70
     0
102
RTVSPost2010Prop36
280
     0
102
RTVSPost2010PropOp36
 70
     0
102
RTVSPost2010Prop37
 90
       50
102
RTVSPost2010PropOp37
 70
     0
102
RTVSPost2010Prop38
140
0.0
102
RTVSPost2010PropOp38
 70
     0
102
RTVSPost2010Prop39
140
1.0
102
RTVSPost2010PropOp39
 70
     0
102
RTVSPost2010Prop40
 90
        0
102
RTVSPost2010PropOp40
 70
     0
102
RTVSPost2010Prop41ColorIndex
 90
       18
102
RTVSPost2010Prop41ColorRGB
 90
        0
102
RTVSPost2010PropOp41
 70
     0
102
RTVSPost2010Prop42
 90
       50
102
RTVSPost2010PropOp42
 70
     0
102
RTVSPost2010Prop43
 90
        3
102
RTVSPost2010PropOp43
 70
     0
102
RTVSPost2010Prop44ColorIndex
 90
        5
102
RTVSPost2010Prop44ColorRGB
 90
      255
102
RTVSPost2010PropOp44
 70
     0
102
RTVSPost2010Prop45
280
     0
102
RTVSPost2010PropOp45
 70
     0
102
RTVSPost2010Prop46
 90
       50
102
RTVSPost2010PropOp46
 70
     0
102
RTVSPost2010Prop47
 90
       50
102
RTVSPost2010PropOp47
 70
     0
102
RTVSPost2010Prop48
 90
       50
102
RTVSPost2010PropOp48
 70
     0
102
RTVSPost2010Prop49
280
     0
102
RTVSPost2010PropOp49
 70
     0
102
RTVSPost2010Prop50
 90
       50
102
RTVSPost2010PropOp50
 70
     0
102
RTVSPost2010Prop51ColorIndex
 90
      256
102
RTVSPost2010Prop51ColorRGB
 90
-16777216
102
RTVSPost2010PropOp51
 70
     0
102
RTVSPost2010Prop52
140
1.0
102
RTVSPost2010PropOp52
 70
     0
102
RTVSPost2010Prop53
 90
        2
102
RTVSPost2010PropOp53
 70
     0
102
RTVSPost2010Prop54
  1
strokes_ogs.tif
102
RTVSPost2010PropOp54
 70
     0
102
RTVSPost2010Prop55
280
     0
102
RTVSPost2010PropOp55
 70
     0
102
RTVSPost2010Prop56
140
1.0
102
RTVSPost2010PropOp56
 70
     0
102
RTVSPost2010Prop57
140
1.0
102
RTVSPost2010PropOp57
 70
     0
  0
XRECORD
  5
398
102
{ACAD_REACTORS
330
397
102
}
330
397
100
AcDbXrecord
280
     1
102
RTVSPost2010Prop28
280
     0
102
RTVSPost2010PropOp28
 70
     1
102
RTVSPost2010Prop29
280
     1
102
RTVSPost2010PropOp29
 70
     1
102
RTVSPost2010Prop30
280
     1
102
RTVSPost2010PropOp30
 70
     1
102
RTVSPost2010Prop31
280
     0
102
RTVSPost2010PropOp31
 70
     1
102
RTVSPost2010Prop32
280
     0
102
RTVSPost2010PropOp32
 70
     1
102
RTVSPost2010Prop33
280
     0
102
RTVSPost2010PropOp33
 70
     1
102
RTVSPost2010Prop34
280
     0
102
RTVSPost2010PropOp34
 70
     1
102
RTVSPost2010Prop35
280
     0
102
RTVSPost2010PropOp35
 70
     1
102
RTVSPost2010Prop36
280
     0
102
RTVSPost2010PropOp36
 70
     1
102
RTVSPost2010Prop37
 90
       50
102
RTVSPost2010PropOp37
 70
     1
102
RTVSPost2010Prop38
140
0.0
102
RTVSPost2010PropOp38
 70
     1
102
RTVSPost2010Prop39
140
1.0
102
RTVSPost2010PropOp39
 70
     1
102
RTVSPost2010Prop40
 90
        0
102
RTVSPost2010PropOp40
 70
     1
102
RTVSPost2010Prop41ColorIndex
 90
       18
102
RTVSPost2010Prop41ColorRGB
 90
        0
102
RTVSPost2010PropOp41
 70
     1
102
RTVSPost2010Prop42
 90
       50
102
RTVSPost2010PropOp42
 70
     1
102
RTVSPost2010Prop43
 90
        3
102
RTVSPost2010PropOp43
 70
     1
102
RTVSPost2010Prop44ColorIndex
 90
        5
102
RTVSPost2010Prop44ColorRGB
 90
      255
102
RTVSPost2010PropOp44
 70
     1
102
RTVSPost2010Prop45
280
     0
102
RTVSPost2010PropOp45
 70
     1
102
RTVSPost2010Prop46
 90
       50
102
RTVSPost2010PropOp46
 70
     1
102
RTVSPost2010Prop47
 90
       50
102
RTVSPost2010PropOp47
 70
     1
102
RTVSPost2010Prop48
 90
       50
102
RTVSPost2010PropOp48
 70
     1
102
RTVSPost2010Prop49
280
     0
102
RTVSPost2010PropOp49
 70
     1
102
RTVSPost2010Prop50
 90
       50
102
RTVSPost2010PropOp50
 70
     1
102
RTVSPost2010Prop51ColorIndex
 90
      256
102
RTVSPost2010Prop51ColorRGB
 90
-16777216
102
RTVSPost2010PropOp51
 70
     0
102
RTVSPost2010Prop52
140
1.0
102
RTVSPost2010PropOp52
 70
     0
102
RTVSPost2010Prop53
 90
        2
102
RTVSPost2010PropOp53
 70
     1
102
RTVSPost2010Prop54
  1
strokes_ogs.tif
102
RTVSPost2010PropOp54
 70
     1
102
RTVSPost2010Prop55
280
     0
102
RTVSPost2010PropOp55
 70
     1
102
RTVSPost2010Prop56
140
1.0
102
RTVSPost2010PropOp56
 70
     1
102
RTVSPost2010Prop57
140
1.0
102
RTVSPost2010PropOp57
 70
     1
  0
XRECORD
  5
3AA
102
{ACAD_REACTORS
330
3A9
102
}
330
3A9
100
AcDbXrecord
280
     1
102
RTVSPost2010Prop28
280
     0
102
RTVSPost2010PropOp28
 70
     0
102
RTVSPost2010Prop29
280
     1
102
RTVSPost2010PropOp29
 70
     0
102
RTVSPost2010Prop30
280
     1
102
RTVSPost2010PropOp30
 70
     0
102
RTVSPost2010Prop31
280
     0
102
RTVSPost2010PropOp31
 70
     0
102
RTVSPost2010Prop32
280
     0
102
RTVSPost2010PropOp32
 70
     0
102
RTVSPost2010Prop33
280
     0
102
RTVSPost2010PropOp33
 70
     0
102
RTVSPost2010Prop34
280
     0
102
RTVSPost2010PropOp34
 70
     0
102
RTVSPost2010Prop35
280
     0
102
RTVSPost2010PropOp35
 70
     0
102
RTVSPost2010Prop36
280
     0
102
RTVSPost2010PropOp36
 70
     0
102
RTVSPost2010Prop37
 90
       50
102
RTVSPost2010PropOp37
 70
     0
102
RTVSPost2010Prop38
140
0.0
102
RTVSPost2010PropOp38
 70
     0
102
RTVSPost2010Prop39
140
1.0
102
RTVSPost2010PropOp39
 70
     0
102
RTVSPost2010Prop40
 90
        0
102
RTVSPost2010PropOp40
 70
     0
102
RTVSPost2010Prop41ColorIndex
 90
       18
102
RTVSPost2010Prop41ColorRGB
 90
        0
102
RTVSPost2010PropOp41
 70
     0
102
RTVSPost2010Prop42
 90
       50
102
RTVSPost2010PropOp42
 70
     0
102
RTVSPost2010Prop43
 90
        3
102
RTVSPost2010PropOp43
 70
     0
102
RTVSPost2010Prop44ColorIndex
 90
        5
102
RTVSPost2010Prop44ColorRGB
 90
      255
102
RTVSPost2010PropOp44
 70
     0
102
RTVSPost2010Prop45
280
     0
102
RTVSPost2010PropOp45
 70
     0
102
RTVSPost2010Prop46
 90
       50
102
RTVSPost2010PropOp46
 70
     0
102
RTVSPost2010Prop47
 90
       50
102
RTVSPost2010PropOp47
 70
     0
102
RTVSPost2010Prop48
 90
       50
102
RTVSPost2010PropOp48
 70
     0
102
RTVSPost2010Prop49
280
     0
102
RTVSPost2010PropOp49
 70
     0
102
RTVSPost2010Prop50
 90
       50
102
RTVSPost2010PropOp50
 70
     0
102
RTVSPost2010Prop51ColorIndex
 90
      256
102
RTVSPost2010Prop51ColorRGB
 90
-16777216
102
RTVSPost2010PropOp51
 70
     0
102
RTVSPost2010Prop52
140
1.0
102
RTVSPost2010PropOp52
 70
     0
102
RTVSPost2010Prop53
 90
        2
102
RTVSPost2010PropOp53
 70
     0
102
RTVSPost2010Prop54
  1
strokes_ogs.tif
102
RTVSPost2010PropOp54
 70
     0
102
RTVSPost2010Prop55
280
     0
102
RTVSPost2010PropOp55
 70
     0
102
RTVSPost2010Prop56
140
1.0
102
RTVSPost2010PropOp56
 70
     0
102
RTVSPost2010Prop57
140
1.0
102
RTVSPost2010PropOp57
 70
     0
  0
XRECORD
  5
390
102
{ACAD_REACTORS
330
38F
102
}
330
38F
100
AcDbXrecord
280
     1
102
RTVSPost2010Prop28
280
     0
102
RTVSPost2010PropOp28
 70
     1
102
RTVSPost2010Prop29
280
     1
102
RTVSPost2010PropOp29
 70
     1
102
RTVSPost2010Prop30
280
     1
102
RTVSPost2010PropOp30
 70
     1
102
RTVSPost2010Prop31
280
     0
102
RTVSPost2010PropOp31
 70
     1
102
RTVSPost2010Prop32
280
     0
102
RTVSPost2010PropOp32
 70
     1
102
RTVSPost2010Prop33
280
     0
102
RTVSPost2010PropOp33
 70
     1
102
RTVSPost2010Prop34
280
     0
102
RTVSPost2010PropOp34
 70
     1
102
RTVSPost2010Prop35
280
     0
102
RTVSPost2010PropOp35
 70
     1
102
RTVSPost2010Prop36
280
     0
102
RTVSPost2010PropOp36
 70
     1
102
RTVSPost2010Prop37
 90
       50
102
RTVSPost2010PropOp37
 70
     1
102
RTVSPost2010Prop38
140
0.0
102
RTVSPost2010PropOp38
 70
     1
102
RTVSPost2010Prop39
140
1.0
102
RTVSPost2010PropOp39
 70
     1
102
RTVSPost2010Prop40
 90
        0
102
RTVSPost2010PropOp40
 70
     1
102
RTVSPost2010Prop41ColorIndex
 90
       18
102
RTVSPost2010Prop41ColorRGB
 90
        0
102
RTVSPost2010PropOp41
 70
     1
102
RTVSPost2010Prop42
 90
       50
102
RTVSPost2010PropOp42
 70
     1
102
RTVSPost2010Prop43
 90
        3
102
RTVSPost2010PropOp43
 70
     1
102
RTVSPost2010Prop44ColorIndex
 90
        5
102
RTVSPost2010Prop44ColorRGB
 90
      255
102
RTVSPost2010PropOp44
 70
     1
102
RTVSPost2010Prop45
280
     0
102
RTVSPost2010PropOp45
 70
     1
102
RTVSPost2010Prop46
 90
       50
102
RTVSPost2010PropOp46
 70
     1
102
RTVSPost2010Prop47
 90
       50
102
RTVSPost2010PropOp47
 70
     1
102
RTVSPost2010Prop48
 90
       50
102
RTVSPost2010PropOp48
 70
     1
102
RTVSPost2010Prop49
280
     0
102
RTVSPost2010PropOp49
 70
     1
102
RTVSPost2010Prop50
 90
       50
102
RTVSPost2010PropOp50
 70
     1
102
RTVSPost2010Prop51ColorIndex
 90
      256
102
RTVSPost2010Prop51ColorRGB
 90
-16777216
102
RTVSPost2010PropOp51
 70
     0
102
RTVSPost2010Prop52
140
1.0
102
RTVSPost2010PropOp52
 70
     0
102
RTVSPost2010Prop53
 90
        2
102
RTVSPost2010PropOp53
 70
     1
102
RTVSPost2010Prop54
  1
strokes_ogs.tif
102
RTVSPost2010PropOp54
 70
     1
102
RTVSPost2010Prop55
280
     0
102
RTVSPost2010PropOp55
 70
     1
102
RTVSPost2010Prop56
140
1.0
102
RTVSPost2010PropOp56
 70
     1
102
RTVSPost2010Prop57
140
1.0
102
RTVSPost2010PropOp57
 70
     1
  0
XRECORD
  5
3A6
102
{ACAD_REACTORS
330
3A5
102
}
330
3A5
100
AcDbXrecord
280
     1
102
RTVSPost2010Prop28
280
     0
102
RTVSPost2010PropOp28
 70
     1
102
RTVSPost2010Prop29
280
     1
102
RTVSPost2010PropOp29
 70
     1
102
RTVSPost2010Prop30
280
     1
102
RTVSPost2010PropOp30
 70
     1
102
RTVSPost2010Prop31
280
     0
102
RTVSPost2010PropOp31
 70
     1
102
RTVSPost2010Prop32
280
     0
102
RTVSPost2010PropOp32
 70
     1
102
RTVSPost2010Prop33
280
     0
102
RTVSPost2010PropOp33
 70
     1
102
RTVSPost2010Prop34
280
     0
102
RTVSPost2010PropOp34
 70
     1
102
RTVSPost2010Prop35
280
     0
102
RTVSPost2010PropOp35
 70
     1
102
RTVSPost2010Prop36
280
     0
102
RTVSPost2010PropOp36
 70
     1
102
RTVSPost2010Prop37
 90
       50
102
RTVSPost2010PropOp37
 70
     1
102
RTVSPost2010Prop38
140
0.0
102
RTVSPost2010PropOp38
 70
     1
102
RTVSPost2010Prop39
140
1.0
102
RTVSPost2010PropOp39
 70
     1
102
RTVSPost2010Prop40
 90
        0
102
RTVSPost2010PropOp40
 70
     1
102
RTVSPost2010Prop41ColorIndex
 90
       18
102
RTVSPost2010Prop41ColorRGB
 90
        0
102
RTVSPost2010PropOp41
 70
     1
102
RTVSPost2010Prop42
 90
       50
102
RTVSPost2010PropOp42
 70
     1
102
RTVSPost2010Prop43
 90
        3
102
RTVSPost2010PropOp43
 70
     1
102
RTVSPost2010Prop44ColorIndex
 90
        5
102
RTVSPost2010Prop44ColorRGB
 90
      255
102
RTVSPost2010PropOp44
 70
     1
102
RTVSPost2010Prop45
280
     0
102
RTVSPost2010PropOp45
 70
     1
102
RTVSPost2010Prop46
 90
       50
102
RTVSPost2010PropOp46
 70
     1
102
RTVSPost2010Prop47
 90
       50
102
RTVSPost2010PropOp47
 70
     1
102
RTVSPost2010Prop48
 90
       50
102
RTVSPost2010PropOp48
 70
     1
102
RTVSPost2010Prop49
280
     0
102
RTVSPost2010PropOp49
 70
     1
102
RTVSPost2010Prop50
 90
       50
102
RTVSPost2010PropOp50
 70
     1
102
RTVSPost2010Prop51ColorIndex
 90
      256
102
RTVSPost2010Prop51ColorRGB
 90
-16777216
102
RTVSPost2010PropOp51
 70
     0
102
RTVSPost2010Prop52
140
1.0
102
RTVSPost2010PropOp52
 70
     0
102
RTVSPost2010Prop53
 90
        2
102
RTVSPost2010PropOp53
 70
     1
102
RTVSPost2010Prop54
  1
strokes_ogs.tif
102
RTVSPost2010PropOp54
 70
     1
102
RTVSPost2010Prop55
280
     0
102
RTVSPost2010PropOp55
 70
     1
102
RTVSPost2010Prop56
140
1.0
102
RTVSPost2010PropOp56
 70
     1
102
RTVSPost2010Prop57
140
1.0
102
RTVSPost2010PropOp57
 70
     1
  0
XRECORD
  5
3A4
102
{ACAD_REACTORS
330
3A3
102
}
330
3A3
100
AcDbXrecord
280
     1
102
RTVSPost2010Prop28
280
     0
102
RTVSPost2010PropOp28
 70
     1
102
RTVSPost2010Prop29
280
     1
102
RTVSPost2010PropOp29
 70
     1
102
RTVSPost2010Prop30
280
     1
102
RTVSPost2010PropOp30
 70
     1
102
RTVSPost2010Prop31
280
     0
102
RTVSPost2010PropOp31
 70
     1
102
RTVSPost2010Prop32
280
     0
102
RTVSPost2010PropOp32
 70
     1
102
RTVSPost2010Prop33
280
     0
102
RTVSPost2010PropOp33
 70
     1
102
RTVSPost2010Prop34
280
     0
102
RTVSPost2010PropOp34
 70
     1
102
RTVSPost2010Prop35
280
     0
102
RTVSPost2010PropOp35
 70
     1
102
RTVSPost2010Prop36
280
     0
102
RTVSPost2010PropOp36
 70
     1
102
RTVSPost2010Prop37
 90
       50
102
RTVSPost2010PropOp37
 70
     1
102
RTVSPost2010Prop38
140
0.0
102
RTVSPost2010PropOp38
 70
     1
102
RTVSPost2010Prop39
140
1.0
102
RTVSPost2010PropOp39
 70
     1
102
RTVSPost2010Prop40
 90
        0
102
RTVSPost2010PropOp40
 70
     1
102
RTVSPost2010Prop41ColorIndex
 90
       18
102
RTVSPost2010Prop41ColorRGB
 90
        0
102
RTVSPost2010PropOp41
 70
     1
102
RTVSPost2010Prop42
 90
       50
102
RTVSPost2010PropOp42
 70
     1
102
RTVSPost2010Prop43
 90
        3
102
RTVSPost2010PropOp43
 70
     1
102
RTVSPost2010Prop44ColorIndex
 90
        5
102
RTVSPost2010Prop44ColorRGB
 90
      255
102
RTVSPost2010PropOp44
 70
     1
102
RTVSPost2010Prop45
280
     0
102
RTVSPost2010PropOp45
 70
     1
102
RTVSPost2010Prop46
 90
       50
102
RTVSPost2010PropOp46
 70
     1
102
RTVSPost2010Prop47
 90
       50
102
RTVSPost2010PropOp47
 70
     1
102
RTVSPost2010Prop48
 90
       50
102
RTVSPost2010PropOp48
 70
     1
102
RTVSPost2010Prop49
280
     0
102
RTVSPost2010PropOp49
 70
     1
102
RTVSPost2010Prop50
 90
       50
102
RTVSPost2010PropOp50
 70
     1
102
RTVSPost2010Prop51ColorIndex
 90
      256
102
RTVSPost2010Prop51ColorRGB
 90
-16777216
102
RTVSPost2010PropOp51
 70
     0
102
RTVSPost2010Prop52
140
1.0
102
RTVSPost2010PropOp52
 70
     0
102
RTVSPost2010Prop53
 90
        2
102
RTVSPost2010PropOp53
 70
     1
102
RTVSPost2010Prop54
  1
strokes_ogs.tif
102
RTVSPost2010PropOp54
 70
     1
102
RTVSPost2010Prop55
280
     0
102
RTVSPost2010PropOp55
 70
     1
102
RTVSPost2010Prop56
140
1.0
102
RTVSPost2010PropOp56
 70
     1
102
RTVSPost2010Prop57
140
1.0
102
RTVSPost2010PropOp57
 70
     1
  0
XRECORD
  5
39E
102
{ACAD_REACTORS
330
39D
102
}
330
39D
100
AcDbXrecord
280
     1
102
RTVSPost2010Prop28
280
     0
102
RTVSPost2010PropOp28
 70
     1
102
RTVSPost2010Prop29
280
     1
102
RTVSPost2010PropOp29
 70
     1
102
RTVSPost2010Prop30
280
     1
102
RTVSPost2010PropOp30
 70
     1
102
RTVSPost2010Prop31
280
     0
102
RTVSPost2010PropOp31
 70
     1
102
RTVSPost2010Prop32
280
     0
102
RTVSPost2010PropOp32
 70
     1
102
RTVSPost2010Prop33
280
     0
102
RTVSPost2010PropOp33
 70
     1
102
RTVSPost2010Prop34
280
     0
102
RTVSPost2010PropOp34
 70
     1
102
RTVSPost2010Prop35
280
     0
102
RTVSPost2010PropOp35
 70
     1
102
RTVSPost2010Prop36
280
     0
102
RTVSPost2010PropOp36
 70
     1
102
RTVSPost2010Prop37
 90
       50
102
RTVSPost2010PropOp37
 70
     1
102
RTVSPost2010Prop38
140
0.0
102
RTVSPost2010PropOp38
 70
     1
102
RTVSPost2010Prop39
140
1.0
102
RTVSPost2010PropOp39
 70
     1
102
RTVSPost2010Prop40
 90
        0
102
RTVSPost2010PropOp40
 70
     1
102
RTVSPost2010Prop41ColorIndex
 90
       18
102
RTVSPost2010Prop41ColorRGB
 90
        0
102
RTVSPost2010PropOp41
 70
     1
102
RTVSPost2010Prop42
 90
       50
102
RTVSPost2010PropOp42
 70
     1
102
RTVSPost2010Prop43
 90
        3
102
RTVSPost2010PropOp43
 70
     1
102
RTVSPost2010Prop44ColorIndex
 90
        5
102
RTVSPost2010Prop44ColorRGB
 90
      255
102
RTVSPost2010PropOp44
 70
     1
102
RTVSPost2010Prop45
280
     0
102
RTVSPost2010PropOp45
 70
     1
102
RTVSPost2010Prop46
 90
       50
102
RTVSPost2010PropOp46
 70
     1
102
RTVSPost2010Prop47
 90
       50
102
RTVSPost2010PropOp47
 70
     1
102
RTVSPost2010Prop48
 90
       50
102
RTVSPost2010PropOp48
 70
     1
102
RTVSPost2010Prop49
280
     0
102
RTVSPost2010PropOp49
 70
     1
102
RTVSPost2010Prop50
 90
       50
102
RTVSPost2010PropOp50
 70
     1
102
RTVSPost2010Prop51ColorIndex
 90
      256
102
RTVSPost2010Prop51ColorRGB
 90
-16777216
102
RTVSPost2010PropOp51
 70
     0
102
RTVSPost2010Prop52
140
1.0
102
RTVSPost2010PropOp52
 70
     0
102
RTVSPost2010Prop53
 90
        2
102
RTVSPost2010PropOp53
 70
     1
102
RTVSPost2010Prop54
  1
strokes_ogs.tif
102
RTVSPost2010PropOp54
 70
     1
102
RTVSPost2010Prop55
280
     0
102
RTVSPost2010PropOp55
 70
     1
102
RTVSPost2010Prop56
140
1.0
102
RTVSPost2010PropOp56
 70
     1
102
RTVSPost2010Prop57
140
1.0
102
RTVSPost2010PropOp57
 70
     1
  0
XRECORD
  5
3A0
102
{ACAD_REACTORS
330
39F
102
}
330
39F
100
AcDbXrecord
280
     1
102
RTVSPost2010Prop28
280
     0
102
RTVSPost2010PropOp28
 70
     1
102
RTVSPost2010Prop29
280
     1
102
RTVSPost2010PropOp29
 70
     1
102
RTVSPost2010Prop30
280
     1
102
RTVSPost2010PropOp30
 70
     1
102
RTVSPost2010Prop31
280
     0
102
RTVSPost2010PropOp31
 70
     1
102
RTVSPost2010Prop32
280
     0
102
RTVSPost2010PropOp32
 70
     1
102
RTVSPost2010Prop33
280
     0
102
RTVSPost2010PropOp33
 70
     1
102
RTVSPost2010Prop34
280
     0
102
RTVSPost2010PropOp34
 70
     1
102
RTVSPost2010Prop35
280
     0
102
RTVSPost2010PropOp35
 70
     1
102
RTVSPost2010Prop36
280
     0
102
RTVSPost2010PropOp36
 70
     1
102
RTVSPost2010Prop37
 90
       50
102
RTVSPost2010PropOp37
 70
     1
102
RTVSPost2010Prop38
140
0.0
102
RTVSPost2010PropOp38
 70
     1
102
RTVSPost2010Prop39
140
1.0
102
RTVSPost2010PropOp39
 70
     1
102
RTVSPost2010Prop40
 90
        0
102
RTVSPost2010PropOp40
 70
     1
102
RTVSPost2010Prop41ColorIndex
 90
       18
102
RTVSPost2010Prop41ColorRGB
 90
        0
102
RTVSPost2010PropOp41
 70
     1
102
RTVSPost2010Prop42
 90
       50
102
RTVSPost2010PropOp42
 70
     1
102
RTVSPost2010Prop43
 90
        3
102
RTVSPost2010PropOp43
 70
     1
102
RTVSPost2010Prop44ColorIndex
 90
        5
102
RTVSPost2010Prop44ColorRGB
 90
      255
102
RTVSPost2010PropOp44
 70
     1
102
RTVSPost2010Prop45
280
     0
102
RTVSPost2010PropOp45
 70
     1
102
RTVSPost2010Prop46
 90
       50
102
RTVSPost2010PropOp46
 70
     1
102
RTVSPost2010Prop47
 90
       50
102
RTVSPost2010PropOp47
 70
     1
102
RTVSPost2010Prop48
 90
       50
102
RTVSPost2010PropOp48
 70
     1
102
RTVSPost2010Prop49
280
     0
102
RTVSPost2010PropOp49
 70
     1
102
RTVSPost2010Prop50
 90
       50
102
RTVSPost2010PropOp50
 70
     1
102
RTVSPost2010Prop51ColorIndex
 90
      256
102
RTVSPost2010Prop51ColorRGB
 90
-16777216
102
RTVSPost2010PropOp51
 70
     0
102
RTVSPost2010Prop52
140
1.0
102
RTVSPost2010PropOp52
 70
     0
102
RTVSPost2010Prop53
 90
        2
102
RTVSPost2010PropOp53
 70
     1
102
RTVSPost2010Prop54
  1
strokes_ogs.tif
102
RTVSPost2010PropOp54
 70
     1
102
RTVSPost2010Prop55
280
     0
102
RTVSPost2010PropOp55
 70
     1
102
RTVSPost2010Prop56
140
1.0
102
RTVSPost2010PropOp56
 70
     1
102
RTVSPost2010Prop57
140
1.0
102
RTVSPost2010PropOp57
 70
     1
  0
XRECORD
  5
396
102
{ACAD_REACTORS
330
395
102
}
330
395
100
AcDbXrecord
280
     1
102
RTVSPost2010Prop28
280
     0
102
RTVSPost2010PropOp28
 70
     1
102
RTVSPost2010Prop29
280
     1
102
RTVSPost2010PropOp29
 70
     1
102
RTVSPost2010Prop30
280
     1
102
RTVSPost2010PropOp30
 70
     1
102
RTVSPost2010Prop31
280
     0
102
RTVSPost2010PropOp31
 70
     1
102
RTVSPost2010Prop32
280
     0
102
RTVSPost2010PropOp32
 70
     1
102
RTVSPost2010Prop33
280
     0
102
RTVSPost2010PropOp33
 70
     1
102
RTVSPost2010Prop34
280
     0
102
RTVSPost2010PropOp34
 70
     1
102
RTVSPost2010Prop35
280
     0
102
RTVSPost2010PropOp35
 70
     1
102
RTVSPost2010Prop36
280
     0
102
RTVSPost2010PropOp36
 70
     1
102
RTVSPost2010Prop37
 90
       50
102
RTVSPost2010PropOp37
 70
     1
102
RTVSPost2010Prop38
140
0.0
102
RTVSPost2010PropOp38
 70
     1
102
RTVSPost2010Prop39
140
1.0
102
RTVSPost2010PropOp39
 70
     1
102
RTVSPost2010Prop40
 90
        0
102
RTVSPost2010PropOp40
 70
     1
102
RTVSPost2010Prop41ColorIndex
 90
       18
102
RTVSPost2010Prop41ColorRGB
 90
        0
102
RTVSPost2010PropOp41
 70
     1
102
RTVSPost2010Prop42
 90
       50
102
RTVSPost2010PropOp42
 70
     1
102
RTVSPost2010Prop43
 90
        3
102
RTVSPost2010PropOp43
 70
     1
102
RTVSPost2010Prop44ColorIndex
 90
        5
102
RTVSPost2010Prop44ColorRGB
 90
      255
102
RTVSPost2010PropOp44
 70
     1
102
RTVSPost2010Prop45
280
     0
102
RTVSPost2010PropOp45
 70
     1
102
RTVSPost2010Prop46
 90
       50
102
RTVSPost2010PropOp46
 70
     1
102
RTVSPost2010Prop47
 90
       50
102
RTVSPost2010PropOp47
 70
     1
102
RTVSPost2010Prop48
 90
       50
102
RTVSPost2010PropOp48
 70
     1
102
RTVSPost2010Prop49
280
     0
102
RTVSPost2010PropOp49
 70
     1
102
RTVSPost2010Prop50
 90
       50
102
RTVSPost2010PropOp50
 70
     1
102
RTVSPost2010Prop51ColorIndex
 90
      256
102
RTVSPost2010Prop51ColorRGB
 90
-16777216
102
RTVSPost2010PropOp51
 70
     0
102
RTVSPost2010Prop52
140
1.0
102
RTVSPost2010PropOp52
 70
     0
102
RTVSPost2010Prop53
 90
        2
102
RTVSPost2010PropOp53
 70
     1
102
RTVSPost2010Prop54
  1
strokes_ogs.tif
102
RTVSPost2010PropOp54
 70
     1
102
RTVSPost2010Prop55
280
     0
102
RTVSPost2010PropOp55
 70
     1
102
RTVSPost2010Prop56
140
1.0
102
RTVSPost2010PropOp56
 70
     1
102
RTVSPost2010Prop57
140
1.0
102
RTVSPost2010PropOp57
 70
     1
  0
XRECORD
  5
38A
102
{ACAD_REACTORS
330
389
102
}
330
389
100
AcDbXrecord
280
     1
102
RTVSPost2010Prop28
280
     0
102
RTVSPost2010PropOp28
 70
     1
102
RTVSPost2010Prop29
280
     1
102
RTVSPost2010PropOp29
 70
     1
102
RTVSPost2010Prop30
280
     1
102
RTVSPost2010PropOp30
 70
     1
102
RTVSPost2010Prop31
280
     0
102
RTVSPost2010PropOp31
 70
     1
102
RTVSPost2010Prop32
280
     0
102
RTVSPost2010PropOp32
 70
     1
102
RTVSPost2010Prop33
280
     0
102
RTVSPost2010PropOp33
 70
     1
102
RTVSPost2010Prop34
280
     0
102
RTVSPost2010PropOp34
 70
     1
102
RTVSPost2010Prop35
280
     0
102
RTVSPost2010PropOp35
 70
     1
102
RTVSPost2010Prop36
280
     0
102
RTVSPost2010PropOp36
 70
     1
102
RTVSPost2010Prop37
 90
       50
102
RTVSPost2010PropOp37
 70
     1
102
RTVSPost2010Prop38
140
0.0
102
RTVSPost2010PropOp38
 70
     1
102
RTVSPost2010Prop39
140
1.0
102
RTVSPost2010PropOp39
 70
     1
102
RTVSPost2010Prop40
 90
        0
102
RTVSPost2010PropOp40
 70
     1
102
RTVSPost2010Prop41ColorIndex
 90
       18
102
RTVSPost2010Prop41ColorRGB
 90
        0
102
RTVSPost2010PropOp41
 70
     1
102
RTVSPost2010Prop42
 90
       50
102
RTVSPost2010PropOp42
 70
     1
102
RTVSPost2010Prop43
 90
        3
102
RTVSPost2010PropOp43
 70
     1
102
RTVSPost2010Prop44ColorIndex
 90
        5
102
RTVSPost2010Prop44ColorRGB
 90
      255
102
RTVSPost2010PropOp44
 70
     1
102
RTVSPost2010Prop45
280
     0
102
RTVSPost2010PropOp45
 70
     1
102
RTVSPost2010Prop46
 90
       50
102
RTVSPost2010PropOp46
 70
     1
102
RTVSPost2010Prop47
 90
       50
102
RTVSPost2010PropOp47
 70
     1
102
RTVSPost2010Prop48
 90
       50
102
RTVSPost2010PropOp48
 70
     1
102
RTVSPost2010Prop49
280
     0
102
RTVSPost2010PropOp49
 70
     1
102
RTVSPost2010Prop50
 90
       50
102
RTVSPost2010PropOp50
 70
     1
102
RTVSPost2010Prop51ColorIndex
 90
      256
102
RTVSPost2010Prop51ColorRGB
 90
-16777216
102
RTVSPost2010PropOp51
 70
     0
102
RTVSPost2010Prop52
140
1.0
102
RTVSPost2010PropOp52
 70
     0
102
RTVSPost2010Prop53
 90
        2
102
RTVSPost2010PropOp53
 70
     1
102
RTVSPost2010Prop54
  1
strokes_ogs.tif
102
RTVSPost2010PropOp54
 70
     1
102
RTVSPost2010Prop55
280
     0
102
RTVSPost2010PropOp55
 70
     1
102
RTVSPost2010Prop56
140
1.0
102
RTVSPost2010PropOp56
 70
     1
102
RTVSPost2010Prop57
140
1.0
102
RTVSPost2010PropOp57
 70
     1
  0
XRECORD
  5
3A2
102
{ACAD_REACTORS
330
3A1
102
}
330
3A1
100
AcDbXrecord
280
     1
102
RTVSPost2010Prop28
280
     0
102
RTVSPost2010PropOp28
 70
     1
102
RTVSPost2010Prop29
280
     1
102
RTVSPost2010PropOp29
 70
     1
102
RTVSPost2010Prop30
280
     1
102
RTVSPost2010PropOp30
 70
     1
102
RTVSPost2010Prop31
280
     0
102
RTVSPost2010PropOp31
 70
     1
102
RTVSPost2010Prop32
280
     0
102
RTVSPost2010PropOp32
 70
     1
102
RTVSPost2010Prop33
280
     0
102
RTVSPost2010PropOp33
 70
     1
102
RTVSPost2010Prop34
280
     0
102
RTVSPost2010PropOp34
 70
     1
102
RTVSPost2010Prop35
280
     0
102
RTVSPost2010PropOp35
 70
     1
102
RTVSPost2010Prop36
280
     0
102
RTVSPost2010PropOp36
 70
     1
102
RTVSPost2010Prop37
 90
       50
102
RTVSPost2010PropOp37
 70
     1
102
RTVSPost2010Prop38
140
0.0
102
RTVSPost2010PropOp38
 70
     1
102
RTVSPost2010Prop39
140
1.0
102
RTVSPost2010PropOp39
 70
     1
102
RTVSPost2010Prop40
 90
        0
102
RTVSPost2010PropOp40
 70
     1
102
RTVSPost2010Prop41ColorIndex
 90
       18
102
RTVSPost2010Prop41ColorRGB
 90
        0
102
RTVSPost2010PropOp41
 70
     1
102
RTVSPost2010Prop42
 90
       50
102
RTVSPost2010PropOp42
 70
     1
102
RTVSPost2010Prop43
 90
        3
102
RTVSPost2010PropOp43
 70
     1
102
RTVSPost2010Prop44ColorIndex
 90
        5
102
RTVSPost2010Prop44ColorRGB
 90
      255
102
RTVSPost2010PropOp44
 70
     1
102
RTVSPost2010Prop45
280
     0
102
RTVSPost2010PropOp45
 70
     1
102
RTVSPost2010Prop46
 90
       50
102
RTVSPost2010PropOp46
 70
     1
102
RTVSPost2010Prop47
 90
       50
102
RTVSPost2010PropOp47
 70
     1
102
RTVSPost2010Prop48
 90
       50
102
RTVSPost2010PropOp48
 70
     1
102
RTVSPost2010Prop49
280
     0
102
RTVSPost2010PropOp49
 70
     1
102
RTVSPost2010Prop50
 90
       50
102
RTVSPost2010PropOp50
 70
     1
102
RTVSPost2010Prop51ColorIndex
 90
      256
102
RTVSPost2010Prop51ColorRGB
 90
-16777216
102
RTVSPost2010PropOp51
 70
     0
102
RTVSPost2010Prop52
140
1.0
102
RTVSPost2010PropOp52
 70
     0
102
RTVSPost2010Prop53
 90
        2
102
RTVSPost2010PropOp53
 70
     1
102
RTVSPost2010Prop54
  1
strokes_ogs.tif
102
RTVSPost2010PropOp54
 70
     1
102
RTVSPost2010Prop55
280
     0
102
RTVSPost2010PropOp55
 70
     1
102
RTVSPost2010Prop56
140
1.0
102
RTVSPost2010PropOp56
 70
     1
102
RTVSPost2010Prop57
140
1.0
102
RTVSPost2010PropOp57
 70
     1
  0
ENDSEC
  0
EOF
