  0
SECTION
  2
HEADER
  9
$ACADVER
  1
AC1015
  9
$ACADMAINTVER
 70
    20
  9
$DWGCODEPAGE
  3
ANSI_1252
  9
$INSBASE
 10
0.0
 20
0.0
 30
0.0
  9
$EXTMIN
 10
-2.503659701291326
 20
-2.704276944048615
 30
-0.0000000349093129
  9
$EXTMAX
 10
27.70505019955454
 20
40.70659711661209
 30
0.0000000232965716
  9
$LIMMIN
 10
0.0
 20
0.0
  9
$LIMMAX
 10
420.0
 20
300.0
  9
$ORTHOMODE
 70
     0
  9
$REGENMODE
 70
     1
  9
$FILLMODE
 70
     1
  9
$QTEXTMODE
 70
     0
  9
$MIRRTEXT
 70
     0
  9
$LTSCALE
 40
10.0
  9
$ATTMODE
 70
     1
  9
$TEXTSIZE
 40
3.0
  9
$TRACEWID
 40
0.05
  9
$TEXTSTYLE
  7
ROMANS
  9
$CLAYER
  8
P-0000
  9
$CELTYPE
  6
CONTINUOUS
  9
$CECOLOR
 62
     7
  9
$CELTSCALE
 40
1.0
  9
$DISPSILH
 70
     0
  9
$DIMSCALE
 40
10.0
  9
$DIMASZ
 40
2.0
  9
$DIMEXO
 40
1.0
  9
$DIMDLI
 40
10.0
  9
$DIMRND
 40
0.0
  9
$DIMDLE
 40
0.0
  9
$DIMEXE
 40
1.5
  9
$DIMTP
 40
0.0
  9
$DIMTM
 40
0.0
  9
$DIMTXT
 40
2.0
  9
$DIMCEN
 40
2.0
  9
$DIMTSZ
 40
0.0
  9
$DIMTOL
 70
     0
  9
$DIMLIM
 70
     0
  9
$DIMTIH
 70
     0
  9
$DIMTOH
 70
     0
  9
$DIMSE1
 70
     0
  9
$DIMSE2
 70
     0
  9
$DIMTAD
 70
     1
  9
$DIMZIN
 70
     8
  9
$DIMBLK
  1

  9
$DIMASO
 70
     1
  9
$DIMSHO
 70
     1
  9
$DIMPOST
  1

  9
$DIMAPOST
  1

  9
$DIMALT
 70
     0
  9
$DIMALTD
 70
     2
  9
$DIMALTF
 40
25.4
  9
$DIMLFAC
 40
1.0
  9
$DIMTOFL
 70
     1
  9
$DIMTVP
 40
0.0
  9
$DIMTIX
 70
     0
  9
$DIMSOXD
 70
     0
  9
$DIMSAH
 70
     0
  9
$DIMBLK1
  1

  9
$DIMBLK2
  1

  9
$DIMSTYLE
  2
ACADTOP
  9
$DIMCLRD
 70
     2
  9
$DIMCLRE
 70
     2
  9
$DIMCLRT
 70
     1
  9
$DIMTFAC
 40
0.6
  9
$DIMGAP
 40
1.0
  9
$DIMJUST
 70
     0
  9
$DIMSD1
 70
     0
  9
$DIMSD2
 70
     0
  9
$DIMTOLJ
 70
     1
  9
$DIMTZIN
 70
     8
  9
$DIMALTZ
 70
     0
  9
$DIMALTTZ
 70
     0
  9
$DIMUPT
 70
     0
  9
$DIMDEC
 70
     2
  9
$DIMTDEC
 70
     2
  9
$DIMALTU
 70
     2
  9
$DIMALTTD
 70
     2
  9
$DIMTXSTY
  7
Stile_Quota
  9
$DIMAUNIT
 70
     0
  9
$DIMADEC
 70
     1
  9
$DIMALTRND
 40
0.0
  9
$DIMAZIN
 70
     2
  9
$DIMDSEP
 70
    46
  9
$DIMATFIT
 70
     0
  9
$DIMFRAC
 70
     0
  9
$DIMLDRBLK
  1

  9
$DIMLUNIT
 70
     2
  9
$DIMLWD
 70
    -2
  9
$DIMLWE
 70
    -2
  9
$DIMTMOVE
 70
     0
  9
$LUNITS
 70
     2
  9
$LUPREC
 70
     3
  9
$SKETCHINC
 40
0.1
  9
$FILLETRAD
 40
0.0
  9
$AUNITS
 70
     0
  9
$AUPREC
 70
     3
  9
$MENU
  1
.
  9
$ELEVATION
 40
0.0
  9
$PELEVATION
 40
0.0
  9
$THICKNESS
 40
0.0
  9
$LIMCHECK
 70
     0
  9
$CHAMFERA
 40
0.5
  9
$CHAMFERB
 40
0.5
  9
$CHAMFERC
 40
1.0
  9
$CHAMFERD
 40
0.0
  9
$SKPOLY
 70
     1
  9
$TDCREATE
 40
2455048.595203623
  9
$TDUCREATE
 40
2455048.553536956
  9
$TDUPDATE
 40
2455646.476082801
  9
$TDUUPDATE
 40
2455646.434416134
  9
$TDINDWG
 40
0.0439937500
  9
$TDUSRTIMER
 40
0.0439937500
  9
$USRTIMER
 70
     1
  9
$ANGBASE
 50
0.0
  9
$ANGDIR
 70
     0
  9
$PDMODE
 70
     0
  9
$PDSIZE
 40
0.0
  9
$PLINEWID
 40
0.0
  9
$SPLFRAME
 70
     0
  9
$SPLINETYPE
 70
     6
  9
$SPLINESEGS
 70
     8
  9
$HANDSEED
  5
1768
  9
$SURFTAB1
 70
     6
  9
$SURFTAB2
 70
     6
  9
$SURFTYPE
 70
     6
  9
$SURFU
 70
     6
  9
$SURFV
 70
     6
  9
$UCSBASE
  2

  9
$UCSNAME
  2

  9
$UCSORG
 10
0.0
 20
0.0
 30
0.0
  9
$UCSXDIR
 10
1.0
 20
0.0
 30
0.0
  9
$UCSYDIR
 10
0.0
 20
1.0
 30
0.0
  9
$UCSORTHOREF
  2

  9
$UCSORTHOVIEW
 70
     0
  9
$UCSORGTOP
 10
0.0
 20
0.0
 30
0.0
  9
$UCSORGBOTTOM
 10
0.0
 20
0.0
 30
0.0
  9
$UCSORGLEFT
 10
0.0
 20
0.0
 30
0.0
  9
$UCSORGRIGHT
 10
0.0
 20
0.0
 30
0.0
  9
$UCSORGFRONT
 10
0.0
 20
0.0
 30
0.0
  9
$UCSORGBACK
 10
0.0
 20
0.0
 30
0.0
  9
$PUCSBASE
  2

  9
$PUCSNAME
  2

  9
$PUCSORG
 10
0.0
 20
0.0
 30
0.0
  9
$PUCSXDIR
 10
1.0
 20
0.0
 30
0.0
  9
$PUCSYDIR
 10
0.0
 20
1.0
 30
0.0
  9
$PUCSORTHOREF
  2

  9
$PUCSORTHOVIEW
 70
     0
  9
$PUCSORGTOP
 10
0.0
 20
0.0
 30
0.0
  9
$PUCSORGBOTTOM
 10
0.0
 20
0.0
 30
0.0
  9
$PUCSORGLEFT
 10
0.0
 20
0.0
 30
0.0
  9
$PUCSORGRIGHT
 10
0.0
 20
0.0
 30
0.0
  9
$PUCSORGFRONT
 10
0.0
 20
0.0
 30
0.0
  9
$PUCSORGBACK
 10
0.0
 20
0.0
 30
0.0
  9
$USERI1
 70
     0
  9
$USERI2
 70
     0
  9
$USERI3
 70
     0
  9
$USERI4
 70
     0
  9
$USERI5
 70
     0
  9
$USERR1
 40
0.0
  9
$USERR2
 40
0.0
  9
$USERR3
 40
0.0
  9
$USERR4
 40
0.0
  9
$USERR5
 40
0.0
  9
$WORLDVIEW
 70
     1
  9
$SHADEDGE
 70
     3
  9
$SHADEDIF
 70
    70
  9
$TILEMODE
 70
     1
  9
$MAXACTVP
 70
    48
  9
$PINSBASE
 10
0.0
 20
0.0
 30
0.0
  9
$PLIMCHECK
 70
     0
  9
$PEXTMIN
 10
1.000000000000000E+20
 20
1.000000000000000E+20
 30
1.000000000000000E+20
  9
$PEXTMAX
 10
-1.000000000000000E+20
 20
-1.000000000000000E+20
 30
-1.000000000000000E+20
  9
$PLIMMIN
 10
0.0
 20
0.0
  9
$PLIMMAX
 10
12.0
 20
9.0
  9
$UNITMODE
 70
     0
  9
$VISRETAIN
 70
     1
  9
$PLINEGEN
 70
     0
  9
$PSLTSCALE
 70
     0
  9
$TREEDEPTH
 70
  3020
  9
$CMLSTYLE
  2
STANDARD
  9
$CMLJUST
 70
     0
  9
$CMLSCALE
 40
1.0
  9
$PROXYGRAPHICS
 70
     1
  9
$MEASUREMENT
 70
     1
  9
$CELWEIGHT
370
    -1
  9
$ENDCAPS
280
     0
  9
$JOINSTYLE
280
     0
  9
$LWDISPLAY
290
     0
  9
$INSUNITS
 70
     0
  9
$HYPERLINKBASE
  1

  9
$STYLESHEET
  1

  9
$XEDIT
290
     1
  9
$CEPSNTYPE
380
     0
  9
$PSTYLEMODE
290
     1
  9
$FINGERPRINTGUID
  2
{FA646D19-52C0-46E2-9CF6-7E30535AD659}
  9
$VERSIONGUID
  2
{88CC984C-FBD5-48E3-A2B2-C6C3B9DF3868}
  9
$EXTNAMES
290
     1
  9
$PSVPSCALE
 40
0.0
  9
$OLESTARTUP
290
     0
  0
ENDSEC
  0
SECTION
  2
CLASSES
  0
CLASS
  1
DICTIONARYVAR
  2
AcDbDictionaryVar
  3
ObjectDBX Classes
 90
        0
280
     0
281
     0
  0
CLASS
  1
ACDBDICTIONARYWDFLT
  2
AcDbDictionaryWithDefault
  3
ObjectDBX Classes
 90
        0
280
     0
281
     0
  0
CLASS
  1
ACDBPLACEHOLDER
  2
AcDbPlaceHolder
  3
ObjectDBX Classes
 90
        0
280
     0
281
     0
  0
CLASS
  1
LAYOUT
  2
AcDbLayout
  3
ObjectDBX Classes
 90
        0
280
     0
281
     0
  0
CLASS
  1
PLOTSETTINGS
  2
AcDbPlotSettings
  3
ObjectDBX Classes
 90
        0
280
     0
281
     0
  0
CLASS
  1
MATERIAL
  2
AcDbMaterial
  3
ObjectDBX Classes
 90
     1153
280
     0
281
     0
  0
CLASS
  1
VISUALSTYLE
  2
AcDbVisualStyle
  3
ObjectDBX Classes
 90
     4095
280
     0
281
     0
  0
CLASS
  1
TABLESTYLE
  2
AcDbTableStyle
  3
ObjectDBX Classes
 90
     4095
280
     0
281
     0
  0
CLASS
  1
SCALE
  2
AcDbScale
  3
ObjectDBX Classes
 90
     1153
280
     0
281
     0
  0
CLASS
  1
MLEADERSTYLE
  2
AcDbMLeaderStyle
  3
ACDB_MLEADERSTYLE_CLASS
 90
     4095
280
     0
281
     0
  0
CLASS
  1
CELLSTYLEMAP
  2
AcDbCellStyleMap
  3
ObjectDBX Classes
 90
     1152
280
     0
281
     0
  0
CLASS
  1
DIMASSOC
  2
AcDbDimAssoc
  3
"AcDbDimAssoc|Product Desc:     AcDim ARX App For Dimension|Company:          Autodesk, Inc.|WEB Address:      www.autodesk.com"
 90
        0
280
     0
281
     0
  0
CLASS
  1
ACDBQSCATEGORY
  2
AcQsCategory
  3
categories
 90
     1024
280
     0
281
     0
  0
CLASS
  1
ACDBQSPALLSTYLE
  2
AcQsPallStyle
  3
pallcart
 90
     1024
280
     0
281
     0
  0
CLASS
  1
AEC_REFEDIT_STATUS_TRACKER
  2
AecDbRefEditStatusTracker
  3
AecArchBase60|Product Desc: Autodesk Architectural Desktop 2007 |Company: Autodesk,Inc. |WEB Address: www.autodesk.com
 90
    32897
280
     0
281
     0
  0
CLASS
  1
NPOCOLLECTION
  2
AcDbImpNonPersistentObjectsCollection
  3
ObjectDBX Classes
 90
    33921
280
     0
281
     0
  0
CLASS
  1
SORTENTSTABLE
  2
AcDbSortentsTable
  3
ObjectDBX Classes
 90
        0
280
     0
281
     0
  0
ENDSEC
  0
SECTION
  2
TABLES
  0
TABLE
  2
VPORT
  5
12
102
{ACAD_XDICTIONARY
360
300
102
}
330
0
100
AcDbSymbolTable
 70
     1
  0
VPORT
  5
2AE
330
12
100
AcDbSymbolTableRecord
100
AcDbViewportTableRecord
  2
*Active
 70
     0
 10
0.0
 20
0.0
 11
1.0
 21
1.0
 12
12.6006952491316
 22
19.00116008628174
 13
0.0
 23
0.0
 14
1.0
 24
1.0
 15
1.0
 25
1.0
 16
0.0
 26
0.0
 36
1.0
 17
0.0
 27
0.0
 37
0.0
 40
43.72968096930693
 41
2.251225490196078
 42
50.0
 43
0.0
 44
0.0
 50
0.0
 51
0.0
 71
     0
 72
   100
 73
     1
 74
     0
 75
     0
 76
     0
 77
     0
 78
     0
281
     0
 65
     1
110
0.0
120
0.0
130
0.0
111
1.0
121
0.0
131
0.0
112
0.0
122
1.0
132
0.0
 79
     0
146
0.0
  0
ENDTAB
  0
TABLE
  2
LTYPE
  5
D
330
0
100
AcDbSymbolTable
 70
     7
  0
LTYPE
  5
E
330
D
100
AcDbSymbolTableRecord
100
AcDbLinetypeTableRecord
  2
BYBLOCK
 70
     0
  3

 72
    65
 73
     0
 40
0.0
  0
LTYPE
  5
F
330
D
100
AcDbSymbolTableRecord
100
AcDbLinetypeTableRecord
  2
BYLAYER
 70
     0
  3

 72
    65
 73
     0
 40
0.0
  0
LTYPE
  5
5
330
D
100
AcDbSymbolTableRecord
100
AcDbLinetypeTableRecord
  2
CONTINUOUS
 70
     0
  3
Solid line
 72
    65
 73
     0
 40
0.0
  0
LTYPE
  5
3E
330
D
100
AcDbSymbolTableRecord
100
AcDbLinetypeTableRecord
  2
ASSI
 70
     0
  3
-.-.-.-.-.-.-.-.-.-.-.-.-.-.-.-.-.-.-.-.-.-.-.-
 72
    65
 73
     4
 40
16.0
 49
10.0
 74
     0
 49
-2.0
 74
     0
 49
2.0
 74
     0
 49
-2.0
 74
     0
  0
LTYPE
  5
3F
330
D
100
AcDbSymbolTableRecord
100
AcDbLinetypeTableRecord
  2
INGOMBRI
 70
     0
  3
--..--..--..--..--..--..--..--..--..--..--..--
 72
    65
 73
     6
 40
20.0
 49
10.0
 74
     0
 49
-2.0
 74
     0
 49
2.0
 74
     0
 49
-2.0
 74
     0
 49
2.0
 74
     0
 49
-2.0
 74
     0
  0
LTYPE
  5
40
330
D
100
AcDbSymbolTableRecord
100
AcDbLinetypeTableRecord
  2
TRATTEGGIO
 70
     0
  3
- - - - - - - - - - - - - - - - - - - - - -
 72
    65
 73
     2
 40
5.5
 49
4.0
 74
     0
 49
-1.5
 74
     0
  0
LTYPE
  5
277
330
D
100
AcDbSymbolTableRecord
100
AcDbLinetypeTableRecord
  2
PUNTO
 70
     0
  3
Punto . . . . . . . . . . . . . . . . . . . . .
 72
    65
 73
     2
 40
6.349999999999999
 49
0.0
 74
     0
 49
-6.349999999999999
 74
     0
  0
LTYPE
  5
91D
330
D
100
AcDbSymbolTableRecord
100
AcDbLinetypeTableRecord
  2
DASHDOT2
 70
     0
  3
_._._._._._._._._._._._._._._._._._._._._._._._
 72
    65
 73
     4
 40
0.5
 49
0.25
 74
     0
 49
-0.125
 74
     0
 49
0.0
 74
     0
 49
-0.125
 74
     0
  0
LTYPE
  5
1328
330
D
100
AcDbSymbolTableRecord
100
AcDbLinetypeTableRecord
  2
HIDDEN
 70
     0
  3
__ __ __ __ __ __ __ __ __ __ __ __ __ __ __ __
 72
    65
 73
     2
 40
0.375
 49
0.25
 74
     0
 49
-0.125
 74
     0
  0
ENDTAB
  0
TABLE
  2
LAYER
  5
A
102
{ACAD_XDICTIONARY
360
924
102
}
330
0
100
AcDbSymbolTable
 70
    10
  0
LAYER
  5
4
102
{ACAD_XDICTIONARY
360
37B
102
}
330
A
100
AcDbSymbolTableRecord
100
AcDbLayerTableRecord
  2
0
 70
     0
 62
     7
  6
CONTINUOUS
370
    -3
390
44
  0
LAYER
  5
118
330
A
100
AcDbSymbolTableRecord
100
AcDbLayerTableRecord
  2
Defpoints
 70
     0
 62
     7
  6
CONTINUOUS
290
     0
370
    -3
390
44
  0
LAYER
  5
6DB
102
{ACAD_XDICTIONARY
360
1506
102
}
330
A
100
AcDbSymbolTableRecord
100
AcDbLayerTableRecord
  2
P-0000
 70
     0
 62
     7
  6
CONTINUOUS
370
    -3
390
44
1001
AcAecLayerStandard
1000

1000
PROFIL.Q30-SCORR.PLAST./ARG.
  0
LAYER
  5
712
102
{ACAD_XDICTIONARY
360
1508
102
}
330
A
100
AcDbSymbolTableRecord
100
AcDbLayerTableRecord
  2
PROFILOQ30
 70
     0
 62
     2
  6
CONTINUOUS
370
    -3
390
44
  0
LAYER
  5
713
102
{ACAD_XDICTIONARY
360
150A
102
}
330
A
100
AcDbSymbolTableRecord
100
AcDbLayerTableRecord
  2
DIMENSIONI
 70
     0
 62
     7
  6
CONTINUOUS
370
    -3
390
44
  0
LAYER
  5
91B
102
{ACAD_XDICTIONARY
360
150C
102
}
330
A
100
AcDbSymbolTableRecord
100
AcDbLayerTableRecord
  2
P-01CB
 70
     0
 62
     7
  6
CONTINUOUS
370
    -3
390
44
1001
AcAecLayerStandard
1000

1000
.cart
  0
LAYER
  5
AB0
102
{ACAD_XDICTIONARY
360
150E
102
}
330
A
100
AcDbSymbolTableRecord
100
AcDbLayerTableRecord
  2
P-50F5
 70
     0
 62
     7
  6
CONTINUOUS
370
    -3
390
44
1001
AcAecLayerStandard
1000

1000
.1
  0
LAYER
  5
AB3
102
{ACAD_XDICTIONARY
360
1510
102
}
330
A
100
AcDbSymbolTableRecord
100
AcDbLayerTableRecord
  2
TESTO
 70
     0
 62
     4
  6
CONTINUOUS
370
    -3
390
44
  0
LAYER
  5
1329
102
{ACAD_XDICTIONARY
360
1512
102
}
330
A
100
AcDbSymbolTableRecord
100
AcDbLayerTableRecord
  2
ESTERNO
 70
     0
 62
     1
  6
HIDDEN
370
    -3
390
44
  0
LAYER
  5
1541
330
A
100
AcDbSymbolTableRecord
100
AcDbLayerTableRecord
  2
P-0595
 70
     0
 62
     7
  6
CONTINUOUS
370
    -3
390
44
1001
AcAecLayerStandard
1000

1000
PROF.Q30  SCORR. ALL.ANOD.ARG.
  0
ENDTAB
  0
TABLE
  2
STYLE
  5
B
330
0
100
AcDbSymbolTable
 70
    10
  0
STYLE
  5
C
330
B
100
AcDbSymbolTableRecord
100
AcDbTextStyleTableRecord
  2
STANDARD
 70
     0
 40
0.0
 41
0.8
 50
0.0
 71
     0
 42
0.2
  3
romans.shx
  4

  0
STYLE
  5
1B
330
B
100
AcDbSymbolTableRecord
100
AcDbTextStyleTableRecord
  2
ROMANS
 70
     0
 40
0.0
 41
0.8
 50
0.0
 71
     0
 42
3.0
  3
ROMANS.shx
  4

  0
STYLE
  5
25
330
B
100
AcDbSymbolTableRecord
100
AcDbTextStyleTableRecord
  2

 70
     1
 40
0.0
 41
1.0
 50
0.0
 71
     0
 42
0.2
  3
ltypeshp.shx
  4

  0
STYLE
  5
35C
330
B
100
AcDbSymbolTableRecord
100
AcDbTextStyleTableRecord
  2
Stile_Quota
 70
     0
 40
0.0
 41
1.0
 50
0.0
 71
     0
 42
3.0
  3
BOD_I.TTF
  4

1001
ACAD
1000
Bodoni MT
1071
 16777234
  0
STYLE
  5
635
330
B
100
AcDbSymbolTableRecord
100
AcDbTextStyleTableRecord
  2
Stile_Quota_FISSO
 70
     0
 40
20.0
 41
1.0
 50
0.0
 71
     0
 42
3.0
  3
BOD_I.TTF
  4

1001
ACAD
1000
Bodoni MT
1071
 16777234
  0
STYLE
  5
91E
330
B
100
AcDbSymbolTableRecord
100
AcDbTextStyleTableRecord
  2
STYLE1
 70
     0
 40
0.0
 41
1.0
 50
0.0
 71
     0
 42
3.0
  3
eurr____.ttf
  4

1001
ACAD
1000
EuroRoman
1071
      514
  0
STYLE
  5
91F
330
B
100
AcDbSymbolTableRecord
100
AcDbTextStyleTableRecord
  2
arial_ttf
 70
     0
 40
0.0
 41
1.0
 50
0.0
 71
     0
 42
0.2
  3
ARIAL.TTF
  4

1001
ACAD
1000
Arial
1071
        2
  0
STYLE
  5
920
330
B
100
AcDbSymbolTableRecord
100
AcDbTextStyleTableRecord
  2
seansi_ttf
 70
     0
 40
0.0
 41
1.0
 50
0.0
 71
     0
 42
0.2
  3
seansi.ttf
  4

  0
STYLE
  5
921
330
B
100
AcDbSymbolTableRecord
100
AcDbTextStyleTableRecord
  2
Stile_Cart
 70
     0
 40
0.0
 41
1.0
 50
0.0
 71
     0
 42
1.5
  3
TIMES.TTF
  4

1001
ACAD
1000
Times New Roman
1071
       18
  0
STYLE
  5
1412
330
B
100
AcDbSymbolTableRecord
100
AcDbTextStyleTableRecord
  2
SIMPLEX
 70
     0
 40
0.0
 41
1.0
 50
0.0
 71
     0
 42
0.2
  3
SIMPLEX.shx
  4

  0
ENDTAB
  0
TABLE
  2
VIEW
  5
10
330
0
100
AcDbSymbolTable
 70
     0
  0
ENDTAB
  0
TABLE
  2
UCS
  5
11
330
0
100
AcDbSymbolTable
 70
     0
  0
ENDTAB
  0
TABLE
  2
APPID
  5
14
330
0
100
AcDbSymbolTable
 70
    14
  0
APPID
  5
15
330
14
100
AcDbSymbolTableRecord
100
AcDbRegAppTableRecord
  2
ACAD
 70
     0
  0
APPID
  5
53
330
14
100
AcDbSymbolTableRecord
100
AcDbRegAppTableRecord
  2
TOP
 70
     0
  0
APPID
  5
356
330
14
100
AcDbSymbolTableRecord
100
AcDbRegAppTableRecord
  2
ACAD_MLEADERVER
 70
     0
  0
APPID
  5
35A
330
14
100
AcDbSymbolTableRecord
100
AcDbRegAppTableRecord
  2
ACAD_DSTYLE_DIMJAG
 70
     0
  0
APPID
  5
35B
330
14
100
AcDbSymbolTableRecord
100
AcDbRegAppTableRecord
  2
ACAD_DSTYLE_DIMTALN
 70
     0
  0
APPID
  5
35D
330
14
100
AcDbSymbolTableRecord
100
AcDbRegAppTableRecord
  2
AcadAnnoPO
 70
     0
  0
APPID
  5
374
330
14
100
AcDbSymbolTableRecord
100
AcDbRegAppTableRecord
  2
ACAD_EXEMPT_FROM_CAD_STANDARDS
 70
     0
  0
APPID
  5
38F
330
14
100
AcDbSymbolTableRecord
100
AcDbRegAppTableRecord
  2
ACAD_PSEXT
 70
     0
  0
APPID
  5
3BC
330
14
100
AcDbSymbolTableRecord
100
AcDbRegAppTableRecord
  2
ACAD_DSTYLE_DIMBREAK
 70
     0
  0
APPID
  5
6DC
330
14
100
AcDbSymbolTableRecord
100
AcDbRegAppTableRecord
  2
AcAecLayerStandard
 70
     0
  0
APPID
  5
A5E
330
14
100
AcDbSymbolTableRecord
100
AcDbRegAppTableRecord
  2
Bound
 70
     0
  0
APPID
  5
A61
330
14
100
AcDbSymbolTableRecord
100
AcDbRegAppTableRecord
  2
OrigLayer
 70
     0
  0
APPID
  5
1017
330
14
100
AcDbSymbolTableRecord
100
AcDbRegAppTableRecord
  2
ACAD_DSTYLE_DIMRADIAL_EXTENSION
 70
     0
  0
APPID
  5
1749
330
14
100
AcDbSymbolTableRecord
100
AcDbRegAppTableRecord
  2
ACAD_DSTYLE_DIMJOGGED_JOGANGLE_SYMBOL
 70
     0
  0
ENDTAB
  0
TABLE
  2
DIMSTYLE
  5
16
330
0
100
AcDbSymbolTable
 70
     7
100
AcDbDimStyleTable
 71
     6
340
1D
340
AB2
340
923
340
922
340
714
340
3BE
  0
DIMSTYLE
105
1D
330
16
100
AcDbSymbolTableRecord
100
AcDbDimStyleTableRecord
  2
ACADTOP
 70
     0
 40
10.0
 41
2.0
 42
1.0
 43
10.0
 44
1.5
 73
     0
 74
     0
 77
     1
 78
     8
 79
     2
140
2.0
141
2.0
146
0.6
147
1.0
172
     1
176
     2
177
     2
178
     1
179
     1
271
     2
272
     2
284
     8
289
     0
340
35C
1001
ACAD_DSTYLE_DIMJAG
1070
   388
1040
1.5
1001
ACAD_DSTYLE_DIMTALN
1070
   392
1070
     0
  0
DIMSTYLE
105
3BD
330
16
100
AcDbSymbolTableRecord
100
AcDbDimStyleTableRecord
  2
DIERRE_LUNG-ALT
 70
     0
 40
10.0
 41
3.0
 42
1.0
 43
10.0
 44
1.5
 73
     0
 74
     0
 75
     1
 76
     1
 78
     8
 79
     2
140
20.0
141
2.0
146
0.6
147
1.0
172
     1
176
     3
177
     3
178
    30
179
     1
271
     1
272
     1
281
     1
282
     1
284
     8
340
635
1001
ACAD_DSTYLE_DIMBREAK
1070
   391
1040
3.75
1001
ACAD_DSTYLE_DIMJAG
1070
   388
1040
1.5
1001
ACAD_DSTYLE_DIMTALN
1070
   392
1070
     0
  0
DIMSTYLE
105
3BE
330
16
100
AcDbSymbolTableRecord
100
AcDbDimStyleTableRecord
  2
DIERRE_LARG
 70
     0
 40
10.0
 41
3.0
 42
1.0
 43
10.0
 44
1.5
 73
     0
 74
     0
 75
     1
 76
     1
 78
     8
 79
     2
140
20.0
141
2.0
146
0.6
147
1.0
172
     1
176
     4
177
     4
178
     4
179
     1
271
     1
272
     1
281
     1
282
     1
284
     8
340
635
1001
ACAD_DSTYLE_DIMBREAK
1070
   391
1040
3.75
1001
ACAD_DSTYLE_DIMJAG
1070
   388
1040
1.5
1001
ACAD_DSTYLE_DIMTALN
1070
   392
1070
     0
  0
DIMSTYLE
105
714
330
16
100
AcDbSymbolTableRecord
100
AcDbDimStyleTableRecord
  2
MAURO
 70
     0
 40
10.0
 41
20.0
 42
20.0
 73
     0
 74
     0
 77
     1
140
10.0
147
2.2
172
     1
271
     1
272
     1
279
     2
340
1B
  0
DIMSTYLE
105
922
330
16
100
AcDbSymbolTableRecord
100
AcDbDimStyleTableRecord
  2
STANDARD
 70
     0
340
C
  0
DIMSTYLE
105
923
330
16
100
AcDbSymbolTableRecord
100
AcDbDimStyleTableRecord
  2
ISO-25
 70
     0
 41
2.5
 42
0.625
 43
3.75
 44
1.25
 73
     0
 74
     0
 77
     1
 78
     8
140
2.5
141
2.5
143
0.03937007874016
147
0.625
171
     3
172
     1
271
     2
272
     2
274
     3
278
    44
283
     0
284
     8
340
C
1001
ACAD_DSTYLE_DIMJOGGED_JOGANGLE_SYMBOL
1070
   384
1040
1.570796326794896
  0
DIMSTYLE
105
AB2
330
16
100
AcDbSymbolTableRecord
100
AcDbDimStyleTableRecord
  2
ACADTOP10_0_0_10
 70
     0
 40
10.0
 41
2.0
 42
1.0
 43
10.0
 44
1.5
 73
     0
 74
     0
 77
     1
 78
     8
 79
     2
140
2.0
141
2.0
144
0.1
146
0.6
147
1.0
172
     1
176
     2
177
     2
178
     1
179
     1
271
     2
272
     2
284
     8
289
     0
340
35C
  0
ENDTAB
  0
TABLE
  2
BLOCK_RECORD
  5
1
330
0
100
AcDbSymbolTable
 70
    50
  0
BLOCK_RECORD
  5
2
330
1
100
AcDbSymbolTableRecord
100
AcDbBlockTableRecord
  2
*MODEL_SPACE
340
47
  0
BLOCK_RECORD
  5
7
330
1
100
AcDbSymbolTableRecord
100
AcDbBlockTableRecord
  2
*PAPER_SPACE
340
48
  0
BLOCK_RECORD
  5
926
102
{ACAD_XDICTIONARY
360
A3F
102
}
330
1
100
AcDbSymbolTableRecord
100
AcDbBlockTableRecord
  2
TAB-A4
340
0
  0
BLOCK_RECORD
  5
AC5
330
1
100
AcDbSymbolTableRecord
100
AcDbBlockTableRecord
  2
*D1
340
0
  0
BLOCK_RECORD
  5
ADD
330
1
100
AcDbSymbolTableRecord
100
AcDbBlockTableRecord
  2
*D2
340
0
  0
BLOCK_RECORD
  5
AF9
330
1
100
AcDbSymbolTableRecord
100
AcDbBlockTableRecord
  2
*D3
340
0
  0
BLOCK_RECORD
  5
B11
330
1
100
AcDbSymbolTableRecord
100
AcDbBlockTableRecord
  2
*D4
340
0
  0
BLOCK_RECORD
  5
BFD
330
1
100
AcDbSymbolTableRecord
100
AcDbBlockTableRecord
  2
*D5
340
0
  0
BLOCK_RECORD
  5
C19
330
1
100
AcDbSymbolTableRecord
100
AcDbBlockTableRecord
  2
*D6
340
0
  0
BLOCK_RECORD
  5
C35
330
1
100
AcDbSymbolTableRecord
100
AcDbBlockTableRecord
  2
*D7
340
0
  0
BLOCK_RECORD
  5
C69
330
1
100
AcDbSymbolTableRecord
100
AcDbBlockTableRecord
  2
*D8
340
0
  0
BLOCK_RECORD
  5
C7A
330
1
100
AcDbSymbolTableRecord
100
AcDbBlockTableRecord
  2
*D9
340
0
  0
BLOCK_RECORD
  5
C89
330
1
100
AcDbSymbolTableRecord
100
AcDbBlockTableRecord
  2
*D10
340
0
  0
BLOCK_RECORD
  5
CC5
330
1
100
AcDbSymbolTableRecord
100
AcDbBlockTableRecord
  2
*D11
340
0
  0
BLOCK_RECORD
  5
CE6
330
1
100
AcDbSymbolTableRecord
100
AcDbBlockTableRecord
  2
*D12
340
0
  0
BLOCK_RECORD
  5
D02
330
1
100
AcDbSymbolTableRecord
100
AcDbBlockTableRecord
  2
*D13
340
0
  0
BLOCK_RECORD
  5
D30
330
1
100
AcDbSymbolTableRecord
100
AcDbBlockTableRecord
  2
*D14
340
0
  0
BLOCK_RECORD
  5
D4C
330
1
100
AcDbSymbolTableRecord
100
AcDbBlockTableRecord
  2
*D15
340
0
  0
BLOCK_RECORD
  5
D7F
330
1
100
AcDbSymbolTableRecord
100
AcDbBlockTableRecord
  2
*D16
340
0
  0
BLOCK_RECORD
  5
D9B
330
1
100
AcDbSymbolTableRecord
100
AcDbBlockTableRecord
  2
*D17
340
0
  0
BLOCK_RECORD
  5
DB7
330
1
100
AcDbSymbolTableRecord
100
AcDbBlockTableRecord
  2
*D18
340
0
  0
BLOCK_RECORD
  5
DD3
330
1
100
AcDbSymbolTableRecord
100
AcDbBlockTableRecord
  2
*D19
340
0
  0
BLOCK_RECORD
  5
E07
330
1
100
AcDbSymbolTableRecord
100
AcDbBlockTableRecord
  2
*D20
340
0
  0
BLOCK_RECORD
  5
E18
330
1
100
AcDbSymbolTableRecord
100
AcDbBlockTableRecord
  2
*D21
340
0
  0
BLOCK_RECORD
  5
E9C
330
1
100
AcDbSymbolTableRecord
100
AcDbBlockTableRecord
  2
*D22
340
0
  0
BLOCK_RECORD
  5
ED0
330
1
100
AcDbSymbolTableRecord
100
AcDbBlockTableRecord
  2
*D23
340
0
  0
BLOCK_RECORD
  5
EE8
330
1
100
AcDbSymbolTableRecord
100
AcDbBlockTableRecord
  2
*D24
340
0
  0
BLOCK_RECORD
  5
F04
330
1
100
AcDbSymbolTableRecord
100
AcDbBlockTableRecord
  2
*D25
340
0
  0
BLOCK_RECORD
  5
F2E
330
1
100
AcDbSymbolTableRecord
100
AcDbBlockTableRecord
  2
*D26
340
0
  0
BLOCK_RECORD
  5
F4A
330
1
100
AcDbSymbolTableRecord
100
AcDbBlockTableRecord
  2
*D27
340
0
  0
BLOCK_RECORD
  5
F62
330
1
100
AcDbSymbolTableRecord
100
AcDbBlockTableRecord
  2
*D28
340
0
  0
BLOCK_RECORD
  5
F7E
330
1
100
AcDbSymbolTableRecord
100
AcDbBlockTableRecord
  2
*D29
340
0
  0
BLOCK_RECORD
  5
F96
330
1
100
AcDbSymbolTableRecord
100
AcDbBlockTableRecord
  2
*D30
340
0
  0
BLOCK_RECORD
  5
1019
330
1
100
AcDbSymbolTableRecord
100
AcDbBlockTableRecord
  2
*D31
340
0
  0
BLOCK_RECORD
  5
102B
330
1
100
AcDbSymbolTableRecord
100
AcDbBlockTableRecord
  2
*D32
340
0
  0
BLOCK_RECORD
  5
103D
330
1
100
AcDbSymbolTableRecord
100
AcDbBlockTableRecord
  2
*D33
340
0
  0
BLOCK_RECORD
  5
1055
330
1
100
AcDbSymbolTableRecord
100
AcDbBlockTableRecord
  2
*D34
340
0
  0
BLOCK_RECORD
  5
1071
330
1
100
AcDbSymbolTableRecord
100
AcDbBlockTableRecord
  2
*D35
340
0
  0
BLOCK_RECORD
  5
108D
330
1
100
AcDbSymbolTableRecord
100
AcDbBlockTableRecord
  2
*D36
340
0
  0
BLOCK_RECORD
  5
10EB
330
1
100
AcDbSymbolTableRecord
100
AcDbBlockTableRecord
  2
*D37
340
0
  0
BLOCK_RECORD
  5
1180
330
1
100
AcDbSymbolTableRecord
100
AcDbBlockTableRecord
  2
*D38
340
0
  0
BLOCK_RECORD
  5
1196
330
1
100
AcDbSymbolTableRecord
100
AcDbBlockTableRecord
  2
*D39
340
0
  0
BLOCK_RECORD
  5
11EE
330
1
100
AcDbSymbolTableRecord
100
AcDbBlockTableRecord
  2
*D40
340
0
  0
BLOCK_RECORD
  5
11FE
330
1
100
AcDbSymbolTableRecord
100
AcDbBlockTableRecord
  2
*D41
340
0
  0
BLOCK_RECORD
  5
1212
330
1
100
AcDbSymbolTableRecord
100
AcDbBlockTableRecord
  2
*D42
340
0
  0
BLOCK_RECORD
  5
1224
330
1
100
AcDbSymbolTableRecord
100
AcDbBlockTableRecord
  2
*D43
340
0
  0
BLOCK_RECORD
  5
12CF
330
1
100
AcDbSymbolTableRecord
100
AcDbBlockTableRecord
  2
*D44
340
0
  0
BLOCK_RECORD
  5
130B
330
1
100
AcDbSymbolTableRecord
100
AcDbBlockTableRecord
  2
*D45
340
0
  0
BLOCK_RECORD
  5
1322
330
1
100
AcDbSymbolTableRecord
100
AcDbBlockTableRecord
  2
A$C677C2356
340
0
  0
BLOCK_RECORD
  5
16BB
330
1
100
AcDbSymbolTableRecord
100
AcDbBlockTableRecord
  2
*D48
340
0
  0
BLOCK_RECORD
  5
1708
330
1
100
AcDbSymbolTableRecord
100
AcDbBlockTableRecord
  2
*D49
340
0
  0
ENDTAB
  0
ENDSEC
  0
SECTION
  2
BLOCKS
  0
BLOCK
  5
3
330
2
100
AcDbEntity
  8
0
100
AcDbBlockBegin
  2
*MODEL_SPACE
 70
     0
 10
0.0
 20
0.0
 30
0.0
  3
*MODEL_SPACE
  1

  0
ENDBLK
  5
6
330
2
100
AcDbEntity
  8
0
100
AcDbBlockEnd
  0
BLOCK
  5
8
330
7
100
AcDbEntity
 67
     1
  8
0
100
AcDbBlockBegin
  2
*PAPER_SPACE
 70
     0
 10
0.0
 20
0.0
 30
0.0
  3
*PAPER_SPACE
  1

  0
ENDBLK
  5
9
330
7
100
AcDbEntity
 67
     1
  8
0
100
AcDbBlockEnd
  0
BLOCK
  5
A41
330
926
100
AcDbEntity
  8
0
 62
     7
100
AcDbBlockBegin
  2
TAB-A4
 70
     2
 10
0.0
 20
0.0
 30
0.0
  3
TAB-A4
  1

  0
LINE
  5
927
330
926
100
AcDbEntity
  8
0
  6
Continuous
 62
     0
100
AcDbLine
 10
100.0
 20
143.5
 30
0.0
 11
-100.0
 21
143.5
 31
0.0
1001
TOP
1070
     7
  0
LINE
  5
928
330
926
100
AcDbEntity
  8
0
  6
Continuous
 62
     0
100
AcDbLine
 10
-100.0
 20
143.5
 30
0.0
 11
-100.0
 21
-143.5
 31
0.0
1001
TOP
1070
     7
  0
LINE
  5
929
330
926
100
AcDbEntity
  8
0
  6
Continuous
 62
     0
100
AcDbLine
 10
-100.0
 20
-143.5
 30
0.0
 11
100.0
 21
-143.5
 31
0.0
1001
TOP
1070
     7
  0
LINE
  5
92A
330
926
100
AcDbEntity
  8
0
  6
Continuous
 62
     0
100
AcDbLine
 10
100.0
 20
-143.5
 30
0.0
 11
100.0
 21
143.5
 31
0.0
1001
TOP
1070
     7
  0
LINE
  5
92B
330
926
100
AcDbEntity
  8
0
  6
Continuous
 62
     0
100
AcDbLine
 10
105.0
 20
148.5
 30
0.0
 11
-105.0
 21
148.5
 31
0.0
1001
TOP
1070
     3
  0
LINE
  5
92C
330
926
100
AcDbEntity
  8
0
  6
Continuous
 62
     0
100
AcDbLine
 10
-105.0
 20
148.5
 30
0.0
 11
-105.0
 21
-148.5
 31
0.0
1001
TOP
1070
     3
  0
LINE
  5
92D
330
926
100
AcDbEntity
  8
0
  6
Continuous
 62
     0
100
AcDbLine
 10
-105.0
 20
-148.5
 30
0.0
 11
105.0
 21
-148.5
 31
0.0
1001
TOP
1070
     3
  0
LINE
  5
92E
330
926
100
AcDbEntity
  8
0
  6
Continuous
 62
     0
100
AcDbLine
 10
105.0
 20
-148.5
 30
0.0
 11
105.0
 21
148.5
 31
0.0
1001
TOP
1070
     3
  0
ATTDEF
  5
92F
330
926
100
AcDbEntity
  8
0
 62
     0
 48
35.0
100
AcDbText
 10
-76.25989897767704
 20
-84.74999999999999
 30
0.0
 40
2.5
  1

  7
Stile_Cart
 11
-76.25989897767704
 21
-83.49999999999999
 31
0.0
100
AcDbAttributeDefinition
  3

  2
DESCRIZIONE
 70
     4
 74
     2
1001
TOP
1070
     7
  0
LINE
  5
930
330
926
100
AcDbEntity
  8
0
 62
     0
 48
35.0
100
AcDbLine
 10
100.0
 20
-138.5
 30
0.0
 11
-100.0
 21
-138.5
 31
0.0
1001
TOP
1070
     3
  0
MTEXT
  5
931
330
926
100
AcDbEntity
  8
0
 62
     0
 48
35.0
100
AcDbMText
 10
0.0
 20
-141.0
 30
0.0
 40
1.499624999999999
 41
190.3973187722231
 71
     5
 72
     1
  1
{\C256;SI VIETA L'USO E LA RIPRODUZIONE O LA VISIONE A TERZI DEL PRESENTE DISEGNO SENZA ESPLICITA AUTORIZZAZIONE, \H1.333x;Dierre \H0.75x;TUTELERA' I PROPRI DIRITTI A NORMA DI LEGGE}
  7
Stile_Cart
 73
     1
 44
1.0
1001
TOP
1070
     3
1001
ACAD
1000
MTEXTBEGIN
1070
    73
1070
     1
1070
    44
1040
1.0
1070
    74
1070
     0
1000
MTEXTEND
  0
LINE
  5
932
330
926
100
AcDbEntity
  8
0
 62
     0
 48
35.0
100
AcDbLine
 10
-100.0
 20
-78.5
 30
0.0
 11
100.0
 21
-78.49999999999988
 31
0.0
1001
TOP
1070
     3
  0
LINE
  5
933
330
926
100
AcDbEntity
  8
0
 62
     0
 48
35.0
100
AcDbLine
 10
35.0
 20
-78.5
 30
0.0
 11
35.0
 21
-138.5
 31
0.0
1001
TOP
1070
     3
  0
LINE
  5
934
330
926
100
AcDbEntity
  8
0
 62
     0
 48
35.0
100
AcDbLine
 10
-100.0
 20
-130.5
 30
0.0
 11
35.0
 21
-130.5
 31
0.0
1001
TOP
1070
     1
  0
LINE
  5
935
330
926
100
AcDbEntity
  8
0
 62
     0
 48
35.0
100
AcDbLine
 10
-100.0
 20
-108.5
 30
0.0
 11
35.0
 21
-108.5
 31
0.0
1001
TOP
1070
     1
  0
LINE
  5
936
330
926
100
AcDbEntity
  8
0
 62
     0
 48
35.0
100
AcDbLine
 10
-66.25
 20
-130.5
 30
0.0
 11
-66.25
 21
-138.5
 31
0.0
1001
TOP
1070
     7
  0
LINE
  5
937
330
926
100
AcDbEntity
  8
0
 62
     0
 48
35.0
100
AcDbLine
 10
-100.0
 20
-98.50000000000001
 30
0.0
 11
35.0
 21
-98.50000000000001
 31
0.0
1001
TOP
1070
     1
  0
LINE
  5
938
330
926
100
AcDbEntity
  8
0
 62
     0
 48
35.0
100
AcDbLine
 10
-27.5
 20
-98.50000000000001
 30
0.0
 11
-27.5
 21
-108.5
 31
0.0
1001
TOP
1070
     1
  0
TEXT
  5
939
330
926
100
AcDbEntity
  8
0
 62
     0
 48
35.0
100
AcDbText
 10
-99.24333629514059
 20
-84.74999999999999
 30
0.0
 40
1.6
  1
DENOMINAZIONE:
  7
STYLE1
100
AcDbText
1001
TOP
1070
     1
  0
TEXT
  5
93A
330
926
100
AcDbEntity
  8
0
 62
     0
 48
35.0
100
AcDbText
 10
-99.24333629514059
 20
-105.5
 30
0.0
 40
1.6
  1
CLIENTE:
  7
STYLE1
100
AcDbText
1001
TOP
1070
     1
  0
LINE
  5
93B
330
926
100
AcDbEntity
  8
0
 62
     0
 48
35.0
100
AcDbLine
 10
-27.5
 20
-103.5
 30
0.0
 11
35.00000000000091
 21
-103.5
 31
0.0
1001
TOP
1070
     1
  0
TEXT
  5
93C
330
926
100
AcDbEntity
  8
0
 62
     0
 48
35.0
100
AcDbText
 10
-26.74333629514058
 20
-102.25
 30
0.0
 40
1.6
  1
COD. CLIENTE:
  7
STYLE1
100
AcDbText
1001
TOP
1070
     1
  0
TEXT
  5
93D
330
926
100
AcDbEntity
  8
0
 62
     0
 48
35.0
100
AcDbText
 10
-26.74333629514058
 20
-107.25
 30
0.0
 40
1.6
  1
CC CLIENTE:
  7
STYLE1
100
AcDbText
1001
TOP
1070
     1
  0
LINE
  5
93E
330
926
100
AcDbEntity
  8
0
 62
     0
 48
35.0
100
AcDbLine
 10
35.0
 20
-85.99999999999988
 30
0.0
 11
100.0
 21
-85.99999999999988
 31
0.0
1001
TOP
1070
     7
  0
LINE
  5
93F
330
926
100
AcDbEntity
  8
0
 62
     0
 48
35.0
100
AcDbLine
 10
35.0
 20
-93.49999999999988
 30
0.0
 11
100.0
 21
-93.49999999999988
 31
0.0
1001
TOP
1070
     7
  0
LINE
  5
940
330
926
100
AcDbEntity
  8
0
 62
     0
 48
35.0
100
AcDbLine
 10
35.0
 20
-100.9999999999999
 30
0.0
 11
100.0
 21
-100.9999999999999
 31
0.0
1001
TOP
1070
     7
  0
TEXT
  5
941
330
926
100
AcDbEntity
  8
0
 62
     0
 48
35.0
100
AcDbText
 10
35.75666370485942
 20
-83.99999999999989
 30
0.0
 40
1.6
  1
Data:
  7
STYLE1
100
AcDbText
1001
TOP
1070
     1
  0
TEXT
  5
942
330
926
100
AcDbEntity
  8
0
 62
     0
 48
35.0
100
AcDbText
 10
35.75666370485942
 20
-90.74999999999988
 30
0.0
 40
1.6
  1
Diseg.:        
  7
STYLE1
100
AcDbText
1001
TOP
1070
     1
  0
TEXT
  5
943
330
926
100
AcDbEntity
  8
0
 62
     0
 48
35.0
100
AcDbText
 10
35.75666370485942
 20
-98.49999999999988
 30
0.0
 40
1.6
  1
Rifer. ordine:
  7
STYLE1
100
AcDbText
1001
TOP
1070
     1
  0
LINE
  5
944
330
926
100
AcDbEntity
  8
0
 62
     0
 48
35.0
100
AcDbLine
 10
72.0
 20
-78.49999999999988
 30
0.0
 11
72.0
 21
-93.49999999999999
 31
0.0
  0
TEXT
  5
945
330
926
100
AcDbEntity
  8
0
 62
     0
 48
35.0
100
AcDbText
 10
72.75666370485942
 20
-83.99999999999989
 30
0.0
 40
1.6
  1
Scala:
  7
STYLE1
100
AcDbText
1001
TOP
1070
     1
  0
TEXT
  5
946
330
926
100
AcDbEntity
  8
0
 62
     0
 48
35.0
100
AcDbText
 10
72.75666370485942
 20
-91.49999999999989
 30
0.0
 40
1.6
  1
Q.ta:
  7
STYLE1
100
AcDbText
1001
TOP
1070
     1
  0
TEXT
  5
947
330
926
100
AcDbEntity
  8
0
 62
     0
 48
35.0
100
AcDbText
 10
35.85819235127565
 20
-110.1249999999999
 30
0.0
 40
1.76
  1
Codice N
  7
STYLE1
100
AcDbText
1001
TOP
1070
     1
  0
LINE
  5
948
330
926
100
AcDbEntity
  8
0
 62
     0
 48
35.0
100
AcDbLine
 10
35.0
 20
-114.7499999999999
 30
0.0
 11
100.0
 21
-114.7499999999999
 31
0.0
1001
TOP
1070
     7
  0
LINE
  5
949
330
926
100
AcDbEntity
  8
0
 62
     0
 48
35.0
100
AcDbLine
 10
35.0
 20
-124.7499999999999
 30
0.0
 11
100.0
 21
-124.7499999999999
 31
0.0
1001
TOP
1070
     7
  0
LINE
  5
94A
330
926
100
AcDbEntity
  8
0
 62
     0
 48
35.0
100
AcDbLine
 10
35.0
 20
-130.5
 30
0.0
 11
100.0
 21
-130.5
 31
0.0
1001
TOP
1070
     7
  0
CIRCLE
  5
94B
330
926
100
AcDbEntity
  8
0
  6
Continuous
 62
     0
100
AcDbCircle
 10
94.1449550471707
 20
-134.5409172698267
 30
0.0
 40
3.0
1001
TOP
1070
     2
  0
LINE
  5
94C
330
926
100
AcDbEntity
  8
0
  6
DASHDOT2
 62
     0
100
AcDbLine
 10
94.1449550471707
 20
-131.5409172698267
 30
0.0
 11
94.1449550471707
 21
-137.5409172698267
 31
0.0
1001
TOP
1070
     2
  0
CIRCLE
  5
94D
330
926
100
AcDbEntity
  8
0
  6
Continuous
 62
     0
100
AcDbCircle
 10
94.1449550471707
 20
-134.5409172698267
 30
0.0
 40
1.5
1001
TOP
1070
     2
  0
LINE
  5
94E
330
926
100
AcDbEntity
  8
0
  6
DASHDOT2
 62
     0
100
AcDbLine
 10
81.35716881113784
 20
-134.5409172698267
 30
0.0
 11
97.14495504717071
 21
-134.5409172698267
 31
0.0
1001
TOP
1070
     2
  0
LINE
  5
94F
330
926
100
AcDbEntity
  8
0
  6
Continuous
 62
     0
100
AcDbLine
 10
88.51173788868619
 20
-131.5409172698267
 30
0.0
 11
88.51173788868619
 21
-137.8298833532369
 31
0.0
1001
TOP
1070
     2
  0
LINE
  5
950
330
926
100
AcDbEntity
  8
0
  6
Continuous
 62
     0
100
AcDbLine
 10
81.35716881113784
 20
-133.0409172698267
 30
0.0
 11
81.35716881113784
 21
-136.0409172698267
 31
0.0
1001
TOP
1070
     2
  0
LINE
  5
951
330
926
100
AcDbEntity
  8
0
  6
Continuous
 62
     0
100
AcDbLine
 10
81.35716881113784
 20
-136.0409172698267
 30
0.0
 11
88.51173788868619
 21
-137.8298833532369
 31
0.0
1001
TOP
1070
     2
  0
LINE
  5
952
330
926
100
AcDbEntity
  8
0
  6
Continuous
 62
     0
100
AcDbLine
 10
88.51173788868619
 20
-131.5409172698267
 30
0.0
 11
81.35716881113784
 21
-133.0409172698267
 31
0.0
1001
TOP
1070
     2
  0
LINE
  5
953
330
926
100
AcDbEntity
  8
0
 62
     0
 48
35.0
100
AcDbLine
 10
78.5
 20
-138.5
 30
0.0
 11
78.5
 21
-130.5
 31
0.0
  0
MTEXT
  5
954
330
926
100
AcDbEntity
  8
0
 62
     0
 48
35.0
100
AcDbMText
 10
36.70159610234714
 20
-116.147829675845
 30
0.0
 40
2.0
 41
187.0802
 71
     1
 72
     5
  1
{\C256;LE TOLLERANZE SI INTENDONO SU PEZZO\PFINITO COMPLETO DI ZINCATURA}
  7
Stile_Cart
 73
     1
 44
1.0
1001
TOP
1070
     3
1001
ACAD
1000
MTEXTBEGIN
1070
    73
1070
     1
1070
    44
1040
1.0
1070
    74
1070
     0
1000
MTEXTEND
  0
LINE
  5
955
330
926
100
AcDbEntity
  8
0
 62
     0
100
AcDbLine
 10
-100.0
 20
-71.0
 30
0.0
 11
99.99999999999909
 21
-71.00000000000012
 31
0.0
1001
TOP
1070
     3
  0
LINE
  5
956
330
926
100
AcDbEntity
  8
0
 62
     0
100
AcDbLine
 10
-100.0
 20
-67.0
 30
0.0
 11
99.99999999999909
 21
-67.0
 31
0.0
1001
TOP
1070
     3
  0
LINE
  5
957
330
926
100
AcDbEntity
  8
0
 62
     0
100
AcDbLine
 10
-100.0
 20
-62.0
 30
0.0
 11
99.99999999999909
 21
-61.99999999999988
 31
0.0
1001
TOP
1070
     3
  0
LINE
  5
958
330
926
100
AcDbEntity
  8
0
 62
     0
 48
35.0
100
AcDbLine
 10
-85.0
 20
-61.99999999999999
 30
0.0
 11
-85.0
 21
-78.5
 31
0.0
1001
TOP
1070
     1
  0
TEXT
  5
959
330
926
100
AcDbEntity
  8
0
 62
     0
 48
35.0
100
AcDbText
 10
-99.24333629514149
 20
-76.0
 30
0.0
 40
1.6
  1
POS.
  7
STYLE1
100
AcDbText
1001
TOP
1070
     1
  0
TEXT
  5
95A
330
926
100
AcDbEntity
  8
0
 62
     0
 48
35.0
100
AcDbText
 10
-84.2433362951424
 20
-76.0
 30
0.0
 40
1.6
  1
MATERIALE:
  7
STYLE1
100
AcDbText
1001
TOP
1070
     1
  0
LINE
  5
95B
330
926
100
AcDbEntity
  8
0
 62
     0
 48
35.0
100
AcDbLine
 10
14.99999999999909
 20
-71.00000000000022
 30
0.0
 11
15.0
 21
-78.5
 31
0.0
1001
TOP
1070
     1
  0
TEXT
  5
95C
330
926
100
AcDbEntity
  8
0
 62
     0
 48
35.0
100
AcDbText
 10
15.75666370485669
 20
-76.0
 30
0.0
 40
1.6
  1
TRATTAMENTI:
  7
STYLE1
100
AcDbText
1001
TOP
1070
     1
  0
TEXT
  5
95D
330
926
100
AcDbEntity
  8
0
 62
     0
 48
35.0
100
AcDbText
 10
-94.94297836942587
 20
-69.79763860700177
 30
0.0
 40
1.6
  1
Rev.
  7
STYLE1
100
AcDbText
1001
TOP
1070
     1
  0
LINE
  5
95E
330
926
100
AcDbEntity
  8
0
 62
     0
 48
35.0
100
AcDbLine
 10
80.0
 20
-61.9999999999999
 30
0.0
 11
80.0000000000009
 21
-71.00000000000012
 31
0.0
1001
TOP
1070
     1
  0
LINE
  5
95F
330
926
100
AcDbEntity
  8
0
 62
     0
 48
35.0
100
AcDbLine
 10
65.00000000000032
 20
-61.99999999999991
 30
0.0
 11
65.00000000000091
 21
-71.00000000000114
 31
0.0
1001
TOP
1070
     1
  0
TEXT
  5
960
330
926
100
AcDbEntity
  8
0
 62
     0
 48
35.0
100
AcDbText
 10
70.05702163057503
 20
-69.79763860700177
 30
0.0
 40
1.6
  1
Data
  7
STYLE1
100
AcDbText
1001
TOP
1070
     1
  0
TEXT
  5
961
330
926
100
AcDbEntity
  8
0
 62
     0
 48
35.0
100
AcDbText
 10
87.79240430569643
 20
-69.79763860700177
 30
0.0
 40
1.6
  1
Diseg.
  7
STYLE1
100
AcDbText
1001
TOP
1070
     1
  0
LINE
  5
962
330
926
100
AcDbEntity
  8
0
 62
     0
 48
35.0
100
AcDbLine
 10
-32.5
 20
-130.5
 30
0.0
 11
-32.5
 21
-138.5
 31
0.0
1001
TOP
1070
     7
  0
LINE
  5
963
330
926
100
AcDbEntity
  8
0
 62
     0
 48
35.0
100
AcDbLine
 10
1.25
 20
-130.5
 30
0.0
 11
1.25
 21
-138.5
 31
0.0
1001
TOP
1070
     7
  0
LINE
  5
964
330
926
100
AcDbEntity
  8
0
  6
Continuous
 62
     0
100
AcDbLine
 10
-84.625
 20
-135.2853677388285
 30
0.0
 11
-83.125
 21
-138.2853677388285
 31
0.0
1001
TOP
1070
     2
  0
LINE
  5
965
330
926
100
AcDbEntity
  8
0
  6
Continuous
 62
     0
100
AcDbLine
 10
-83.125
 20
-138.2853677388285
 30
0.0
 11
-80.12500000000001
 21
-132.2853677388285
 31
0.0
1001
TOP
1070
     2
  0
CIRCLE
  5
966
330
926
100
AcDbEntity
  8
0
  6
Continuous
 62
     0
100
AcDbCircle
 10
-83.125
 20
-136.1513931426129
 30
0.0
 40
0.8660254037843873
1001
TOP
1070
     2
  0
TEXT
  5
967
330
926
100
AcDbEntity
  8
0
  6
Continuous
 62
     0
100
AcDbText
 10
36.65725579953532
 20
-127.6856811538551
 30
0.0
 40
1.5
  1
Le QUOTE senza tolleranze si intendono h 11 / H 11
  7
Stile_Cart
100
AcDbText
1001
TOP
1070
     7
  0
TEXT
  5
968
330
926
100
AcDbEntity
  8
0
  6
Continuous
 62
     0
100
AcDbText
 10
36.56316783991022
 20
-136.7809056532263
 30
0.0
 40
1.5
  1
Smussi e raggi non quotati = 1 mm
  7
Stile_Cart
100
AcDbText
1001
TOP
1070
     7
  0
TEXT
  5
969
330
926
100
AcDbEntity
  8
0
  6
Continuous
 62
     0
100
AcDbText
 10
36.70159610234714
 20
-133.4356811538553
 30
0.0
 40
1.5
  1
Negli spigoli non quotati smussi 0,5 x 45°
  7
Stile_Cart
100
AcDbText
1001
TOP
1070
     7
  0
LINE
  5
96A
330
926
100
AcDbEntity
  8
0
  6
Continuous
 62
     0
100
AcDbLine
 10
22.04910490551336
 20
-135.2267571184318
 30
0.0
 11
23.54910490551336
 21
-138.2267571184318
 31
0.0
1001
TOP
1070
     2
  0
LINE
  5
96B
330
926
100
AcDbEntity
  8
0
  6
Continuous
 62
     0
100
AcDbLine
 10
23.54910490551336
 20
-138.2267571184318
 30
0.0
 11
26.54910490551336
 21
-132.2267571184318
 31
0.0
1001
TOP
1070
     2
  0
TEXT
  5
96C
330
926
100
AcDbEntity
  8
0
  6
Continuous
 62
     0
100
AcDbText
 10
21.21024234627165
 20
-134.7267571184318
 30
0.0
 40
2.0
  1
0,8
  7
seansi_ttf
 11
21.21024234627165
 21
-132.7267571184318
 31
0.0
100
AcDbText
 73
     3
1001
TOP
1070
     2
  0
LINE
  5
96D
330
926
100
AcDbEntity
  8
0
  6
Continuous
 62
     0
100
AcDbLine
 10
14.18630267108197
 20
-135.2559419652411
 30
0.0
 11
15.68630267108197
 21
-138.2559419652411
 31
0.0
1001
TOP
1070
     2
  0
LINE
  5
96E
330
926
100
AcDbEntity
  8
0
  6
Continuous
 62
     0
100
AcDbLine
 10
15.68630267108197
 20
-138.2559419652411
 30
0.0
 11
17.18630267108197
 21
-135.2559419652411
 31
0.0
1001
TOP
1070
     2
  0
LINE
  5
96F
330
926
100
AcDbEntity
  8
0
  6
Continuous
 62
     0
100
AcDbLine
 10
17.18630267108197
 20
-135.2559419652411
 30
0.0
 11
14.18630267108197
 21
-135.2559419652411
 31
0.0
1001
TOP
1070
     2
  0
LINE
  5
970
330
926
100
AcDbEntity
  8
0
  6
Continuous
 62
     0
100
AcDbLine
 10
14.18630267108197
 20
-135.2559419652411
 30
0.0
 11
12.68630267108197
 21
-138.2559419652411
 31
0.0
1001
TOP
1070
     2
  0
LINE
  5
971
330
926
100
AcDbEntity
  8
0
  6
Continuous
 62
     0
100
AcDbLine
 10
12.68630267108197
 20
-138.2559419652411
 30
0.0
 11
11.18630267108197
 21
-135.2559419652411
 31
0.0
1001
TOP
1070
     2
  0
LINE
  5
972
330
926
100
AcDbEntity
  8
0
  6
Continuous
 62
     0
100
AcDbLine
 10
11.18630267108197
 20
-135.2559419652411
 30
0.0
 11
14.18630267108197
 21
-135.2559419652411
 31
0.0
1001
TOP
1070
     2
  0
LINE
  5
973
330
926
100
AcDbEntity
  8
0
  6
Continuous
 62
     0
100
AcDbLine
 10
11.18630267108197
 20
-135.2559419652411
 30
0.0
 11
9.686302671081968
 21
-138.2559419652411
 31
0.0
1001
TOP
1070
     2
  0
LINE
  5
974
330
926
100
AcDbEntity
  8
0
  6
Continuous
 62
     0
100
AcDbLine
 10
9.686302671081968
 20
-138.2559419652411
 30
0.0
 11
8.186302671081968
 21
-135.2559419652411
 31
0.0
1001
TOP
1070
     2
  0
LINE
  5
975
330
926
100
AcDbEntity
  8
0
  6
Continuous
 62
     0
100
AcDbLine
 10
8.186302671081968
 20
-135.2559419652411
 30
0.0
 11
11.18630267108197
 21
-135.2559419652411
 31
0.0
1001
TOP
1070
     2
  0
LINE
  5
976
330
926
100
AcDbEntity
  8
0
  6
Continuous
 62
     0
100
AcDbLine
 10
-11.09407416882067
 20
-135.2999430320282
 30
0.0
 11
-9.594074168820668
 21
-138.2999430320282
 31
0.0
1001
TOP
1070
     2
  0
LINE
  5
977
330
926
100
AcDbEntity
  8
0
  6
Continuous
 62
     0
100
AcDbLine
 10
-9.594074168820668
 20
-138.2999430320282
 30
0.0
 11
-6.594074168820668
 21
-132.2999430320282
 31
0.0
1001
TOP
1070
     2
  0
TEXT
  5
978
330
926
100
AcDbEntity
  8
0
  6
Continuous
 62
     0
100
AcDbText
 10
-11.93293672806237
 20
-134.7999430320282
 30
0.0
 40
2.0
  1
1,6
  7
seansi_ttf
 11
-11.93293672806237
 21
-132.7999430320282
 31
0.0
100
AcDbText
 73
     3
1001
TOP
1070
     2
  0
LINE
  5
979
330
926
100
AcDbEntity
  8
0
  6
Continuous
 62
     0
100
AcDbLine
 10
-21.65592583117933
 20
-135.2999430320282
 30
0.0
 11
-20.15592583117933
 21
-138.2999430320282
 31
0.0
1001
TOP
1070
     2
  0
LINE
  5
97A
330
926
100
AcDbEntity
  8
0
  6
Continuous
 62
     0
100
AcDbLine
 10
-20.15592583117933
 20
-138.2999430320282
 30
0.0
 11
-18.65592583117933
 21
-135.2999430320282
 31
0.0
1001
TOP
1070
     2
  0
LINE
  5
97B
330
926
100
AcDbEntity
  8
0
  6
Continuous
 62
     0
100
AcDbLine
 10
-18.65592583117933
 20
-135.2999430320282
 30
0.0
 11
-21.65592583117933
 21
-135.2999430320282
 31
0.0
1001
TOP
1070
     2
  0
LINE
  5
97C
330
926
100
AcDbEntity
  8
0
  6
Continuous
 62
     0
100
AcDbLine
 10
-21.65592583117933
 20
-135.2999430320282
 30
0.0
 11
-23.15592583117933
 21
-138.2999430320282
 31
0.0
1001
TOP
1070
     2
  0
LINE
  5
97D
330
926
100
AcDbEntity
  8
0
  6
Continuous
 62
     0
100
AcDbLine
 10
-23.15592583117933
 20
-138.2999430320282
 30
0.0
 11
-24.65592583117933
 21
-135.2999430320282
 31
0.0
1001
TOP
1070
     2
  0
LINE
  5
97E
330
926
100
AcDbEntity
  8
0
  6
Continuous
 62
     0
100
AcDbLine
 10
-24.65592583117933
 20
-135.2999430320282
 30
0.0
 11
-21.65592583117933
 21
-135.2999430320282
 31
0.0
1001
TOP
1070
     2
  0
LINE
  5
97F
330
926
100
AcDbEntity
  8
0
  6
Continuous
 62
     0
100
AcDbLine
 10
-58.06883755106941
 20
-135.3397943988076
 30
0.0
 11
-56.56883755106941
 21
-138.3397943988076
 31
0.0
1001
TOP
1070
     2
  0
LINE
  5
980
330
926
100
AcDbEntity
  8
0
  6
Continuous
 62
     0
100
AcDbLine
 10
-56.56883755106941
 20
-138.3397943988076
 30
0.0
 11
-55.0688375510694
 21
-135.3397943988076
 31
0.0
1001
TOP
1070
     2
  0
LINE
  5
981
330
926
100
AcDbEntity
  8
0
  6
Continuous
 62
     0
100
AcDbLine
 10
-55.0688375510694
 20
-135.3397943988076
 30
0.0
 11
-58.06883755106941
 21
-135.3397943988076
 31
0.0
1001
TOP
1070
     2
  0
LINE
  5
982
330
926
100
AcDbEntity
  8
0
  6
Continuous
 62
     0
100
AcDbLine
 10
-43.68116244893059
 20
-135.3397943988076
 30
0.0
 11
-42.18116244893059
 21
-138.3397943988076
 31
0.0
1001
TOP
1070
     2
  0
LINE
  5
983
330
926
100
AcDbEntity
  8
0
  6
Continuous
 62
     0
100
AcDbLine
 10
-42.18116244893059
 20
-138.3397943988076
 30
0.0
 11
-39.18116244893059
 21
-132.3397943988076
 31
0.0
1001
TOP
1070
     2
  0
TEXT
  5
984
330
926
100
AcDbEntity
  8
0
  6
Continuous
 62
     0
100
AcDbText
 10
-44.52002500817229
 20
-134.8397943988076
 30
0.0
 40
2.0
  1
6,3
  7
seansi_ttf
 11
-44.52002500817229
 21
-132.8397943988076
 31
0.0
100
AcDbText
 73
     3
1001
TOP
1070
     2
  0
ATTDEF
  5
985
330
926
100
AcDbEntity
  8
0
 62
     0
 48
35.0
100
AcDbText
 10
-76.25989897767704
 20
-89.74999999999999
 30
0.0
 40
2.5
  1

  7
Stile_Cart
 11
-76.25989897767704
 21
-88.49999999999999
 31
0.0
100
AcDbAttributeDefinition
  3

  2
DESCRIZIONE2
 70
     4
 74
     2
1001
TOP
1070
     7
  0
ATTDEF
  5
986
330
926
100
AcDbEntity
  8
0
 62
     0
 48
35.0
100
AcDbText
 10
-76.25989897767704
 20
-94.74999999999999
 30
0.0
 40
2.5
  1

  7
Stile_Cart
 11
-76.25989897767704
 21
-93.49999999999999
 31
0.0
100
AcDbAttributeDefinition
  3

  2
DESCRIZIONE3
 70
     4
 74
     2
1001
TOP
1070
     7
  0
ATTDEF
  5
987
330
926
100
AcDbEntity
  8
0
 62
     0
 48
35.0
100
AcDbText
 10
42.76829842361894
 20
-83.99999999999989
 30
0.0
 40
3.5
  1

  7
Stile_Cart
 11
42.76829842361894
 21
-82.2499999999999
 31
0.0
100
AcDbAttributeDefinition
  3

  2
DATA
 70
     4
 74
     2
1001
TOP
1070
     7
  0
ATTDEF
  5
988
330
926
100
AcDbEntity
  8
0
 62
     0
 48
35.0
100
AcDbText
 10
79.15321575123653
 20
-83.99999999999989
 30
0.0
 40
3.5
  1

  7
Stile_Cart
 11
79.15321575123653
 21
-82.24999999999988
 31
0.0
100
AcDbAttributeDefinition
  3

  2
SCALA
 70
     4
 74
     2
1001
TOP
1070
     7
  0
ATTDEF
  5
989
330
926
100
AcDbEntity
  8
0
 62
     0
 48
35.0
100
AcDbText
 10
79.15321575123653
 20
-91.49999999999989
 30
0.0
 40
3.5
  1

  7
Stile_Cart
 11
79.15321575123653
 21
-89.74999999999988
 31
0.0
100
AcDbAttributeDefinition
  3

  2
QTA
 70
     4
 74
     2
1001
TOP
1070
     7
  0
ATTDEF
  5
98A
330
926
100
AcDbEntity
  8
0
 62
     0
 48
35.0
100
AcDbText
 10
42.76829842361894
 20
-90.74999999999988
 30
0.0
 40
2.0
  1

  7
Stile_Cart
 11
42.76829842361894
 21
-89.74999999999988
 31
0.0
100
AcDbAttributeDefinition
  3

  2
DISEGNATORE
 70
     4
 74
     2
1001
TOP
1070
     7
  0
ATTDEF
  5
98B
330
926
100
AcDbEntity
  8
0
 62
     0
 48
35.0
100
AcDbText
 10
51.64776592404542
 20
-98.49999999999988
 30
0.0
 40
2.5
  1

  7
Stile_Cart
 11
51.64776592404542
 21
-97.24999999999988
 31
0.0
100
AcDbAttributeDefinition
  3

  2
RIF_ORDINE
 70
     4
 74
     2
1001
TOP
1070
     7
  0
ATTDEF
  5
98C
330
926
100
AcDbEntity
  8
0
 62
     0
 48
35.0
100
AcDbText
 10
50.29007657152305
 20
-110.1249999999999
 30
0.0
 40
4.5
  1

  7
Stile_Cart
 11
50.29007657152305
 21
-107.8749999999999
 31
0.0
100
AcDbAttributeDefinition
  3

  2
CODICE
 70
     4
 74
     2
1001
TOP
1070
     7
  0
ATTDEF
  5
98D
330
926
100
AcDbEntity
  8
0
 62
     0
 48
35.0
100
AcDbText
 10
-10.1983793647978
 20
-102.25
 30
0.0
 40
2.5
  1

  7
Stile_Cart
 11
-10.1983793647978
 21
-101.0
 31
0.0
100
AcDbAttributeDefinition
  3

  2
COD_CLIENTE
 70
     4
 74
     2
1001
TOP
1070
     7
  0
ATTDEF
  5
98E
330
926
100
AcDbEntity
  8
0
 62
     0
 48
35.0
100
AcDbText
 10
-10.18785708582345
 20
-107.25
 30
0.0
 40
2.5
  1

  7
Stile_Cart
 11
-10.18785708582345
 21
-106.0
 31
0.0
100
AcDbAttributeDefinition
  3

  2
COMMESSA
 70
     4
 74
     2
1001
TOP
1070
     7
  0
ATTDEF
  5
98F
330
926
100
AcDbEntity
  8
0
 62
     0
 48
35.0
100
AcDbText
 10
-87.23964845993032
 20
-105.5
 30
0.0
 40
4.0
  1

  7
Stile_Cart
 11
-87.23964845993032
 21
-103.5
 31
0.0
100
AcDbAttributeDefinition
  3

  2
CLIENTE
 70
     4
 74
     2
1001
TOP
1070
     7
  0
ATTDEF
  5
990
330
926
100
AcDbEntity
  8
0
 62
     0
 48
35.0
100
AcDbText
 10
-67.95452598552799
 20
-76.0
 30
0.0
 40
2.5
  1

  7
Stile_Cart
 11
-67.95452598552799
 21
-74.75
 31
0.0
100
AcDbAttributeDefinition
  3

  2
MATERIALE
 70
     4
 74
     2
1001
TOP
1070
     7
  0
ATTDEF
  5
991
330
926
100
AcDbEntity
  8
0
 62
     0
 48
35.0
100
AcDbText
 10
35.56280592835867
 20
-76.0
 30
0.0
 40
2.5
  1

  7
Stile_Cart
 11
35.56280592835867
 21
-74.75
 31
0.0
100
AcDbAttributeDefinition
  3

  2
TRATTAMENTI
 70
     4
 74
     2
1001
TOP
1070
     7
  0
ATTDEF
  5
992
330
926
100
AcDbEntity
  8
0
 62
     0
 48
35.0
100
AcDbText
 10
-89.96922082042067
 20
-76.0
 30
0.0
 40
2.5
  1

  7
Stile_Cart
 72
     1
 11
-89.96922082042067
 21
-74.75
 31
0.0
100
AcDbAttributeDefinition
  3

  2
POS.
 70
     4
 74
     2
1001
TOP
1070
     7
  0
ATTDEF
  5
993
330
926
100
AcDbEntity
  8
0
 62
     0
 48
35.0
100
AcDbText
 10
-92.5
 20
-65.75
 30
0.0
 40
2.5
  1

  7
Stile_Cart
 72
     1
 11
-92.5
 21
-64.5
 31
0.0
100
AcDbAttributeDefinition
  3

  2
REV
 70
     4
 74
     2
1001
TOP
1070
     7
  0
ATTDEF
  5
994
330
926
100
AcDbEntity
  8
0
 62
     0
 48
35.0
100
AcDbText
 10
-83.0
 20
-65.75
 30
0.0
 40
2.5
  1

  7
Stile_Cart
 11
-83.0
 21
-64.5
 31
0.0
100
AcDbAttributeDefinition
  3

  2
MOD_REV
 70
     4
 74
     2
1001
TOP
1070
     7
  0
ATTDEF
  5
995
330
926
100
AcDbEntity
  8
0
 62
     0
 48
35.0
100
AcDbText
 10
72.50000000000032
 20
-65.74999999999994
 30
0.0
 40
2.5
  1

  7
Stile_Cart
 72
     1
 11
72.50000000000032
 21
-64.49999999999994
 31
0.0
100
AcDbAttributeDefinition
  3

  2
DATA_REV
 70
     4
 74
     2
1001
TOP
1070
     7
  0
ATTDEF
  5
996
330
926
100
AcDbEntity
  8
0
 62
     0
 48
35.0
100
AcDbText
 10
89.96023144605638
 20
-65.49999999999994
 30
0.0
 40
2.0
  1

 41
0.8
  7
Stile_Cart
 72
     1
 11
89.96023144605638
 21
-64.49999999999994
 31
0.0
100
AcDbAttributeDefinition
  3

  2
DISEGN_REV
 70
     4
 74
     2
1001
TOP
1070
     7
  0
TEXT
  5
997
330
926
100
AcDbEntity
  8
P-0000
  6
Continuous
 62
     0
 48
35.0
100
AcDbText
 10
-46.28135167661025
 20
-113.3527525052883
 30
0.0
 40
1.846799999999999
  1
Sedi operative: Fiorano Circ.le S. Giovanni Ev.,23   41042 Spezzano (MO)
  7
STYLE1
100
AcDbText
1001
TOP
1070
     7
  0
TEXT
  5
998
330
926
100
AcDbEntity
  8
P-0000
  6
Continuous
 62
     0
 48
35.0
100
AcDbText
 10
-6.340918626483258
 20
-117.0692022869476
 30
0.0
 40
1.846799999999999
  1
Tel. 0536 921322  Fax 0536 921218
  7
STYLE1
100
AcDbText
1001
TOP
1070
     7
  0
TEXT
  5
999
330
926
100
AcDbEntity
  8
P-0000
  6
Continuous
 62
     0
 48
35.0
100
AcDbText
 10
-29.75490795040492
 20
-120.7856520686069
 30
0.0
 40
1.846799999999999
  1
Bologna Via Del Selciatore, 12   40127 (BO) 
  7
STYLE1
100
AcDbText
1001
TOP
1070
     7
  0
TEXT
  5
99A
330
926
100
AcDbEntity
  8
P-0000
  6
Continuous
 62
     0
 48
35.0
100
AcDbText
 10
-3.770224758554846
 20
-124.5021018502664
 30
0.0
 40
1.846799999999999
  1
Tel. 051 535318  Fax 051 531297
  7
STYLE1
100
AcDbText
1001
TOP
1070
     7
  0
TEXT
  5
99B
330
926
100
AcDbEntity
  8
P-0000
  6
Continuous
 62
     0
 48
35.0
100
AcDbText
 10
-29.75453034516
 20
-128.1147363829751
 30
0.0
 40
1.5
  1
www.dierremacap.com . tecnico@dierreprotezioni.com  
  7
STYLE1
100
AcDbText
1001
TOP
1070
     7
  0
ARC
  5
99C
330
926
100
AcDbEntity
  8
P-0000
  6
Continuous
 62
     0
370
     0
100
AcDbCircle
 10
-87.55587540093328
 20
-119.8343908033039
 30
0.0
 40
7.264056604142308
100
AcDbArc
 50
54.62314853322836
 51
125.3768514667716
1001
TOP
1070
    85
  0
ARC
  5
99D
330
926
100
AcDbEntity
  8
P-0000
  6
Continuous
 62
     0
370
     0
100
AcDbCircle
 10
-88.37772146816295
 20
-119.8661633216503
 30
0.0
 40
7.793069759999999
100
AcDbArc
 50
49.82610094250764
 51
223.428751725223
1001
TOP
1070
    85
  0
ARC
  5
99E
330
926
100
AcDbEntity
  8
P-0000
  6
Continuous
 62
     0
370
     0
100
AcDbCircle
 10
-87.77383862674813
 20
-119.1102130429075
 30
0.0
 40
4.056769053873
100
AcDbArc
 50
51.09712919102834
 51
223.6094645412326
1001
TOP
1070
    85
  0
ARC
  5
99F
330
926
100
AcDbEntity
  8
P-0000
  6
Continuous
 62
     0
370
     0
100
AcDbCircle
 10
-88.42266163376624
 20
-119.4851385567151
 30
0.0
 40
4.763630338834137
100
AcDbArc
 50
47.85430720588668
 51
226.8522865263435
1001
TOP
1070
    85
  0
ARC
  5
9A0
330
926
100
AcDbEntity
  8
P-0000
  6
Continuous
 62
     0
370
     0
100
AcDbCircle
 10
-88.82997178899747
 20
-120.0817487520743
 30
0.0
 40
4.056769053873
100
AcDbArc
 50
231.0971291910283
 51
43.60946454123257
1001
TOP
1070
    85
  0
ARC
  5
9A1
330
926
100
AcDbEntity
  8
P-0000
  6
Continuous
 62
     0
370
     0
100
AcDbCircle
 10
-88.18114878197755
 20
-119.7068232382669
 30
0.0
 40
4.763630338834137
100
AcDbArc
 50
227.8543072058867
 51
46.85228652634355
1001
TOP
1070
    85
  0
ARC
  5
9A2
330
926
100
AcDbEntity
  8
P-0000
  6
Continuous
 62
     0
370
     0
100
AcDbCircle
 10
-88.37772146816295
 20
-119.8661633216503
 30
0.0
 40
7.793069759999999
100
AcDbArc
 50
230.1466606584018
 51
45.36258570986113
1001
TOP
1070
    85
  0
ARC
  5
9A3
330
926
100
AcDbEntity
  8
P-0000
  6
Continuous
 62
     0
370
     0
100
AcDbCircle
 10
-89.52593793590565
 20
-119.7374591014475
 30
0.0
 40
7.220700683144739
100
AcDbArc
 50
237.8184274609863
 51
321.1976420062348
1001
TOP
1070
    85
  0
ARC
  5
9A4
330
926
100
AcDbEntity
  8
P-0000
  6
Continuous
 62
     0
370
     0
100
AcDbCircle
 10
-88.50216480330599
 20
-119.1656258049447
 30
0.0
 40
5.663278842528495
100
AcDbArc
 50
171.3036725542784
 51
228.0269063594487
1001
TOP
1070
    85
  0
LINE
  5
9A5
330
926
100
AcDbEntity
  8
P-0000
  6
Continuous
 62
     0
370
     0
100
AcDbLine
 10
-92.28966119657778
 20
-123.3760412617837
 30
0.0
 11
-94.03728088778988
 21
-125.2235249353502
 31
0.0
1001
TOP
1070
    85
  0
LINE
  5
9A6
330
926
100
AcDbEntity
  8
P-0000
  6
Continuous
 62
     0
370
     0
100
AcDbLine
 10
-90.71117445104736
 20
-121.9083255159412
 30
0.0
 11
-91.68042069830406
 21
-122.9606500129607
 31
0.0
1001
TOP
1070
    85
  0
ARC
  5
9A7
330
926
100
AcDbEntity
  8
P-0000
  6
Continuous
 62
     0
370
     0
100
AcDbCircle
 10
-88.54309328048001
 20
-118.4440510223681
 30
0.0
 40
5.558875133404746
100
AcDbArc
 50
125.3768514667716
 51
178.611514748478
1001
TOP
1070
    85
  0
LINE
  5
9A8
330
926
100
AcDbEntity
  8
P-0000
  6
Continuous
 62
     0
370
     0
100
AcDbLine
 10
-53.65438013237113
 20
-115.6426918998433
 30
0.0
 11
-52.51302380375555
 21
-115.6426918998433
 31
0.0
1001
TOP
1070
     7
  0
ARC
  5
9A9
330
926
100
AcDbEntity
  8
P-0000
  6
Continuous
 62
     0
370
     0
100
AcDbCircle
 10
-54.83784997234598
 20
-114.9033114623533
 30
0.0
 40
2.439569664000001
100
AcDbArc
 50
354.0835439993975
 51
342.3574175336751
1001
TOP
1070
     7
  0
LINE
  5
9AA
330
926
100
AcDbEntity
  8
P-0000
  6
Continuous
 62
     0
370
     0
100
AcDbLine
 10
-56.253151669302
 20
-115.1547779670433
 30
0.0
 11
-52.39829186638807
 21
-115.1547779670433
 31
0.0
1001
TOP
1070
     7
  0
ARC
  5
9AB
330
926
100
AcDbEntity
  8
P-0000
  6
Continuous
 62
     0
370
     0
100
AcDbCircle
 10
-67.13328107890589
 20
-114.9033114623533
 30
0.0
 40
2.439569664000001
100
AcDbArc
 50
354.0835439993975
 51
342.3574175336751
1001
TOP
1070
     7
  0
LINE
  5
9AC
330
926
100
AcDbEntity
  8
P-0000
  6
Continuous
 62
     0
370
     0
100
AcDbLine
 10
-77.50234959180421
 20
-117.3428811263534
 30
0.0
 11
-74.57486599500507
 21
-117.3428811263534
 31
0.0
1001
TOP
1070
     7
  0
LINE
  5
9AD
330
926
100
AcDbEntity
  8
P-0000
  6
Continuous
 62
     0
370
     0
100
AcDbLine
 10
-74.57486599500507
 20
-110.9999999999532
 30
0.0
 11
-77.50234959180421
 21
-110.9999999999532
 31
0.0
1001
TOP
1070
     7
  0
LINE
  5
9AE
330
926
100
AcDbEntity
  8
P-0000
  6
Continuous
 62
     0
370
     0
100
AcDbLine
 10
-82.90217148550416
 20
-114.320869039862
 30
0.0
 11
-84.48030571869711
 21
-115.9543842828061
 31
0.0
1001
TOP
1070
    85
  0
ARC
  5
9AF
330
926
100
AcDbEntity
  8
P-0000
  6
Continuous
 62
     0
370
     0
100
AcDbCircle
 10
-89.02722975211579
 20
-120.4469356245718
 30
0.0
 40
6.391989965892938
100
AcDbArc
 50
323.352977406186
 51
44.65536847523573
1001
TOP
1070
    85
  0
LINE
  5
9B0
330
926
100
AcDbEntity
  8
P-0000
  6
Continuous
 62
     0
370
     0
100
AcDbLine
 10
-85.89263596469553
 20
-117.283636279041
 30
0.0
 11
-84.92338971744155
 21
-116.2313117820216
 31
0.0
1001
TOP
1070
    85
  0
LINE
  5
9B1
330
926
100
AcDbEntity
  8
P-0000
  6
Continuous
 62
     0
370
     0
100
AcDbLine
 10
-77.50234959180421
 20
-110.9999999999532
 30
0.0
 11
-77.50234959180421
 21
-117.3428811263534
 31
0.0
1001
TOP
1070
     7
  0
ARC
  5
9B2
330
926
100
AcDbEntity
  8
P-0000
  6
Continuous
 62
     0
370
     0
100
AcDbCircle
 10
-74.81882296140435
 20
-113.6835266303536
 30
0.0
 40
1.5857202816
100
AcDbArc
 50
0.0
 51
90.0
1001
TOP
1070
     7
  0
ARC
  5
9B3
330
926
100
AcDbEntity
  8
P-0000
  6
Continuous
 62
     0
370
     0
100
AcDbCircle
 10
-74.81882296140435
 20
-114.6593544959532
 30
0.0
 40
1.5857202816
100
AcDbArc
 50
270.0
 51
0.0
1001
TOP
1070
     7
  0
ARC
  5
9B4
330
926
100
AcDbEntity
  8
P-0000
  6
Continuous
 62
     0
370
     0
100
AcDbCircle
 10
-74.57486599500507
 20
-114.9033114623533
 30
0.0
 40
2.439569663999999
100
AcDbArc
 50
270.0
 51
0.0
1001
TOP
1070
     7
  0
ARC
  5
9B5
330
926
100
AcDbEntity
  8
P-0000
  6
Continuous
 62
     0
370
     0
100
AcDbCircle
 10
-74.57486599500507
 20
-113.4395696639535
 30
0.0
 40
2.439569663999999
100
AcDbArc
 50
0.0
 51
90.0
1001
TOP
1070
     7
  0
LINE
  5
9B6
330
926
100
AcDbEntity
  8
P-0000
  6
Continuous
 62
     0
370
     0
100
AcDbLine
 10
-76.40454324300486
 20
-112.0978063487534
 30
0.0
 11
-76.40454324300486
 21
-116.2450747775533
 31
0.0
1001
TOP
1070
     7
  0
LINE
  5
9B7
330
926
100
AcDbEntity
  8
P-0000
  6
Continuous
 62
     0
370
     0
100
AcDbLine
 10
-76.40454324300486
 20
-116.2450747775533
 30
0.0
 11
-74.81882296140435
 21
-116.2450747775533
 31
0.0
1001
TOP
1070
     7
  0
LINE
  5
9B8
330
926
100
AcDbEntity
  8
P-0000
  6
Continuous
 62
     0
370
     0
100
AcDbLine
 10
-74.81882296140435
 20
-112.0978063487534
 30
0.0
 11
-76.40454324300486
 21
-112.0978063487534
 31
0.0
1001
TOP
1070
     7
  0
LINE
  5
9B9
330
926
100
AcDbEntity
  8
P-0000
  6
Continuous
 62
     0
370
     0
100
AcDbLine
 10
-70.30472164210562
 20
-117.3428811263534
 30
0.0
 11
-70.30472164210562
 21
-112.4637417983535
 31
0.0
1001
TOP
1070
     7
  0
LINE
  5
9BA
330
926
100
AcDbEntity
  8
P-0000
  6
Continuous
 62
     0
370
     0
100
AcDbLine
 10
-71.4025279909076
 20
-112.4637417983535
 30
0.0
 11
-71.4025279909076
 21
-117.3428811263534
 31
0.0
1001
TOP
1070
     7
  0
LINE
  5
9BB
330
926
100
AcDbEntity
  8
P-0000
  6
Continuous
 62
     0
370
     0
100
AcDbLine
 10
-71.4025279909076
 20
-117.3428811263534
 30
0.0
 11
-70.30472164210562
 21
-117.3428811263534
 31
0.0
1001
TOP
1070
     7
  0
LINE
  5
9BC
330
926
100
AcDbEntity
  8
P-0000
  6
Continuous
 62
     0
370
     0
100
AcDbLine
 10
-71.4025279909076
 20
-111.9758278655534
 30
0.0
 11
-70.30472164210562
 21
-111.9758278655534
 31
0.0
1001
TOP
1070
     7
  0
LINE
  5
9BD
330
926
100
AcDbEntity
  8
P-0000
  6
Continuous
 62
     0
370
     0
100
AcDbLine
 10
-70.30472164210562
 20
-110.9999999999532
 30
0.0
 11
-71.4025279909076
 21
-110.9999999999532
 31
0.0
1001
TOP
1070
     7
  0
HATCH
  5
9BE
330
926
100
AcDbEntity
  8
P-0000
  6
Continuous
 62
     0
100
AcDbHatch
 10
0.0
 20
0.0
 30
0.0
210
0.0
220
0.0
230
1.0
  2
SOLID
 70
     1
 71
     0
 91
        1
 92
        1
 93
        4
 72
     1
 10
-70.30472164210627
 20
-110.9999999999534
 11
-71.40252799090693
 21
-110.9999999999534
 72
     1
 10
-71.40252799090564
 20
-110.9999999999534
 11
-71.40252799090564
 21
-111.9758278655534
 72
     1
 10
-71.40252799090564
 20
-111.9758278655535
 11
-70.30472164210498
 21
-111.9758278655535
 72
     1
 10
-70.30472164210627
 20
-111.9758278655535
 11
-70.30472164210627
 21
-110.9999999999535
 97
        0
 75
     0
 76
     1
 98
        1
 10
-136.4839087803873
 20
-204.8924935638848
1001
TOP
1070
     3
  0
LINE
  5
9BF
330
926
100
AcDbEntity
  8
P-0000
  6
Continuous
 62
     0
370
     0
100
AcDbLine
 10
-70.30472164210562
 20
-112.4637417983535
 30
0.0
 11
-71.4025279909076
 21
-112.4637417983535
 31
0.0
1001
TOP
1070
     7
  0
LINE
  5
9C0
330
926
100
AcDbEntity
  8
P-0000
  6
Continuous
 62
     0
370
     0
100
AcDbLine
 10
-73.23310267980318
 20
-114.6593544959532
 30
0.0
 11
-73.23310267980318
 21
-113.6835266303536
 31
0.0
1001
TOP
1070
     7
  0
LINE
  5
9C1
330
926
100
AcDbEntity
  8
P-0000
  6
Continuous
 62
     0
370
     0
100
AcDbLine
 10
-72.13529633100447
 20
-114.9033114623533
 30
0.0
 11
-72.13529633100447
 21
-113.4395696639535
 31
0.0
1001
TOP
1070
     7
  0
LINE
  5
9C2
330
926
100
AcDbEntity
  8
P-0000
  6
Continuous
 62
     0
370
     0
100
AcDbLine
 10
-71.4025279909076
 20
-110.9999999999532
 30
0.0
 11
-71.4025279909076
 21
-111.9758278655534
 31
0.0
1001
TOP
1070
     7
  0
LINE
  5
9C3
330
926
100
AcDbEntity
  8
P-0000
  6
Continuous
 62
     0
370
     0
100
AcDbLine
 10
-70.30472164210562
 20
-111.9758278655534
 30
0.0
 11
-70.30472164210562
 21
-110.9999999999532
 31
0.0
1001
TOP
1070
     7
  0
LINE
  5
9C4
330
926
100
AcDbEntity
  8
P-0000
  6
Continuous
 62
     0
370
     0
100
AcDbLine
 10
-61.67972155649409
 20
-112.4637417983535
 30
0.0
 11
-61.22362894667041
 21
-112.4637417983535
 31
0.0
1001
TOP
1070
     7
  0
ARC
  5
9C5
330
926
100
AcDbEntity
  8
P-0000
  6
Continuous
 62
     0
370
     0
100
AcDbCircle
 10
-61.22455238416592
 20
-115.7450893416161
 30
0.0
 40
2.30551986259622
100
AcDbArc
 50
89.97705113130741
 51
144.7782320142388
1001
TOP
1070
     7
  0
LINE
  5
9C6
330
926
100
AcDbEntity
  8
P-0000
  6
Continuous
 62
     0
370
     0
100
AcDbLine
 10
-65.94981123893105
 20
-115.6426918998433
 30
0.0
 11
-64.80845491031482
 21
-115.6426918998433
 31
0.0
1001
TOP
1070
     7
  0
LINE
  5
9C7
330
926
100
AcDbEntity
  8
P-0000
  6
Continuous
 62
     0
370
     0
100
AcDbLine
 10
-68.54858277585996
 20
-115.1547779670433
 30
0.0
 11
-64.69372297294865
 21
-115.1547779670433
 31
0.0
1001
TOP
1070
     7
  0
ARC
  5
9C8
330
926
100
AcDbEntity
  8
P-0000
  6
Continuous
 62
     0
370
     0
100
AcDbCircle
 10
-67.13328107890589
 20
-114.7813329791535
 30
0.0
 40
1.463741798400002
100
AcDbArc
 50
194.7813103722914
 51
323.9519363800095
1001
TOP
1070
     7
  0
ARC
  5
9C9
330
926
100
AcDbEntity
  8
P-0000
  6
Continuous
 62
     0
370
     0
100
AcDbCircle
 10
-67.13315394981435
 20
-114.7246775057507
 30
0.0
 40
1.309503544180366
100
AcDbArc
 50
23.46032899247153
 51
156.5396710075285
1001
TOP
1070
     7
  0
LINE
  5
9CA
330
926
100
AcDbEntity
  8
P-0000
  6
Continuous
 62
     0
370
     0
100
AcDbLine
 10
-68.33440862006644
 20
-114.2033457980831
 30
0.0
 11
-65.93189927956226
 21
-114.2033457980831
 31
0.0
1001
TOP
1070
     7
  0
LINE
  5
9CB
330
926
100
AcDbEntity
  8
P-0000
  6
Continuous
 62
     0
370
     0
100
AcDbLine
 10
-63.1079911333061
 20
-117.3428811263534
 30
0.0
 11
-63.1079911333061
 21
-114.4153975295534
 31
0.0
1001
TOP
1070
     7
  0
LINE
  5
9CC
330
926
100
AcDbEntity
  8
P-0000
  6
Continuous
 62
     0
370
     0
100
AcDbLine
 10
-64.2057974821061
 20
-112.4637417983535
 30
0.0
 11
-64.2057974821061
 21
-117.3428811263534
 31
0.0
1001
TOP
1070
     7
  0
LINE
  5
9CD
330
926
100
AcDbEntity
  8
P-0000
  6
Continuous
 62
     0
370
     0
100
AcDbLine
 10
-64.2057974821061
 20
-117.3428811263534
 30
0.0
 11
-63.1079911333061
 21
-117.3428811263534
 31
0.0
1001
TOP
1070
     7
  0
LINE
  5
9CE
330
926
100
AcDbEntity
  8
P-0000
  6
Continuous
 62
     0
370
     0
100
AcDbLine
 10
-63.1079911333061
 20
-112.4637417983535
 30
0.0
 11
-64.2057974821061
 21
-112.4637417983535
 31
0.0
1001
TOP
1070
     7
  0
ARC
  5
9CF
330
926
100
AcDbEntity
  8
P-0000
  6
Continuous
 62
     0
370
     0
100
AcDbCircle
 10
-61.5678898700862
 20
-114.1605808182826
 30
0.0
 40
1.700520210299701
100
AcDbArc
 50
93.77067625261986
 51
154.9129671807329
1001
TOP
1070
     7
  0
LINE
  5
9D0
330
926
100
AcDbEntity
  8
P-0000
  6
Continuous
 62
     0
370
     0
100
AcDbLine
 10
-63.1079911333061
 20
-113.4395696639535
 30
0.0
 11
-63.1079911333061
 21
-112.4637417983535
 31
0.0
1001
TOP
1070
     7
  0
LINE
  5
9D1
330
926
100
AcDbEntity
  8
P-0000
  6
Continuous
 62
     0
370
     0
100
AcDbLine
 10
-63.1079911333061
 20
-112.4637417983535
 30
0.0
 11
-63.1079911333061
 21
-113.4395696639535
 31
0.0
1001
TOP
1070
     7
  0
LINE
  5
9D2
330
926
100
AcDbEntity
  8
P-0000
  6
Continuous
 62
     0
370
     0
100
AcDbLine
 10
-59.39496610469735
 20
-117.3428811263534
 30
0.0
 11
-59.39496610469735
 21
-114.4153975295534
 31
0.0
1001
TOP
1070
     7
  0
LINE
  5
9D3
330
926
100
AcDbEntity
  8
P-0000
  6
Continuous
 62
     0
370
     0
100
AcDbLine
 10
-60.49277245349801
 20
-112.4637417983535
 30
0.0
 11
-60.49277245349801
 21
-117.3428811263534
 31
0.0
1001
TOP
1070
     7
  0
LINE
  5
9D4
330
926
100
AcDbEntity
  8
P-0000
  6
Continuous
 62
     0
370
     0
100
AcDbLine
 10
-60.49277245349801
 20
-117.3428811263534
 30
0.0
 11
-59.39496610469735
 21
-117.3428811263534
 31
0.0
1001
TOP
1070
     7
  0
ARC
  5
9D5
330
926
100
AcDbEntity
  8
P-0000
  6
Continuous
 62
     0
370
     0
100
AcDbCircle
 10
-57.8548648414781
 20
-114.1605808182826
 30
0.0
 40
1.700520210299701
100
AcDbArc
 50
93.77067625261986
 51
154.9129671807329
1001
TOP
1070
     7
  0
ARC
  5
9D6
330
926
100
AcDbEntity
  8
P-0000
  6
Continuous
 62
     0
370
     0
100
AcDbCircle
 10
-57.51152735555913
 20
-115.7450893416161
 30
0.0
 40
2.30551986259622
100
AcDbArc
 50
89.97705113130741
 51
144.7782320142388
1001
TOP
1070
     7
  0
LINE
  5
9D7
330
926
100
AcDbEntity
  8
P-0000
  6
Continuous
 62
     0
370
     0
100
AcDbLine
 10
-59.39496610469735
 20
-113.4395696639535
 30
0.0
 11
-59.39496610469735
 21
-112.4637417983535
 31
0.0
1001
TOP
1070
     7
  0
LINE
  5
9D8
330
926
100
AcDbEntity
  8
P-0000
  6
Continuous
 62
     0
370
     0
100
AcDbLine
 10
-61.22362894667041
 20
-113.4395696639535
 30
0.0
 11
-61.22362894667041
 21
-112.4637417983535
 31
0.0
1001
TOP
1070
     7
  0
LINE
  5
9D9
330
926
100
AcDbEntity
  8
P-0000
  6
Continuous
 62
     0
370
     0
100
AcDbLine
 10
-59.39496610469735
 20
-112.4637417983535
 30
0.0
 11
-59.39496610469735
 21
-113.4395696639535
 31
0.0
1001
TOP
1070
     7
  0
LINE
  5
9DA
330
926
100
AcDbEntity
  8
P-0000
  6
Continuous
 62
     0
370
     0
100
AcDbLine
 10
-59.39496610469735
 20
-112.4637417983535
 30
0.0
 11
-60.49277245349801
 21
-112.4637417983535
 31
0.0
1001
TOP
1070
     7
  0
LINE
  5
9DB
330
926
100
AcDbEntity
  8
P-0000
  6
Continuous
 62
     0
370
     0
100
AcDbLine
 10
-57.5106039180623
 20
-113.4395696639535
 30
0.0
 11
-57.5106039180623
 21
-112.4637417983535
 31
0.0
1001
TOP
1070
     7
  0
LINE
  5
9DC
330
926
100
AcDbEntity
  8
P-0000
  6
Continuous
 62
     0
370
     0
100
AcDbLine
 10
-57.96669652788599
 20
-112.4637417983535
 30
0.0
 11
-57.5106039180623
 21
-112.4637417983535
 31
0.0
1001
TOP
1070
     7
  0
ARC
  5
9DD
330
926
100
AcDbEntity
  8
P-0000
  6
Continuous
 62
     0
370
     0
100
AcDbCircle
 10
-54.83784997234598
 20
-114.7813329791535
 30
0.0
 40
1.463741798400002
100
AcDbArc
 50
194.7813103722914
 51
323.9519363800095
1001
TOP
1070
     7
  0
ARC
  5
9DE
330
926
100
AcDbEntity
  8
P-0000
  6
Continuous
 62
     0
370
     0
100
AcDbCircle
 10
-54.83772284325443
 20
-114.7246775057507
 30
0.0
 40
1.309503544180366
100
AcDbArc
 50
23.46032899247153
 51
156.5396710075285
1001
TOP
1070
     7
  0
LINE
  5
9DF
330
926
100
AcDbEntity
  8
P-0000
  6
Continuous
 62
     0
370
     0
100
AcDbLine
 10
-56.03897751350586
 20
-114.2033457980831
 30
0.0
 11
-53.63646817300168
 21
-114.2033457980831
 31
0.0
1001
TOP
1070
     7
  0
HATCH
  5
9E0
330
926
100
AcDbEntity
  8
P-0000
  6
Continuous
 62
     0
 48
35.0
100
AcDbHatch
 10
0.0
 20
0.0
 30
0.0
210
0.0
220
0.0
230
1.0
  2
SOLID
 70
     1
 71
     0
 91
        4
 92
        7
 72
     1
 73
     1
 93
        5
 10
-94.03728088778988
 20
-125.2235249353502
 42
0.0
 10
-92.28966119657778
 20
-123.3760412617837
 42
-0.2526825286644691
 10
-94.10033621549056
 20
-118.3093524326913
 42
-0.2365496875282557
 10
-91.7614140375581
 20
-113.911556758355
 42
-0.3189181398811662
 10
-83.35033676430748
 20
-113.9115567583528
 42
0.9456749006874259
 97
        0
 92
       23
 72
     1
 73
     1
 93
        3
 10
-91.68042069830406
 20
-122.9606500129607
 42
0.0
 10
-90.71117445104736
 20
-121.9083255159412
 42
-0.9367032511192487
 10
-85.2261793413445
 20
-115.9531879682591
 42
0.991293729556146
 97
        0
 92
       23
 72
     1
 73
     1
 93
        3
 10
-91.37763107440111
 20
-123.2387738267226
 42
0.9912937295513184
 10
-84.92338971744155
 20
-116.2313117820216
 42
0.0
 10
-85.89263596469553
 20
-117.283636279041
 42
-0.9367032511219315
 97
        0
 92
        7
 72
     1
 73
     1
 93
        4
 10
-83.89875797035076
 20
-124.2622092592821
 42
-0.3807594385329842
 10
-93.37171269560638
 20
-125.8488038677993
 42
0.9590989174885454
 10
-82.90217148550416
 20
-114.320869039862
 42
0.0
 10
-84.48030571869711
 20
-115.9543842828061
 42
-0.3704192144445529
 97
        0
 75
     0
 76
     1
 47
0.0537802133905057
 98
        4
 10
-95.28899908413293
 20
-117.9121948253558
 10
-92.51811574438377
 20
-119.1148667670212
 10
-84.53359595731015
 20
-120.3175387086872
 10
-82.20022029262763
 20
-118.4953086011877
1001
TOP
1070
     3
  0
HATCH
  5
9E1
330
926
100
AcDbEntity
  8
P-0000
  6
Continuous
 62
     0
 48
35.0
100
AcDbHatch
 10
0.0
 20
0.0
 30
0.0
210
0.0
220
0.0
230
1.0
  2
SOLID
 70
     1
 71
     0
 91
        9
 92
        7
 72
     1
 73
     1
 93
        6
 10
-74.57486599500573
 20
-110.9999999999531
 42
0.0
 10
-77.50234959180421
 20
-110.9999999999531
 42
0.0
 10
-77.50234959180485
 20
-117.3428811263533
 42
0.0
 10
-74.57486599500573
 20
-117.3428811263533
 42
0.4142135623732426
 10
-72.13529633100447
 20
-114.9033114623533
 42
0.0
 10
-72.13529633100447
 20
-113.4395696639534
 42
0.4142135623732917
 97
        0
 92
       22
 72
     1
 73
     1
 93
        6
 10
-76.40454324300486
 20
-112.0978063487534
 42
0.0
 10
-74.81882296140435
 20
-112.0978063487534
 42
-0.4142135623733217
 10
-73.23310267980318
 20
-113.6835266303533
 42
0.0
 10
-73.23310267980318
 20
-114.6593544959533
 42
-0.4142135623732008
 10
-74.81882296140369
 20
-116.2450747775532
 42
0.0
 10
-76.40454324300486
 20
-116.2450747775532
 42
0.0
 97
        0
 92
        7
 72
     0
 73
     1
 93
        4
 10
-71.40252799090825
 20
-117.3428811263533
 10
-70.30472164210562
 20
-117.3428811263534
 10
-70.30472164210562
 20
-112.4637417983535
 10
-71.4025279909076
 20
-112.4637417983534
 97
        0
 92
        7
 72
     1
 73
     1
 93
        4
 10
-68.5485827758606
 20
-115.1547779670432
 42
0.0
 10
-64.70670638553077
 20
-115.1547779670432
 42
19.52759892169242
 10
-64.80845491031548
 20
-115.6426918998433
 42
0.0
 10
-65.94981123892972
 20
-115.6426918998433
 42
-0.6319943824460191
 97
        0
 92
       22
 72
     1
 73
     1
 93
        2
 10
-68.33440862006513
 20
-114.2033457980811
 42
-0.6561238478654379
 10
-65.93189927956356
 20
-114.2033457980831
 42
0.0
 97
        0
 92
        7
 72
     1
 73
     1
 93
        9
 10
-63.1079911333061
 20
-114.4153975295551
 42
-0.2437791817823871
 10
-61.22362894667041
 20
-113.4395696639536
 42
0.0
 10
-61.22362894667041
 20
-112.4637417983535
 42
0.0
 10
-61.6797215564895
 20
-112.4637417983534
 42
0.2732984134248683
 10
-63.1079911333061
 20
-113.4395696639525
 42
0.0
 10
-63.1079911333061
 20
-112.4637417983534
 42
0.0
 10
-64.20579748210546
 20
-112.4637417983534
 42
0.0
 10
-64.2057974821061
 20
-117.3428811263532
 42
0.0
 10
-63.10799113330676
 20
-117.3428811263532
 42
0.0
 97
        0
 92
        7
 72
     1
 73
     1
 93
        9
 10
-60.49277245349736
 20
-117.3428811263533
 42
0.0
 10
-59.3949661046967
 20
-117.3428811263534
 42
0.0
 10
-59.39496610469735
 20
-114.4153975295523
 42
-0.2437791817821463
 10
-57.5106039180623
 20
-113.4395696639536
 42
0.0
 10
-57.5106039180623
 20
-112.4637417983535
 42
0.0
 10
-57.9666965278814
 20
-112.4637417983534
 42
0.2732984134246251
 10
-59.39496610469735
 20
-113.4395696639511
 42
0.0
 10
-59.39496610469735
 20
-112.4637417983534
 42
0.0
 10
-60.49277245349801
 20
-112.4637417983535
 42
0.0
 97
        0
 92
        7
 72
     1
 73
     1
 93
        4
 10
-52.41127527897084
 20
-115.1547779670432
 42
19.52759892169242
 10
-52.51302380375555
 20
-115.6426918998433
 42
0.0
 10
-53.65438013237048
 20
-115.6426918998433
 42
-0.631994382445661
 10
-56.25315166930069
 20
-115.1547779670432
 42
0.0
 97
        0
 92
       22
 72
     1
 73
     1
 93
        2
 10
-56.03897751350586
 20
-114.2033457980832
 42
-0.6561238478663365
 10
-53.63646817300299
 20
-114.2033457980831
 42
0.0
 97
        0
 75
     0
 76
     1
 47
0.1054092179442032
 98
        9
 10
-77.30509361450609
 20
-111.652214293695
 10
-77.30509361450609
 20
-111.652214293695
 10
-70.92517770860029
 20
-114.0180230722183
 10
-68.97004263540313
 20
-114.9952049659171
 10
-68.97004263540313
 20
-114.9952049659171
 10
-63.41334181494616
 20
-115.2523580455926
 10
-60.12048197631124
 20
-115.1494968773671
 10
-55.90150541812637
 20
-114.429468063343
 10
-55.90150541812637
 20
-114.429468063343
1001
TOP
1070
     5
  0
MTEXT
  5
9E2
330
926
100
AcDbEntity
  8
P-0000
  6
Continuous
 62
     0
100
AcDbMText
 10
-77.50752909622914
 20
-125.390962447158
 30
0.0
 40
1.5
 41
15.89275572328779
 71
     1
 72
     5
  1
{\f@Arial Unicode MS|b0|i0|c0|p34;\H2x;Group\H0.5x; srl}
  7
ROMANS
 73
     1
 44
1.0
1001
TOP
1070
     7
1001
ACAD
1000
MTEXTBEGIN
1070
    73
1070
     1
1070
    44
1040
1.0
1070
    74
1070
     0
1000
MTEXTEND
  0
LINE
  5
9E3
330
926
100
AcDbEntity
  8
P-0000
  6
Continuous
 62
     0
100
AcDbLine
 10
-60.31400746853627
 20
-118.6190131723036
 30
0.0
 11
-65.10163245619105
 21
-118.6190131723036
 31
0.0
1001
TOP
1070
     7
  0
LINE
  5
9E4
330
926
100
AcDbEntity
  8
P-0000
  6
Continuous
 62
     0
100
AcDbLine
 10
-65.10163245619105
 20
-118.6190131723036
 30
0.0
 11
-60.31400746853627
 21
-118.6190131723036
 31
0.0
1001
TOP
1070
     7
  0
LINE
  5
9E5
330
926
100
AcDbEntity
  8
P-0000
  6
Continuous
 62
     0
100
AcDbLine
 10
-60.60899754084211
 20
-122.4817401737899
 30
0.0
 11
-59.78513540320495
 21
-121.2719230596353
 31
0.0
1001
TOP
1070
     7
  0
LINE
  5
9E6
330
926
100
AcDbEntity
  8
P-0000
  6
Continuous
 62
     0
100
AcDbLine
 10
-60.60899754084211
 20
-122.4817401737899
 30
0.0
 11
-59.78513540320495
 21
-121.2719230596353
 31
0.0
1001
TOP
1070
     7
  0
LINE
  5
9E7
330
926
100
AcDbEntity
  8
P-0000
  6
Continuous
 62
     0
100
AcDbLine
 10
-60.60899754084211
 20
-122.4817401737899
 30
0.0
 11
-58.9612732655678
 21
-122.4817401737899
 31
0.0
1001
TOP
1070
     7
  0
LINE
  5
9E8
330
926
100
AcDbEntity
  8
P-0000
  6
Continuous
 62
     0
100
AcDbLine
 10
-58.9612732655678
 20
-122.4817401737899
 30
0.0
 11
-60.60899754084211
 21
-122.4817401737899
 31
0.0
1001
TOP
1070
     7
  0
LINE
  5
9E9
330
926
100
AcDbEntity
  8
P-0000
  6
Continuous
 62
     0
100
AcDbLine
 10
-63.4872398605242
 20
-124.055443766988
 30
0.0
 11
-56.08303094588571
 21
-124.055443766988
 31
0.0
1001
TOP
1070
     7
  0
LINE
  5
9EA
330
926
100
AcDbEntity
  8
P-0000
  6
Continuous
 62
     0
100
AcDbLine
 10
-63.4872398605242
 20
-124.055443766988
 30
0.0
 11
-56.08303094588571
 21
-124.055443766988
 31
0.0
1001
TOP
1070
     7
  0
LINE
  5
9EB
330
926
100
AcDbEntity
  8
P-0000
  6
Continuous
 62
     0
100
AcDbLine
 10
-61.88263947056615
 20
-120.9225027431548
 30
0.0
 11
-60.31400746853627
 21
-118.6190131723036
 31
0.0
1001
TOP
1070
     7
  0
LINE
  5
9EC
330
926
100
AcDbEntity
  8
P-0000
  6
Continuous
 62
     0
100
AcDbLine
 10
-61.88263947056615
 20
-120.9225027431548
 30
0.0
 11
-60.31400746853627
 21
-118.6190131723036
 31
0.0
1001
TOP
1070
     7
  0
LINE
  5
9ED
330
926
100
AcDbEntity
  8
P-0000
  6
Continuous
 62
     0
100
AcDbLine
 10
-63.4872398605242
 20
-124.055443766988
 30
0.0
 11
-59.78513540320495
 21
-118.6190131723036
 31
0.0
1001
TOP
1070
     7
  0
LINE
  5
9EE
330
926
100
AcDbEntity
  8
P-0000
  6
Continuous
 62
     0
100
AcDbLine
 10
-59.78513540320495
 20
-118.6190131723036
 30
0.0
 11
-63.4872398605242
 21
-124.055443766988
 31
0.0
1001
TOP
1070
     7
  0
LINE
  5
9EF
330
926
100
AcDbEntity
  8
P-0000
  6
Continuous
 62
     0
100
AcDbLine
 10
-72.47806497115667
 20
-118.6190131723036
 30
0.0
 11
-68.77596051383742
 21
-118.6190131723036
 31
0.0
1001
TOP
1070
     7
  0
LINE
  5
9F0
330
926
100
AcDbEntity
  8
P-0000
  6
Continuous
 62
     0
100
AcDbLine
 10
-72.47806497115667
 20
-118.6190131723036
 30
0.0
 11
-68.77596051383742
 21
-118.6190131723036
 31
0.0
1001
TOP
1070
     7
  0
LINE
  5
9F1
330
926
100
AcDbEntity
  8
P-0000
  6
Continuous
 62
     0
100
AcDbLine
 10
-71.94919290582532
 20
-124.055443766988
 30
0.0
 11
-68.24708844850608
 21
-118.6190131723036
 31
0.0
1001
TOP
1070
     7
  0
LINE
  5
9F2
330
926
100
AcDbEntity
  8
P-0000
  6
Continuous
 62
     0
100
AcDbLine
 10
-72.47806497115667
 20
-124.055443766988
 30
0.0
 11
-68.77596051383742
 21
-118.6190131723036
 31
0.0
1001
TOP
1070
     7
  0
LINE
  5
9F3
330
926
100
AcDbEntity
  8
P-0000
  6
Continuous
 62
     0
100
AcDbLine
 10
-71.94919290582532
 20
-124.055443766988
 30
0.0
 11
-68.24708844850608
 21
-118.6190131723036
 31
0.0
1001
TOP
1070
     7
  0
LINE
  5
9F4
330
926
100
AcDbEntity
  8
P-0000
  6
Continuous
 62
     0
100
AcDbLine
 10
-68.77596051383742
 20
-118.6190131723036
 30
0.0
 11
-72.47806497115667
 21
-124.055443766988
 31
0.0
1001
TOP
1070
     7
  0
LINE
  5
9F5
330
926
100
AcDbEntity
  8
P-0000
  6
Continuous
 62
     0
100
AcDbLine
 10
-71.94919290582532
 20
-124.055443766988
 30
0.0
 11
-64.54498399118683
 21
-124.055443766988
 31
0.0
1001
TOP
1070
     7
  0
LINE
  5
9F6
330
926
100
AcDbEntity
  8
P-0000
  6
Continuous
 62
     0
100
AcDbLine
 10
-64.54498399118683
 20
-124.055443766988
 30
0.0
 11
-71.94919290582532
 21
-124.055443766988
 31
0.0
1001
TOP
1070
     7
  0
LINE
  5
9F7
330
926
100
AcDbEntity
  8
P-0000
  6
Continuous
 62
     0
100
AcDbLine
 10
-77.50234959180421
 20
-118.6190131723036
 30
0.0
 11
-75.2546433141461
 21
-118.6190131723036
 31
0.0
1001
TOP
1070
     7
  0
LINE
  5
9F8
330
926
100
AcDbEntity
  8
P-0000
  6
Continuous
 62
     0
100
AcDbLine
 10
-77.50234959180421
 20
-124.055443766988
 30
0.0
 11
-75.2546433141461
 21
-124.055443766988
 31
0.0
1001
TOP
1070
     7
  0
LINE
  5
9F9
330
926
100
AcDbEntity
  8
P-0000
  6
Continuous
 62
     0
100
AcDbLine
 10
-75.2546433141461
 20
-124.055443766988
 30
0.0
 11
-77.50234959180421
 21
-124.055443766988
 31
0.0
1001
TOP
1070
     7
  0
LINE
  5
9FA
330
926
100
AcDbEntity
  8
P-0000
  6
Continuous
 62
     0
100
AcDbLine
 10
-77.50234959180421
 20
-118.6190131723036
 30
0.0
 11
-75.2546433141461
 21
-118.6190131723036
 31
0.0
1001
TOP
1070
     7
  0
LINE
  5
9FB
330
926
100
AcDbEntity
  8
P-0000
  6
Continuous
 62
     0
100
AcDbLine
 10
-77.50234959180421
 20
-124.055443766988
 30
0.0
 11
-77.50234959180421
 21
-118.6190131723036
 31
0.0
1001
TOP
1070
     7
  0
LINE
  5
9FC
330
926
100
AcDbEntity
  8
P-0000
  6
Continuous
 62
     0
100
AcDbLine
 10
-77.50234959180421
 20
-124.055443766988
 30
0.0
 11
-77.50234959180421
 21
-118.6190131723036
 31
0.0
1001
TOP
1070
     7
  0
LINE
  5
9FD
330
926
100
AcDbEntity
  8
P-0000
  6
Continuous
 62
     0
100
AcDbLine
 10
-72.47806497115667
 20
-121.7664203586998
 30
0.0
 11
-73.8663541426514
 21
-124.055443766988
 31
0.0
1001
TOP
1070
     7
  0
LINE
  5
9FE
330
926
100
AcDbEntity
  8
P-0000
  6
Continuous
 62
     0
100
AcDbLine
 10
-72.47806497115667
 20
-121.7664203586998
 30
0.0
 11
-72.47806497115667
 21
-124.055443766988
 31
0.0
1001
TOP
1070
     7
  0
LINE
  5
9FF
330
926
100
AcDbEntity
  8
P-0000
  6
Continuous
 62
     0
100
AcDbLine
 10
-72.47806497115667
 20
-121.7664203586998
 30
0.0
 11
-73.8663541426514
 21
-124.055443766988
 31
0.0
1001
TOP
1070
     7
  0
LINE
  5
A00
330
926
100
AcDbEntity
  8
P-0000
  6
Continuous
 62
     0
100
AcDbLine
 10
-72.47806497115667
 20
-124.055443766988
 30
0.0
 11
-72.47806497115667
 21
-121.7664203586998
 31
0.0
1001
TOP
1070
     7
  0
LINE
  5
A01
330
926
100
AcDbEntity
  8
P-0000
  6
Continuous
 62
     0
100
AcDbLine
 10
-75.2546433141461
 20
-124.055443766988
 30
0.0
 11
-75.2546433141461
 21
-121.7664203586998
 31
0.0
1001
TOP
1070
     7
  0
LINE
  5
A02
330
926
100
AcDbEntity
  8
P-0000
  6
Continuous
 62
     0
100
AcDbLine
 10
-75.2546433141461
 20
-121.7664203586998
 30
0.0
 11
-75.2546433141461
 21
-124.055443766988
 31
0.0
1001
TOP
1070
     7
  0
LINE
  5
A03
330
926
100
AcDbEntity
  8
P-0000
  6
Continuous
 62
     0
100
AcDbLine
 10
-75.2546433141461
 20
-121.7664203586998
 30
0.0
 11
-73.8663541426514
 21
-124.055443766988
 31
0.0
1001
TOP
1070
     7
  0
LINE
  5
A04
330
926
100
AcDbEntity
  8
P-0000
  6
Continuous
 62
     0
100
AcDbLine
 10
-73.8663541426514
 20
-124.055443766988
 30
0.0
 11
-75.2546433141461
 21
-121.7664203586998
 31
0.0
1001
TOP
1070
     7
  0
LINE
  5
A05
330
926
100
AcDbEntity
  8
P-0000
  6
Continuous
 62
     0
100
AcDbLine
 10
-72.47806497115667
 20
-118.6190131723036
 30
0.0
 11
-73.8663541426514
 21
-120.9080365805917
 31
0.0
1001
TOP
1070
     7
  0
LINE
  5
A06
330
926
100
AcDbEntity
  8
P-0000
  6
Continuous
 62
     0
100
AcDbLine
 10
-73.8663541426514
 20
-120.9080365805917
 30
0.0
 11
-72.47806497115667
 21
-118.6190131723036
 31
0.0
1001
TOP
1070
     7
  0
LINE
  5
A07
330
926
100
AcDbEntity
  8
P-0000
  6
Continuous
 62
     0
100
AcDbLine
 10
-75.2546433141461
 20
-118.6190131723036
 30
0.0
 11
-73.8663541426514
 21
-120.9080365805917
 31
0.0
1001
TOP
1070
     7
  0
LINE
  5
A08
330
926
100
AcDbEntity
  8
P-0000
  6
Continuous
 62
     0
100
AcDbLine
 10
-75.2546433141461
 20
-118.6190131723036
 30
0.0
 11
-73.8663541426514
 21
-120.9080365805917
 31
0.0
1001
TOP
1070
     7
  0
ELLIPSE
  5
A09
330
926
100
AcDbEntity
  8
P-0000
  6
Continuous
 62
     0
100
AcDbEllipse
 10
-65.10163245619105
 20
-120.0496528024836
 30
0.0
 11
-0.0000000000000277
 21
1.430639630180138
 31
0.0
210
0.0
220
0.0
230
-1.0
 40
0.9241881291669729
 41
4.077362244994374
 42
6.283185307179586
1001
TOP
1070
     7
  0
LINE
  5
A0A
330
926
100
AcDbEntity
  8
P-0000
  6
Continuous
 62
     0
100
AcDbLine
 10
-64.54498399118683
 20
-124.055443766988
 30
0.0
 11
-68.24708844850608
 21
-118.6190131723036
 31
0.0
1001
TOP
1070
     7
  0
LINE
  5
A0B
330
926
100
AcDbEntity
  8
P-0000
  6
Continuous
 62
     0
100
AcDbLine
 10
-68.24708844850608
 20
-118.6190131723036
 30
0.0
 11
-64.54498399118683
 21
-124.055443766988
 31
0.0
1001
TOP
1070
     7
  0
ELLIPSE
  5
A0C
330
926
100
AcDbEntity
  8
P-0000
  6
Continuous
 62
     0
100
AcDbEllipse
 10
-65.10163245619105
 20
-120.0496528024836
 30
0.0
 11
0.0000000000000073
 21
1.430639630180138
 31
0.0
210
0.0
220
0.0
230
1.0
 40
0.9241881291669608
 41
0.0000000000000056
 42
2.205823062185215
1001
TOP
1070
     7
  0
LINE
  5
A0D
330
926
100
AcDbEntity
  8
P-0000
  6
Continuous
 62
     0
100
AcDbLine
 10
-64.01611192585551
 20
-124.055443766988
 30
0.0
 11
-66.16606131471133
 21
-120.8983068549025
 31
0.0
1001
TOP
1070
     7
  0
LINE
  5
A0E
330
926
100
AcDbEntity
  8
P-0000
  6
Continuous
 62
     0
100
AcDbLine
 10
-66.16606131471133
 20
-120.8983068549025
 30
0.0
 11
-64.01611192585551
 21
-124.055443766988
 31
0.0
1001
TOP
1070
     7
  0
LINE
  5
A0F
330
926
100
AcDbEntity
  8
P-0000
  6
Continuous
 62
     0
100
AcDbLine
 10
-67.42322631086892
 20
-122.4817401737899
 30
0.0
 11
-68.24708844850608
 21
-121.2719230596353
 31
0.0
1001
TOP
1070
     7
  0
LINE
  5
A10
330
926
100
AcDbEntity
  8
P-0000
  6
Continuous
 62
     0
100
AcDbLine
 10
-68.24708844850608
 20
-121.2719230596353
 30
0.0
 11
-67.42322631086892
 21
-122.4817401737899
 31
0.0
1001
TOP
1070
     7
  0
LINE
  5
A11
330
926
100
AcDbEntity
  8
P-0000
  6
Continuous
 62
     0
100
AcDbLine
 10
-69.07095058614323
 20
-122.4817401737899
 30
0.0
 11
-68.24708844850608
 21
-121.2719230596353
 31
0.0
1001
TOP
1070
     7
  0
LINE
  5
A12
330
926
100
AcDbEntity
  8
P-0000
  6
Continuous
 62
     0
100
AcDbLine
 10
-69.07095058614323
 20
-122.4817401737899
 30
0.0
 11
-68.24708844850608
 21
-121.2719230596353
 31
0.0
1001
TOP
1070
     7
  0
LINE
  5
A13
330
926
100
AcDbEntity
  8
P-0000
  6
Continuous
 62
     0
100
AcDbLine
 10
-69.07095058614323
 20
-122.4817401737899
 30
0.0
 11
-67.42322631086892
 21
-122.4817401737899
 31
0.0
1001
TOP
1070
     7
  0
LINE
  5
A14
330
926
100
AcDbEntity
  8
P-0000
  6
Continuous
 62
     0
100
AcDbLine
 10
-67.42322631086892
 20
-122.4817401737899
 30
0.0
 11
-69.07095058614323
 21
-122.4817401737899
 31
0.0
1001
TOP
1070
     7
  0
LINE
  5
A15
330
926
100
AcDbEntity
  8
P-0000
  6
Continuous
 62
     0
100
AcDbLine
 10
-64.01611192585551
 20
-124.055443766988
 30
0.0
 11
-62.44747992382563
 21
-121.7519541961368
 31
0.0
1001
TOP
1070
     7
  0
LINE
  5
A16
330
926
100
AcDbEntity
  8
P-0000
  6
Continuous
 62
     0
100
AcDbLine
 10
-64.01611192585551
 20
-124.055443766988
 30
0.0
 11
-62.44747992382563
 21
-121.7519541961368
 31
0.0
1001
TOP
1070
     7
  0
LINE
  5
A17
330
926
100
AcDbEntity
  8
P-0000
  6
Continuous
 62
     0
100
AcDbLine
 10
-62.44747992382563
 20
-121.7519541961368
 30
0.0
 11
-63.46925566656012
 21
-121.7519541961368
 31
0.0
1001
TOP
1070
     7
  0
LINE
  5
A18
330
926
100
AcDbEntity
  8
P-0000
  6
Continuous
 62
     0
100
AcDbLine
 10
-63.46925566656012
 20
-120.9225027431548
 30
0.0
 11
-61.88263947056615
 21
-120.9225027431548
 31
0.0
1001
TOP
1070
     7
  0
LINE
  5
A19
330
926
100
AcDbEntity
  8
P-0000
  6
Continuous
 62
     0
100
AcDbLine
 10
-62.44747992382563
 20
-121.7519541961368
 30
0.0
 11
-63.46925566656012
 21
-121.7519541961368
 31
0.0
1001
TOP
1070
     7
  0
LINE
  5
A1A
330
926
100
AcDbEntity
  8
P-0000
  6
Continuous
 62
     0
100
AcDbLine
 10
-61.88263947056615
 20
-120.9225027431548
 30
0.0
 11
-63.46925566656012
 21
-120.9225027431548
 31
0.0
1001
TOP
1070
     7
  0
ELLIPSE
  5
A1B
330
926
100
AcDbEntity
  8
P-0000
  6
Continuous
 62
     0
100
AcDbEllipse
 10
-63.46925566656012
 20
-121.3372284696458
 30
0.0
 11
0.0000000000000016
 21
0.4147257264910956
 31
0.0
210
0.0
220
0.0
230
-1.0
 40
0.9241881291669779
 41
3.141592653589793
 42
6.283185307179586
1001
TOP
1070
     7
  0
ELLIPSE
  5
A1C
330
926
100
AcDbEntity
  8
P-0000
  6
Continuous
 62
     0
100
AcDbEllipse
 10
-63.46925566656012
 20
-121.3372284696458
 30
0.0
 11
-0.0000000000000201
 21
0.4147257264910956
 31
0.0
210
0.0
220
0.0
230
1.0
 40
0.9241881291669438
 41
-0.0000000000000524
 42
3.14159265358974
1001
TOP
1070
     7
  0
ELLIPSE
  5
A1D
330
926
100
AcDbEntity
  8
P-0000
  6
Continuous
 62
     0
100
AcDbEllipse
 10
-55.55415888055438
 20
-120.3357807285197
 30
0.0
 11
-0.0000000000001066
 21
0.6294814372792618
 31
0.0
210
0.0
220
0.0
230
1.0
 40
0.9241881291669697
 41
3.141592653589633
 42
6.283185307179426
1001
TOP
1070
     7
  0
ELLIPSE
  5
A1E
330
926
100
AcDbEntity
  8
P-0000
  6
Continuous
 62
     0
100
AcDbEllipse
 10
-55.55415888055438
 20
-120.3357807285197
 30
0.0
 11
0.0000000000000215
 21
0.6294814372792617
 31
0.0
210
0.0
220
0.0
230
-1.0
 40
0.9241881291669697
 41
0.0
 42
3.141592653589793
1001
TOP
1070
     7
  0
ELLIPSE
  5
A1F
330
926
100
AcDbEntity
  8
P-0000
  6
Continuous
 62
     0
100
AcDbEllipse
 10
-55.55415888055438
 20
-120.3357807285197
 30
0.0
 11
0.0000000000000215
 21
1.716767556216168
 31
0.0
210
0.0
220
0.0
230
1.0
 40
0.9241881291669681
 41
3.141592653589806
 42
6.283185307179599
1001
TOP
1070
     7
  0
ELLIPSE
  5
A20
330
926
100
AcDbEntity
  8
P-0000
  6
Continuous
 62
     0
100
AcDbEllipse
 10
-55.55415888055438
 20
-120.3357807285197
 30
0.0
 11
0.0000000000000018
 21
1.716767556216167
 31
0.0
210
0.0
220
0.0
230
-1.0
 40
0.9241881291669688
 41
0.0
 42
3.141592653589793
1001
TOP
1070
     7
  0
LINE
  5
A21
330
926
100
AcDbEntity
  8
P-0000
  6
Continuous
 62
     0
100
AcDbLine
 10
-59.78513540320495
 20
-121.2719230596353
 30
0.0
 11
-58.9612732655678
 21
-122.4817401737899
 31
0.0
1001
TOP
1070
     7
  0
LINE
  5
A22
330
926
100
AcDbEntity
  8
P-0000
  6
Continuous
 62
     0
100
AcDbLine
 10
-58.9612732655678
 20
-122.4817401737899
 30
0.0
 11
-59.78513540320495
 21
-121.2719230596353
 31
0.0
1001
TOP
1070
     7
  0
LINE
  5
A23
330
926
100
AcDbEntity
  8
P-0000
  6
Continuous
 62
     0
100
AcDbLine
 10
-56.08303094588571
 20
-124.055443766988
 30
0.0
 11
-59.78513540320495
 21
-118.6190131723036
 31
0.0
1001
TOP
1070
     7
  0
LINE
  5
A24
330
926
100
AcDbEntity
  8
P-0000
  6
Continuous
 62
     0
100
AcDbLine
 10
-55.55415888055438
 20
-124.055443766988
 30
0.0
 11
-59.25626333787364
 21
-118.6190131723036
 31
0.0
1001
TOP
1070
     7
  0
LINE
  5
A25
330
926
100
AcDbEntity
  8
P-0000
  6
Continuous
 62
     0
100
AcDbLine
 10
-55.55415888055438
 20
-124.055443766988
 30
0.0
 11
-59.25626333787364
 21
-118.6190131723036
 31
0.0
1001
TOP
1070
     7
  0
LINE
  5
A26
330
926
100
AcDbEntity
  8
P-0000
  6
Continuous
 62
     0
100
AcDbLine
 10
-56.08303094588571
 20
-124.055443766988
 30
0.0
 11
-59.78513540320495
 21
-118.6190131723036
 31
0.0
1001
TOP
1070
     7
  0
LINE
  5
A27
330
926
100
AcDbEntity
  8
P-0000
  6
Continuous
 62
     0
100
AcDbLine
 10
-55.55415888055438
 20
-124.055443766988
 30
0.0
 11
-55.55415888055438
 21
-122.0525482847359
 31
0.0
1001
TOP
1070
     7
  0
LINE
  5
A28
330
926
100
AcDbEntity
  8
P-0000
  6
Continuous
 62
     0
100
AcDbLine
 10
-55.55415888055438
 20
-122.0525482847359
 30
0.0
 11
-55.55415888055438
 21
-124.055443766988
 31
0.0
1001
TOP
1070
     7
  0
LINE
  5
A29
330
926
100
AcDbEntity
  8
P-0000
  6
Continuous
 62
     0
100
AcDbLine
 10
-59.25626333787364
 20
-118.6190131723036
 30
0.0
 11
-55.55415888055438
 21
-118.6190131723036
 31
0.0
1001
TOP
1070
     7
  0
LINE
  5
A2A
330
926
100
AcDbEntity
  8
P-0000
  6
Continuous
 62
     0
100
AcDbLine
 10
-59.25626333787364
 20
-118.6190131723036
 30
0.0
 11
-55.55415888055438
 21
-118.6190131723036
 31
0.0
1001
TOP
1070
     7
  0
LINE
  5
A2B
330
926
100
AcDbEntity
  8
P-0000
  6
Continuous
 62
     0
100
AcDbLine
 10
-55.55415888055438
 20
-119.7062992912404
 30
0.0
 11
-56.41148833382832
 21
-119.7062992912404
 31
0.0
1001
TOP
1070
     7
  0
LINE
  5
A2C
330
926
100
AcDbEntity
  8
P-0000
  6
Continuous
 62
     0
100
AcDbLine
 10
-56.41148833382832
 20
-119.7062992912404
 30
0.0
 11
-55.55415888055438
 21
-119.7062992912404
 31
0.0
1001
TOP
1070
     7
  0
LINE
  5
A2D
330
926
100
AcDbEntity
  8
P-0000
  6
Continuous
 62
     0
100
AcDbLine
 10
-55.55415888055438
 20
-120.9652621657989
 30
0.0
 11
-56.41148833382832
 21
-119.7062992912404
 31
0.0
1001
TOP
1070
     7
  0
LINE
  5
A2E
330
926
100
AcDbEntity
  8
P-0000
  6
Continuous
 62
     0
100
AcDbLine
 10
-55.55415888055438
 20
-120.9652621657989
 30
0.0
 11
-56.41148833382832
 21
-119.7062992912404
 31
0.0
1001
TOP
1070
     7
  0
LINE
  5
A2F
330
926
100
AcDbEntity
  8
0
 62
     0
 48
35.0
100
AcDbLine
 10
7.000000000000056
 20
142.5
 30
0.0
 11
98.00000000000004
 21
142.5
 31
0.0
1001
TOP
1070
     1
  0
LINE
  5
A30
330
926
100
AcDbEntity
  8
0
 62
     0
100
AcDbLine
 10
7.000000000000056
 20
143.5
 30
0.0
 11
100.0
 21
143.5
 31
0.0
1001
TOP
1070
   256
  0
ARC
  5
A31
330
926
100
AcDbEntity
  8
0
 62
     0
 48
35.0
100
AcDbCircle
 10
98.00000000000004
 20
141.5
 30
0.0
 40
1.0
100
AcDbArc
 50
0.0
 51
90.0
1001
TOP
1070
     1
  0
LINE
  5
A32
330
926
100
AcDbEntity
  8
0
 62
     0
 48
35.0
100
AcDbLine
 10
99.00000000000003
 20
141.5
 30
0.0
 11
99.00000000000005
 21
113.5
 31
0.0
1001
TOP
1070
     1
  0
LINE
  5
A33
330
926
100
AcDbEntity
  8
0
 62
     0
100
AcDbLine
 10
100.0
 20
143.5
 30
0.0
 11
100.0
 21
113.5
 31
0.0
1001
TOP
1070
   256
  0
ARC
  5
A34
330
926
100
AcDbEntity
  8
0
 62
     0
 48
35.0
100
AcDbCircle
 10
98.00000000000006
 20
113.5
 30
0.0
 40
1.0
100
AcDbArc
 50
270.0
 51
0.0
1001
TOP
1070
     1
  0
ARC
  5
A35
330
926
100
AcDbEntity
  8
0
 62
     0
100
AcDbCircle
 10
98.00000000000006
 20
113.5
 30
0.0
 40
2.0
100
AcDbArc
 50
270.0
 51
0.0
1001
TOP
1070
   256
  0
LINE
  5
A36
330
926
100
AcDbEntity
  8
0
 62
     0
 48
35.0
100
AcDbLine
 10
98.00000000000006
 20
112.5
 30
0.0
 11
7.000000000000056
 21
112.5
 31
0.0
1001
TOP
1070
     1
  0
LINE
  5
A37
330
926
100
AcDbEntity
  8
0
 62
     0
100
AcDbLine
 10
98.00000000000006
 20
111.4999999999999
 30
0.0
 11
7.000000000000056
 21
111.5
 31
0.0
1001
TOP
1070
   256
  0
ARC
  5
A38
330
926
100
AcDbEntity
  8
0
 62
     0
 48
35.0
100
AcDbCircle
 10
7.000000000000056
 20
113.5
 30
0.0
 40
1.0
100
AcDbArc
 50
180.0
 51
270.0
1001
TOP
1070
     1
  0
ARC
  5
A39
330
926
100
AcDbEntity
  8
0
 62
     0
100
AcDbCircle
 10
7.000000000000056
 20
113.5
 30
0.0
 40
2.0
100
AcDbArc
 50
180.0
 51
270.0
1001
TOP
1070
   256
  0
LINE
  5
A3A
330
926
100
AcDbEntity
  8
0
 62
     0
 48
35.0
100
AcDbLine
 10
6.000000000000056
 20
113.5
 30
0.0
 11
6.000000000000056
 21
141.5
 31
0.0
1001
TOP
1070
     1
  0
LINE
  5
A3B
330
926
100
AcDbEntity
  8
0
 62
     0
100
AcDbLine
 10
5.000000000000056
 20
113.5
 30
0.0
 11
5.000000000000056
 21
141.5
 31
0.0
1001
TOP
1070
   256
  0
ARC
  5
A3C
330
926
100
AcDbEntity
  8
0
 62
     0
 48
35.0
100
AcDbCircle
 10
7.000000000000056
 20
141.5
 30
0.0
 40
1.0
100
AcDbArc
 50
90.0
 51
180.0
1001
TOP
1070
     1
  0
ARC
  5
A3D
330
926
100
AcDbEntity
  8
0
 62
     0
100
AcDbCircle
 10
7.000000000000056
 20
141.5
 30
0.0
 40
2.0
100
AcDbArc
 50
90.0
 51
180.0
1001
TOP
1070
   256
  0
MTEXT
  5
A3E
330
926
100
AcDbEntity
  8
0
 62
     0
100
AcDbMText
 10
29.58535811428735
 20
135.6251466847724
 30
0.0
 40
6.0
 41
54.93080742428151
 71
     1
 72
     5
  1
{\fVrinda|b0|i0|c0|p2;BAR CODE\PMontaggio}
 73
     1
 44
1.0
1001
TOP
1070
   256
1001
ACAD
1000
MTEXTBEGIN
1070
    73
1070
     1
1070
    44
1040
1.0
1070
    74
1070
     0
1000
MTEXTEND
  0
ENDBLK
  5
A42
330
926
100
AcDbEntity
  8
0
 62
     7
100
AcDbBlockEnd
  0
BLOCK
  5
AC6
330
AC5
100
AcDbEntity
  8
0
 62
     3
100
AcDbBlockBegin
  2
*D1
 70
     1
 10
0.0
 20
0.0
 30
0.0
  3
*D1
  1

  0
LINE
  5
AD2
330
AC5
100
AcDbEntity
  8
P-50F5
  6
Continuous
 62
     2
370
    -2
100
AcDbLine
 10
-269.988112174502
 20
1725.024740421182
 30
0.0
 11
-269.988112174502
 21
1403.009083881805
 31
0.0
  0
LINE
  5
AD3
330
AC5
100
AcDbEntity
  8
P-50F5
  6
Continuous
 62
     2
370
    -2
100
AcDbLine
 10
30.01188779549921
 20
1725.024740421182
 30
0.0
 11
30.01188779549919
 21
1403.009083881805
 31
0.0
  0
LINE
  5
AD4
330
AC5
100
AcDbEntity
  8
P-50F5
  6
Continuous
 62
     2
370
    -2
100
AcDbLine
 10
-249.988112174502
 20
1418.009083881805
 30
0.0
 11
10.01188779549919
 21
1418.009083881805
 31
0.0
  0
SOLID
  5
AD5
330
AC5
100
AcDbEntity
  8
P-50F5
  6
Continuous
 62
     2
100
AcDbTrace
 10
-249.988112174502
 20
1421.342417215138
 30
0.0
 11
-249.988112174502
 21
1414.675750548472
 31
0.0
 12
-269.988112174502
 22
1418.009083881805
 32
0.0
 13
-269.988112174502
 23
1418.009083881805
 33
0.0
  0
SOLID
  5
AD6
330
AC5
100
AcDbEntity
  8
P-50F5
  6
Continuous
 62
     2
100
AcDbTrace
 10
10.01188779549919
 20
1421.342417215138
 30
0.0
 11
10.01188779549919
 21
1414.675750548472
 31
0.0
 12
30.01188779549919
 22
1418.009083881805
 32
0.0
 13
30.01188779549919
 23
1418.009083881805
 33
0.0
  0
MTEXT
  5
AD7
330
AC5
100
AcDbEntity
  8
P-50F5
  6
Continuous
 62
     1
100
AcDbMText
 10
-119.9881121895014
 20
1438.235031403671
 30
0.0
 40
20.0
 41
0.0
 71
     5
 72
     1
  1
\A1;30
  7
Stile_Quota
 73
     1
 44
1.0
1001
ACAD
1000
MTEXTBEGIN
1070
    73
1070
     1
1070
    44
1040
1.0
1070
    74
1070
     0
1000
MTEXTEND
  0
POINT
  5
AD8
330
AC5
100
AcDbEntity
  8
Defpoints
  6
Continuous
 62
     0
100
AcDbPoint
 10
-269.988112174502
 20
1735.024740421183
 30
0.0
  0
POINT
  5
AD9
330
AC5
100
AcDbEntity
  8
Defpoints
  6
Continuous
 62
     0
100
AcDbPoint
 10
30.01188779549921
 20
1735.024740421183
 30
0.0
  0
POINT
  5
ADA
330
AC5
100
AcDbEntity
  8
Defpoints
  6
Continuous
 62
     0
100
AcDbPoint
 10
30.01188779549919
 20
1418.009083881805
 30
0.0
  0
ENDBLK
  5
AC7
330
AC5
100
AcDbEntity
  8
0
 62
     3
100
AcDbBlockEnd
  0
BLOCK
  5
ADE
330
ADD
100
AcDbEntity
  8
0
 62
     3
100
AcDbBlockBegin
  2
*D2
 70
     1
 10
0.0
 20
0.0
 30
0.0
  3
*D2
  1

  0
LINE
  5
136A
330
ADD
100
AcDbEntity
  8
P-50F5
  6
Continuous
 62
     2
370
    -2
100
AcDbLine
 10
-249.9881121766011
 20
1725.024740421084
 30
0.0
 11
-249.9881121766012
 21
1461.407049048018
 31
0.0
  0
LINE
  5
136B
330
ADD
100
AcDbEntity
  8
P-50F5
  6
Continuous
 62
     2
370
    -2
100
AcDbLine
 10
-269.988112174502
 20
1725.024740421182
 30
0.0
 11
-269.988112174502
 21
1461.407049048018
 31
0.0
  0
LINE
  5
136C
330
ADD
100
AcDbEntity
  8
P-50F5
  6
Continuous
 62
     2
370
    -2
100
AcDbLine
 10
-229.9881121766012
 20
1476.407049048018
 30
0.0
 11
-209.9881121766012
 21
1476.407049048018
 31
0.0
  0
LINE
  5
136D
330
ADD
100
AcDbEntity
  8
P-50F5
  6
Continuous
 62
     2
370
    -2
100
AcDbLine
 10
-289.988112174502
 20
1476.407049048018
 30
0.0
 11
-343.384613632228
 21
1476.407049048018
 31
0.0
  0
LINE
  5
136E
330
ADD
100
AcDbEntity
  8
P-50F5
  6
Continuous
 62
     2
370
    -2
100
AcDbLine
 10
-249.9881121766012
 20
1476.407049048018
 30
0.0
 11
-269.988112174502
 21
1476.407049048018
 31
0.0
  0
SOLID
  5
136F
330
ADD
100
AcDbEntity
  8
P-50F5
  6
Continuous
 62
     2
100
AcDbTrace
 10
-229.9881121766012
 20
1479.740382381351
 30
0.0
 11
-229.9881121766012
 21
1473.073715714685
 31
0.0
 12
-249.9881121766012
 22
1476.407049048018
 32
0.0
 13
-249.9881121766012
 23
1476.407049048018
 33
0.0
  0
SOLID
  5
1370
330
ADD
100
AcDbEntity
  8
P-50F5
  6
Continuous
 62
     2
100
AcDbTrace
 10
-289.988112174502
 20
1479.740382381351
 30
0.0
 11
-289.988112174502
 21
1473.073715714685
 31
0.0
 12
-269.988112174502
 22
1476.407049048018
 32
0.0
 13
-269.988112174502
 23
1476.407049048018
 33
0.0
  0
MTEXT
  5
1371
330
ADD
100
AcDbEntity
  8
P-50F5
  6
Continuous
 62
     1
100
AcDbMText
 10
-326.686362903365
 20
1496.407049048018
 30
0.0
 40
20.0
 41
0.0
 71
     5
 72
     1
  1
\A1;2
  7
Stile_Quota
 73
     1
 44
1.0
1001
ACAD
1000
MTEXTBEGIN
1070
    73
1070
     1
1070
    44
1040
1.0
1070
    74
1070
     0
1000
MTEXTEND
  0
POINT
  5
1372
330
ADD
100
AcDbEntity
  8
Defpoints
  6
Continuous
 62
     0
100
AcDbPoint
 10
-249.9881121766011
 20
1735.024740421084
 30
0.0
  0
POINT
  5
1373
330
ADD
100
AcDbEntity
  8
Defpoints
  6
Continuous
 62
     0
100
AcDbPoint
 10
-269.988112174502
 20
1735.024740421183
 30
0.0
  0
POINT
  5
1374
330
ADD
100
AcDbEntity
  8
Defpoints
  6
Continuous
 62
     0
100
AcDbPoint
 10
-269.988112174502
 20
1476.407049048018
 30
0.0
  0
ENDBLK
  5
ADF
330
ADD
100
AcDbEntity
  8
0
 62
     3
100
AcDbBlockEnd
  0
BLOCK
  5
AFA
330
AF9
100
AcDbEntity
  8
0
 62
     3
100
AcDbBlockBegin
  2
*D3
 70
     1
 10
0.0
 20
0.0
 30
0.0
  3
*D3
  1

  0
LINE
  5
135B
330
AF9
100
AcDbEntity
  8
P-50F5
  6
Continuous
 62
     2
370
    -2
100
AcDbLine
 10
-249.9881121766013
 20
1725.024740421084
 30
0.0
 11
-249.9881121766014
 21
1460.407049048116
 31
0.0
  0
LINE
  5
135C
330
AF9
100
AcDbEntity
  8
P-50F5
  6
Continuous
 62
     2
370
    -2
100
AcDbLine
 10
10.01188779759832
 20
1725.024740421084
 30
0.0
 11
10.0118877975983
 21
1460.407049048116
 31
0.0
  0
LINE
  5
135D
330
AF9
100
AcDbEntity
  8
P-50F5
  6
Continuous
 62
     2
370
    -2
100
AcDbLine
 10
-229.9881121766014
 20
1475.407049048116
 30
0.0
 11
-9.988112202401696
 21
1475.407049048116
 31
0.0
  0
SOLID
  5
135E
330
AF9
100
AcDbEntity
  8
P-50F5
  6
Continuous
 62
     2
100
AcDbTrace
 10
-229.9881121766014
 20
1478.740382381449
 30
0.0
 11
-229.9881121766014
 21
1472.073715714783
 31
0.0
 12
-249.9881121766014
 22
1475.407049048116
 32
0.0
 13
-249.9881121766014
 23
1475.407049048116
 33
0.0
  0
SOLID
  5
135F
330
AF9
100
AcDbEntity
  8
P-50F5
  6
Continuous
 62
     2
100
AcDbTrace
 10
-9.988112202401696
 20
1478.740382381449
 30
0.0
 11
-9.988112202401696
 21
1472.073715714783
 31
0.0
 12
10.0118877975983
 22
1475.407049048116
 32
0.0
 13
10.0118877975983
 23
1475.407049048116
 33
0.0
  0
MTEXT
  5
1360
330
AF9
100
AcDbEntity
  8
P-50F5
  6
Continuous
 62
     1
100
AcDbMText
 10
-119.9881121895015
 20
1495.632996569982
 30
0.0
 40
20.0
 41
0.0
 71
     5
 72
     1
  1
\A1;26
  7
Stile_Quota
 73
     1
 44
1.0
1001
ACAD
1000
MTEXTBEGIN
1070
    73
1070
     1
1070
    44
1040
1.0
1070
    74
1070
     0
1000
MTEXTEND
  0
POINT
  5
1361
330
AF9
100
AcDbEntity
  8
Defpoints
  6
Continuous
 62
     0
100
AcDbPoint
 10
-249.9881121766013
 20
1735.024740421084
 30
0.0
  0
POINT
  5
1362
330
AF9
100
AcDbEntity
  8
Defpoints
  6
Continuous
 62
     0
100
AcDbPoint
 10
10.01188779759832
 20
1735.024740421084
 30
0.0
  0
POINT
  5
1363
330
AF9
100
AcDbEntity
  8
Defpoints
  6
Continuous
 62
     0
100
AcDbPoint
 10
10.0118877975983
 20
1475.407049048116
 30
0.0
  0
ENDBLK
  5
AFB
330
AF9
100
AcDbEntity
  8
0
 62
     3
100
AcDbBlockEnd
  0
BLOCK
  5
B12
330
B11
100
AcDbEntity
  8
0
 62
     3
100
AcDbBlockBegin
  2
*D4
 70
     1
 10
0.0
 20
0.0
 30
0.0
  3
*D4
  1

  0
LINE
  5
BE8
330
B11
100
AcDbEntity
  8
P-50F5
  6
Continuous
 62
     2
370
    -2
100
AcDbLine
 10
10.01188779759854
 20
1725.024740421084
 30
0.0
 11
10.01188779759852
 21
1461.407049048018
 31
0.0
  0
LINE
  5
BE9
330
B11
100
AcDbEntity
  8
P-50F5
  6
Continuous
 62
     2
370
    -2
100
AcDbLine
 10
30.01188779549849
 20
1725.024740421182
 30
0.0
 11
30.01188779549848
 21
1461.407049048018
 31
0.0
  0
LINE
  5
BEA
330
B11
100
AcDbEntity
  8
P-50F5
  6
Continuous
 62
     2
370
    -2
100
AcDbLine
 10
-9.988112202401474
 20
1476.407049048018
 30
0.0
 11
-29.98811220240148
 21
1476.407049048018
 31
0.0
  0
LINE
  5
BEB
330
B11
100
AcDbEntity
  8
P-50F5
  6
Continuous
 62
     2
370
    -2
100
AcDbLine
 10
50.01188779549848
 20
1476.407049048018
 30
0.0
 11
103.4083892532244
 21
1476.407049048018
 31
0.0
  0
LINE
  5
BEC
330
B11
100
AcDbEntity
  8
P-50F5
  6
Continuous
 62
     2
370
    -2
100
AcDbLine
 10
10.01188779759852
 20
1476.407049048018
 30
0.0
 11
30.01188779549848
 21
1476.407049048018
 31
0.0
  0
SOLID
  5
BED
330
B11
100
AcDbEntity
  8
P-50F5
  6
Continuous
 62
     2
100
AcDbTrace
 10
-9.988112202401474
 20
1479.740382381351
 30
0.0
 11
-9.988112202401474
 21
1473.073715714685
 31
0.0
 12
10.01188779759852
 22
1476.407049048018
 32
0.0
 13
10.01188779759852
 23
1476.407049048018
 33
0.0
  0
SOLID
  5
BEE
330
B11
100
AcDbEntity
  8
P-50F5
  6
Continuous
 62
     2
100
AcDbTrace
 10
50.01188779549848
 20
1479.740382381351
 30
0.0
 11
50.01188779549848
 21
1473.073715714685
 31
0.0
 12
30.01188779549848
 22
1476.407049048018
 32
0.0
 13
30.01188779549848
 23
1476.407049048018
 33
0.0
  0
MTEXT
  5
BEF
330
B11
100
AcDbEntity
  8
P-50F5
  6
Continuous
 62
     1
100
AcDbMText
 10
86.71013852436145
 20
1496.407049048018
 30
0.0
 40
20.0
 41
0.0
 71
     5
 72
     1
  1
\A1;2
  7
Stile_Quota
 73
     1
 44
1.0
1001
ACAD
1000
MTEXTBEGIN
1070
    73
1070
     1
1070
    44
1040
1.0
1070
    74
1070
     0
1000
MTEXTEND
  0
POINT
  5
BF0
330
B11
100
AcDbEntity
  8
Defpoints
  6
Continuous
 62
     0
100
AcDbPoint
 10
10.01188779759854
 20
1735.024740421084
 30
0.0
  0
POINT
  5
BF1
330
B11
100
AcDbEntity
  8
Defpoints
  6
Continuous
 62
     0
100
AcDbPoint
 10
30.01188779549849
 20
1735.024740421183
 30
0.0
  0
POINT
  5
BF2
330
B11
100
AcDbEntity
  8
Defpoints
  6
Continuous
 62
     0
100
AcDbPoint
 10
30.01188779549848
 20
1476.407049048018
 30
0.0
  0
ENDBLK
  5
B13
330
B11
100
AcDbEntity
  8
0
 62
     3
100
AcDbBlockEnd
  0
BLOCK
  5
BFE
330
BFD
100
AcDbEntity
  8
0
 62
     3
100
AcDbBlockBegin
  2
*D5
 70
     1
 10
0.0
 20
0.0
 30
0.0
  3
*D5
  1

  0
LINE
  5
C0C
330
BFD
100
AcDbEntity
  8
P-50F5
  6
Continuous
 62
     2
370
    -2
100
AcDbLine
 10
-194.9881121820017
 20
1717.024740421883
 30
0.0
 11
-194.9881121820017
 21
1521.008017964946
 31
0.0
  0
LINE
  5
C0D
330
BFD
100
AcDbEntity
  8
P-50F5
  6
Continuous
 62
     2
370
    -2
100
AcDbLine
 10
-249.9881121766013
 20
1725.024740421084
 30
0.0
 11
-249.9881121766013
 21
1521.008017964946
 31
0.0
  0
LINE
  5
C0E
330
BFD
100
AcDbEntity
  8
P-50F5
  6
Continuous
 62
     2
370
    -2
100
AcDbLine
 10
-174.9881121820017
 20
1536.008017964945
 30
0.0
 11
-154.9881121820017
 21
1536.008017964945
 31
0.0
  0
LINE
  5
C0F
330
BFD
100
AcDbEntity
  8
P-50F5
  6
Continuous
 62
     2
370
    -2
100
AcDbLine
 10
-269.9881121766014
 20
1536.008017964945
 30
0.0
 11
-347.0726602815576
 21
1536.008017964945
 31
0.0
  0
LINE
  5
C10
330
BFD
100
AcDbEntity
  8
P-50F5
  6
Continuous
 62
     2
370
    -2
100
AcDbLine
 10
-194.9881121820017
 20
1536.008017964945
 30
0.0
 11
-249.9881121766013
 21
1536.008017964945
 31
0.0
  0
SOLID
  5
C11
330
BFD
100
AcDbEntity
  8
P-50F5
  6
Continuous
 62
     2
100
AcDbTrace
 10
-174.9881121820017
 20
1539.341351298279
 30
0.0
 11
-174.9881121820017
 21
1532.674684631613
 31
0.0
 12
-194.9881121820017
 22
1536.008017964945
 32
0.0
 13
-194.9881121820017
 23
1536.008017964945
 33
0.0
  0
SOLID
  5
C12
330
BFD
100
AcDbEntity
  8
P-50F5
  6
Continuous
 62
     2
100
AcDbTrace
 10
-269.9881121766014
 20
1539.341351298279
 30
0.0
 11
-269.9881121766014
 21
1532.674684631613
 31
0.0
 12
-249.9881121766013
 22
1536.008017964945
 32
0.0
 13
-249.9881121766013
 23
1536.008017964945
 33
0.0
  0
MTEXT
  5
C13
330
BFD
100
AcDbEntity
  8
P-50F5
  6
Continuous
 62
     1
100
AcDbMText
 10
-318.5303862290795
 20
1556.233965486812
 30
0.0
 40
20.0
 41
0.0
 71
     5
 72
     1
  1
\A1;5.5
  7
Stile_Quota
 73
     1
 44
1.0
1001
ACAD
1000
MTEXTBEGIN
1070
    73
1070
     1
1070
    44
1040
1.0
1070
    74
1070
     0
1000
MTEXTEND
  0
POINT
  5
C14
330
BFD
100
AcDbEntity
  8
Defpoints
  6
Continuous
 62
     0
100
AcDbPoint
 10
-194.9881121820017
 20
1727.024740421883
 30
0.0
  0
POINT
  5
C15
330
BFD
100
AcDbEntity
  8
Defpoints
  6
Continuous
 62
     0
100
AcDbPoint
 10
-249.9881121766013
 20
1735.024740421084
 30
0.0
  0
POINT
  5
C16
330
BFD
100
AcDbEntity
  8
Defpoints
  6
Continuous
 62
     0
100
AcDbPoint
 10
-249.9881121766013
 20
1536.008017964945
 30
0.0
  0
ENDBLK
  5
BFF
330
BFD
100
AcDbEntity
  8
0
 62
     3
100
AcDbBlockEnd
  0
BLOCK
  5
C1A
330
C19
100
AcDbEntity
  8
0
 62
     3
100
AcDbBlockBegin
  2
*D6
 70
     1
 10
0.0
 20
0.0
 30
0.0
  3
*D6
  1

  0
LINE
  5
C5B
330
C19
100
AcDbEntity
  8
P-50F5
  6
Continuous
 62
     2
370
    -2
100
AcDbLine
 10
-194.9881121820017
 20
1717.024740421883
 30
0.0
 11
-194.9881121820017
 21
1521.008017964946
 31
0.0
  0
LINE
  5
C5C
330
C19
100
AcDbEntity
  8
P-50F5
  6
Continuous
 62
     2
370
    -2
100
AcDbLine
 10
-144.9881121870012
 20
1717.024740421883
 30
0.0
 11
-144.9881121870012
 21
1521.008017964946
 31
0.0
  0
LINE
  5
C5D
330
C19
100
AcDbEntity
  8
P-50F5
  6
Continuous
 62
     2
370
    -2
100
AcDbLine
 10
-214.9881121820017
 20
1536.008017964945
 30
0.0
 11
-234.9881121820017
 21
1536.008017964945
 31
0.0
  0
LINE
  5
C5E
330
C19
100
AcDbEntity
  8
P-50F5
  6
Continuous
 62
     2
370
    -2
100
AcDbLine
 10
-124.9881121870012
 20
1536.008017964945
 30
0.0
 11
-104.9881121870012
 21
1536.008017964945
 31
0.0
  0
LINE
  5
C5F
330
C19
100
AcDbEntity
  8
P-50F5
  6
Continuous
 62
     2
370
    -2
100
AcDbLine
 10
-194.9881121820017
 20
1536.008017964945
 30
0.0
 11
-144.9881121870012
 21
1536.008017964945
 31
0.0
  0
SOLID
  5
C60
330
C19
100
AcDbEntity
  8
P-50F5
  6
Continuous
 62
     2
100
AcDbTrace
 10
-214.9881121820017
 20
1539.341351298279
 30
0.0
 11
-214.9881121820017
 21
1532.674684631613
 31
0.0
 12
-194.9881121820017
 22
1536.008017964945
 32
0.0
 13
-194.9881121820017
 23
1536.008017964945
 33
0.0
  0
SOLID
  5
C61
330
C19
100
AcDbEntity
  8
P-50F5
  6
Continuous
 62
     2
100
AcDbTrace
 10
-124.9881121870012
 20
1539.341351298279
 30
0.0
 11
-124.9881121870012
 21
1532.674684631613
 31
0.0
 12
-144.9881121870012
 22
1536.008017964945
 32
0.0
 13
-144.9881121870012
 23
1536.008017964945
 33
0.0
  0
MTEXT
  5
C62
330
C19
100
AcDbEntity
  8
P-50F5
  6
Continuous
 62
     1
100
AcDbMText
 10
-169.9881121845014
 20
1556.233965486812
 30
0.0
 40
20.0
 41
0.0
 71
     5
 72
     1
  1
\A1;5
  7
Stile_Quota
 73
     1
 44
1.0
1001
ACAD
1000
MTEXTBEGIN
1070
    73
1070
     1
1070
    44
1040
1.0
1070
    74
1070
     0
1000
MTEXTEND
  0
POINT
  5
C63
330
C19
100
AcDbEntity
  8
Defpoints
  6
Continuous
 62
     0
100
AcDbPoint
 10
-194.9881121820017
 20
1727.024740421883
 30
0.0
  0
POINT
  5
C64
330
C19
100
AcDbEntity
  8
Defpoints
  6
Continuous
 62
     0
100
AcDbPoint
 10
-144.9881121870012
 20
1727.024740421883
 30
0.0
  0
POINT
  5
C65
330
C19
100
AcDbEntity
  8
Defpoints
  6
Continuous
 62
     0
100
AcDbPoint
 10
-144.9881121870012
 20
1536.008017964945
 30
0.0
  0
ENDBLK
  5
C1B
330
C19
100
AcDbEntity
  8
0
 62
     3
100
AcDbBlockEnd
  0
BLOCK
  5
C36
330
C35
100
AcDbEntity
  8
0
 62
     3
100
AcDbBlockBegin
  2
*D7
 70
     1
 10
0.0
 20
0.0
 30
0.0
  3
*D7
  1

  0
LINE
  5
C44
330
C35
100
AcDbEntity
  8
P-50F5
  6
Continuous
 62
     2
370
    -2
100
AcDbLine
 10
-44.9881121970011
 20
1717.024740421883
 30
0.0
 11
-44.98811219700111
 21
1521.008017964946
 31
0.0
  0
LINE
  5
C45
330
C35
100
AcDbEntity
  8
P-50F5
  6
Continuous
 62
     2
370
    -2
100
AcDbLine
 10
10.01188779759832
 20
1725.024740421084
 30
0.0
 11
10.0118877975983
 21
1521.008017964946
 31
0.0
  0
LINE
  5
C46
330
C35
100
AcDbEntity
  8
P-50F5
  6
Continuous
 62
     2
370
    -2
100
AcDbLine
 10
-64.98811219700112
 20
1536.008017964945
 30
0.0
 11
-84.98811219700112
 21
1536.008017964945
 31
0.0
  0
LINE
  5
C47
330
C35
100
AcDbEntity
  8
P-50F5
  6
Continuous
 62
     2
370
    -2
100
AcDbLine
 10
30.01188779759831
 20
1536.008017964945
 30
0.0
 11
107.0964359025545
 21
1536.008017964945
 31
0.0
  0
LINE
  5
C48
330
C35
100
AcDbEntity
  8
P-50F5
  6
Continuous
 62
     2
370
    -2
100
AcDbLine
 10
-44.98811219700111
 20
1536.008017964945
 30
0.0
 11
10.0118877975983
 21
1536.008017964945
 31
0.0
  0
SOLID
  5
C49
330
C35
100
AcDbEntity
  8
P-50F5
  6
Continuous
 62
     2
100
AcDbTrace
 10
-64.98811219700112
 20
1539.341351298279
 30
0.0
 11
-64.98811219700112
 21
1532.674684631613
 31
0.0
 12
-44.98811219700111
 22
1536.008017964945
 32
0.0
 13
-44.98811219700111
 23
1536.008017964945
 33
0.0
  0
SOLID
  5
C4A
330
C35
100
AcDbEntity
  8
P-50F5
  6
Continuous
 62
     2
100
AcDbTrace
 10
30.01188779759831
 20
1539.341351298279
 30
0.0
 11
30.01188779759831
 21
1532.674684631613
 31
0.0
 12
10.0118877975983
 22
1536.008017964945
 32
0.0
 13
10.0118877975983
 23
1536.008017964945
 33
0.0
  0
MTEXT
  5
C4B
330
C35
100
AcDbEntity
  8
P-50F5
  6
Continuous
 62
     1
100
AcDbMText
 10
78.55416185007644
 20
1556.233965486812
 30
0.0
 40
20.0
 41
0.0
 71
     5
 72
     1
  1
\A1;5.5
  7
Stile_Quota
 73
     1
 44
1.0
1001
ACAD
1000
MTEXTBEGIN
1070
    73
1070
     1
1070
    44
1040
1.0
1070
    74
1070
     0
1000
MTEXTEND
  0
POINT
  5
C4C
330
C35
100
AcDbEntity
  8
Defpoints
  6
Continuous
 62
     0
100
AcDbPoint
 10
-44.9881121970011
 20
1727.024740421883
 30
0.0
  0
POINT
  5
C4D
330
C35
100
AcDbEntity
  8
Defpoints
  6
Continuous
 62
     0
100
AcDbPoint
 10
10.01188779759832
 20
1735.024740421084
 30
0.0
  0
POINT
  5
C4E
330
C35
100
AcDbEntity
  8
Defpoints
  6
Continuous
 62
     0
100
AcDbPoint
 10
10.0118877975983
 20
1536.008017964945
 30
0.0
  0
ENDBLK
  5
C37
330
C35
100
AcDbEntity
  8
0
 62
     3
100
AcDbBlockEnd
  0
BLOCK
  5
C6A
330
C69
100
AcDbEntity
  8
0
 62
     7
100
AcDbBlockBegin
  2
*D8
 70
     1
 10
0.0
 20
0.0
 30
0.0
  3
*D8
  1

  0
LINE
  5
C6C
330
C69
100
AcDbEntity
  8
P-50F5
  6
Continuous
 62
     2
370
    -2
100
AcDbLine
 10
-144.9881121870021
 20
1717.024740421883
 30
0.0
 11
-144.9881121870021
 21
1521.008017964946
 31
0.0
  0
LINE
  5
C6D
330
C69
100
AcDbEntity
  8
P-50F5
  6
Continuous
 62
     2
370
    -2
100
AcDbLine
 10
-94.98811219200161
 20
1717.024740421883
 30
0.0
 11
-94.98811219200161
 21
1521.008017964946
 31
0.0
  0
LINE
  5
C6E
330
C69
100
AcDbEntity
  8
P-50F5
  6
Continuous
 62
     2
370
    -2
100
AcDbLine
 10
-164.9881121870021
 20
1536.008017964945
 30
0.0
 11
-184.9881121870021
 21
1536.008017964945
 31
0.0
  0
LINE
  5
C6F
330
C69
100
AcDbEntity
  8
P-50F5
  6
Continuous
 62
     2
370
    -2
100
AcDbLine
 10
-74.98811219200162
 20
1536.008017964945
 30
0.0
 11
-54.98811219200162
 21
1536.008017964945
 31
0.0
  0
LINE
  5
C70
330
C69
100
AcDbEntity
  8
P-50F5
  6
Continuous
 62
     2
370
    -2
100
AcDbLine
 10
-144.9881121870021
 20
1536.008017964945
 30
0.0
 11
-94.98811219200161
 21
1536.008017964945
 31
0.0
  0
SOLID
  5
C71
330
C69
100
AcDbEntity
  8
P-50F5
  6
Continuous
 62
     2
100
AcDbTrace
 10
-164.9881121870021
 20
1539.341351298279
 30
0.0
 11
-164.9881121870021
 21
1532.674684631613
 31
0.0
 12
-144.9881121870021
 22
1536.008017964945
 32
0.0
 13
-144.9881121870021
 23
1536.008017964945
 33
0.0
  0
SOLID
  5
C72
330
C69
100
AcDbEntity
  8
P-50F5
  6
Continuous
 62
     2
100
AcDbTrace
 10
-74.98811219200162
 20
1539.341351298279
 30
0.0
 11
-74.98811219200162
 21
1532.674684631613
 31
0.0
 12
-94.98811219200161
 22
1536.008017964945
 32
0.0
 13
-94.98811219200161
 23
1536.008017964945
 33
0.0
  0
MTEXT
  5
C73
330
C69
100
AcDbEntity
  8
P-50F5
  6
Continuous
 62
     1
100
AcDbMText
 10
-119.9881121895018
 20
1556.233965486812
 30
0.0
 40
20.0
 41
0.0
 71
     5
 72
     1
  1
\A1;5
  7
Stile_Quota
 73
     1
 44
1.0
1001
ACAD
1000
MTEXTBEGIN
1070
    73
1070
     1
1070
    44
1040
1.0
1070
    74
1070
     0
1000
MTEXTEND
  0
POINT
  5
C74
330
C69
100
AcDbEntity
  8
Defpoints
  6
Continuous
 62
     0
100
AcDbPoint
 10
-144.9881121870021
 20
1727.024740421883
 30
0.0
  0
POINT
  5
C75
330
C69
100
AcDbEntity
  8
Defpoints
  6
Continuous
 62
     0
100
AcDbPoint
 10
-94.98811219200161
 20
1727.024740421883
 30
0.0
  0
POINT
  5
C76
330
C69
100
AcDbEntity
  8
Defpoints
  6
Continuous
 62
     0
100
AcDbPoint
 10
-94.98811219200161
 20
1536.008017964945
 30
0.0
  0
ENDBLK
  5
C6B
330
C69
100
AcDbEntity
  8
0
 62
     7
100
AcDbBlockEnd
  0
BLOCK
  5
C7B
330
C7A
100
AcDbEntity
  8
0
 62
     7
100
AcDbBlockBegin
  2
*D9
 70
     1
 10
0.0
 20
0.0
 30
0.0
  3
*D9
  1

  0
LINE
  5
C7D
330
C7A
100
AcDbEntity
  8
P-50F5
  6
Continuous
 62
     2
370
    -2
100
AcDbLine
 10
-94.98811219200161
 20
1717.024740421883
 30
0.0
 11
-94.98811219200161
 21
1521.008017964946
 31
0.0
  0
LINE
  5
C7E
330
C7A
100
AcDbEntity
  8
P-50F5
  6
Continuous
 62
     2
370
    -2
100
AcDbLine
 10
-44.9881121970011
 20
1717.024740421883
 30
0.0
 11
-44.98811219700111
 21
1521.008017964946
 31
0.0
  0
LINE
  5
C7F
330
C7A
100
AcDbEntity
  8
P-50F5
  6
Continuous
 62
     2
370
    -2
100
AcDbLine
 10
-114.9881121920016
 20
1536.008017964945
 30
0.0
 11
-134.9881121920016
 21
1536.008017964945
 31
0.0
  0
LINE
  5
C80
330
C7A
100
AcDbEntity
  8
P-50F5
  6
Continuous
 62
     2
370
    -2
100
AcDbLine
 10
-24.98811219700112
 20
1536.008017964945
 30
0.0
 11
-4.988112197001115
 21
1536.008017964945
 31
0.0
  0
LINE
  5
C81
330
C7A
100
AcDbEntity
  8
P-50F5
  6
Continuous
 62
     2
370
    -2
100
AcDbLine
 10
-94.98811219200161
 20
1536.008017964945
 30
0.0
 11
-44.98811219700111
 21
1536.008017964945
 31
0.0
  0
SOLID
  5
C82
330
C7A
100
AcDbEntity
  8
P-50F5
  6
Continuous
 62
     2
100
AcDbTrace
 10
-114.9881121920016
 20
1539.341351298279
 30
0.0
 11
-114.9881121920016
 21
1532.674684631613
 31
0.0
 12
-94.98811219200161
 22
1536.008017964945
 32
0.0
 13
-94.98811219200161
 23
1536.008017964945
 33
0.0
  0
SOLID
  5
C83
330
C7A
100
AcDbEntity
  8
P-50F5
  6
Continuous
 62
     2
100
AcDbTrace
 10
-24.98811219700112
 20
1539.341351298279
 30
0.0
 11
-24.98811219700112
 21
1532.674684631613
 31
0.0
 12
-44.98811219700111
 22
1536.008017964945
 32
0.0
 13
-44.98811219700111
 23
1536.008017964945
 33
0.0
  0
MTEXT
  5
C84
330
C7A
100
AcDbEntity
  8
P-50F5
  6
Continuous
 62
     1
100
AcDbMText
 10
-69.98811219450137
 20
1556.233965486812
 30
0.0
 40
20.0
 41
0.0
 71
     5
 72
     1
  1
\A1;5
  7
Stile_Quota
 73
     1
 44
1.0
1001
ACAD
1000
MTEXTBEGIN
1070
    73
1070
     1
1070
    44
1040
1.0
1070
    74
1070
     0
1000
MTEXTEND
  0
POINT
  5
C85
330
C7A
100
AcDbEntity
  8
Defpoints
  6
Continuous
 62
     0
100
AcDbPoint
 10
-94.98811219200161
 20
1727.024740421883
 30
0.0
  0
POINT
  5
C86
330
C7A
100
AcDbEntity
  8
Defpoints
  6
Continuous
 62
     0
100
AcDbPoint
 10
-44.9881121970011
 20
1727.024740421883
 30
0.0
  0
POINT
  5
C87
330
C7A
100
AcDbEntity
  8
Defpoints
  6
Continuous
 62
     0
100
AcDbPoint
 10
-44.98811219700111
 20
1536.008017964945
 30
0.0
  0
ENDBLK
  5
C7C
330
C7A
100
AcDbEntity
  8
0
 62
     7
100
AcDbBlockEnd
  0
BLOCK
  5
C8A
330
C89
100
AcDbEntity
  8
0
 62
     3
100
AcDbBlockBegin
  2
*D10
 70
     1
 10
0.0
 20
0.0
 30
0.0
  3
*D10
  1

  0
LINE
  5
12A9
330
C89
100
AcDbEntity
  8
P-50F5
  6
Continuous
 62
     2
370
    -2
100
AcDbLine
 10
-254.9881121770013
 20
1710.024740423684
 30
0.0
 11
-597.2847211770369
 21
1710.024740423684
 31
0.0
  0
LINE
  5
12AA
330
C89
100
AcDbEntity
  8
P-50F5
  6
Continuous
 62
     2
370
    -2
100
AcDbLine
 10
-274.9881121750022
 20
2010.024740393683
 30
0.0
 11
-597.2847211770368
 21
2010.024740393683
 31
0.0
  0
LINE
  5
12AB
330
C89
100
AcDbEntity
  8
P-50F5
  6
Continuous
 62
     2
370
    -2
100
AcDbLine
 10
-582.2847211770368
 20
1730.024740423684
 30
0.0
 11
-582.2847211770367
 21
1990.024740393683
 31
0.0
  0
SOLID
  5
12AC
330
C89
100
AcDbEntity
  8
P-50F5
  6
Continuous
 62
     2
100
AcDbTrace
 10
-585.6180545103702
 20
1730.024740423684
 30
0.0
 11
-578.9513878437035
 21
1730.024740423684
 31
0.0
 12
-582.2847211770368
 22
1710.024740423684
 32
0.0
 13
-582.2847211770368
 23
1710.024740423684
 33
0.0
  0
SOLID
  5
12AD
330
C89
100
AcDbEntity
  8
P-50F5
  6
Continuous
 62
     2
100
AcDbTrace
 10
-585.6180545103701
 20
1990.024740393683
 30
0.0
 11
-578.9513878437033
 21
1990.024740393683
 31
0.0
 12
-582.2847211770367
 22
2010.024740393683
 32
0.0
 13
-582.2847211770367
 23
2010.024740393683
 33
0.0
  0
MTEXT
  5
12AE
330
C89
100
AcDbEntity
  8
P-50F5
  6
Continuous
 62
     1
100
AcDbMText
 10
-602.510668698903
 20
1860.024740408683
 30
0.0
 40
20.0
 41
0.0
 71
     5
 72
     1
  1
\A1;30
  7
Stile_Quota
 11
0.0000000000000001
 21
1.0
 31
0.0
 73
     1
 44
1.0
1001
ACAD
1000
MTEXTBEGIN
1070
    73
1070
     1
1070
    44
1040
1.0
1070
    74
1070
     0
1000
MTEXTEND
  0
POINT
  5
12AF
330
C89
100
AcDbEntity
  8
Defpoints
  6
Continuous
 62
     0
100
AcDbPoint
 10
-244.9881121770013
 20
1710.024740423684
 30
0.0
  0
POINT
  5
12B0
330
C89
100
AcDbEntity
  8
Defpoints
  6
Continuous
 62
     0
100
AcDbPoint
 10
-264.9881121750023
 20
2010.024740393683
 30
0.0
  0
POINT
  5
12B1
330
C89
100
AcDbEntity
  8
Defpoints
  6
Continuous
 62
     0
100
AcDbPoint
 10
-582.2847211770367
 20
2010.024740393683
 30
0.0
  0
ENDBLK
  5
C8B
330
C89
100
AcDbEntity
  8
0
 62
     3
100
AcDbBlockEnd
  0
BLOCK
  5
CC6
330
CC5
100
AcDbEntity
  8
0
 62
     3
100
AcDbBlockBegin
  2
*D11
 70
     1
 10
0.0
 20
0.0
 30
0.0
  3
*D11
  1

  0
LINE
  5
1241
330
CC5
100
AcDbEntity
  8
P-50F5
  6
Continuous
 62
     2
370
    -2
100
AcDbLine
 10
-274.9881121750022
 20
2010.024740393683
 30
0.0
 11
-597.2847211770368
 21
2010.024740393683
 31
0.0
  0
LINE
  5
1242
330
CC5
100
AcDbEntity
  8
P-50F5
  6
Continuous
 62
     2
370
    -2
100
AcDbLine
 10
-149.9881121875014
 20
2140.024740380683
 30
0.0
 11
-597.2847211770368
 21
2140.024740380683
 31
0.0
  0
LINE
  5
1243
330
CC5
100
AcDbEntity
  8
P-50F5
  6
Continuous
 62
     2
370
    -2
100
AcDbLine
 10
-582.2847211770367
 20
2030.024740393684
 30
0.0
 11
-582.2847211770367
 21
2120.024740380683
 31
0.0
  0
SOLID
  5
1244
330
CC5
100
AcDbEntity
  8
P-50F5
  6
Continuous
 62
     2
100
AcDbTrace
 10
-585.6180545103701
 20
2030.024740393684
 30
0.0
 11
-578.9513878437033
 21
2030.024740393684
 31
0.0
 12
-582.2847211770367
 22
2010.024740393683
 32
0.0
 13
-582.2847211770367
 23
2010.024740393683
 33
0.0
  0
SOLID
  5
1245
330
CC5
100
AcDbEntity
  8
P-50F5
  6
Continuous
 62
     2
100
AcDbTrace
 10
-585.6180545103701
 20
2120.024740380683
 30
0.0
 11
-578.9513878437033
 21
2120.024740380683
 31
0.0
 12
-582.2847211770367
 22
2140.024740380683
 32
0.0
 13
-582.2847211770367
 23
2140.024740380683
 33
0.0
  0
MTEXT
  5
1246
330
CC5
100
AcDbEntity
  8
P-50F5
  6
Continuous
 62
     1
100
AcDbMText
 10
-602.4960914394277
 20
2075.024740387183
 30
0.0
 40
20.0
 41
0.0
 71
     5
 72
     1
  1
\A1;13
  7
Stile_Quota
 11
0.0000000000000001
 21
1.0
 31
0.0
 73
     1
 44
1.0
1001
ACAD
1000
MTEXTBEGIN
1070
    73
1070
     1
1070
    44
1040
1.0
1070
    74
1070
     0
1000
MTEXTEND
  0
POINT
  5
1247
330
CC5
100
AcDbEntity
  8
Defpoints
  6
Continuous
 62
     0
100
AcDbPoint
 10
-264.9881121750023
 20
2010.024740393683
 30
0.0
  0
POINT
  5
1248
330
CC5
100
AcDbEntity
  8
Defpoints
  6
Continuous
 62
     0
100
AcDbPoint
 10
-139.9881121875014
 20
2140.024740380683
 30
0.0
  0
POINT
  5
1249
330
CC5
100
AcDbEntity
  8
Defpoints
  6
Continuous
 62
     0
100
AcDbPoint
 10
-582.2847211770367
 20
2140.024740380683
 30
0.0
  0
ENDBLK
  5
CC7
330
CC5
100
AcDbEntity
  8
0
 62
     3
100
AcDbBlockEnd
  0
BLOCK
  5
CE7
330
CE6
100
AcDbEntity
  8
0
 62
     3
100
AcDbBlockBegin
  2
*D12
 70
     1
 10
0.0
 20
0.0
 30
0.0
  3
*D12
  1

  0
LINE
  5
12B2
330
CE6
100
AcDbEntity
  8
P-50F5
  6
Continuous
 62
     2
370
    -2
100
AcDbLine
 10
-274.9881121750022
 20
2010.024740393683
 30
0.0
 11
-427.9104266703307
 21
2010.024740393683
 31
0.0
  0
LINE
  5
12B3
330
CE6
100
AcDbEntity
  8
P-50F5
  6
Continuous
 62
     2
370
    -2
100
AcDbLine
 10
-234.9881121790013
 20
2060.024740388684
 30
0.0
 11
-427.9104266703307
 21
2060.024740388684
 31
0.0
  0
LINE
  5
12B4
330
CE6
100
AcDbEntity
  8
P-50F5
  6
Continuous
 62
     2
370
    -2
100
AcDbLine
 10
-412.9104266703307
 20
1990.024740393683
 30
0.0
 11
-412.9104266703307
 21
1970.024740393683
 31
0.0
  0
LINE
  5
12B5
330
CE6
100
AcDbEntity
  8
P-50F5
  6
Continuous
 62
     2
370
    -2
100
AcDbLine
 10
-412.9104266703307
 20
2080.024740388684
 30
0.0
 11
-412.9104266703307
 21
2100.024740388684
 31
0.0
  0
LINE
  5
12B6
330
CE6
100
AcDbEntity
  8
P-50F5
  6
Continuous
 62
     2
370
    -2
100
AcDbLine
 10
-412.9104266703307
 20
2010.024740393683
 30
0.0
 11
-412.9104266703307
 21
2060.024740388684
 31
0.0
  0
SOLID
  5
12B7
330
CE6
100
AcDbEntity
  8
P-50F5
  6
Continuous
 62
     2
100
AcDbTrace
 10
-416.243760003664
 20
1990.024740393683
 30
0.0
 11
-409.5770933369974
 21
1990.024740393683
 31
0.0
 12
-412.9104266703307
 22
2010.024740393683
 32
0.0
 13
-412.9104266703307
 23
2010.024740393683
 33
0.0
  0
SOLID
  5
12B8
330
CE6
100
AcDbEntity
  8
P-50F5
  6
Continuous
 62
     2
100
AcDbTrace
 10
-416.243760003664
 20
2080.024740388684
 30
0.0
 11
-409.5770933369974
 21
2080.024740388684
 31
0.0
 12
-412.9104266703307
 22
2060.024740388684
 32
0.0
 13
-412.9104266703307
 23
2060.024740388684
 33
0.0
  0
MTEXT
  5
12B9
330
CE6
100
AcDbEntity
  8
P-50F5
  6
Continuous
 62
     1
100
AcDbMText
 10
-433.1363741921969
 20
2035.024740391184
 30
0.0
 40
20.0
 41
0.0
 71
     5
 72
     1
  1
\A1;5
  7
Stile_Quota
 11
0.0000000000000001
 21
1.0
 31
0.0
 73
     1
 44
1.0
1001
ACAD
1000
MTEXTBEGIN
1070
    73
1070
     1
1070
    44
1040
1.0
1070
    74
1070
     0
1000
MTEXTEND
  0
POINT
  5
12BA
330
CE6
100
AcDbEntity
  8
Defpoints
  6
Continuous
 62
     0
100
AcDbPoint
 10
-264.9881121750023
 20
2010.024740393683
 30
0.0
  0
POINT
  5
12BB
330
CE6
100
AcDbEntity
  8
Defpoints
  6
Continuous
 62
     0
100
AcDbPoint
 10
-224.9881121790013
 20
2060.024740388684
 30
0.0
  0
POINT
  5
12BC
330
CE6
100
AcDbEntity
  8
Defpoints
  6
Continuous
 62
     0
100
AcDbPoint
 10
-412.9104266703307
 20
2060.024740388684
 30
0.0
  0
ENDBLK
  5
CE8
330
CE6
100
AcDbEntity
  8
0
 62
     3
100
AcDbBlockEnd
  0
BLOCK
  5
D03
330
D02
100
AcDbEntity
  8
0
 62
     3
100
AcDbBlockBegin
  2
*D13
 70
     1
 10
0.0
 20
0.0
 30
0.0
  3
*D13
  1

  0
LINE
  5
12BD
330
D02
100
AcDbEntity
  8
P-50F5
  6
Continuous
 62
     2
370
    -2
100
AcDbLine
 10
-234.9881121790013
 20
2060.024740388685
 30
0.0
 11
-427.9104266703306
 21
2060.024740388685
 31
0.0
  0
LINE
  5
12BE
330
D02
100
AcDbEntity
  8
P-50F5
  6
Continuous
 62
     2
370
    -2
100
AcDbLine
 10
-149.9881121875014
 20
2140.024740380683
 30
0.0
 11
-427.9104266703306
 21
2140.024740380683
 31
0.0
  0
LINE
  5
12BF
330
D02
100
AcDbEntity
  8
P-50F5
  6
Continuous
 62
     2
370
    -2
100
AcDbLine
 10
-412.9104266703307
 20
2080.024740388685
 30
0.0
 11
-412.9104266703307
 21
2120.024740380683
 31
0.0
  0
SOLID
  5
12C0
330
D02
100
AcDbEntity
  8
P-50F5
  6
Continuous
 62
     2
100
AcDbTrace
 10
-416.243760003664
 20
2080.024740388685
 30
0.0
 11
-409.5770933369974
 21
2080.024740388685
 31
0.0
 12
-412.9104266703307
 22
2060.024740388685
 32
0.0
 13
-412.9104266703307
 23
2060.024740388685
 33
0.0
  0
SOLID
  5
12C1
330
D02
100
AcDbEntity
  8
P-50F5
  6
Continuous
 62
     2
100
AcDbTrace
 10
-416.243760003664
 20
2120.024740380683
 30
0.0
 11
-409.5770933369974
 21
2120.024740380683
 31
0.0
 12
-412.9104266703307
 22
2140.024740380683
 32
0.0
 13
-412.9104266703307
 23
2140.024740380683
 33
0.0
  0
MTEXT
  5
12C2
330
D02
100
AcDbEntity
  8
P-50F5
  6
Continuous
 62
     1
100
AcDbMText
 10
-433.1363741921969
 20
2100.024740384684
 30
0.0
 40
20.0
 41
0.0
 71
     5
 72
     1
  1
\A1;8
  7
Stile_Quota
 11
0.0000000000000001
 21
1.0
 31
0.0
 73
     1
 44
1.0
1001
ACAD
1000
MTEXTBEGIN
1070
    73
1070
     1
1070
    44
1040
1.0
1070
    74
1070
     0
1000
MTEXTEND
  0
POINT
  5
12C3
330
D02
100
AcDbEntity
  8
Defpoints
  6
Continuous
 62
     0
100
AcDbPoint
 10
-224.9881121790013
 20
2060.024740388685
 30
0.0
  0
POINT
  5
12C4
330
D02
100
AcDbEntity
  8
Defpoints
  6
Continuous
 62
     0
100
AcDbPoint
 10
-139.9881121875014
 20
2140.024740380683
 30
0.0
  0
POINT
  5
12C5
330
D02
100
AcDbEntity
  8
Defpoints
  6
Continuous
 62
     0
100
AcDbPoint
 10
-412.9104266703307
 20
2140.024740380683
 30
0.0
  0
ENDBLK
  5
D04
330
D02
100
AcDbEntity
  8
0
 62
     3
100
AcDbBlockEnd
  0
BLOCK
  5
D31
330
D30
100
AcDbEntity
  8
0
 62
     3
100
AcDbBlockBegin
  2
*D14
 70
     1
 10
0.0
 20
0.0
 30
0.0
  3
*D14
  1

  0
LINE
  5
124A
330
D30
100
AcDbEntity
  8
P-50F5
  6
Continuous
 62
     2
370
    -2
100
AcDbLine
 10
-259.9881121766011
 20
1785.024740416184
 30
0.0
 11
-482.0739422144852
 21
1785.024740416184
 31
0.0
  0
LINE
  5
124B
330
D30
100
AcDbEntity
  8
P-50F5
  6
Continuous
 62
     2
370
    -2
100
AcDbLine
 10
-254.9881121771014
 20
1730.024740421585
 30
0.0
 11
-482.0739422144852
 21
1730.024740421585
 31
0.0
  0
LINE
  5
124C
330
D30
100
AcDbEntity
  8
P-50F5
  6
Continuous
 62
     2
370
    -2
100
AcDbLine
 10
-467.0739422144852
 20
1805.024740416184
 30
0.0
 11
-467.0739422144852
 21
1825.024740416184
 31
0.0
  0
LINE
  5
124D
330
D30
100
AcDbEntity
  8
P-50F5
  6
Continuous
 62
     2
370
    -2
100
AcDbLine
 10
-467.0739422144852
 20
1710.024740421584
 30
0.0
 11
-467.0739422144852
 21
1632.940192316629
 31
0.0
  0
LINE
  5
124E
330
D30
100
AcDbEntity
  8
P-50F5
  6
Continuous
 62
     2
370
    -2
100
AcDbLine
 10
-467.0739422144852
 20
1785.024740416184
 30
0.0
 11
-467.0739422144852
 21
1730.024740421585
 31
0.0
  0
SOLID
  5
124F
330
D30
100
AcDbEntity
  8
P-50F5
  6
Continuous
 62
     2
100
AcDbTrace
 10
-470.4072755478185
 20
1805.024740416184
 30
0.0
 11
-463.7406088811519
 21
1805.024740416184
 31
0.0
 12
-467.0739422144852
 22
1785.024740416184
 32
0.0
 13
-467.0739422144852
 23
1785.024740416184
 33
0.0
  0
SOLID
  5
1250
330
D30
100
AcDbEntity
  8
P-50F5
  6
Continuous
 62
     2
100
AcDbTrace
 10
-470.4072755478185
 20
1710.024740421584
 30
0.0
 11
-463.7406088811519
 21
1710.024740421584
 31
0.0
 12
-467.0739422144852
 22
1730.024740421585
 32
0.0
 13
-467.0739422144852
 23
1730.024740421585
 33
0.0
  0
MTEXT
  5
1251
330
D30
100
AcDbEntity
  8
P-50F5
  6
Continuous
 62
     1
100
AcDbMText
 10
-487.2998897363514
 20
1661.482466369107
 30
0.0
 40
20.0
 41
0.0
 71
     5
 72
     1
  1
\A1;5.5
  7
Stile_Quota
 11
0.0000000000000001
 21
1.0
 31
0.0
 73
     1
 44
1.0
1001
ACAD
1000
MTEXTBEGIN
1070
    73
1070
     1
1070
    44
1040
1.0
1070
    74
1070
     0
1000
MTEXTEND
  0
POINT
  5
1252
330
D30
100
AcDbEntity
  8
Defpoints
  6
Continuous
 62
     0
100
AcDbPoint
 10
-249.9881121766011
 20
1785.024740416184
 30
0.0
  0
POINT
  5
1253
330
D30
100
AcDbEntity
  8
Defpoints
  6
Continuous
 62
     0
100
AcDbPoint
 10
-244.9881121771014
 20
1730.024740421585
 30
0.0
  0
POINT
  5
1254
330
D30
100
AcDbEntity
  8
Defpoints
  6
Continuous
 62
     0
100
AcDbPoint
 10
-467.0739422144852
 20
1730.024740421585
 30
0.0
  0
ENDBLK
  5
D32
330
D30
100
AcDbEntity
  8
0
 62
     3
100
AcDbBlockEnd
  0
BLOCK
  5
D4D
330
D4C
100
AcDbEntity
  8
0
 62
     3
100
AcDbBlockBegin
  2
*D15
 70
     1
 10
0.0
 20
0.0
 30
0.0
  3
*D15
  1

  0
LINE
  5
1255
330
D4C
100
AcDbEntity
  8
P-50F5
  6
Continuous
 62
     2
370
    -2
100
AcDbLine
 10
-254.9881121771014
 20
1730.024740421585
 30
0.0
 11
-539.8949812421985
 21
1730.024740421585
 31
0.0
  0
LINE
  5
1256
330
D4C
100
AcDbEntity
  8
P-50F5
  6
Continuous
 62
     2
370
    -2
100
AcDbLine
 10
-254.9881121771014
 20
1990.024740395784
 30
0.0
 11
-539.8949812421984
 21
1990.024740395784
 31
0.0
  0
LINE
  5
1257
330
D4C
100
AcDbEntity
  8
P-50F5
  6
Continuous
 62
     2
370
    -2
100
AcDbLine
 10
-524.8949812421986
 20
1750.024740421585
 30
0.0
 11
-524.8949812421984
 21
1970.024740395784
 31
0.0
  0
SOLID
  5
1258
330
D4C
100
AcDbEntity
  8
P-50F5
  6
Continuous
 62
     2
100
AcDbTrace
 10
-528.2283145755319
 20
1750.024740421585
 30
0.0
 11
-521.5616479088652
 21
1750.024740421585
 31
0.0
 12
-524.8949812421986
 22
1730.024740421585
 32
0.0
 13
-524.8949812421986
 23
1730.024740421585
 33
0.0
  0
SOLID
  5
1259
330
D4C
100
AcDbEntity
  8
P-50F5
  6
Continuous
 62
     2
100
AcDbTrace
 10
-528.2283145755318
 20
1970.024740395784
 30
0.0
 11
-521.5616479088651
 21
1970.024740395784
 31
0.0
 12
-524.8949812421984
 22
1990.024740395784
 32
0.0
 13
-524.8949812421984
 23
1990.024740395784
 33
0.0
  0
MTEXT
  5
125A
330
D4C
100
AcDbEntity
  8
P-50F5
  6
Continuous
 62
     1
100
AcDbMText
 10
-545.1209287640647
 20
1860.024740408684
 30
0.0
 40
20.0
 41
0.0
 71
     5
 72
     1
  1
\A1;26
  7
Stile_Quota
 11
0.0000000000000001
 21
1.0
 31
0.0
 73
     1
 44
1.0
1001
ACAD
1000
MTEXTBEGIN
1070
    73
1070
     1
1070
    44
1040
1.0
1070
    74
1070
     0
1000
MTEXTEND
  0
POINT
  5
125B
330
D4C
100
AcDbEntity
  8
Defpoints
  6
Continuous
 62
     0
100
AcDbPoint
 10
-244.9881121771014
 20
1730.024740421585
 30
0.0
  0
POINT
  5
125C
330
D4C
100
AcDbEntity
  8
Defpoints
  6
Continuous
 62
     0
100
AcDbPoint
 10
-244.9881121771014
 20
1990.024740395784
 30
0.0
  0
POINT
  5
125D
330
D4C
100
AcDbEntity
  8
Defpoints
  6
Continuous
 62
     0
100
AcDbPoint
 10
-524.8949812421984
 20
1990.024740395784
 30
0.0
  0
ENDBLK
  5
D4E
330
D4C
100
AcDbEntity
  8
0
 62
     3
100
AcDbBlockEnd
  0
BLOCK
  5
D80
330
D7F
100
AcDbEntity
  8
0
 62
     3
100
AcDbBlockBegin
  2
*D16
 70
     1
 10
0.0
 20
0.0
 30
0.0
  3
*D16
  1

  0
LINE
  5
125E
330
D7F
100
AcDbEntity
  8
P-50F5
  6
Continuous
 62
     2
370
    -2
100
AcDbLine
 10
-254.9881121771014
 20
1730.024740421585
 30
0.0
 11
-539.8949812421985
 21
1730.024740421585
 31
0.0
  0
LINE
  5
125F
330
D7F
100
AcDbEntity
  8
P-50F5
  6
Continuous
 62
     2
370
    -2
100
AcDbLine
 10
-254.9881121770013
 20
1710.024740423684
 30
0.0
 11
-539.8949812421985
 21
1710.024740423684
 31
0.0
  0
LINE
  5
1260
330
D7F
100
AcDbEntity
  8
P-50F5
  6
Continuous
 62
     2
370
    -2
100
AcDbLine
 10
-524.8949812421986
 20
1750.024740421585
 30
0.0
 11
-524.8949812421986
 21
1770.024740421585
 31
0.0
  0
LINE
  5
1261
330
D7F
100
AcDbEntity
  8
P-50F5
  6
Continuous
 62
     2
370
    -2
100
AcDbLine
 10
-524.8949812421986
 20
1690.024740423684
 30
0.0
 11
-524.8949812421986
 21
1636.628238965958
 31
0.0
  0
LINE
  5
1262
330
D7F
100
AcDbEntity
  8
P-50F5
  6
Continuous
 62
     2
370
    -2
100
AcDbLine
 10
-524.8949812421986
 20
1730.024740421585
 30
0.0
 11
-524.8949812421986
 21
1710.024740423684
 31
0.0
  0
SOLID
  5
1263
330
D7F
100
AcDbEntity
  8
P-50F5
  6
Continuous
 62
     2
100
AcDbTrace
 10
-528.2283145755319
 20
1750.024740421585
 30
0.0
 11
-521.5616479088652
 21
1750.024740421585
 31
0.0
 12
-524.8949812421986
 22
1730.024740421585
 32
0.0
 13
-524.8949812421986
 23
1730.024740421585
 33
0.0
  0
SOLID
  5
1264
330
D7F
100
AcDbEntity
  8
P-50F5
  6
Continuous
 62
     2
100
AcDbTrace
 10
-528.2283145755319
 20
1690.024740423684
 30
0.0
 11
-521.5616479088652
 21
1690.024740423684
 31
0.0
 12
-524.8949812421986
 22
1710.024740423684
 32
0.0
 13
-524.8949812421986
 23
1710.024740423684
 33
0.0
  0
MTEXT
  5
1265
330
D7F
100
AcDbEntity
  8
P-50F5
  6
Continuous
 62
     1
100
AcDbMText
 10
-544.8949812421988
 20
1653.32648969482
 30
0.0
 40
20.0
 41
0.0
 71
     5
 72
     1
  1
\A1;2
  7
Stile_Quota
 11
0.0000000000000001
 21
1.0
 31
0.0
 73
     1
 44
1.0
1001
ACAD
1000
MTEXTBEGIN
1070
    73
1070
     1
1070
    44
1040
1.0
1070
    74
1070
     0
1000
MTEXTEND
  0
POINT
  5
1266
330
D7F
100
AcDbEntity
  8
Defpoints
  6
Continuous
 62
     0
100
AcDbPoint
 10
-244.9881121771014
 20
1730.024740421585
 30
0.0
  0
POINT
  5
1267
330
D7F
100
AcDbEntity
  8
Defpoints
  6
Continuous
 62
     0
100
AcDbPoint
 10
-244.9881121770013
 20
1710.024740423684
 30
0.0
  0
POINT
  5
1268
330
D7F
100
AcDbEntity
  8
Defpoints
  6
Continuous
 62
     0
100
AcDbPoint
 10
-524.8949812421986
 20
1710.024740423684
 30
0.0
  0
ENDBLK
  5
D81
330
D7F
100
AcDbEntity
  8
0
 62
     3
100
AcDbBlockEnd
  0
BLOCK
  5
D9C
330
D9B
100
AcDbEntity
  8
0
 62
     3
100
AcDbBlockBegin
  2
*D17
 70
     1
 10
0.0
 20
0.0
 30
0.0
  3
*D17
  1

  0
LINE
  5
1269
330
D9B
100
AcDbEntity
  8
P-50F5
  6
Continuous
 62
     2
370
    -2
100
AcDbLine
 10
-254.9881121771014
 20
1990.024740395784
 30
0.0
 11
-539.8949812421984
 21
1990.024740395784
 31
0.0
  0
LINE
  5
126A
330
D9B
100
AcDbEntity
  8
P-50F5
  6
Continuous
 62
     2
370
    -2
100
AcDbLine
 10
-274.9881121750022
 20
2010.024740393683
 30
0.0
 11
-539.8949812421984
 21
2010.024740393683
 31
0.0
  0
LINE
  5
126B
330
D9B
100
AcDbEntity
  8
P-50F5
  6
Continuous
 62
     2
370
    -2
100
AcDbLine
 10
-524.8949812421984
 20
1970.024740395784
 30
0.0
 11
-524.8949812421984
 21
1950.024740395784
 31
0.0
  0
LINE
  5
126C
330
D9B
100
AcDbEntity
  8
P-50F5
  6
Continuous
 62
     2
370
    -2
100
AcDbLine
 10
-524.8949812421984
 20
2030.024740393684
 30
0.0
 11
-524.8949812421984
 21
2083.421241851409
 31
0.0
  0
LINE
  5
126D
330
D9B
100
AcDbEntity
  8
P-50F5
  6
Continuous
 62
     2
370
    -2
100
AcDbLine
 10
-524.8949812421984
 20
1990.024740395784
 30
0.0
 11
-524.8949812421984
 21
2010.024740393683
 31
0.0
  0
SOLID
  5
126E
330
D9B
100
AcDbEntity
  8
P-50F5
  6
Continuous
 62
     2
100
AcDbTrace
 10
-528.2283145755318
 20
1970.024740395784
 30
0.0
 11
-521.5616479088651
 21
1970.024740395784
 31
0.0
 12
-524.8949812421984
 22
1990.024740395784
 32
0.0
 13
-524.8949812421984
 23
1990.024740395784
 33
0.0
  0
SOLID
  5
126F
330
D9B
100
AcDbEntity
  8
P-50F5
  6
Continuous
 62
     2
100
AcDbTrace
 10
-528.2283145755318
 20
2030.024740393684
 30
0.0
 11
-521.5616479088651
 21
2030.024740393684
 31
0.0
 12
-524.8949812421984
 22
2010.024740393683
 32
0.0
 13
-524.8949812421984
 23
2010.024740393683
 33
0.0
  0
MTEXT
  5
1270
330
D9B
100
AcDbEntity
  8
P-50F5
  6
Continuous
 62
     1
100
AcDbMText
 10
-544.8949812421988
 20
2066.722991122546
 30
0.0
 40
20.0
 41
0.0
 71
     5
 72
     1
  1
\A1;2
  7
Stile_Quota
 11
0.0000000000000001
 21
1.0
 31
0.0
 73
     1
 44
1.0
1001
ACAD
1000
MTEXTBEGIN
1070
    73
1070
     1
1070
    44
1040
1.0
1070
    74
1070
     0
1000
MTEXTEND
  0
POINT
  5
1271
330
D9B
100
AcDbEntity
  8
Defpoints
  6
Continuous
 62
     0
100
AcDbPoint
 10
-244.9881121771014
 20
1990.024740395784
 30
0.0
  0
POINT
  5
1272
330
D9B
100
AcDbEntity
  8
Defpoints
  6
Continuous
 62
     0
100
AcDbPoint
 10
-264.9881121750023
 20
2010.024740393683
 30
0.0
  0
POINT
  5
1273
330
D9B
100
AcDbEntity
  8
Defpoints
  6
Continuous
 62
     0
100
AcDbPoint
 10
-524.8949812421984
 20
2010.024740393683
 30
0.0
  0
ENDBLK
  5
D9D
330
D9B
100
AcDbEntity
  8
0
 62
     3
100
AcDbBlockEnd
  0
BLOCK
  5
DB8
330
DB7
100
AcDbEntity
  8
0
 62
     3
100
AcDbBlockBegin
  2
*D18
 70
     1
 10
0.0
 20
0.0
 30
0.0
  3
*D18
  1

  0
LINE
  5
1274
330
DB7
100
AcDbEntity
  8
P-50F5
  6
Continuous
 62
     2
370
    -2
100
AcDbLine
 10
-262.988112176301
 20
1785.024740416184
 30
0.0
 11
-482.0739422144852
 21
1785.024740416184
 31
0.0
  0
LINE
  5
1275
330
DB7
100
AcDbEntity
  8
P-50F5
  6
Continuous
 62
     2
370
    -2
100
AcDbLine
 10
-262.988112176301
 20
1835.024740411183
 30
0.0
 11
-482.0739422144852
 21
1835.024740411183
 31
0.0
  0
LINE
  5
1276
330
DB7
100
AcDbEntity
  8
P-50F5
  6
Continuous
 62
     2
370
    -2
100
AcDbLine
 10
-467.0739422144852
 20
1765.024740416184
 30
0.0
 11
-467.0739422144852
 21
1745.024740416184
 31
0.0
  0
LINE
  5
1277
330
DB7
100
AcDbEntity
  8
P-50F5
  6
Continuous
 62
     2
370
    -2
100
AcDbLine
 10
-467.0739422144852
 20
1855.024740411184
 30
0.0
 11
-467.0739422144852
 21
1875.024740411184
 31
0.0
  0
LINE
  5
1278
330
DB7
100
AcDbEntity
  8
P-50F5
  6
Continuous
 62
     2
370
    -2
100
AcDbLine
 10
-467.0739422144852
 20
1785.024740416184
 30
0.0
 11
-467.0739422144852
 21
1835.024740411183
 31
0.0
  0
SOLID
  5
1279
330
DB7
100
AcDbEntity
  8
P-50F5
  6
Continuous
 62
     2
100
AcDbTrace
 10
-470.4072755478185
 20
1765.024740416184
 30
0.0
 11
-463.7406088811519
 21
1765.024740416184
 31
0.0
 12
-467.0739422144852
 22
1785.024740416184
 32
0.0
 13
-467.0739422144852
 23
1785.024740416184
 33
0.0
  0
SOLID
  5
127A
330
DB7
100
AcDbEntity
  8
P-50F5
  6
Continuous
 62
     2
100
AcDbTrace
 10
-470.4072755478185
 20
1855.024740411184
 30
0.0
 11
-463.7406088811519
 21
1855.024740411184
 31
0.0
 12
-467.0739422144852
 22
1835.024740411183
 32
0.0
 13
-467.0739422144852
 23
1835.024740411183
 33
0.0
  0
MTEXT
  5
127B
330
DB7
100
AcDbEntity
  8
P-50F5
  6
Continuous
 62
     1
100
AcDbMText
 10
-487.2998897363514
 20
1810.024740413684
 30
0.0
 40
20.0
 41
0.0
 71
     5
 72
     1
  1
\A1;5
  7
Stile_Quota
 11
0.0000000000000001
 21
1.0
 31
0.0
 73
     1
 44
1.0
1001
ACAD
1000
MTEXTBEGIN
1070
    73
1070
     1
1070
    44
1040
1.0
1070
    74
1070
     0
1000
MTEXTEND
  0
POINT
  5
127C
330
DB7
100
AcDbEntity
  8
Defpoints
  6
Continuous
 62
     0
100
AcDbPoint
 10
-252.988112176301
 20
1785.024740416184
 30
0.0
  0
POINT
  5
127D
330
DB7
100
AcDbEntity
  8
Defpoints
  6
Continuous
 62
     0
100
AcDbPoint
 10
-252.988112176301
 20
1835.024740411183
 30
0.0
  0
POINT
  5
127E
330
DB7
100
AcDbEntity
  8
Defpoints
  6
Continuous
 62
     0
100
AcDbPoint
 10
-467.0739422144852
 20
1835.024740411183
 30
0.0
  0
ENDBLK
  5
DB9
330
DB7
100
AcDbEntity
  8
0
 62
     3
100
AcDbBlockEnd
  0
BLOCK
  5
DD4
330
DD3
100
AcDbEntity
  8
0
 62
     3
100
AcDbBlockBegin
  2
*D19
 70
     1
 10
0.0
 20
0.0
 30
0.0
  3
*D19
  1

  0
LINE
  5
127F
330
DD3
100
AcDbEntity
  8
P-50F5
  6
Continuous
 62
     2
370
    -2
100
AcDbLine
 10
-262.988112176301
 20
1935.024740401183
 30
0.0
 11
-482.0739422144852
 21
1935.024740401183
 31
0.0
  0
LINE
  5
1280
330
DD3
100
AcDbEntity
  8
P-50F5
  6
Continuous
 62
     2
370
    -2
100
AcDbLine
 10
-254.9881121771014
 20
1990.024740395784
 30
0.0
 11
-482.0739422144852
 21
1990.024740395784
 31
0.0
  0
LINE
  5
1281
330
DD3
100
AcDbEntity
  8
P-50F5
  6
Continuous
 62
     2
370
    -2
100
AcDbLine
 10
-467.0739422144852
 20
1915.024740401183
 30
0.0
 11
-467.0739422144852
 21
1895.024740401183
 31
0.0
  0
LINE
  5
1282
330
DD3
100
AcDbEntity
  8
P-50F5
  6
Continuous
 62
     2
370
    -2
100
AcDbLine
 10
-467.0739422144852
 20
2010.024740395784
 30
0.0
 11
-467.0739422144852
 21
2087.109288500741
 31
0.0
  0
LINE
  5
1283
330
DD3
100
AcDbEntity
  8
P-50F5
  6
Continuous
 62
     2
370
    -2
100
AcDbLine
 10
-467.0739422144852
 20
1935.024740401183
 30
0.0
 11
-467.0739422144852
 21
1990.024740395784
 31
0.0
  0
SOLID
  5
1284
330
DD3
100
AcDbEntity
  8
P-50F5
  6
Continuous
 62
     2
100
AcDbTrace
 10
-470.4072755478185
 20
1915.024740401183
 30
0.0
 11
-463.7406088811519
 21
1915.024740401183
 31
0.0
 12
-467.0739422144852
 22
1935.024740401183
 32
0.0
 13
-467.0739422144852
 23
1935.024740401183
 33
0.0
  0
SOLID
  5
1285
330
DD3
100
AcDbEntity
  8
P-50F5
  6
Continuous
 62
     2
100
AcDbTrace
 10
-470.4072755478185
 20
2010.024740395784
 30
0.0
 11
-463.7406088811519
 21
2010.024740395784
 31
0.0
 12
-467.0739422144852
 22
1990.024740395784
 32
0.0
 13
-467.0739422144852
 23
1990.024740395784
 33
0.0
  0
MTEXT
  5
1286
330
DD3
100
AcDbEntity
  8
P-50F5
  6
Continuous
 62
     1
100
AcDbMText
 10
-487.2998897363514
 20
2058.567014448263
 30
0.0
 40
20.0
 41
0.0
 71
     5
 72
     1
  1
\A1;5.5
  7
Stile_Quota
 11
0.0000000000000001
 21
1.0
 31
0.0
 73
     1
 44
1.0
1001
ACAD
1000
MTEXTBEGIN
1070
    73
1070
     1
1070
    44
1040
1.0
1070
    74
1070
     0
1000
MTEXTEND
  0
POINT
  5
1287
330
DD3
100
AcDbEntity
  8
Defpoints
  6
Continuous
 62
     0
100
AcDbPoint
 10
-252.988112176301
 20
1935.024740401183
 30
0.0
  0
POINT
  5
1288
330
DD3
100
AcDbEntity
  8
Defpoints
  6
Continuous
 62
     0
100
AcDbPoint
 10
-244.9881121771014
 20
1990.024740395784
 30
0.0
  0
POINT
  5
1289
330
DD3
100
AcDbEntity
  8
Defpoints
  6
Continuous
 62
     0
100
AcDbPoint
 10
-467.0739422144852
 20
1990.024740395784
 30
0.0
  0
ENDBLK
  5
DD5
330
DD3
100
AcDbEntity
  8
0
 62
     3
100
AcDbBlockEnd
  0
BLOCK
  5
E08
330
E07
100
AcDbEntity
  8
0
 62
     7
100
AcDbBlockBegin
  2
*D20
 70
     1
 10
0.0
 20
0.0
 30
0.0
  3
*D20
  1

  0
LINE
  5
128A
330
E07
100
AcDbEntity
  8
P-50F5
  6
Continuous
 62
     2
370
    -2
100
AcDbLine
 10
-262.988112176301
 20
1835.024740411183
 30
0.0
 11
-482.0739422144852
 21
1835.024740411183
 31
0.0
  0
LINE
  5
128B
330
E07
100
AcDbEntity
  8
P-50F5
  6
Continuous
 62
     2
370
    -2
100
AcDbLine
 10
-262.988112176301
 20
1885.024740406183
 30
0.0
 11
-482.0739422144852
 21
1885.024740406183
 31
0.0
  0
LINE
  5
128C
330
E07
100
AcDbEntity
  8
P-50F5
  6
Continuous
 62
     2
370
    -2
100
AcDbLine
 10
-467.0739422144852
 20
1815.024740411184
 30
0.0
 11
-467.0739422144852
 21
1795.024740411184
 31
0.0
  0
LINE
  5
128D
330
E07
100
AcDbEntity
  8
P-50F5
  6
Continuous
 62
     2
370
    -2
100
AcDbLine
 10
-467.0739422144852
 20
1905.024740406183
 30
0.0
 11
-467.0739422144851
 21
1925.024740406183
 31
0.0
  0
LINE
  5
128E
330
E07
100
AcDbEntity
  8
P-50F5
  6
Continuous
 62
     2
370
    -2
100
AcDbLine
 10
-467.0739422144852
 20
1835.024740411183
 30
0.0
 11
-467.0739422144852
 21
1885.024740406183
 31
0.0
  0
SOLID
  5
128F
330
E07
100
AcDbEntity
  8
P-50F5
  6
Continuous
 62
     2
100
AcDbTrace
 10
-470.4072755478185
 20
1815.024740411184
 30
0.0
 11
-463.7406088811519
 21
1815.024740411184
 31
0.0
 12
-467.0739422144852
 22
1835.024740411183
 32
0.0
 13
-467.0739422144852
 23
1835.024740411183
 33
0.0
  0
SOLID
  5
1290
330
E07
100
AcDbEntity
  8
P-50F5
  6
Continuous
 62
     2
100
AcDbTrace
 10
-470.4072755478185
 20
1905.024740406183
 30
0.0
 11
-463.7406088811519
 21
1905.024740406183
 31
0.0
 12
-467.0739422144852
 22
1885.024740406183
 32
0.0
 13
-467.0739422144852
 23
1885.024740406183
 33
0.0
  0
MTEXT
  5
1291
330
E07
100
AcDbEntity
  8
P-50F5
  6
Continuous
 62
     1
100
AcDbMText
 10
-487.2998897363514
 20
1860.024740408683
 30
0.0
 40
20.0
 41
0.0
 71
     5
 72
     1
  1
\A1;5
  7
Stile_Quota
 11
0.0000000000000001
 21
1.0
 31
0.0
 73
     1
 44
1.0
1001
ACAD
1000
MTEXTBEGIN
1070
    73
1070
     1
1070
    44
1040
1.0
1070
    74
1070
     0
1000
MTEXTEND
  0
POINT
  5
1292
330
E07
100
AcDbEntity
  8
Defpoints
  6
Continuous
 62
     0
100
AcDbPoint
 10
-252.988112176301
 20
1835.024740411183
 30
0.0
  0
POINT
  5
1293
330
E07
100
AcDbEntity
  8
Defpoints
  6
Continuous
 62
     0
100
AcDbPoint
 10
-252.988112176301
 20
1885.024740406183
 30
0.0
  0
POINT
  5
1294
330
E07
100
AcDbEntity
  8
Defpoints
  6
Continuous
 62
     0
100
AcDbPoint
 10
-467.0739422144852
 20
1885.024740406183
 30
0.0
  0
ENDBLK
  5
E09
330
E07
100
AcDbEntity
  8
0
 62
     7
100
AcDbBlockEnd
  0
BLOCK
  5
E19
330
E18
100
AcDbEntity
  8
0
 62
     7
100
AcDbBlockBegin
  2
*D21
 70
     1
 10
0.0
 20
0.0
 30
0.0
  3
*D21
  1

  0
LINE
  5
1295
330
E18
100
AcDbEntity
  8
P-50F5
  6
Continuous
 62
     2
370
    -2
100
AcDbLine
 10
-262.988112176301
 20
1885.024740406183
 30
0.0
 11
-482.0739422144852
 21
1885.024740406183
 31
0.0
  0
LINE
  5
1296
330
E18
100
AcDbEntity
  8
P-50F5
  6
Continuous
 62
     2
370
    -2
100
AcDbLine
 10
-262.988112176301
 20
1935.024740401183
 30
0.0
 11
-482.0739422144852
 21
1935.024740401183
 31
0.0
  0
LINE
  5
1297
330
E18
100
AcDbEntity
  8
P-50F5
  6
Continuous
 62
     2
370
    -2
100
AcDbLine
 10
-467.0739422144852
 20
1865.024740406183
 30
0.0
 11
-467.0739422144852
 21
1845.024740406183
 31
0.0
  0
LINE
  5
1298
330
E18
100
AcDbEntity
  8
P-50F5
  6
Continuous
 62
     2
370
    -2
100
AcDbLine
 10
-467.0739422144851
 20
1955.024740401183
 30
0.0
 11
-467.0739422144851
 21
1975.024740401183
 31
0.0
  0
LINE
  5
1299
330
E18
100
AcDbEntity
  8
P-50F5
  6
Continuous
 62
     2
370
    -2
100
AcDbLine
 10
-467.0739422144852
 20
1885.024740406183
 30
0.0
 11
-467.0739422144851
 21
1935.024740401183
 31
0.0
  0
SOLID
  5
129A
330
E18
100
AcDbEntity
  8
P-50F5
  6
Continuous
 62
     2
100
AcDbTrace
 10
-470.4072755478185
 20
1865.024740406183
 30
0.0
 11
-463.7406088811519
 21
1865.024740406183
 31
0.0
 12
-467.0739422144852
 22
1885.024740406183
 32
0.0
 13
-467.0739422144852
 23
1885.024740406183
 33
0.0
  0
SOLID
  5
129B
330
E18
100
AcDbEntity
  8
P-50F5
  6
Continuous
 62
     2
100
AcDbTrace
 10
-470.4072755478184
 20
1955.024740401183
 30
0.0
 11
-463.7406088811518
 21
1955.024740401183
 31
0.0
 12
-467.0739422144851
 22
1935.024740401183
 32
0.0
 13
-467.0739422144851
 23
1935.024740401183
 33
0.0
  0
MTEXT
  5
129C
330
E18
100
AcDbEntity
  8
P-50F5
  6
Continuous
 62
     1
100
AcDbMText
 10
-487.2998897363514
 20
1910.024740403683
 30
0.0
 40
20.0
 41
0.0
 71
     5
 72
     1
  1
\A1;5
  7
Stile_Quota
 11
0.0000000000000001
 21
1.0
 31
0.0
 73
     1
 44
1.0
1001
ACAD
1000
MTEXTBEGIN
1070
    73
1070
     1
1070
    44
1040
1.0
1070
    74
1070
     0
1000
MTEXTEND
  0
POINT
  5
129D
330
E18
100
AcDbEntity
  8
Defpoints
  6
Continuous
 62
     0
100
AcDbPoint
 10
-252.988112176301
 20
1885.024740406183
 30
0.0
  0
POINT
  5
129E
330
E18
100
AcDbEntity
  8
Defpoints
  6
Continuous
 62
     0
100
AcDbPoint
 10
-252.988112176301
 20
1935.024740401183
 30
0.0
  0
POINT
  5
129F
330
E18
100
AcDbEntity
  8
Defpoints
  6
Continuous
 62
     0
100
AcDbPoint
 10
-467.0739422144851
 20
1935.024740401183
 30
0.0
  0
ENDBLK
  5
E1A
330
E18
100
AcDbEntity
  8
0
 62
     7
100
AcDbBlockEnd
  0
BLOCK
  5
E9D
330
E9C
100
AcDbEntity
  8
0
 62
     3
100
AcDbBlockBegin
  2
*D22
 70
     1
 10
0.0
 20
0.0
 30
0.0
  3
*D22
  1

  0
LINE
  5
12A0
330
E9C
100
AcDbEntity
  8
P-50F5
  6
Continuous
 62
     2
370
    -2
100
AcDbLine
 10
-149.9881121875014
 20
2140.024740380683
 30
0.0
 11
-650.6455077995177
 21
2140.024740380683
 31
0.0
  0
LINE
  5
12A1
330
E9C
100
AcDbEntity
  8
P-50F5
  6
Continuous
 62
     2
370
    -2
100
AcDbLine
 10
-254.9881121770013
 20
1710.024740423684
 30
0.0
 11
-650.6455077995179
 21
1710.024740423684
 31
0.0
  0
LINE
  5
12A2
330
E9C
100
AcDbEntity
  8
P-50F5
  6
Continuous
 62
     2
370
    -2
100
AcDbLine
 10
-635.6455077995177
 20
2120.024740380683
 30
0.0
 11
-635.6455077995178
 21
1730.024740423684
 31
0.0
  0
SOLID
  5
12A3
330
E9C
100
AcDbEntity
  8
P-50F5
  6
Continuous
 62
     2
100
AcDbTrace
 10
-638.9788411328511
 20
2120.024740380683
 30
0.0
 11
-632.3121744661843
 21
2120.024740380683
 31
0.0
 12
-635.6455077995177
 22
2140.024740380683
 32
0.0
 13
-635.6455077995177
 23
2140.024740380683
 33
0.0
  0
SOLID
  5
12A4
330
E9C
100
AcDbEntity
  8
P-50F5
  6
Continuous
 62
     2
100
AcDbTrace
 10
-638.9788411328512
 20
1730.024740423684
 30
0.0
 11
-632.3121744661845
 21
1730.024740423684
 31
0.0
 12
-635.6455077995178
 22
1710.024740423684
 32
0.0
 13
-635.6455077995178
 23
1710.024740423684
 33
0.0
  0
MTEXT
  5
12A5
330
E9C
100
AcDbEntity
  8
P-50F5
  6
Continuous
 62
     1
100
AcDbMText
 10
-655.8568780619087
 20
1925.024740402183
 30
0.0
 40
20.0
 41
0.0
 71
     5
 72
     1
  1
\A1;43
  7
Stile_Quota
 11
0.0000000000000001
 21
1.0
 31
0.0
 73
     1
 44
1.0
1001
ACAD
1000
MTEXTBEGIN
1070
    73
1070
     1
1070
    44
1040
1.0
1070
    74
1070
     0
1000
MTEXTEND
  0
POINT
  5
12A6
330
E9C
100
AcDbEntity
  8
Defpoints
  6
Continuous
 62
     0
100
AcDbPoint
 10
-139.9881121875014
 20
2140.024740380683
 30
0.0
  0
POINT
  5
12A7
330
E9C
100
AcDbEntity
  8
Defpoints
  6
Continuous
 62
     0
100
AcDbPoint
 10
-244.9881121770013
 20
1710.024740423684
 30
0.0
  0
POINT
  5
12A8
330
E9C
100
AcDbEntity
  8
Defpoints
  6
Continuous
 62
     0
100
AcDbPoint
 10
-635.6455077995178
 20
1710.024740423684
 30
0.0
  0
ENDBLK
  5
E9E
330
E9C
100
AcDbEntity
  8
0
 62
     3
100
AcDbBlockEnd
  0
BLOCK
  5
ED1
330
ED0
100
AcDbEntity
  8
0
 62
     3
100
AcDbBlockBegin
  2
*D23
 70
     1
 10
0.0
 20
0.0
 30
0.0
  3
*D23
  1

  0
LINE
  5
100E
330
ED0
100
AcDbEntity
  8
P-50F5
  6
Continuous
 62
     2
370
    -2
100
AcDbLine
 10
-99.98811219050185
 20
2120.024740382684
 30
0.0
 11
178.2135287496349
 21
2120.024740382684
 31
0.0
  0
LINE
  5
100F
330
ED0
100
AcDbEntity
  8
P-50F5
  6
Continuous
 62
     2
370
    -2
100
AcDbLine
 10
-44.98811219600248
 20
2030.024740391684
 30
0.0
 11
178.2135287496348
 21
2030.024740391684
 31
0.0
  0
LINE
  5
1010
330
ED0
100
AcDbEntity
  8
P-50F5
  6
Continuous
 62
     2
370
    -2
100
AcDbLine
 10
163.2135287496348
 20
2100.024740382684
 30
0.0
 11
163.2135287496348
 21
2050.024740391684
 31
0.0
  0
SOLID
  5
1011
330
ED0
100
AcDbEntity
  8
P-50F5
  6
Continuous
 62
     2
100
AcDbTrace
 10
159.8801954163015
 20
2100.024740382684
 30
0.0
 11
166.5468620829682
 21
2100.024740382684
 31
0.0
 12
163.2135287496349
 22
2120.024740382684
 32
0.0
 13
163.2135287496349
 23
2120.024740382684
 33
0.0
  0
SOLID
  5
1012
330
ED0
100
AcDbEntity
  8
P-50F5
  6
Continuous
 62
     2
100
AcDbTrace
 10
159.8801954163015
 20
2050.024740391684
 30
0.0
 11
166.5468620829682
 21
2050.024740391684
 31
0.0
 12
163.2135287496348
 22
2030.024740391684
 32
0.0
 13
163.2135287496348
 23
2030.024740391684
 33
0.0
  0
MTEXT
  5
1013
330
ED0
100
AcDbEntity
  8
P-50F5
  6
Continuous
 62
     1
100
AcDbMText
 10
142.980292598031
 20
2075.024740387184
 30
0.0
 40
20.0
 41
0.0
 71
     5
 72
     1
  1
\A1;9
  7
Stile_Quota
 11
0.0000000000000001
 21
1.0
 31
0.0
 73
     1
 44
1.0
1001
ACAD
1000
MTEXTBEGIN
1070
    73
1070
     1
1070
    44
1040
1.0
1070
    74
1070
     0
1000
MTEXTEND
  0
POINT
  5
1014
330
ED0
100
AcDbEntity
  8
Defpoints
  6
Continuous
 62
     0
100
AcDbPoint
 10
-109.9881121905018
 20
2120.024740382684
 30
0.0
  0
POINT
  5
1015
330
ED0
100
AcDbEntity
  8
Defpoints
  6
Continuous
 62
     0
100
AcDbPoint
 10
-54.98811219600248
 20
2030.024740391684
 30
0.0
  0
POINT
  5
1016
330
ED0
100
AcDbEntity
  8
Defpoints
  6
Continuous
 62
     0
100
AcDbPoint
 10
163.2135287496348
 20
2030.024740391684
 30
0.0
  0
ENDBLK
  5
ED2
330
ED0
100
AcDbEntity
  8
0
 62
     3
100
AcDbBlockEnd
  0
BLOCK
  5
EE9
330
EE8
100
AcDbEntity
  8
0
 62
     3
100
AcDbBlockBegin
  2
*D24
 70
     1
 10
0.0
 20
0.0
 30
0.0
  3
*D24
  1

  0
LINE
  5
FFA
330
EE8
100
AcDbEntity
  8
P-50F5
  6
Continuous
 62
     2
370
    -2
100
AcDbLine
 10
-99.98811219050185
 20
2120.024740382682
 30
0.0
 11
178.2135287496349
 21
2120.024740382682
 31
0.0
  0
LINE
  5
FFB
330
EE8
100
AcDbEntity
  8
P-50F5
  6
Continuous
 62
     2
370
    -2
100
AcDbLine
 10
-89.98811219150139
 20
2140.024740380683
 30
0.0
 11
178.2135287496349
 21
2140.024740380683
 31
0.0
  0
LINE
  5
FFC
330
EE8
100
AcDbEntity
  8
P-50F5
  6
Continuous
 62
     2
370
    -2
100
AcDbLine
 10
163.2135287496348
 20
2100.024740382682
 30
0.0
 11
163.2135287496348
 21
2080.024740382682
 31
0.0
  0
LINE
  5
FFD
330
EE8
100
AcDbEntity
  8
P-50F5
  6
Continuous
 62
     2
370
    -2
100
AcDbLine
 10
163.2135287496349
 20
2160.024740380683
 30
0.0
 11
163.2135287496349
 21
2213.421241838409
 31
0.0
  0
LINE
  5
FFE
330
EE8
100
AcDbEntity
  8
P-50F5
  6
Continuous
 62
     2
370
    -2
100
AcDbLine
 10
163.2135287496349
 20
2120.024740382682
 30
0.0
 11
163.2135287496349
 21
2140.024740380683
 31
0.0
  0
SOLID
  5
FFF
330
EE8
100
AcDbEntity
  8
P-50F5
  6
Continuous
 62
     2
100
AcDbTrace
 10
159.8801954163015
 20
2100.024740382682
 30
0.0
 11
166.5468620829682
 21
2100.024740382682
 31
0.0
 12
163.2135287496349
 22
2120.024740382682
 32
0.0
 13
163.2135287496349
 23
2120.024740382682
 33
0.0
  0
SOLID
  5
1000
330
EE8
100
AcDbEntity
  8
P-50F5
  6
Continuous
 62
     2
100
AcDbTrace
 10
159.8801954163015
 20
2160.024740380683
 30
0.0
 11
166.5468620829682
 21
2160.024740380683
 31
0.0
 12
163.2135287496349
 22
2140.024740380683
 32
0.0
 13
163.2135287496349
 23
2140.024740380683
 33
0.0
  0
MTEXT
  5
1001
330
EE8
100
AcDbEntity
  8
P-50F5
  6
Continuous
 62
     1
100
AcDbMText
 10
143.2135287496345
 20
2196.722991109546
 30
0.0
 40
20.0
 41
0.0
 71
     5
 72
     1
  1
\A1;2
  7
Stile_Quota
 11
0.0000000000000001
 21
1.0
 31
0.0
 73
     1
 44
1.0
1001
ACAD
1000
MTEXTBEGIN
1070
    73
1070
     1
1070
    44
1040
1.0
1070
    74
1070
     0
1000
MTEXTEND
  0
POINT
  5
1002
330
EE8
100
AcDbEntity
  8
Defpoints
  6
Continuous
 62
     0
100
AcDbPoint
 10
-109.9881121905018
 20
2120.024740382682
 30
0.0
  0
POINT
  5
1003
330
EE8
100
AcDbEntity
  8
Defpoints
  6
Continuous
 62
     0
100
AcDbPoint
 10
-99.98811219150139
 20
2140.024740380683
 30
0.0
  0
POINT
  5
1004
330
EE8
100
AcDbEntity
  8
Defpoints
  6
Continuous
 62
     0
100
AcDbPoint
 10
163.2135287496349
 20
2140.024740380683
 30
0.0
  0
ENDBLK
  5
EEA
330
EE8
100
AcDbEntity
  8
0
 62
     3
100
AcDbBlockEnd
  0
BLOCK
  5
F05
330
F04
100
AcDbEntity
  8
0
 62
     3
100
AcDbBlockBegin
  2
*D25
 70
     1
 10
0.0
 20
0.0
 30
0.0
  3
*D25
  1

  0
LINE
  5
1005
330
F04
100
AcDbEntity
  8
P-50F5
  6
Continuous
 62
     2
370
    -2
100
AcDbLine
 10
15.01188779799849
 20
1710.024740423684
 30
0.0
 11
237.6380405806721
 21
1710.024740423684
 31
0.0
  0
LINE
  5
1006
330
F04
100
AcDbEntity
  8
P-50F5
  6
Continuous
 62
     2
370
    -2
100
AcDbLine
 10
15.01188779799849
 20
2131.661635646965
 30
0.0
 11
237.6380405806722
 21
2131.661635646965
 31
0.0
  0
LINE
  5
1007
330
F04
100
AcDbEntity
  8
P-50F5
  6
Continuous
 62
     2
370
    -2
100
AcDbLine
 10
222.6380405806721
 20
1730.024740423684
 30
0.0
 11
222.6380405806722
 21
2111.661635646965
 31
0.0
  0
SOLID
  5
1008
330
F04
100
AcDbEntity
  8
P-50F5
  6
Continuous
 62
     2
100
AcDbTrace
 10
219.3047072473388
 20
1730.024740423684
 30
0.0
 11
225.9713739140055
 21
1730.024740423684
 31
0.0
 12
222.6380405806721
 22
1710.024740423684
 32
0.0
 13
222.6380405806721
 23
1710.024740423684
 33
0.0
  0
SOLID
  5
1009
330
F04
100
AcDbEntity
  8
P-50F5
  6
Continuous
 62
     2
100
AcDbTrace
 10
219.3047072473388
 20
2111.661635646965
 30
0.0
 11
225.9713739140055
 21
2111.661635646965
 31
0.0
 12
222.6380405806722
 22
2131.661635646965
 32
0.0
 13
222.6380405806722
 23
2131.661635646965
 33
0.0
  0
MTEXT
  5
100A
330
F04
100
AcDbEntity
  8
P-50F5
  6
Continuous
 62
     1
100
AcDbMText
 10
202.4558248372316
 20
1920.843188035324
 30
0.0
 40
20.0
 41
0.0
 71
     5
 72
     1
  1
\A1;42.2
  7
Stile_Quota
 11
0.0000000000000001
 21
1.0
 31
0.0
 73
     1
 44
1.0
1001
ACAD
1000
MTEXTBEGIN
1070
    73
1070
     1
1070
    44
1040
1.0
1070
    74
1070
     0
1000
MTEXTEND
  0
POINT
  5
100B
330
F04
100
AcDbEntity
  8
Defpoints
  6
Continuous
 62
     0
100
AcDbPoint
 10
5.011887797998497
 20
1710.024740423684
 30
0.0
  0
POINT
  5
100C
330
F04
100
AcDbEntity
  8
Defpoints
  6
Continuous
 62
     0
100
AcDbPoint
 10
5.011887797998498
 20
2131.661635646965
 30
0.0
  0
POINT
  5
100D
330
F04
100
AcDbEntity
  8
Defpoints
  6
Continuous
 62
     0
100
AcDbPoint
 10
222.6380405806722
 20
2131.661635646965
 30
0.0
  0
ENDBLK
  5
F06
330
F04
100
AcDbEntity
  8
0
 62
     3
100
AcDbBlockEnd
  0
BLOCK
  5
F2F
330
F2E
100
AcDbEntity
  8
0
 62
     3
100
AcDbBlockBegin
  2
*D26
 70
     1
 10
0.0
 20
0.0
 30
0.0
  3
*D26
  1

  0
LINE
  5
FC7
330
F2E
100
AcDbEntity
  8
P-50F5
  6
Continuous
 62
     2
370
    -2
100
AcDbLine
 10
-4.988112201001967
 20
2131.661635647965
 30
0.0
 11
-4.988112201001952
 21
2373.537610361408
 31
0.0
  0
LINE
  5
FC8
330
F2E
100
AcDbEntity
  8
P-50F5
  6
Continuous
 62
     2
370
    -2
100
AcDbLine
 10
30.01188779549921
 20
2085.024740387184
 30
0.0
 11
30.01188779549922
 21
2373.537610361408
 31
0.0
  0
LINE
  5
FC9
330
F2E
100
AcDbEntity
  8
P-50F5
  6
Continuous
 62
     2
370
    -2
100
AcDbLine
 10
-24.98811220100196
 20
2358.537610361408
 30
0.0
 11
-44.98811220100195
 21
2358.537610361408
 31
0.0
  0
LINE
  5
FCA
330
F2E
100
AcDbEntity
  8
P-50F5
  6
Continuous
 62
     2
370
    -2
100
AcDbLine
 10
50.01188779549922
 20
2358.537610361408
 30
0.0
 11
127.1547449383563
 21
2358.537610361408
 31
0.0
  0
LINE
  5
FCB
330
F2E
100
AcDbEntity
  8
P-50F5
  6
Continuous
 62
     2
370
    -2
100
AcDbLine
 10
-4.988112201001953
 20
2358.537610361408
 30
0.0
 11
30.01188779549922
 21
2358.537610361408
 31
0.0
  0
SOLID
  5
FCC
330
F2E
100
AcDbEntity
  8
P-50F5
  6
Continuous
 62
     2
100
AcDbTrace
 10
-24.98811220100196
 20
2361.870943694742
 30
0.0
 11
-24.98811220100196
 21
2355.204277028075
 31
0.0
 12
-4.988112201001953
 22
2358.537610361408
 32
0.0
 13
-4.988112201001953
 23
2358.537610361408
 33
0.0
  0
SOLID
  5
FCD
330
F2E
100
AcDbEntity
  8
P-50F5
  6
Continuous
 62
     2
100
AcDbTrace
 10
50.01188779549922
 20
2361.870943694742
 30
0.0
 11
50.01188779549922
 21
2355.204277028075
 31
0.0
 12
30.01188779549922
 22
2358.537610361408
 32
0.0
 13
30.01188779549922
 23
2358.537610361408
 33
0.0
  0
MTEXT
  5
FCE
330
F2E
100
AcDbEntity
  8
P-50F5
  6
Continuous
 62
     1
100
AcDbMText
 10
98.5833163669278
 20
2378.763557883274
 30
0.0
 40
20.0
 41
0.0
 71
     5
 72
     1
  1
\A1;3.5
  7
Stile_Quota
 73
     1
 44
1.0
1001
ACAD
1000
MTEXTBEGIN
1070
    73
1070
     1
1070
    44
1040
1.0
1070
    74
1070
     0
1000
MTEXTEND
  0
POINT
  5
FCF
330
F2E
100
AcDbEntity
  8
Defpoints
  6
Continuous
 62
     0
100
AcDbPoint
 10
-4.988112201001968
 20
2121.661635647965
 30
0.0
  0
POINT
  5
FD0
330
F2E
100
AcDbEntity
  8
Defpoints
  6
Continuous
 62
     0
100
AcDbPoint
 10
30.01188779549921
 20
2075.024740387184
 30
0.0
  0
POINT
  5
FD1
330
F2E
100
AcDbEntity
  8
Defpoints
  6
Continuous
 62
     0
100
AcDbPoint
 10
30.01188779549922
 20
2358.537610361408
 30
0.0
  0
ENDBLK
  5
F30
330
F2E
100
AcDbEntity
  8
0
 62
     3
100
AcDbBlockEnd
  0
BLOCK
  5
F4B
330
F4A
100
AcDbEntity
  8
0
 62
     3
100
AcDbBlockBegin
  2
*D27
 70
     1
 10
0.0
 20
0.0
 30
0.0
  3
*D27
  1

  0
LINE
  5
FD2
330
F4A
100
AcDbEntity
  8
P-50F5
  6
Continuous
 62
     2
370
    -2
100
AcDbLine
 10
-4.988112201001967
 20
2131.661635647965
 30
0.0
 11
-4.988112201001952
 21
2373.537610361408
 31
0.0
  0
LINE
  5
FD3
330
F4A
100
AcDbEntity
  8
P-50F5
  6
Continuous
 62
     2
370
    -2
100
AcDbLine
 10
-89.98811219250139
 20
2140.024740381683
 30
0.0
 11
-89.98811219250137
 21
2373.537610361408
 31
0.0
  0
LINE
  5
FD4
330
F4A
100
AcDbEntity
  8
P-50F5
  6
Continuous
 62
     2
370
    -2
100
AcDbLine
 10
-24.98811220100196
 20
2358.537610361408
 30
0.0
 11
-69.98811219250137
 21
2358.537610361408
 31
0.0
  0
SOLID
  5
FD5
330
F4A
100
AcDbEntity
  8
P-50F5
  6
Continuous
 62
     2
100
AcDbTrace
 10
-24.98811220100196
 20
2361.870943694742
 30
0.0
 11
-24.98811220100196
 21
2355.204277028075
 31
0.0
 12
-4.988112201001953
 22
2358.537610361408
 32
0.0
 13
-4.988112201001953
 23
2358.537610361408
 33
0.0
  0
SOLID
  5
FD6
330
F4A
100
AcDbEntity
  8
P-50F5
  6
Continuous
 62
     2
100
AcDbTrace
 10
-69.98811219250137
 20
2361.870943694742
 30
0.0
 11
-69.98811219250137
 21
2355.204277028075
 31
0.0
 12
-89.98811219250137
 22
2358.537610361408
 32
0.0
 13
-89.98811219250137
 23
2358.537610361408
 33
0.0
  0
MTEXT
  5
FD7
330
F4A
100
AcDbEntity
  8
P-50F5
  6
Continuous
 62
     1
100
AcDbMText
 10
-47.48811219675166
 20
2378.763557883274
 30
0.0
 40
20.0
 41
0.0
 71
     5
 72
     1
  1
\A1;8.5
  7
Stile_Quota
 73
     1
 44
1.0
1001
ACAD
1000
MTEXTBEGIN
1070
    73
1070
     1
1070
    44
1040
1.0
1070
    74
1070
     0
1000
MTEXTEND
  0
POINT
  5
FD8
330
F4A
100
AcDbEntity
  8
Defpoints
  6
Continuous
 62
     0
100
AcDbPoint
 10
-4.988112201001968
 20
2121.661635647965
 30
0.0
  0
POINT
  5
FD9
330
F4A
100
AcDbEntity
  8
Defpoints
  6
Continuous
 62
     0
100
AcDbPoint
 10
-89.98811219250139
 20
2130.024740381683
 30
0.0
  0
POINT
  5
FDA
330
F4A
100
AcDbEntity
  8
Defpoints
  6
Continuous
 62
     0
100
AcDbPoint
 10
-89.98811219250137
 20
2358.537610361408
 30
0.0
  0
ENDBLK
  5
F4C
330
F4A
100
AcDbEntity
  8
0
 62
     3
100
AcDbBlockEnd
  0
BLOCK
  5
F63
330
F62
100
AcDbEntity
  8
0
 62
     3
100
AcDbBlockBegin
  2
*D28
 70
     1
 10
0.0
 20
0.0
 30
0.0
  3
*D28
  1

  0
LINE
  5
FDB
330
F62
100
AcDbEntity
  8
P-50F5
  6
Continuous
 62
     2
370
    -2
100
AcDbLine
 10
-89.98811219250139
 20
2140.024740381683
 30
0.0
 11
-89.98811219250137
 21
2373.537610361408
 31
0.0
  0
LINE
  5
FDC
330
F62
100
AcDbEntity
  8
P-50F5
  6
Continuous
 62
     2
370
    -2
100
AcDbLine
 10
-149.988112186501
 20
2140.024740381683
 30
0.0
 11
-149.9881121865009
 21
2373.537610361408
 31
0.0
  0
LINE
  5
FDD
330
F62
100
AcDbEntity
  8
P-50F5
  6
Continuous
 62
     2
370
    -2
100
AcDbLine
 10
-69.98811219250137
 20
2358.537610361408
 30
0.0
 11
-49.98811219250137
 21
2358.537610361408
 31
0.0
  0
LINE
  5
FDE
330
F62
100
AcDbEntity
  8
P-50F5
  6
Continuous
 62
     2
370
    -2
100
AcDbLine
 10
-169.988112186501
 20
2358.537610361408
 30
0.0
 11
-189.988112186501
 21
2358.537610361408
 31
0.0
  0
LINE
  5
FDF
330
F62
100
AcDbEntity
  8
P-50F5
  6
Continuous
 62
     2
370
    -2
100
AcDbLine
 10
-89.98811219250137
 20
2358.537610361408
 30
0.0
 11
-149.988112186501
 21
2358.537610361408
 31
0.0
  0
SOLID
  5
FE0
330
F62
100
AcDbEntity
  8
P-50F5
  6
Continuous
 62
     2
100
AcDbTrace
 10
-69.98811219250137
 20
2361.870943694742
 30
0.0
 11
-69.98811219250137
 21
2355.204277028075
 31
0.0
 12
-89.98811219250137
 22
2358.537610361408
 32
0.0
 13
-89.98811219250137
 23
2358.537610361408
 33
0.0
  0
SOLID
  5
FE1
330
F62
100
AcDbEntity
  8
P-50F5
  6
Continuous
 62
     2
100
AcDbTrace
 10
-169.988112186501
 20
2361.870943694742
 30
0.0
 11
-169.988112186501
 21
2355.204277028075
 31
0.0
 12
-149.988112186501
 22
2358.537610361408
 32
0.0
 13
-149.988112186501
 23
2358.537610361408
 33
0.0
  0
MTEXT
  5
FE2
330
F62
100
AcDbEntity
  8
P-50F5
  6
Continuous
 62
     1
100
AcDbMText
 10
-119.9881121895012
 20
2378.763557883274
 30
0.0
 40
20.0
 41
0.0
 71
     5
 72
     1
  1
\A1;6
  7
Stile_Quota
 73
     1
 44
1.0
1001
ACAD
1000
MTEXTBEGIN
1070
    73
1070
     1
1070
    44
1040
1.0
1070
    74
1070
     0
1000
MTEXTEND
  0
POINT
  5
FE3
330
F62
100
AcDbEntity
  8
Defpoints
  6
Continuous
 62
     0
100
AcDbPoint
 10
-89.98811219250139
 20
2130.024740381683
 30
0.0
  0
POINT
  5
FE4
330
F62
100
AcDbEntity
  8
Defpoints
  6
Continuous
 62
     0
100
AcDbPoint
 10
-149.988112186501
 20
2130.024740381683
 30
0.0
  0
POINT
  5
FE5
330
F62
100
AcDbEntity
  8
Defpoints
  6
Continuous
 62
     0
100
AcDbPoint
 10
-149.988112186501
 20
2358.537610361408
 30
0.0
  0
ENDBLK
  5
F64
330
F62
100
AcDbEntity
  8
0
 62
     3
100
AcDbBlockEnd
  0
BLOCK
  5
F7F
330
F7E
100
AcDbEntity
  8
0
 62
     3
100
AcDbBlockBegin
  2
*D29
 70
     1
 10
0.0
 20
0.0
 30
0.0
  3
*D29
  1

  0
LINE
  5
FE6
330
F7E
100
AcDbEntity
  8
P-50F5
  6
Continuous
 62
     2
370
    -2
100
AcDbLine
 10
-149.988112186501
 20
2140.024740381683
 30
0.0
 11
-149.9881121865009
 21
2373.537610361408
 31
0.0
  0
LINE
  5
FE7
330
F7E
100
AcDbEntity
  8
P-50F5
  6
Continuous
 62
     2
370
    -2
100
AcDbLine
 10
-234.9881121780009
 20
2131.661635647965
 30
0.0
 11
-234.9881121780008
 21
2373.537610361408
 31
0.0
  0
LINE
  5
FE8
330
F7E
100
AcDbEntity
  8
P-50F5
  6
Continuous
 62
     2
370
    -2
100
AcDbLine
 10
-169.988112186501
 20
2358.537610361408
 30
0.0
 11
-214.9881121780008
 21
2358.537610361408
 31
0.0
  0
SOLID
  5
FE9
330
F7E
100
AcDbEntity
  8
P-50F5
  6
Continuous
 62
     2
100
AcDbTrace
 10
-169.988112186501
 20
2361.870943694742
 30
0.0
 11
-169.988112186501
 21
2355.204277028075
 31
0.0
 12
-149.988112186501
 22
2358.537610361408
 32
0.0
 13
-149.988112186501
 23
2358.537610361408
 33
0.0
  0
SOLID
  5
FEA
330
F7E
100
AcDbEntity
  8
P-50F5
  6
Continuous
 62
     2
100
AcDbTrace
 10
-214.9881121780008
 20
2361.870943694742
 30
0.0
 11
-214.9881121780008
 21
2355.204277028075
 31
0.0
 12
-234.9881121780008
 22
2358.537610361408
 32
0.0
 13
-234.9881121780008
 23
2358.537610361408
 33
0.0
  0
MTEXT
  5
FEB
330
F7E
100
AcDbEntity
  8
P-50F5
  6
Continuous
 62
     1
100
AcDbMText
 10
-192.4881121822509
 20
2378.763557883274
 30
0.0
 40
20.0
 41
0.0
 71
     5
 72
     1
  1
\A1;8.5
  7
Stile_Quota
 73
     1
 44
1.0
1001
ACAD
1000
MTEXTBEGIN
1070
    73
1070
     1
1070
    44
1040
1.0
1070
    74
1070
     0
1000
MTEXTEND
  0
POINT
  5
FEC
330
F7E
100
AcDbEntity
  8
Defpoints
  6
Continuous
 62
     0
100
AcDbPoint
 10
-149.988112186501
 20
2130.024740381683
 30
0.0
  0
POINT
  5
FED
330
F7E
100
AcDbEntity
  8
Defpoints
  6
Continuous
 62
     0
100
AcDbPoint
 10
-234.9881121780009
 20
2121.661635647965
 30
0.0
  0
POINT
  5
FEE
330
F7E
100
AcDbEntity
  8
Defpoints
  6
Continuous
 62
     0
100
AcDbPoint
 10
-234.9881121780008
 20
2358.537610361408
 30
0.0
  0
ENDBLK
  5
F80
330
F7E
100
AcDbEntity
  8
0
 62
     3
100
AcDbBlockEnd
  0
BLOCK
  5
F97
330
F96
100
AcDbEntity
  8
0
 62
     3
100
AcDbBlockBegin
  2
*D30
 70
     1
 10
0.0
 20
0.0
 30
0.0
  3
*D30
  1

  0
LINE
  5
FEF
330
F96
100
AcDbEntity
  8
P-50F5
  6
Continuous
 62
     2
370
    -2
100
AcDbLine
 10
-234.9881121780009
 20
2131.661635647965
 30
0.0
 11
-234.9881121780008
 21
2373.537610361408
 31
0.0
  0
LINE
  5
FF0
330
F96
100
AcDbEntity
  8
P-50F5
  6
Continuous
 62
     2
370
    -2
100
AcDbLine
 10
-269.9881121745006
 20
2085.024740387184
 30
0.0
 11
-269.9881121745006
 21
2373.537610361408
 31
0.0
  0
LINE
  5
FF1
330
F96
100
AcDbEntity
  8
P-50F5
  6
Continuous
 62
     2
370
    -2
100
AcDbLine
 10
-214.9881121780008
 20
2358.537610361408
 30
0.0
 11
-194.9881121780008
 21
2358.537610361408
 31
0.0
  0
LINE
  5
FF2
330
F96
100
AcDbEntity
  8
P-50F5
  6
Continuous
 62
     2
370
    -2
100
AcDbLine
 10
-289.9881121745005
 20
2358.537610361408
 30
0.0
 11
-367.1309693173577
 21
2358.537610361408
 31
0.0
  0
LINE
  5
FF3
330
F96
100
AcDbEntity
  8
P-50F5
  6
Continuous
 62
     2
370
    -2
100
AcDbLine
 10
-234.9881121780008
 20
2358.537610361408
 30
0.0
 11
-269.9881121745006
 21
2358.537610361408
 31
0.0
  0
SOLID
  5
FF4
330
F96
100
AcDbEntity
  8
P-50F5
  6
Continuous
 62
     2
100
AcDbTrace
 10
-214.9881121780008
 20
2361.870943694742
 30
0.0
 11
-214.9881121780008
 21
2355.204277028075
 31
0.0
 12
-234.9881121780008
 22
2358.537610361408
 32
0.0
 13
-234.9881121780008
 23
2358.537610361408
 33
0.0
  0
SOLID
  5
FF5
330
F96
100
AcDbEntity
  8
P-50F5
  6
Continuous
 62
     2
100
AcDbTrace
 10
-289.9881121745005
 20
2361.870943694742
 30
0.0
 11
-289.9881121745005
 21
2355.204277028075
 31
0.0
 12
-269.9881121745006
 22
2358.537610361408
 32
0.0
 13
-269.9881121745006
 23
2358.537610361408
 33
0.0
  0
MTEXT
  5
FF6
330
F96
100
AcDbEntity
  8
P-50F5
  6
Continuous
 62
     1
100
AcDbMText
 10
-338.5595407459291
 20
2378.763557883274
 30
0.0
 40
20.0
 41
0.0
 71
     5
 72
     1
  1
\A1;3.5
  7
Stile_Quota
 73
     1
 44
1.0
1001
ACAD
1000
MTEXTBEGIN
1070
    73
1070
     1
1070
    44
1040
1.0
1070
    74
1070
     0
1000
MTEXTEND
  0
POINT
  5
FF7
330
F96
100
AcDbEntity
  8
Defpoints
  6
Continuous
 62
     0
100
AcDbPoint
 10
-234.9881121780009
 20
2121.661635647965
 30
0.0
  0
POINT
  5
FF8
330
F96
100
AcDbEntity
  8
Defpoints
  6
Continuous
 62
     0
100
AcDbPoint
 10
-269.9881121745006
 20
2075.024740387184
 30
0.0
  0
POINT
  5
FF9
330
F96
100
AcDbEntity
  8
Defpoints
  6
Continuous
 62
     0
100
AcDbPoint
 10
-269.9881121745006
 20
2358.537610361408
 30
0.0
  0
ENDBLK
  5
F98
330
F96
100
AcDbEntity
  8
0
 62
     3
100
AcDbBlockEnd
  0
BLOCK
  5
101A
330
1019
100
AcDbEntity
  8
0
 62
     3
100
AcDbBlockBegin
  2
*D31
 70
     1
 10
0.0
 20
0.0
 30
0.0
  3
*D31
  1

  0
LINE
  5
16E1
330
1019
100
AcDbEntity
  8
P-50F5
  6
Continuous
 62
     2
370
    -2
100
AcDbLine
 10
-275.8659186926063
 20
1702.29003308234
 30
0.0
 11
-343.3929908657313
 21
1630.702080618194
 31
0.0
  0
LINE
  5
16E2
330
1019
100
AcDbEntity
  8
P-50F5
  6
Continuous
 62
     2
370
    -2
100
AcDbLine
 10
-244.9881121770013
 20
1735.024740421183
 30
0.0
 11
-262.1424491293522
 21
1716.838791900412
 31
0.0
  0
SOLID
  5
16E3
330
1019
100
AcDbEntity
  8
P-50F5
  6
Continuous
 62
     2
100
AcDbTrace
 10
-278.2907118289517
 20
1704.577278009548
 30
0.0
 11
-273.441125556261
 21
1700.00278815513
 31
0.0
 12
-262.1424491293522
 22
1716.838791900412
 32
0.0
 13
-262.1424491293522
 23
1716.838791900412
 33
0.0
  0
MTEXT
  5
16E4
330
1019
100
AcDbEntity
  8
P-50F5
  6
Continuous
 62
     1
100
AcDbMText
 10
-331.2043111789268
 20
1673.100186201445
 30
0.0
 40
20.0
 41
0.0
 71
     5
 72
     1
  1
\A1;R2.5
  7
Stile_Quota
 11
0.6861734781626994
 21
0.7274379409036235
 31
0.0
 73
     1
 44
1.0
1001
ACAD
1000
MTEXTBEGIN
1070
    73
1070
     1
1070
    44
1040
1.0
1070
    74
1070
     0
1000
MTEXTEND
  0
POINT
  5
16E5
330
1019
100
AcDbEntity
  8
Defpoints
  6
Continuous
 62
     0
100
AcDbPoint
 10
-262.1424491293522
 20
1716.838791900412
 30
0.0
  0
POINT
  5
16E6
330
1019
100
AcDbEntity
  8
Defpoints
  6
Continuous
 62
     0
100
AcDbPoint
 10
-244.9881121770013
 20
1735.024740421183
 30
0.0
  0
ENDBLK
  5
101B
330
1019
100
AcDbEntity
  8
0
 62
     3
100
AcDbBlockEnd
  0
BLOCK
  5
102C
330
102B
100
AcDbEntity
  8
0
 62
     3
100
AcDbBlockBegin
  2
*D32
 70
     1
 10
0.0
 20
0.0
 30
0.0
  3
*D32
  1

  0
LINE
  5
16DB
330
102B
100
AcDbEntity
  8
P-50F5
  6
Continuous
 62
     2
370
    -2
100
AcDbLine
 10
37.74410298929558
 20
1704.144292101159
 30
0.0
 11
109.3266053439191
 21
1636.61144253198
 31
0.0
  0
LINE
  5
16DC
330
102B
100
AcDbEntity
  8
P-50F5
  6
Continuous
 62
     2
370
    -2
100
AcDbLine
 10
5.011887797998497
 20
1735.024740421183
 30
0.0
 11
23.19645179235545
 21
1717.86893579971
 31
0.0
  0
SOLID
  5
16DD
330
102B
100
AcDbEntity
  8
P-50F5
  6
Continuous
 62
     2
100
AcDbTrace
 10
40.03154360572068
 20
1706.568900633983
 30
0.0
 11
35.45666237287071
 21
1701.719683568336
 31
0.0
 12
23.19645179235545
 22
1717.86893579971
 32
0.0
 13
23.19645179235545
 23
1717.86893579971
 33
0.0
  0
MTEXT
  5
16DE
330
102B
100
AcDbEntity
  8
P-50F5
  6
Continuous
 62
     1
100
AcDbMText
 10
94.68887592523719
 20
1678.22754695108
 30
0.0
 40
20.0
 41
0.0
 71
     5
 72
     1
  1
\A1;R2.5
  7
Stile_Quota
 11
0.7273825598470117
 21
-0.6862321849275278
 31
0.0
 73
     1
 44
1.0
1001
ACAD
1000
MTEXTBEGIN
1070
    73
1070
     1
1070
    44
1040
1.0
1070
    74
1070
     0
1000
MTEXTEND
  0
POINT
  5
16DF
330
102B
100
AcDbEntity
  8
Defpoints
  6
Continuous
 62
     0
100
AcDbPoint
 10
23.19645179235545
 20
1717.86893579971
 30
0.0
  0
POINT
  5
16E0
330
102B
100
AcDbEntity
  8
Defpoints
  6
Continuous
 62
     0
100
AcDbPoint
 10
5.011887797998497
 20
1735.024740421183
 30
0.0
  0
ENDBLK
  5
102D
330
102B
100
AcDbEntity
  8
0
 62
     3
100
AcDbBlockEnd
  0
BLOCK
  5
103E
330
103D
100
AcDbEntity
  8
0
 62
     3
100
AcDbBlockBegin
  2
*D33
 70
     1
 10
0.0
 20
0.0
 30
0.0
  3
*D33
  1

  0
LINE
  5
11D2
330
103D
100
AcDbEntity
  8
P-50F5
  6
Continuous
 62
     2
370
    -2
100
AcDbLine
 10
-189.9881121825019
 20
1985.024740395284
 30
0.0
 11
-189.9881121825019
 21
1850.052495317737
 31
0.0
  0
LINE
  5
11D3
330
103D
100
AcDbEntity
  8
P-50F5
  6
Continuous
 62
     2
370
    -2
100
AcDbLine
 10
-49.9881121965011
 20
1985.024740395284
 30
0.0
 11
-49.98811219650111
 21
1850.052495317737
 31
0.0
  0
LINE
  5
11D4
330
103D
100
AcDbEntity
  8
P-50F5
  6
Continuous
 62
     2
370
    -2
100
AcDbLine
 10
-169.9881121825019
 20
1865.052495317737
 30
0.0
 11
-69.98811219650111
 21
1865.052495317737
 31
0.0
  0
SOLID
  5
11D5
330
103D
100
AcDbEntity
  8
P-50F5
  6
Continuous
 62
     2
100
AcDbTrace
 10
-169.9881121825019
 20
1868.38582865107
 30
0.0
 11
-169.9881121825019
 21
1861.719161984404
 31
0.0
 12
-189.9881121825019
 22
1865.052495317737
 32
0.0
 13
-189.9881121825019
 23
1865.052495317737
 33
0.0
  0
SOLID
  5
11D6
330
103D
100
AcDbEntity
  8
P-50F5
  6
Continuous
 62
     2
100
AcDbTrace
 10
-69.98811219650111
 20
1868.38582865107
 30
0.0
 11
-69.98811219650111
 21
1861.719161984404
 31
0.0
 12
-49.98811219650111
 22
1865.052495317737
 32
0.0
 13
-49.98811219650111
 23
1865.052495317737
 33
0.0
  0
MTEXT
  5
11D7
330
103D
100
AcDbEntity
  8
P-50F5
  6
Continuous
 62
     1
100
AcDbMText
 10
-119.9881121895015
 20
1885.052495317737
 30
0.0
 40
20.0
 41
0.0
 71
     5
 72
     1
  1
\A1;14
  7
Stile_Quota
 73
     1
 44
1.0
1001
ACAD
1000
MTEXTBEGIN
1070
    73
1070
     1
1070
    44
1040
1.0
1070
    74
1070
     0
1000
MTEXTEND
  0
POINT
  5
11D8
330
103D
100
AcDbEntity
  8
Defpoints
  6
Continuous
 62
     0
100
AcDbPoint
 10
-189.9881121825019
 20
1995.024740395284
 30
0.0
  0
POINT
  5
11D9
330
103D
100
AcDbEntity
  8
Defpoints
  6
Continuous
 62
     0
100
AcDbPoint
 10
-49.9881121965011
 20
1995.024740395284
 30
0.0
  0
POINT
  5
11DA
330
103D
100
AcDbEntity
  8
Defpoints
  6
Continuous
 62
     0
100
AcDbPoint
 10
-49.98811219650111
 20
1865.052495317737
 30
0.0
  0
ENDBLK
  5
103F
330
103D
100
AcDbEntity
  8
0
 62
     3
100
AcDbBlockEnd
  0
BLOCK
  5
1056
330
1055
100
AcDbEntity
  8
0
 62
     3
100
AcDbBlockBegin
  2
*D34
 70
     1
 10
0.0
 20
0.0
 30
0.0
  3
*D34
  1

  0
LINE
  5
11B1
330
1055
100
AcDbEntity
  8
P-50F5
  6
Continuous
 62
     2
370
    -2
100
AcDbLine
 10
-134.9881121880007
 20
2040.024740389684
 30
0.0
 11
-134.9881121880007
 21
1895.006464276828
 31
0.0
  0
LINE
  5
11B2
330
1055
100
AcDbEntity
  8
P-50F5
  6
Continuous
 62
     2
370
    -2
100
AcDbLine
 10
-189.9881121825017
 20
1985.024740395284
 30
0.0
 11
-189.9881121825017
 21
1895.006464276828
 31
0.0
  0
LINE
  5
11B3
330
1055
100
AcDbEntity
  8
P-50F5
  6
Continuous
 62
     2
370
    -2
100
AcDbLine
 10
-114.9881121880007
 20
1910.006464276828
 30
0.0
 11
-94.98811218800074
 21
1910.006464276828
 31
0.0
  0
LINE
  5
11B4
330
1055
100
AcDbEntity
  8
P-50F5
  6
Continuous
 62
     2
370
    -2
100
AcDbLine
 10
-209.9881121825017
 20
1910.006464276828
 30
0.0
 11
-229.9881121825017
 21
1910.006464276828
 31
0.0
  0
LINE
  5
11B5
330
1055
100
AcDbEntity
  8
P-50F5
  6
Continuous
 62
     2
370
    -2
100
AcDbLine
 10
-134.9881121880007
 20
1910.006464276828
 30
0.0
 11
-189.9881121825017
 21
1910.006464276828
 31
0.0
  0
SOLID
  5
11B6
330
1055
100
AcDbEntity
  8
P-50F5
  6
Continuous
 62
     2
100
AcDbTrace
 10
-114.9881121880007
 20
1913.339797610161
 30
0.0
 11
-114.9881121880007
 21
1906.673130943495
 31
0.0
 12
-134.9881121880007
 22
1910.006464276828
 32
0.0
 13
-134.9881121880007
 23
1910.006464276828
 33
0.0
  0
SOLID
  5
11B7
330
1055
100
AcDbEntity
  8
P-50F5
  6
Continuous
 62
     2
100
AcDbTrace
 10
-209.9881121825017
 20
1913.339797610161
 30
0.0
 11
-209.9881121825017
 21
1906.673130943495
 31
0.0
 12
-189.9881121825017
 22
1910.006464276828
 32
0.0
 13
-189.9881121825017
 23
1910.006464276828
 33
0.0
  0
MTEXT
  5
11B8
330
1055
100
AcDbEntity
  8
P-50F5
  6
Continuous
 62
     1
100
AcDbMText
 10
-162.4881121852512
 20
1930.232411798694
 30
0.0
 40
20.0
 41
0.0
 71
     5
 72
     1
  1
\A1;5.5
  7
Stile_Quota
 73
     1
 44
1.0
1001
ACAD
1000
MTEXTBEGIN
1070
    73
1070
     1
1070
    44
1040
1.0
1070
    74
1070
     0
1000
MTEXTEND
  0
POINT
  5
11B9
330
1055
100
AcDbEntity
  8
Defpoints
  6
Continuous
 62
     0
100
AcDbPoint
 10
-134.9881121880007
 20
2050.024740389683
 30
0.0
  0
POINT
  5
11BA
330
1055
100
AcDbEntity
  8
Defpoints
  6
Continuous
 62
     0
100
AcDbPoint
 10
-189.9881121825017
 20
1995.024740395284
 30
0.0
  0
POINT
  5
11BB
330
1055
100
AcDbEntity
  8
Defpoints
  6
Continuous
 62
     0
100
AcDbPoint
 10
-189.9881121825017
 20
1910.006464276828
 30
0.0
  0
ENDBLK
  5
1057
330
1055
100
AcDbEntity
  8
0
 62
     3
100
AcDbBlockEnd
  0
BLOCK
  5
1072
330
1071
100
AcDbEntity
  8
0
 62
     3
100
AcDbBlockBegin
  2
*D35
 70
     1
 10
0.0
 20
0.0
 30
0.0
  3
*D35
  1

  0
LINE
  5
11BC
330
1071
100
AcDbEntity
  8
P-50F5
  6
Continuous
 62
     2
370
    -2
100
AcDbLine
 10
-134.9881121880007
 20
2040.024740389684
 30
0.0
 11
-134.9881121880007
 21
1895.006464276828
 31
0.0
  0
LINE
  5
11BD
330
1071
100
AcDbEntity
  8
P-50F5
  6
Continuous
 62
     2
370
    -2
100
AcDbLine
 10
-104.9881121910021
 20
2040.024740389684
 30
0.0
 11
-104.9881121910021
 21
1895.006464276828
 31
0.0
  0
LINE
  5
11BE
330
1071
100
AcDbEntity
  8
P-50F5
  6
Continuous
 62
     2
370
    -2
100
AcDbLine
 10
-154.9881121880007
 20
1910.006464276828
 30
0.0
 11
-174.9881121880007
 21
1910.006464276828
 31
0.0
  0
LINE
  5
11BF
330
1071
100
AcDbEntity
  8
P-50F5
  6
Continuous
 62
     2
370
    -2
100
AcDbLine
 10
-84.98811219100209
 20
1910.006464276828
 30
0.0
 11
-64.98811219100208
 21
1910.006464276828
 31
0.0
  0
LINE
  5
11C0
330
1071
100
AcDbEntity
  8
P-50F5
  6
Continuous
 62
     2
370
    -2
100
AcDbLine
 10
-134.9881121880007
 20
1910.006464276828
 30
0.0
 11
-104.9881121910021
 21
1910.006464276828
 31
0.0
  0
SOLID
  5
11C1
330
1071
100
AcDbEntity
  8
P-50F5
  6
Continuous
 62
     2
100
AcDbTrace
 10
-154.9881121880007
 20
1913.339797610161
 30
0.0
 11
-154.9881121880007
 21
1906.673130943495
 31
0.0
 12
-134.9881121880007
 22
1910.006464276828
 32
0.0
 13
-134.9881121880007
 23
1910.006464276828
 33
0.0
  0
SOLID
  5
11C2
330
1071
100
AcDbEntity
  8
P-50F5
  6
Continuous
 62
     2
100
AcDbTrace
 10
-84.98811219100209
 20
1913.339797610161
 30
0.0
 11
-84.98811219100209
 21
1906.673130943495
 31
0.0
 12
-104.9881121910021
 22
1910.006464276828
 32
0.0
 13
-104.9881121910021
 23
1910.006464276828
 33
0.0
  0
MTEXT
  5
11C3
330
1071
100
AcDbEntity
  8
P-50F5
  6
Continuous
 62
     1
100
AcDbMText
 10
-119.9881121895014
 20
1930.217834539219
 30
0.0
 40
20.0
 41
0.0
 71
     5
 72
     1
  1
\A1;3
  7
Stile_Quota
 73
     1
 44
1.0
1001
ACAD
1000
MTEXTBEGIN
1070
    73
1070
     1
1070
    44
1040
1.0
1070
    74
1070
     0
1000
MTEXTEND
  0
POINT
  5
11C4
330
1071
100
AcDbEntity
  8
Defpoints
  6
Continuous
 62
     0
100
AcDbPoint
 10
-134.9881121880007
 20
2050.024740389683
 30
0.0
  0
POINT
  5
11C5
330
1071
100
AcDbEntity
  8
Defpoints
  6
Continuous
 62
     0
100
AcDbPoint
 10
-104.9881121910021
 20
2050.024740389683
 30
0.0
  0
POINT
  5
11C6
330
1071
100
AcDbEntity
  8
Defpoints
  6
Continuous
 62
     0
100
AcDbPoint
 10
-104.9881121910021
 20
1910.006464276828
 30
0.0
  0
ENDBLK
  5
1073
330
1071
100
AcDbEntity
  8
0
 62
     3
100
AcDbBlockEnd
  0
BLOCK
  5
108E
330
108D
100
AcDbEntity
  8
0
 62
     3
100
AcDbBlockBegin
  2
*D36
 70
     1
 10
0.0
 20
0.0
 30
0.0
  3
*D36
  1

  0
LINE
  5
11C7
330
108D
100
AcDbEntity
  8
P-50F5
  6
Continuous
 62
     2
370
    -2
100
AcDbLine
 10
-104.988112191002
 20
2040.024740389684
 30
0.0
 11
-104.988112191002
 21
1895.006464276828
 31
0.0
  0
LINE
  5
11C8
330
108D
100
AcDbEntity
  8
P-50F5
  6
Continuous
 62
     2
370
    -2
100
AcDbLine
 10
-49.9881121965011
 20
1985.024740395284
 30
0.0
 11
-49.98811219650111
 21
1895.006464276828
 31
0.0
  0
LINE
  5
11C9
330
108D
100
AcDbEntity
  8
P-50F5
  6
Continuous
 62
     2
370
    -2
100
AcDbLine
 10
-124.988112191002
 20
1910.006464276828
 30
0.0
 11
-144.988112191002
 21
1910.006464276828
 31
0.0
  0
LINE
  5
11CA
330
108D
100
AcDbEntity
  8
P-50F5
  6
Continuous
 62
     2
370
    -2
100
AcDbLine
 10
-29.98811219650111
 20
1910.006464276828
 30
0.0
 11
-9.988112196501106
 21
1910.006464276828
 31
0.0
  0
LINE
  5
11CB
330
108D
100
AcDbEntity
  8
P-50F5
  6
Continuous
 62
     2
370
    -2
100
AcDbLine
 10
-104.988112191002
 20
1910.006464276828
 30
0.0
 11
-49.98811219650111
 21
1910.006464276828
 31
0.0
  0
SOLID
  5
11CC
330
108D
100
AcDbEntity
  8
P-50F5
  6
Continuous
 62
     2
100
AcDbTrace
 10
-124.988112191002
 20
1913.339797610161
 30
0.0
 11
-124.988112191002
 21
1906.673130943495
 31
0.0
 12
-104.988112191002
 22
1910.006464276828
 32
0.0
 13
-104.988112191002
 23
1910.006464276828
 33
0.0
  0
SOLID
  5
11CD
330
108D
100
AcDbEntity
  8
P-50F5
  6
Continuous
 62
     2
100
AcDbTrace
 10
-29.98811219650111
 20
1913.339797610161
 30
0.0
 11
-29.98811219650111
 21
1906.673130943495
 31
0.0
 12
-49.98811219650111
 22
1910.006464276828
 32
0.0
 13
-49.98811219650111
 23
1910.006464276828
 33
0.0
  0
MTEXT
  5
11CE
330
108D
100
AcDbEntity
  8
P-50F5
  6
Continuous
 62
     1
100
AcDbMText
 10
-77.48811219375159
 20
1930.232411798694
 30
0.0
 40
20.0
 41
0.0
 71
     5
 72
     1
  1
\A1;5.5
  7
Stile_Quota
 73
     1
 44
1.0
1001
ACAD
1000
MTEXTBEGIN
1070
    73
1070
     1
1070
    44
1040
1.0
1070
    74
1070
     0
1000
MTEXTEND
  0
POINT
  5
11CF
330
108D
100
AcDbEntity
  8
Defpoints
  6
Continuous
 62
     0
100
AcDbPoint
 10
-104.988112191002
 20
2050.024740389683
 30
0.0
  0
POINT
  5
11D0
330
108D
100
AcDbEntity
  8
Defpoints
  6
Continuous
 62
     0
100
AcDbPoint
 10
-49.9881121965011
 20
1995.024740395284
 30
0.0
  0
POINT
  5
11D1
330
108D
100
AcDbEntity
  8
Defpoints
  6
Continuous
 62
     0
100
AcDbPoint
 10
-49.98811219650111
 20
1910.006464276828
 30
0.0
  0
ENDBLK
  5
108F
330
108D
100
AcDbEntity
  8
0
 62
     3
100
AcDbBlockEnd
  0
BLOCK
  5
10EC
330
10EB
100
AcDbEntity
  8
0
 62
     3
100
AcDbBlockBegin
  2
*D37
 70
     1
 10
0.0
 20
0.0
 30
0.0
  3
*D37
  1

  0
LINE
  5
11DB
330
10EB
100
AcDbEntity
  8
P-50F5
  6
Continuous
 62
     2
370
    -2
100
AcDbLine
 10
-189.9881121825019
 20
1985.024740395284
 30
0.0
 11
-189.9881121825019
 21
1850.052495317737
 31
0.0
  0
LINE
  5
11DC
330
10EB
100
AcDbEntity
  8
P-50F5
  6
Continuous
 62
     2
370
    -2
100
AcDbLine
 10
-269.988112174502
 20
1875.024740406183
 30
0.0
 11
-269.988112174502
 21
1850.052495317737
 31
0.0
  0
LINE
  5
11DD
330
10EB
100
AcDbEntity
  8
P-50F5
  6
Continuous
 62
     2
370
    -2
100
AcDbLine
 10
-209.9881121825019
 20
1865.052495317737
 30
0.0
 11
-249.988112174502
 21
1865.052495317737
 31
0.0
  0
SOLID
  5
11DE
330
10EB
100
AcDbEntity
  8
P-50F5
  6
Continuous
 62
     2
100
AcDbTrace
 10
-209.9881121825019
 20
1868.38582865107
 30
0.0
 11
-209.9881121825019
 21
1861.719161984404
 31
0.0
 12
-189.9881121825019
 22
1865.052495317737
 32
0.0
 13
-189.9881121825019
 23
1865.052495317737
 33
0.0
  0
SOLID
  5
11DF
330
10EB
100
AcDbEntity
  8
P-50F5
  6
Continuous
 62
     2
100
AcDbTrace
 10
-249.988112174502
 20
1868.38582865107
 30
0.0
 11
-249.988112174502
 21
1861.719161984404
 31
0.0
 12
-269.988112174502
 22
1865.052495317737
 32
0.0
 13
-269.988112174502
 23
1865.052495317737
 33
0.0
  0
MTEXT
  5
11E0
330
10EB
100
AcDbEntity
  8
P-50F5
  6
Continuous
 62
     1
100
AcDbMText
 10
-229.988112178502
 20
1885.278442839603
 30
0.0
 40
20.0
 41
0.0
 71
     5
 72
     1
  1
\A1;8
  7
Stile_Quota
 73
     1
 44
1.0
1001
ACAD
1000
MTEXTBEGIN
1070
    73
1070
     1
1070
    44
1040
1.0
1070
    74
1070
     0
1000
MTEXTEND
  0
POINT
  5
11E1
330
10EB
100
AcDbEntity
  8
Defpoints
  6
Continuous
 62
     0
100
AcDbPoint
 10
-189.9881121825019
 20
1995.024740395284
 30
0.0
  0
POINT
  5
11E2
330
10EB
100
AcDbEntity
  8
Defpoints
  6
Continuous
 62
     0
100
AcDbPoint
 10
-269.988112174502
 20
1885.024740406183
 30
0.0
  0
POINT
  5
11E3
330
10EB
100
AcDbEntity
  8
Defpoints
  6
Continuous
 62
     0
100
AcDbPoint
 10
-269.988112174502
 20
1865.052495317737
 30
0.0
  0
ENDBLK
  5
10ED
330
10EB
100
AcDbEntity
  8
0
 62
     3
100
AcDbBlockEnd
  0
BLOCK
  5
1181
330
1180
100
AcDbEntity
  8
0
 62
     7
100
AcDbBlockBegin
  2
*D38
 70
     1
 10
0.0
 20
0.0
 30
0.0
  3
*D38
  1

  0
LINE
  5
11E4
330
1180
100
AcDbEntity
  8
P-50F5
  6
Continuous
 62
     2
370
    -2
100
AcDbLine
 10
-49.98811219650111
 20
1985.024740395284
 30
0.0
 11
-49.98811219650111
 21
1850.052495317737
 31
0.0
  0
LINE
  5
11E5
330
1180
100
AcDbEntity
  8
P-50F5
  6
Continuous
 62
     2
370
    -2
100
AcDbLine
 10
30.01188779549898
 20
1875.024740406183
 30
0.0
 11
30.01188779549897
 21
1850.052495317737
 31
0.0
  0
LINE
  5
11E6
330
1180
100
AcDbEntity
  8
P-50F5
  6
Continuous
 62
     2
370
    -2
100
AcDbLine
 10
-29.98811219650111
 20
1865.052495317737
 30
0.0
 11
10.01188779549898
 21
1865.052495317737
 31
0.0
  0
SOLID
  5
11E7
330
1180
100
AcDbEntity
  8
P-50F5
  6
Continuous
 62
     2
100
AcDbTrace
 10
-29.98811219650111
 20
1868.38582865107
 30
0.0
 11
-29.98811219650111
 21
1861.719161984404
 31
0.0
 12
-49.98811219650111
 22
1865.052495317737
 32
0.0
 13
-49.98811219650111
 23
1865.052495317737
 33
0.0
  0
SOLID
  5
11E8
330
1180
100
AcDbEntity
  8
P-50F5
  6
Continuous
 62
     2
100
AcDbTrace
 10
10.01188779549898
 20
1868.38582865107
 30
0.0
 11
10.01188779549898
 21
1861.719161984404
 31
0.0
 12
30.01188779549898
 22
1865.052495317737
 32
0.0
 13
30.01188779549898
 23
1865.052495317737
 33
0.0
  0
MTEXT
  5
11E9
330
1180
100
AcDbEntity
  8
P-50F5
  6
Continuous
 62
     1
100
AcDbMText
 10
-9.988112200501065
 20
1885.278442839603
 30
0.0
 40
20.0
 41
0.0
 71
     5
 72
     1
  1
\A1;8
  7
Stile_Quota
 73
     1
 44
1.0
1001
ACAD
1000
MTEXTBEGIN
1070
    73
1070
     1
1070
    44
1040
1.0
1070
    74
1070
     0
1000
MTEXTEND
  0
POINT
  5
11EA
330
1180
100
AcDbEntity
  8
Defpoints
  6
Continuous
 62
     0
100
AcDbPoint
 10
-49.98811219650111
 20
1995.024740395284
 30
0.0
  0
POINT
  5
11EB
330
1180
100
AcDbEntity
  8
Defpoints
  6
Continuous
 62
     0
100
AcDbPoint
 10
30.01188779549898
 20
1885.024740406183
 30
0.0
  0
POINT
  5
11EC
330
1180
100
AcDbEntity
  8
Defpoints
  6
Continuous
 62
     0
100
AcDbPoint
 10
30.01188779549898
 20
1865.052495317737
 30
0.0
  0
ENDBLK
  5
1182
330
1180
100
AcDbEntity
  8
0
 62
     7
100
AcDbBlockEnd
  0
BLOCK
  5
1197
330
1196
100
AcDbEntity
  8
0
 62
     3
100
AcDbBlockBegin
  2
*D39
 70
     1
 10
0.0
 20
0.0
 30
0.0
  3
*D39
  1

  0
LINE
  5
11A5
330
1196
100
AcDbEntity
  8
P-50F5
  6
Continuous
 62
     2
370
    -2
100
AcDbLine
 10
13.01188779729909
 20
1795.024740416184
 30
0.0
 11
13.01188779729909
 21
1814.494619556305
 31
0.0
  0
LINE
  5
11A6
330
1196
100
AcDbEntity
  8
P-50F5
  6
Continuous
 62
     2
370
    -2
100
AcDbLine
 10
10.01188779759832
 20
1795.024740416184
 30
0.0
 11
10.01188779759832
 21
1814.494619556305
 31
0.0
  0
LINE
  5
11A7
330
1196
100
AcDbEntity
  8
P-50F5
  6
Continuous
 62
     2
370
    -2
100
AcDbLine
 10
33.0118877972991
 20
1799.494619556305
 30
0.0
 11
53.01188779729909
 21
1799.494619556305
 31
0.0
  0
LINE
  5
11A8
330
1196
100
AcDbEntity
  8
P-50F5
  6
Continuous
 62
     2
370
    -2
100
AcDbLine
 10
-9.98811220240168
 20
1799.494619556305
 30
0.0
 11
-86.63534252310141
 21
1799.494619556305
 31
0.0
  0
LINE
  5
11A9
330
1196
100
AcDbEntity
  8
P-50F5
  6
Continuous
 62
     2
370
    -2
100
AcDbLine
 10
13.01188779729909
 20
1799.494619556305
 30
0.0
 11
10.01188779759832
 21
1799.494619556305
 31
0.0
  0
SOLID
  5
11AA
330
1196
100
AcDbEntity
  8
P-50F5
  6
Continuous
 62
     2
100
AcDbTrace
 10
33.0118877972991
 20
1802.827952889638
 30
0.0
 11
33.0118877972991
 21
1796.161286222972
 31
0.0
 12
13.01188779729909
 22
1799.494619556305
 32
0.0
 13
13.01188779729909
 23
1799.494619556305
 33
0.0
  0
SOLID
  5
11AB
330
1196
100
AcDbEntity
  8
P-50F5
  6
Continuous
 62
     2
100
AcDbTrace
 10
-9.98811220240168
 20
1802.827952889638
 30
0.0
 11
-9.98811220240168
 21
1796.161286222972
 31
0.0
 12
10.01188779759832
 22
1799.494619556305
 32
0.0
 13
10.01188779759832
 23
1799.494619556305
 33
0.0
  0
MTEXT
  5
11AC
330
1196
100
AcDbEntity
  8
P-50F5
  6
Continuous
 62
     1
100
AcDbMText
 10
-58.31172736275154
 20
1819.720567078171
 30
0.0
 40
20.0
 41
0.0
 71
     5
 72
     1
  1
\A1;0.3
  7
Stile_Quota
 73
     1
 44
1.0
1001
ACAD
1000
MTEXTBEGIN
1070
    73
1070
     1
1070
    44
1040
1.0
1070
    74
1070
     0
1000
MTEXTEND
  0
POINT
  5
11AD
330
1196
100
AcDbEntity
  8
Defpoints
  6
Continuous
 62
     0
100
AcDbPoint
 10
13.01188779729909
 20
1785.024740416184
 30
0.0
  0
POINT
  5
11AE
330
1196
100
AcDbEntity
  8
Defpoints
  6
Continuous
 62
     0
100
AcDbPoint
 10
10.01188779759832
 20
1785.024740416184
 30
0.0
  0
POINT
  5
11AF
330
1196
100
AcDbEntity
  8
Defpoints
  6
Continuous
 62
     0
100
AcDbPoint
 10
10.01188779759832
 20
1799.494619556305
 30
0.0
  0
ENDBLK
  5
1198
330
1196
100
AcDbEntity
  8
0
 62
     3
100
AcDbBlockEnd
  0
BLOCK
  5
11EF
330
11EE
100
AcDbEntity
  8
0
 62
     3
100
AcDbBlockBegin
  2
*D40
 70
     1
 10
0.0
 20
0.0
 30
0.0
  3
*D40
  1

  0
LINE
  5
16CF
330
11EE
100
AcDbEntity
  8
P-50F5
  6
Continuous
 62
     2
370
    -2
100
AcDbLine
 10
-275.2988408522283
 20
2129.941632129664
 30
0.0
 11
-372.2344792603874
 21
2185.794777256185
 31
0.0
  0
LINE
  5
16D0
330
11EE
100
AcDbEntity
  8
P-50F5
  6
Continuous
 62
     2
370
    -2
100
AcDbLine
 10
-179.9881121835003
 20
2075.024740387185
 30
0.0
 11
-257.9696174564957
 21
2119.956742721123
 31
0.0
  0
SOLID
  5
16D1
330
11EE
100
AcDbEntity
  8
P-50F5
  6
Continuous
 62
     2
100
AcDbTrace
 10
-273.6346926174716
 20
2132.829836028952
 30
0.0
 11
-276.9629890869851
 21
2127.053428230375
 31
0.0
 12
-257.9696174564957
 22
2119.956742721123
 32
0.0
 13
-257.9696174564957
 23
2119.956742721123
 33
0.0
  0
MTEXT
  5
16D2
330
11EE
100
AcDbEntity
  8
P-50F5
  6
Continuous
 62
     1
100
AcDbMText
 10
-338.8864747713927
 20
2189.93163812853
 30
0.0
 40
20.0
 41
0.0
 71
     5
 72
     1
  1
\A1;R9
  7
Stile_Quota
 11
0.866461169786635
 21
-0.4992444704270404
 31
0.0
 73
     1
 44
1.0
1001
ACAD
1000
MTEXTBEGIN
1070
    73
1070
     1
1070
    44
1040
1.0
1070
    74
1070
     0
1000
MTEXTEND
  0
POINT
  5
16D3
330
11EE
100
AcDbEntity
  8
Defpoints
  6
Continuous
 62
     0
100
AcDbPoint
 10
-257.9696174564957
 20
2119.956742721123
 30
0.0
  0
POINT
  5
16D4
330
11EE
100
AcDbEntity
  8
Defpoints
  6
Continuous
 62
     0
100
AcDbPoint
 10
-179.9881121835003
 20
2075.024740387185
 30
0.0
  0
ENDBLK
  5
11F0
330
11EE
100
AcDbEntity
  8
0
 62
     3
100
AcDbBlockEnd
  0
BLOCK
  5
11FF
330
11FE
100
AcDbEntity
  8
0
 62
     3
100
AcDbBlockBegin
  2
*D41
 70
     1
 10
0.0
 20
0.0
 30
0.0
  3
*D41
  1

  0
LINE
  5
16C8
330
11FE
100
AcDbEntity
  8
P-50F5
  6
Continuous
 62
     2
370
    -2
100
AcDbLine
 10
-62.60533212072187
 20
2094.475485915817
 30
0.0
 11
-21.22620696067406
 21
2152.679665870292
 31
0.0
  0
LINE
  5
16C9
330
11FE
100
AcDbEntity
  8
P-50F5
  6
Continuous
 62
     2
370
    -2
100
AcDbLine
 10
-79.98811219350148
 20
2070.024740387685
 30
0.0
 11
-74.19385216962689
 21
2078.17498889652
 31
0.0
  0
SOLID
  5
16CA
330
11FE
100
AcDbEntity
  8
P-50F5
  6
Continuous
 62
     2
100
AcDbTrace
 10
-65.32208162393795
 20
2096.406905923968
 30
0.0
 11
-59.88858261750556
 21
2092.544065907667
 31
0.0
 12
-74.19385216962689
 22
2078.17498889652
 32
0.0
 13
-74.19385216962689
 23
2078.17498889652
 33
0.0
  0
MTEXT
  5
16CB
330
11FE
100
AcDbEntity
  8
P-50F5
  6
Continuous
 62
     1
100
AcDbMText
 10
-52.517053165393
 20
2143.383915997083
 30
0.0
 40
20.0
 41
0.0
 71
     5
 72
     1
  1
\A1;R1
  7
Stile_Quota
 11
0.5794260024452513
 21
0.8150248509648744
 31
0.0
 73
     1
 44
1.0
1001
ACAD
1000
MTEXTBEGIN
1070
    73
1070
     1
1070
    44
1040
1.0
1070
    74
1070
     0
1000
MTEXTEND
  0
ARC
  5
16CC
330
11FE
100
AcDbEntity
  8
P-50F5
  6
Continuous
 62
     2
370
    -2
100
AcDbCircle
 10
-79.98811219350148
 20
2070.024740387685
 30
0.0
 40
9.999999999002511
100
AcDbArc
 50
328.6461498916602
 51
122.7042204812024
  0
POINT
  5
16CD
330
11FE
100
AcDbEntity
  8
Defpoints
  6
Continuous
 62
     0
100
AcDbPoint
 10
-74.19385216962689
 20
2078.17498889652
 30
0.0
  0
POINT
  5
16CE
330
11FE
100
AcDbEntity
  8
Defpoints
  6
Continuous
 62
     0
100
AcDbPoint
 10
-79.98811219350148
 20
2070.024740387685
 30
0.0
  0
ENDBLK
  5
1200
330
11FE
100
AcDbEntity
  8
0
 62
     3
100
AcDbBlockEnd
  0
BLOCK
  5
1213
330
1212
100
AcDbEntity
  8
0
 62
     3
100
AcDbBlockBegin
  2
*D42
 70
     1
 10
0.0
 20
0.0
 30
0.0
  3
*D42
  1

  0
LINE
  5
16C2
330
1212
100
AcDbEntity
  8
P-50F5
  6
Continuous
 62
     2
370
    -2
100
AcDbLine
 10
-82.55659815373906
 20
2154.440766231351
 30
0.0
 11
-41.06146342398711
 21
2212.562297155299
 31
0.0
  0
LINE
  5
16C3
330
1212
100
AcDbEntity
  8
P-50F5
  6
Continuous
 62
     2
370
    -2
100
AcDbLine
 10
-99.9881121915015
 20
2130.024740381684
 30
0.0
 11
-94.17760751263267
 21
2138.163415664366
 31
0.0
  0
SOLID
  5
16C4
330
1212
100
AcDbEntity
  8
P-50F5
  6
Continuous
 62
     2
100
AcDbTrace
 10
-85.26948991490304
 20
2156.3776011245
 30
0.0
 11
-79.84370639257509
 21
2152.503931338202
 31
0.0
 12
-94.17760751263267
 22
2138.163415664366
 32
0.0
 13
-94.17760751263267
 23
2138.163415664366
 33
0.0
  0
MTEXT
  5
16C5
330
1212
100
AcDbEntity
  8
P-50F5
  6
Continuous
 62
     1
100
AcDbMText
 10
-72.37078834151441
 20
2203.328977323225
 30
0.0
 40
20.0
 41
0.0
 71
     5
 72
     1
  1
\A1;R1
  7
Stile_Quota
 11
0.5810504679446812
 21
0.813867528349219
 31
0.0
 73
     1
 44
1.0
1001
ACAD
1000
MTEXTBEGIN
1070
    73
1070
     1
1070
    44
1040
1.0
1070
    74
1070
     0
1000
MTEXTEND
  0
POINT
  5
16C6
330
1212
100
AcDbEntity
  8
Defpoints
  6
Continuous
 62
     0
100
AcDbPoint
 10
-94.17760751263267
 20
2138.163415664366
 30
0.0
  0
POINT
  5
16C7
330
1212
100
AcDbEntity
  8
Defpoints
  6
Continuous
 62
     0
100
AcDbPoint
 10
-99.9881121915015
 20
2130.024740381684
 30
0.0
  0
ENDBLK
  5
1214
330
1212
100
AcDbEntity
  8
0
 62
     3
100
AcDbBlockEnd
  0
BLOCK
  5
1225
330
1224
100
AcDbEntity
  8
0
 62
     3
100
AcDbBlockBegin
  2
*D43
 70
     1
 10
0.0
 20
0.0
 30
0.0
  3
*D43
  1

  0
LINE
  5
16D5
330
1224
100
AcDbEntity
  8
P-50F5
  6
Continuous
 62
     2
370
    -2
100
AcDbLine
 10
-131.32312309628
 20
2017.776201023948
 30
0.0
 11
-87.46872458051837
 21
1958.015332699253
 31
0.0
  0
LINE
  5
16D6
330
1224
100
AcDbEntity
  8
P-50F5
  6
Continuous
 62
     2
370
    -2
100
AcDbLine
 10
-154.9881121860015
 20
2050.024740389683
 30
0.0
 11
-143.1556176417323
 21
2033.900470707622
 31
0.0
  0
SOLID
  5
16D7
330
1224
100
AcDbEntity
  8
P-50F5
  6
Continuous
 62
     2
100
AcDbTrace
 10
-128.6357448156677
 20
2019.74828344819
 30
0.0
 11
-134.0105013768922
 21
2015.804118599706
 31
0.0
 12
-143.1556176417323
 22
2033.900470707622
 32
0.0
 13
-143.1556176417323
 23
2033.900470707622
 33
0.0
  0
MTEXT
  5
16D8
330
1224
100
AcDbEntity
  8
P-50F5
  6
Continuous
 62
     1
100
AcDbMText
 10
-87.26138781678811
 20
1991.735120702507
 30
0.0
 40
20.0
 41
0.0
 71
     5
 72
     1
  1
\A1;R2
  7
Stile_Quota
 11
0.5916247272726161
 21
-0.8062134841836885
 31
0.0
 73
     1
 44
1.0
1001
ACAD
1000
MTEXTBEGIN
1070
    73
1070
     1
1070
    44
1040
1.0
1070
    74
1070
     0
1000
MTEXTEND
  0
POINT
  5
16D9
330
1224
100
AcDbEntity
  8
Defpoints
  6
Continuous
 62
     0
100
AcDbPoint
 10
-143.1556176417323
 20
2033.900470707622
 30
0.0
  0
POINT
  5
16DA
330
1224
100
AcDbEntity
  8
Defpoints
  6
Continuous
 62
     0
100
AcDbPoint
 10
-154.9881121860015
 20
2050.024740389683
 30
0.0
  0
ENDBLK
  5
1226
330
1224
100
AcDbEntity
  8
0
 62
     3
100
AcDbBlockEnd
  0
BLOCK
  5
12D0
330
12CF
100
AcDbEntity
  8
0
 62
     3
100
AcDbBlockBegin
  2
*D44
 70
     1
 10
0.0
 20
0.0
 30
0.0
  3
*D44
  1

  0
LINE
  5
12DC
330
12CF
100
AcDbEntity
  8
P-50F5
  6
Continuous
 62
     2
370
    -2
100
AcDbLine
 10
-179.9881121835018
 20
2090.095728576822
 30
0.0
 11
-179.9881121835018
 21
2305.340057895338
 31
0.0
  0
LINE
  5
12DD
330
12CF
100
AcDbEntity
  8
P-50F5
  6
Continuous
 62
     2
370
    -2
100
AcDbLine
 10
-269.9881121745006
 20
2085.024740387184
 30
0.0
 11
-269.9881121745006
 21
2305.340057895338
 31
0.0
  0
LINE
  5
12DE
330
12CF
100
AcDbEntity
  8
P-50F5
  6
Continuous
 62
     2
370
    -2
100
AcDbLine
 10
-199.9881121835018
 20
2290.340057895338
 30
0.0
 11
-249.9881121745005
 21
2290.340057895338
 31
0.0
  0
SOLID
  5
12DF
330
12CF
100
AcDbEntity
  8
P-50F5
  6
Continuous
 62
     2
100
AcDbTrace
 10
-199.9881121835018
 20
2293.673391228671
 30
0.0
 11
-199.9881121835018
 21
2287.006724562004
 31
0.0
 12
-179.9881121835018
 22
2290.340057895338
 32
0.0
 13
-179.9881121835018
 23
2290.340057895338
 33
0.0
  0
SOLID
  5
12E0
330
12CF
100
AcDbEntity
  8
P-50F5
  6
Continuous
 62
     2
100
AcDbTrace
 10
-249.9881121745005
 20
2293.673391228671
 30
0.0
 11
-249.9881121745005
 21
2287.006724562004
 31
0.0
 12
-269.9881121745006
 22
2290.340057895338
 32
0.0
 13
-269.9881121745006
 23
2290.340057895338
 33
0.0
  0
MTEXT
  5
12E1
330
12CF
100
AcDbEntity
  8
P-50F5
  6
Continuous
 62
     1
100
AcDbMText
 10
-224.9881121790012
 20
2310.573294046942
 30
0.0
 40
20.0
 41
0.0
 71
     5
 72
     1
  1
\A1;9
  7
Stile_Quota
 73
     1
 44
1.0
1001
ACAD
1000
MTEXTBEGIN
1070
    73
1070
     1
1070
    44
1040
1.0
1070
    74
1070
     0
1000
MTEXTEND
  0
POINT
  5
12E2
330
12CF
100
AcDbEntity
  8
Defpoints
  6
Continuous
 62
     0
100
AcDbPoint
 10
-179.9881121835018
 20
2080.095728576822
 30
0.0
  0
POINT
  5
12E3
330
12CF
100
AcDbEntity
  8
Defpoints
  6
Continuous
 62
     0
100
AcDbPoint
 10
-269.9881121745006
 20
2075.024740387184
 30
0.0
  0
POINT
  5
12E4
330
12CF
100
AcDbEntity
  8
Defpoints
  6
Continuous
 62
     0
100
AcDbPoint
 10
-269.9881121745006
 20
2290.340057895338
 30
0.0
  0
ENDBLK
  5
12D1
330
12CF
100
AcDbEntity
  8
0
 62
     3
100
AcDbBlockEnd
  0
BLOCK
  5
130C
330
130B
100
AcDbEntity
  8
0
 62
     3
100
AcDbBlockBegin
  2
*D45
 70
     1
 10
0.0
 20
0.0
 30
0.0
  3
*D45
  1

  0
LINE
  5
1318
330
130B
100
AcDbEntity
  8
P-50F5
  6
Continuous
 62
     2
370
    -2
100
AcDbLine
 10
-195.8431036970845
 20
2075.024740387187
 30
0.0
 11
-371.0126325667025
 21
2075.024740387187
 31
0.0
  0
LINE
  5
1319
330
130B
100
AcDbEntity
  8
P-50F5
  6
Continuous
 62
     2
370
    -2
100
AcDbLine
 10
-149.9881121875014
 20
2140.024740380683
 30
0.0
 11
-371.0126325667025
 21
2140.024740380683
 31
0.0
  0
LINE
  5
131A
330
130B
100
AcDbEntity
  8
P-50F5
  6
Continuous
 62
     2
370
    -2
100
AcDbLine
 10
-356.0126325667024
 20
2095.024740387188
 30
0.0
 11
-356.0126325667024
 21
2120.024740380683
 31
0.0
  0
SOLID
  5
131B
330
130B
100
AcDbEntity
  8
P-50F5
  6
Continuous
 62
     2
100
AcDbTrace
 10
-359.3459659000358
 20
2095.024740387188
 30
0.0
 11
-352.6792992333692
 21
2095.024740387188
 31
0.0
 12
-356.0126325667024
 22
2075.024740387187
 32
0.0
 13
-356.0126325667024
 23
2075.024740387187
 33
0.0
  0
SOLID
  5
131C
330
130B
100
AcDbEntity
  8
P-50F5
  6
Continuous
 62
     2
100
AcDbTrace
 10
-359.3459659000358
 20
2120.024740380683
 30
0.0
 11
-352.6792992333692
 21
2120.024740380683
 31
0.0
 12
-356.0126325667024
 22
2140.024740380683
 32
0.0
 13
-356.0126325667024
 23
2140.024740380683
 33
0.0
  0
MTEXT
  5
131D
330
130B
100
AcDbEntity
  8
P-50F5
  6
Continuous
 62
     1
100
AcDbMText
 10
-376.2385800885687
 20
2107.524740383935
 30
0.0
 40
20.0
 41
0.0
 71
     5
 72
     1
  1
\A1;6.5
  7
Stile_Quota
 11
0.0000000000000001
 21
1.0
 31
0.0
 73
     1
 44
1.0
1001
ACAD
1000
MTEXTBEGIN
1070
    73
1070
     1
1070
    44
1040
1.0
1070
    74
1070
     0
1000
MTEXTEND
  0
POINT
  5
131E
330
130B
100
AcDbEntity
  8
Defpoints
  6
Continuous
 62
     0
100
AcDbPoint
 10
-185.8431036970845
 20
2075.024740387187
 30
0.0
  0
POINT
  5
131F
330
130B
100
AcDbEntity
  8
Defpoints
  6
Continuous
 62
     0
100
AcDbPoint
 10
-139.9881121875014
 20
2140.024740380683
 30
0.0
  0
POINT
  5
1320
330
130B
100
AcDbEntity
  8
Defpoints
  6
Continuous
 62
     0
100
AcDbPoint
 10
-356.0126325667024
 20
2140.024740380683
 30
0.0
  0
ENDBLK
  5
130D
330
130B
100
AcDbEntity
  8
0
 62
     3
100
AcDbBlockEnd
  0
BLOCK
  5
1323
330
1322
100
AcDbEntity
  8
0
100
AcDbBlockBegin
  2
A$C677C2356
 70
     0
 10
0.0
 20
0.0
 30
0.0
  3
A$C677C2356
  1

  0
TEXT
  5
1324
330
1322
100
AcDbEntity
  8
DIMENSIONI
 62
     0
100
AcDbText
 10
14.55966738989127
 20
-2.857143363440229
 30
0.0
 40
15.0
  1
+
 50
90.0
  7
ROMANS
100
AcDbText
1001
TOP
1070
   256
  0
TEXT
  5
1325
330
1322
100
AcDbEntity
  8
DIMENSIONI
 62
     0
100
AcDbText
 10
40.31360177942099
 20
18.46292625781348
 30
0.0
 40
15.0
  1
0
 50
90.0
  7
ROMANS
100
AcDbText
1001
TOP
1070
   256
  0
TEXT
  5
1326
330
1322
100
AcDbEntity
  8
DIMENSIONI
 62
     0
100
AcDbText
 10
15.00000365091421
 20
18.46292625781348
 30
0.0
 40
15.0
  1
0.2
 50
90.0
  7
ROMANS
100
AcDbText
1001
TOP
1070
   256
  0
ENDBLK
  5
1327
330
1322
100
AcDbEntity
  8
0
100
AcDbBlockEnd
  0
BLOCK
  5
16BC
330
16BB
100
AcDbEntity
  8
0
 62
     7
100
AcDbBlockBegin
  2
*D48
 70
     1
 10
0.0
 20
0.0
 30
0.0
  3
*D48
  1

  0
MTEXT
  5
16BE
330
16BB
100
AcDbEntity
  8
P-0595
  6
Continuous
 62
    30
100
AcDbMText
 10
1887.169660276523
 20
1936.615694827945
 30
0.0
 40
20.0
 41
0.0
 71
     5
 72
     1
  1
\A1;1000
  7
Stile_Quota_FISSO
 73
     1
 44
1.0
1001
ACAD
1000
MTEXTBEGIN
1070
    73
1070
     1
1070
    44
1040
1.0
1070
    74
1070
     0
1000
MTEXTEND
  0
POINT
  5
16BF
330
16BB
100
AcDbEntity
  8
Defpoints
  6
Continuous
 62
     0
100
AcDbPoint
 10
1387.169660276523
 20
1921.791970490237
 30
0.0
  0
POINT
  5
16C0
330
16BB
100
AcDbEntity
  8
Defpoints
  6
Continuous
 62
     0
100
AcDbPoint
 10
2387.169660276522
 20
1921.791970490237
 30
0.0
  0
POINT
  5
16C1
330
16BB
100
AcDbEntity
  8
Defpoints
  6
Continuous
 62
     0
100
AcDbPoint
 10
2387.169660276522
 20
1936.615694827945
 30
0.0
  0
ENDBLK
  5
16BD
330
16BB
100
AcDbEntity
  8
0
 62
     7
100
AcDbBlockEnd
  0
BLOCK
  5
1709
330
1708
100
AcDbEntity
  8
0
 62
     7
100
AcDbBlockBegin
  2
*D49
 70
     1
 10
0.0
 20
0.0
 30
0.0
  3
*D49
  1

  0
LINE
  5
170B
330
1708
100
AcDbEntity
  8
P-0000
  6
Continuous
 62
     2
370
    -2
100
AcDbLine
 10
-159.9881121875014
 20
2140.024740380683
 30
0.0
 11
-832.2980647849052
 21
2140.024740380683
 31
0.0
  0
LINE
  5
170C
330
1708
100
AcDbEntity
  8
P-0000
  6
Continuous
 62
     2
370
    -2
100
AcDbLine
 10
-159.9881121875015
 20
1710.024740423684
 30
0.0
 11
-832.2980647849053
 21
1710.024740423684
 31
0.0
  0
LINE
  5
170D
330
1708
100
AcDbEntity
  8
P-0000
  6
Continuous
 62
     2
370
    -2
100
AcDbLine
 10
-817.2980647849053
 20
2120.024740380683
 30
0.0
 11
-817.2980647849053
 21
1730.024740423684
 31
0.0
  0
SOLID
  5
170E
330
1708
100
AcDbEntity
  8
P-0000
  6
Continuous
 62
     2
100
AcDbTrace
 10
-820.6313981182386
 20
2120.024740380683
 30
0.0
 11
-813.9647314515718
 21
2120.024740380683
 31
0.0
 12
-817.2980647849053
 22
2140.024740380683
 32
0.0
 13
-817.2980647849053
 23
2140.024740380683
 33
0.0
  0
SOLID
  5
170F
330
1708
100
AcDbEntity
  8
P-0000
  6
Continuous
 62
     2
100
AcDbTrace
 10
-820.6313981182386
 20
1730.024740423684
 30
0.0
 11
-813.964731451572
 21
1730.024740423684
 31
0.0
 12
-817.2980647849053
 22
1710.024740423684
 32
0.0
 13
-817.2980647849053
 23
1710.024740423684
 33
0.0
  0
MTEXT
  5
1710
330
1708
100
AcDbEntity
  8
P-0000
  6
Continuous
 62
     1
100
AcDbMText
 10
-837.5240123067715
 20
1925.024740402183
 30
0.0
 40
20.0
 41
0.0
 71
     5
 72
     1
  1
\A1;430
  7
Stile_Quota
 11
0.0000000000000001
 21
1.0
 31
0.0
 73
     1
 44
1.0
1001
ACAD
1000
MTEXTBEGIN
1070
    73
1070
     1
1070
    44
1040
1.0
1070
    74
1070
     0
1000
MTEXTEND
  0
POINT
  5
1711
330
1708
100
AcDbEntity
  8
Defpoints
  6
Continuous
 62
     0
100
AcDbPoint
 10
-149.9881121875014
 20
2140.024740380683
 30
0.0
  0
POINT
  5
1712
330
1708
100
AcDbEntity
  8
Defpoints
  6
Continuous
 62
     0
100
AcDbPoint
 10
-149.9881121875015
 20
1710.024740423684
 30
0.0
  0
POINT
  5
1713
330
1708
100
AcDbEntity
  8
Defpoints
  6
Continuous
 62
     0
100
AcDbPoint
 10
-817.2980647849053
 20
1710.024740423684
 30
0.0
  0
ENDBLK
  5
170A
330
1708
100
AcDbEntity
  8
0
 62
     7
100
AcDbBlockEnd
  0
ENDSEC
  0
SECTION
  2
ENTITIES
  0
ARC
  5
A60
330
2
100
AcDbEntity
  8
P-50F5
  6
Continuous
 62
   144
100
AcDbCircle
 10
14.49999999855001
 20
39.49999999605007
 30
0.0
 40
0.9999999998999999
100
AcDbArc
 50
0.0
 51
90.0
1001
OrigLayer
1000
P-0000
1001
TOP
1070
     7
  0
ARC
  5
A62
330
2
100
AcDbEntity
  8
P-50F5
  6
Continuous
 62
   144
100
AcDbCircle
 10
4.999999999499948
 20
25.99999999740999
 30
0.0
 40
0.49999999995
100
AcDbArc
 50
270.0
 51
0.0
1001
OrigLayer
1000
P-0000
1001
TOP
1070
     7
  0
ARC
  5
A63
330
2
100
AcDbEntity
  8
P-50F5
  6
Continuous
 62
   144
100
AcDbCircle
 10
5.999999999400102
 20
28.99999999710008
 30
0.0
 40
0.49999999995
100
AcDbArc
 50
90.0
 51
180.0
1001
OrigLayer
1000
P-0000
1001
TOP
1070
     7
  0
ARC
  5
A64
330
2
100
AcDbEntity
  8
P-50F5
  6
Continuous
 62
   144
100
AcDbCircle
 10
19.99999999800002
 20
25.99999999740999
 30
0.0
 40
0.49999999995
100
AcDbArc
 50
180.0
 51
270.0
1001
OrigLayer
1000
P-0000
1001
TOP
1070
     7
  0
ARC
  5
A65
330
2
100
AcDbEntity
  8
P-50F5
  6
Continuous
 62
   144
100
AcDbCircle
 10
18.99999999809989
 20
28.99999999710008
 30
0.0
 40
0.49999999995
100
AcDbArc
 50
0.0
 51
90.0
1001
OrigLayer
1000
P-0000
1001
TOP
1070
     7
  0
ARC
  5
A66
330
2
100
AcDbEntity
  8
P-50F5
  6
Continuous
 62
   144
100
AcDbCircle
 10
13.49999999864994
 20
37.9999999961999
 30
0.0
 40
0.49999999995
100
AcDbArc
 50
0.0
 51
90.0
1001
OrigLayer
1000
P-0000
1001
TOP
1070
     7
  0
ARC
  5
A67
330
2
100
AcDbEntity
  8
P-50F5
  6
Continuous
 62
   144
100
AcDbCircle
 10
11.49999999885003
 20
37.9999999961999
 30
0.0
 40
0.49999999995
100
AcDbArc
 50
90.0
 51
180.0
1001
OrigLayer
1000
P-0000
1001
TOP
1070
     7
  0
ARC
  5
A68
330
2
100
AcDbEntity
  8
P-50F5
  6
Continuous
 62
   144
100
AcDbCircle
 10
10.49999999894999
 20
39.49999999605007
 30
0.0
 40
0.9999999998999999
100
AcDbArc
 50
90.0
 51
180.0
1001
OrigLayer
1000
P-0000
1001
TOP
1070
     7
  0
ARC
  5
A69
330
2
100
AcDbEntity
  8
P-50F5
  6
Continuous
 62
   144
100
AcDbCircle
 10
22.99999999769998
 20
33.49999999665011
 30
0.0
 40
0.9999999998999999
100
AcDbArc
 50
270.0
 51
0.0
1001
OrigLayer
1000
P-0000
1001
TOP
1070
     7
  0
ARC
  5
A6A
330
2
100
AcDbEntity
  8
P-50F5
  6
Continuous
 62
   144
100
AcDbCircle
 10
16.49999999835
 20
33.49999999665011
 30
0.0
 40
0.9999999998999999
100
AcDbArc
 50
180.0
 51
270.0
1001
OrigLayer
1000
P-0000
1001
TOP
1070
     7
  0
ARC
  5
A6B
330
2
100
AcDbEntity
  8
P-50F5
  6
Continuous
 62
   144
100
AcDbCircle
 10
8.499999999149991
 20
33.49999999665011
 30
0.0
 40
0.9999999998999999
100
AcDbArc
 50
270.0
 51
0.0
1001
OrigLayer
1000
P-0000
1001
TOP
1070
     7
  0
ARC
  5
A6C
330
2
100
AcDbEntity
  8
P-50F5
  6
Continuous
 62
   144
100
AcDbCircle
 10
1.999999999799996
 20
33.49999999665011
 30
0.0
 40
0.9999999998999999
100
AcDbArc
 50
180.0
 51
270.0
1001
OrigLayer
1000
P-0000
1001
TOP
1070
     7
  0
ARC
  5
A6D
330
2
100
AcDbEntity
  8
P-50F5
  6
Continuous
 62
   144
100
AcDbCircle
 10
24.9999999975
 20
38.66368952267817
 30
0.0
 40
0.9999999998999999
100
AcDbArc
 50
35.6590876961953
 51
180.0
1001
OrigLayer
1000
P-0000
1001
TOP
1070
     7
  0
ARC
  5
A6E
330
2
100
AcDbEntity
  8
P-50F5
  6
Continuous
 62
   144
100
AcDbCircle
 10
0.0
 20
38.66368952267817
 30
0.0
 40
0.9999999998999999
100
AcDbArc
 50
0.0
 51
144.3409123038047
1001
OrigLayer
1000
P-0000
1001
TOP
1070
     7
  0
ARC
  5
A6F
330
2
100
AcDbEntity
  8
P-50F5
  6
Continuous
 62
   144
100
AcDbCircle
 10
18.49999999814992
 20
33.99999999660008
 30
0.0
 40
8.999999999099999
100
AcDbArc
 50
0.0
 51
35.6590876961953
1001
OrigLayer
1000
P-0000
1001
TOP
1070
     7
  0
ARC
  5
A70
330
2
100
AcDbEntity
  8
P-50F5
  6
Continuous
 62
   144
100
AcDbCircle
 10
6.49999999935008
 20
33.99999999660008
 30
0.0
 40
8.999999999099999
100
AcDbArc
 50
144.3409123038047
 51
180.0
1001
OrigLayer
1000
P-0000
1001
TOP
1070
     7
  0
ARC
  5
A71
330
2
100
AcDbEntity
  8
P-50F5
  6
Continuous
 62
   144
100
AcDbCircle
 10
15.99999999839994
 20
31.49999999684997
 30
0.0
 40
1.999999999799999
100
AcDbArc
 50
180.0
 51
270.0
1001
OrigLayer
1000
P-0000
1001
TOP
1070
     7
  0
ARC
  5
A72
330
2
100
AcDbEntity
  8
P-50F5
  6
Continuous
 62
   144
100
AcDbCircle
 10
8.999999999099969
 20
31.49999999684997
 30
0.0
 40
1.999999999799999
100
AcDbArc
 50
270.0
 51
0.0
1001
OrigLayer
1000
P-0000
1001
TOP
1070
     7
  0
LINE
  5
A73
330
2
100
AcDbEntity
  8
P-50F5
  6
Continuous
 62
   144
100
AcDbLine
 10
27.49999999725006
 20
27.99475245164831
 30
0.0
 11
27.49999999725006
 21
33.99999999660008
 31
0.0
1001
OrigLayer
1000
P-0000
1001
TOP
1070
     7
  0
LINE
  5
A74
330
2
100
AcDbEntity
  8
P-50F5
  6
Continuous
 62
   144
100
AcDbLine
 10
27.49999999725006
 20
0.0
 30
0.0
 11
27.49999999725006
 21
26.99841175126767
 31
0.0
1001
OrigLayer
1000
P-0000
1001
TOP
1070
     7
  0
LINE
  5
A75
330
2
100
AcDbEntity
  8
P-50F5
  6
Continuous
 62
   144
100
AcDbLine
 10
26.99999999730008
 20
27.49999999724991
 30
0.0
 11
27.49999999725006
 21
26.99841175126767
 31
0.0
1001
OrigLayer
1000
P-0000
1001
TOP
1070
     7
  0
LINE
  5
A76
330
2
100
AcDbEntity
  8
P-50F5
  6
Continuous
 62
   144
100
AcDbLine
 10
26.99999999730008
 20
27.49999999724991
 30
0.0
 11
27.49999999725006
 21
27.99475245164831
 31
0.0
1001
OrigLayer
1000
P-0000
1001
TOP
1070
     7
  0
LINE
  5
A77
330
2
100
AcDbEntity
  8
P-50F5
  6
Continuous
 62
   144
100
AcDbLine
 10
-2.499999999750059
 20
28.00324924648862
 30
0.0
 11
-2.499999999750059
 21
33.99999999660008
 31
0.0
1001
OrigLayer
1000
P-0000
1001
TOP
1070
     7
  0
LINE
  5
A78
330
2
100
AcDbEntity
  8
P-50F5
  6
Continuous
 62
   144
100
AcDbLine
 10
24.99999999751
 20
25.49999999746001
 30
0.0
 11
19.99999999800002
 21
25.49999999746001
 31
0.0
1001
OrigLayer
1000
P-0000
1001
TOP
1070
     7
  0
LINE
  5
A79
330
2
100
AcDbEntity
  8
P-50F5
  6
Continuous
 62
   144
100
AcDbLine
 10
4.999999999499948
 20
25.49999999746001
 30
0.0
 11
-0.0000000000100044
 21
25.49999999746001
 31
0.0
1001
OrigLayer
1000
P-0000
1001
TOP
1070
     7
  0
LINE
  5
A7A
330
2
100
AcDbEntity
  8
P-50F5
  6
Continuous
 62
   144
100
AcDbLine
 10
5.499999999449954
 20
28.99999999710008
 30
0.0
 11
5.499999999449954
 21
25.99999999740999
 31
0.0
1001
OrigLayer
1000
P-0000
1001
TOP
1070
     7
  0
LINE
  5
A7B
330
2
100
AcDbEntity
  8
P-50F5
  6
Continuous
 62
   144
100
AcDbLine
 10
8.999999999099969
 20
29.49999999705005
 30
0.0
 11
5.999999999400102
 21
29.49999999705005
 31
0.0
1001
OrigLayer
1000
P-0000
1001
TOP
1070
     7
  0
LINE
  5
A7C
330
2
100
AcDbEntity
  8
P-50F5
  6
Continuous
 62
   144
100
AcDbLine
 10
10.99999999890005
 20
37.9999999961999
 30
0.0
 11
10.99999999890005
 21
31.49999999684997
 31
0.0
1001
OrigLayer
1000
P-0000
1001
TOP
1070
     7
  0
LINE
  5
A7D
330
2
100
AcDbEntity
  8
P-50F5
  6
Continuous
 62
   144
100
AcDbLine
 10
13.49999999864994
 20
38.49999999615011
 30
0.0
 11
11.49999999885003
 21
38.49999999615011
 31
0.0
1001
OrigLayer
1000
P-0000
1001
TOP
1070
     7
  0
LINE
  5
A7E
330
2
100
AcDbEntity
  8
P-50F5
  6
Continuous
 62
   144
100
AcDbLine
 10
13.99999999859992
 20
31.49999999684997
 30
0.0
 11
13.99999999859992
 21
37.9999999961999
 31
0.0
1001
OrigLayer
1000
P-0000
1001
TOP
1070
     7
  0
LINE
  5
A7F
330
2
100
AcDbEntity
  8
P-50F5
  6
Continuous
 62
   144
100
AcDbLine
 10
18.99999999809989
 20
29.49999999705005
 30
0.0
 11
15.99999999839994
 21
29.49999999705005
 31
0.0
1001
OrigLayer
1000
P-0000
1001
TOP
1070
     7
  0
LINE
  5
A80
330
2
100
AcDbEntity
  8
P-50F5
  6
Continuous
 62
   144
100
AcDbLine
 10
19.49999999805004
 20
25.99999999740999
 30
0.0
 11
19.49999999805004
 21
28.99999999710008
 31
0.0
1001
OrigLayer
1000
P-0000
1001
TOP
1070
     7
  0
LINE
  5
A81
330
2
100
AcDbEntity
  8
P-50F5
  6
Continuous
 62
   144
100
AcDbLine
 10
23.99999999759993
 20
33.49999999665011
 30
0.0
 11
23.99999999759993
 21
38.66368952267817
 31
0.0
1001
OrigLayer
1000
P-0000
1001
TOP
1070
     7
  0
LINE
  5
A82
330
2
100
AcDbEntity
  8
P-50F5
  6
Continuous
 62
   144
100
AcDbLine
 10
16.49999999835
 20
32.49999999675015
 30
0.0
 11
22.99999999769998
 21
32.49999999675015
 31
0.0
1001
OrigLayer
1000
P-0000
1001
TOP
1070
     7
  0
LINE
  5
A83
330
2
100
AcDbEntity
  8
P-50F5
  6
Continuous
 62
   144
100
AcDbLine
 10
15.49999999844996
 20
39.49999999605007
 30
0.0
 11
15.49999999844996
 21
33.49999999665011
 31
0.0
1001
OrigLayer
1000
P-0000
1001
TOP
1070
     7
  0
LINE
  5
A84
330
2
100
AcDbEntity
  8
P-50F5
  6
Continuous
 62
   144
100
AcDbLine
 10
10.49999999894999
 20
40.49999999595002
 30
0.0
 11
14.49999999855001
 21
40.49999999595002
 31
0.0
1001
OrigLayer
1000
P-0000
1001
TOP
1070
     7
  0
LINE
  5
A85
330
2
100
AcDbEntity
  8
P-50F5
  6
Continuous
 62
   144
100
AcDbLine
 10
9.499999999050032
 20
33.49999999665011
 30
0.0
 11
9.499999999050032
 21
39.49999999605007
 31
0.0
1001
OrigLayer
1000
P-0000
1001
TOP
1070
     7
  0
LINE
  5
A86
330
2
100
AcDbEntity
  8
P-50F5
  6
Continuous
 62
   144
100
AcDbLine
 10
1.999999999799996
 20
32.49999999675015
 30
0.0
 11
8.499999999149991
 21
32.49999999675015
 31
0.0
1001
OrigLayer
1000
P-0000
1001
TOP
1070
     7
  0
LINE
  5
A87
330
2
100
AcDbEntity
  8
P-50F5
  6
Continuous
 62
   144
100
AcDbLine
 10
0.9999999999000408
 20
38.66368952267817
 30
0.0
 11
0.9999999999000408
 21
33.49999999665011
 31
0.0
1001
OrigLayer
1000
P-0000
1001
TOP
1070
     7
  0
ARC
  5
A88
330
2
100
AcDbEntity
  8
P-50F5
  6
Continuous
 62
   144
100
AcDbCircle
 10
24.99999999751
 20
24.99999999751003
 30
0.0
 40
0.49999999995
100
AcDbArc
 50
0.0
 51
90.0
1001
OrigLayer
1000
P-0000
1001
TOP
1070
     7
  0
LINE
  5
A89
330
2
100
AcDbEntity
  8
P-50F5
  6
Continuous
 62
   144
100
AcDbLine
 10
25.79999999743004
 20
19.99999999800002
 30
0.0
 11
25.49999999745998
 21
19.99999999800002
 31
0.0
1001
OrigLayer
1000
P-0000
1001
TOP
1070
     7
  0
LINE
  5
A8A
330
2
100
AcDbEntity
  8
P-50F5
  6
Continuous
 62
   144
100
AcDbLine
 10
25.49999999745998
 20
19.99999999800002
 30
0.0
 11
25.49999999745998
 21
24.99999999751003
 31
0.0
1001
OrigLayer
1000
P-0000
1001
TOP
1070
     7
  0
LINE
  5
A8B
330
2
100
AcDbEntity
  8
P-50F5
  6
Continuous
 62
   144
100
AcDbLine
 10
25.49999999745998
 20
14.99999999850001
 30
0.0
 11
25.79999999743004
 21
14.99999999850001
 31
0.0
1001
OrigLayer
1000
P-0000
1001
TOP
1070
     7
  0
LINE
  5
A8C
330
2
100
AcDbEntity
  8
P-50F5
  6
Continuous
 62
   144
100
AcDbLine
 10
25.79999999743004
 20
9.99999999900001
 30
0.0
 11
25.49999999745998
 21
9.99999999900001
 31
0.0
1001
OrigLayer
1000
P-0000
1001
TOP
1070
     7
  0
LINE
  5
A8D
330
2
100
AcDbEntity
  8
P-50F5
  6
Continuous
 62
   144
100
AcDbLine
 10
25.49999999745998
 20
9.99999999900001
 30
0.0
 11
25.49999999745998
 21
14.99999999850001
 31
0.0
1001
OrigLayer
1000
P-0000
1001
TOP
1070
     7
  0
LINE
  5
A8E
330
2
100
AcDbEntity
  8
P-50F5
  6
Continuous
 62
   144
100
AcDbLine
 10
25.79999999743004
 20
14.99999999850001
 30
0.0
 11
25.79999999743004
 21
19.99999999800002
 31
0.0
1001
OrigLayer
1000
P-0000
1001
TOP
1070
     7
  0
LINE
  5
A8F
330
2
100
AcDbEntity
  8
P-50F5
  6
Continuous
 62
   144
100
AcDbLine
 10
-1.999999999800081
 20
27.49999999724991
 30
0.0
 11
-2.499999999750059
 21
28.00324924648862
 31
0.0
1001
OrigLayer
1000
P-0000
1001
TOP
1070
     7
  0
LINE
  5
A90
330
2
100
AcDbEntity
  8
P-50F5
  6
Continuous
 62
   144
100
AcDbLine
 10
-1.999999999800081
 20
27.49999999724991
 30
0.0
 11
-2.499999999750059
 21
26.99947217755903
 31
0.0
1001
OrigLayer
1000
P-0000
1001
TOP
1070
     7
  0
ARC
  5
A91
330
2
100
AcDbEntity
  8
P-50F5
  6
Continuous
 62
   144
100
AcDbCircle
 10
-0.0000000000100044
 20
24.99999999751003
 30
0.0
 40
0.49999999995
100
AcDbArc
 50
90.0
 51
180.0
1001
OrigLayer
1000
P-0000
1001
TOP
1070
     7
  0
LINE
  5
A92
330
2
100
AcDbEntity
  8
P-50F5
  6
Continuous
 62
   144
100
AcDbLine
 10
-0.4999999999599823
 20
19.99999999800002
 30
0.0
 11
-0.7999999999299803
 21
19.99999999800002
 31
0.0
1001
OrigLayer
1000
P-0000
1001
TOP
1070
     7
  0
LINE
  5
A93
330
2
100
AcDbEntity
  8
P-50F5
  6
Continuous
 62
   144
100
AcDbLine
 10
-0.4999999999599823
 20
24.99999999751003
 30
0.0
 11
-0.4999999999599823
 21
19.99999999800002
 31
0.0
1001
OrigLayer
1000
P-0000
1001
TOP
1070
     7
  0
LINE
  5
A94
330
2
100
AcDbEntity
  8
P-50F5
  6
Continuous
 62
   144
100
AcDbLine
 10
-0.7999999999299803
 20
14.99999999850001
 30
0.0
 11
-0.4999999999599823
 21
14.99999999850001
 31
0.0
1001
OrigLayer
1000
P-0000
1001
TOP
1070
     7
  0
LINE
  5
A95
330
2
100
AcDbEntity
  8
P-50F5
  6
Continuous
 62
   144
100
AcDbLine
 10
-0.4999999999599823
 20
9.99999999900001
 30
0.0
 11
-0.7999999999299803
 21
9.99999999900001
 31
0.0
1001
OrigLayer
1000
P-0000
1001
TOP
1070
     7
  0
LINE
  5
A96
330
2
100
AcDbEntity
  8
P-50F5
  6
Continuous
 62
   144
100
AcDbLine
 10
-0.4999999999599823
 20
14.99999999850001
 30
0.0
 11
-0.4999999999599823
 21
9.99999999900001
 31
0.0
1001
OrigLayer
1000
P-0000
1001
TOP
1070
     7
  0
LINE
  5
A97
330
2
100
AcDbEntity
  8
P-50F5
  6
Continuous
 62
   144
100
AcDbLine
 10
-0.7999999999299803
 20
19.99999999800002
 30
0.0
 11
-0.7999999999299803
 21
14.99999999850001
 31
0.0
1001
OrigLayer
1000
P-0000
1001
TOP
1070
     7
  0
LINE
  5
A98
330
2
100
AcDbEntity
  8
P-50F5
  6
Continuous
 62
   144
100
AcDbLine
 10
25.49999999745998
 20
4.999999999500005
 30
0.0
 11
25.79999999743004
 21
4.999999999500005
 31
0.0
1001
OrigLayer
1000
P-0000
1001
TOP
1070
     7
  0
LINE
  5
A99
330
2
100
AcDbEntity
  8
P-50F5
  6
Continuous
 62
   144
100
AcDbLine
 10
25.49999999745998
 20
-0.0000000000100044
 30
0.0
 11
25.49999999745998
 21
4.999999999500005
 31
0.0
1001
OrigLayer
1000
P-0000
1001
TOP
1070
     7
  0
ARC
  5
A9A
330
2
100
AcDbEntity
  8
P-50F5
  6
Continuous
 62
   144
100
AcDbCircle
 10
24.9999999975
 20
0.0
 30
0.0
 40
2.499999999749999
100
AcDbArc
 50
270.0
 51
0.0
1001
OrigLayer
1000
P-0000
1001
TOP
1070
     7
  0
ARC
  5
A9B
330
2
100
AcDbEntity
  8
P-50F5
  6
Continuous
 62
   144
100
AcDbCircle
 10
24.99999999751
 20
-0.0000000000100044
 30
0.0
 40
0.49999999995
100
AcDbArc
 50
270.0
 51
0.0
1001
OrigLayer
1000
P-0000
1001
TOP
1070
     7
  0
LINE
  5
A9C
330
2
100
AcDbEntity
  8
P-50F5
  6
Continuous
 62
   144
100
AcDbLine
 10
19.99999999800002
 20
-0.7999999999301508
 30
0.0
 11
19.99999999800002
 21
-0.4999999999599823
 31
0.0
1001
OrigLayer
1000
P-0000
1001
TOP
1070
     7
  0
LINE
  5
A9D
330
2
100
AcDbEntity
  8
P-50F5
  6
Continuous
 62
   144
100
AcDbLine
 10
14.99999999849999
 20
-0.4999999999599823
 30
0.0
 11
14.99999999849999
 21
-0.7999999999301508
 31
0.0
1001
OrigLayer
1000
P-0000
1001
TOP
1070
     7
  0
LINE
  5
A9E
330
2
100
AcDbEntity
  8
P-50F5
  6
Continuous
 62
   144
100
AcDbLine
 10
14.99999999849999
 20
-0.7999999999301508
 30
0.0
 11
19.99999999800002
 21
-0.7999999999301508
 31
0.0
1001
OrigLayer
1000
P-0000
1001
TOP
1070
     7
  0
LINE
  5
A9F
330
2
100
AcDbEntity
  8
P-50F5
  6
Continuous
 62
   144
100
AcDbLine
 10
19.99999999800002
 20
-0.4999999999599823
 30
0.0
 11
24.99999999751
 21
-0.4999999999599823
 31
0.0
1001
OrigLayer
1000
P-0000
1001
TOP
1070
     7
  0
LINE
  5
AA0
330
2
100
AcDbEntity
  8
P-50F5
  6
Continuous
 62
   144
100
AcDbLine
 10
9.99999999900001
 20
-0.7999999999301508
 30
0.0
 11
9.99999999900001
 21
-0.4999999999599823
 31
0.0
1001
OrigLayer
1000
P-0000
1001
TOP
1070
     7
  0
LINE
  5
AA1
330
2
100
AcDbEntity
  8
P-50F5
  6
Continuous
 62
   144
100
AcDbLine
 10
4.999999999499948
 20
-0.4999999999599823
 30
0.0
 11
4.999999999499948
 21
-0.7999999999301508
 31
0.0
1001
OrigLayer
1000
P-0000
1001
TOP
1070
     7
  0
LINE
  5
AA2
330
2
100
AcDbEntity
  8
P-50F5
  6
Continuous
 62
   144
100
AcDbLine
 10
4.999999999499948
 20
-0.7999999999301508
 30
0.0
 11
9.99999999900001
 21
-0.7999999999301508
 31
0.0
1001
OrigLayer
1000
P-0000
1001
TOP
1070
     7
  0
LINE
  5
AA3
330
2
100
AcDbEntity
  8
P-50F5
  6
Continuous
 62
   144
100
AcDbLine
 10
-0.7999999999299803
 20
4.999999999500005
 30
0.0
 11
-0.4999999999599823
 21
4.999999999500005
 31
0.0
1001
OrigLayer
1000
P-0000
1001
TOP
1070
     7
  0
LINE
  5
AA4
330
2
100
AcDbEntity
  8
P-50F5
  6
Continuous
 62
   144
100
AcDbLine
 10
-0.4999999999599823
 20
4.999999999500005
 30
0.0
 11
-0.4999999999599823
 21
-0.0000000000100044
 31
0.0
1001
OrigLayer
1000
P-0000
1001
TOP
1070
     7
  0
ARC
  5
AA5
330
2
100
AcDbEntity
  8
P-50F5
  6
Continuous
 62
   144
100
AcDbCircle
 10
0.0
 20
0.0
 30
0.0
 40
2.499999999749999
100
AcDbArc
 50
180.0
 51
270.0
1001
OrigLayer
1000
P-0000
1001
TOP
1070
     7
  0
ARC
  5
AA6
330
2
100
AcDbEntity
  8
P-50F5
  6
Continuous
 62
   144
100
AcDbCircle
 10
-0.0000000000100044
 20
-0.0000000000100044
 30
0.0
 40
0.49999999995
100
AcDbArc
 50
180.0
 51
270.0
1001
OrigLayer
1000
P-0000
1001
TOP
1070
     7
  0
LINE
  5
AA7
330
2
100
AcDbEntity
  8
P-50F5
  6
Continuous
 62
   144
100
AcDbLine
 10
-0.0000000000100044
 20
-0.4999999999599823
 30
0.0
 11
4.999999999499948
 21
-0.4999999999599823
 31
0.0
1001
OrigLayer
1000
P-0000
1001
TOP
1070
     7
  0
LINE
  5
AA8
330
2
100
AcDbEntity
  8
P-50F5
  6
Continuous
 62
   144
100
AcDbLine
 10
0.0
 20
-2.499999999749888
 30
0.0
 11
24.9999999975
 21
-2.499999999749888
 31
0.0
1001
OrigLayer
1000
P-0000
1001
TOP
1070
     7
  0
LINE
  5
AA9
330
2
100
AcDbEntity
  8
P-50F5
  6
Continuous
 62
   144
100
AcDbLine
 10
9.99999999900001
 20
-0.4999999999599823
 30
0.0
 11
14.99999999849999
 21
-0.4999999999599823
 31
0.0
1001
OrigLayer
1000
P-0000
1001
TOP
1070
     7
  0
LINE
  5
AAA
330
2
100
AcDbEntity
  8
P-50F5
  6
Continuous
 62
   144
100
AcDbLine
 10
25.79999999743004
 20
4.999999999500005
 30
0.0
 11
25.79999999743004
 21
9.99999999900001
 31
0.0
1001
OrigLayer
1000
P-0000
1001
TOP
1070
     7
  0
LINE
  5
AAB
330
2
100
AcDbEntity
  8
P-50F5
  6
Continuous
 62
   144
100
AcDbLine
 10
-0.7999999999299803
 20
9.99999999900001
 30
0.0
 11
-0.7999999999299803
 21
4.999999999500005
 31
0.0
1001
OrigLayer
1000
P-0000
1001
TOP
1070
     7
  0
LINE
  5
AAC
330
2
100
AcDbEntity
  8
P-50F5
  6
Continuous
 62
   144
100
AcDbLine
 10
-2.499999999750059
 20
26.99947217755903
 30
0.0
 11
-2.499999999750059
 21
0.0
 31
0.0
1001
OrigLayer
1000
P-0000
1001
TOP
1070
     7
  0
ENDSEC
  0
SECTION
  2
OBJECTS
  0
DICTIONARY
  5
1A
330
0
100
AcDbDictionary
281
     1
  3
ACAD_2007HEADERVARS_RT
350
171A
  3
ACAD_COLOR
350
2C5
  3
ACAD_GROUP
350
18
  3
ACAD_LAYOUT
350
45
  3
ACAD_MATERIAL
350
2B0
  3
ACAD_MLEADERSTYLE
350
354
  3
ACAD_MLINESTYLE
350
19
  3
ACAD_PLOTSETTINGS
350
46
  3
ACAD_PLOTSTYLENAME
350
43
  3
ACAD_SCALELIST
350
332
  3
ACAD_TABLESTYLE
350
2C6
  3
ACAD_VISUALSTYLE
350
2B4
  3
ACDB_RECOMPOSE_DATA
350
1718
  3
AcDbVariableDictionary
350
2AA
  3
AEC_PROPERTY_SET_DEFS
350
6EA
  3
DWGPROPS
350
1719
  3
qs_topprt_diz
350
50
  3
QSCATDICT
350
6D9
  3
QsPallStyleDict
350
6EB
  3
QsTop499
350
16E7
  3
TopSpotLight
350
6E0
  0
DICTIONARY
  5
300
330
12
100
AcDbDictionary
280
     1
281
     1
  0
DICTIONARY
  5
924
330
A
100
AcDbDictionary
280
     1
281
     1
  3
ACAD_LAYERSTATES
360
925
  0
DICTIONARY
  5
37B
330
4
100
AcDbDictionary
280
     1
281
     1
  3
ADSK_XREC_LAYER_RECONCILED
360
1505
  0
DICTIONARY
  5
1506
330
6DB
100
AcDbDictionary
280
     1
281
     1
  3
ADSK_XREC_LAYER_RECONCILED
360
1507
  0
DICTIONARY
  5
1508
330
712
100
AcDbDictionary
280
     1
281
     1
  3
ADSK_XREC_LAYER_RECONCILED
360
1509
  0
DICTIONARY
  5
150A
330
713
100
AcDbDictionary
280
     1
281
     1
  3
ADSK_XREC_LAYER_RECONCILED
360
150B
  0
DICTIONARY
  5
150C
330
91B
100
AcDbDictionary
280
     1
281
     1
  3
ADSK_XREC_LAYER_RECONCILED
360
150D
  0
DICTIONARY
  5
150E
330
AB0
100
AcDbDictionary
280
     1
281
     1
  3
ADSK_XREC_LAYER_RECONCILED
360
150F
  0
DICTIONARY
  5
1510
330
AB3
100
AcDbDictionary
280
     1
281
     1
  3
ADSK_XREC_LAYER_RECONCILED
360
1511
  0
DICTIONARY
  5
1512
330
1329
100
AcDbDictionary
280
     1
281
     1
  3
ADSK_XREC_LAYER_RECONCILED
360
1513
  0
DICTIONARY
  5
A3F
330
926
100
AcDbDictionary
280
     1
281
     1
  3
ACAD_SORTENTS
360
A40
  0
DICTIONARY
  5
171A
102
{ACAD_REACTORS
330
1A
102
}
330
1A
100
AcDbDictionary
281
     1
  3
INTERFEREVPVS
350
171B
  0
DICTIONARY
  5
2C5
102
{ACAD_REACTORS
330
1A
102
}
330
1A
100
AcDbDictionary
281
     1
  0
DICTIONARY
  5
18
102
{ACAD_REACTORS
330
1A
102
}
330
1A
100
AcDbDictionary
281
     1
  0
DICTIONARY
  5
45
102
{ACAD_REACTORS
330
1A
102
}
330
1A
100
AcDbDictionary
281
     1
  3
Layout1
350
48
  3
Model
350
47
  0
DICTIONARY
  5
2B0
102
{ACAD_REACTORS
330
1A
102
}
330
1A
100
AcDbDictionary
281
     1
  3
ByBlock
350
2B2
  3
ByLayer
350
2B1
  3
Global
350
2B3
  0
DICTIONARY
  5
354
102
{ACAD_REACTORS
330
1A
102
}
330
1A
100
AcDbDictionary
281
     1
  3
Standard
350
355
  0
DICTIONARY
  5
19
102
{ACAD_REACTORS
330
1A
102
}
330
1A
100
AcDbDictionary
281
     1
  3
STANDARD
350
1C
  0
DICTIONARY
  5
46
102
{ACAD_REACTORS
330
1A
102
}
330
1A
100
AcDbDictionary
281
     1
  3
Kyocera_1010 OR
350
168E
  3
Kyocera_1010 VER
350
168F
  3
Olivetti_200 A3
350
1690
  3
Olivetti_200 A4
350
1691
  3
PLOTTER
350
1692
  0
ACDBDICTIONARYWDFLT
  5
43
102
{ACAD_REACTORS
330
1A
102
}
330
1A
100
AcDbDictionary
281
     1
  3
Normal
350
44
100
AcDbDictionaryWithDefault
340
44
  0
DICTIONARY
  5
332
102
{ACAD_REACTORS
330
1A
102
}
330
1A
100
AcDbDictionary
281
     1
  3
A0
350
333
  3
A1
350
334
  3
A2
350
335
  3
A3
350
336
  3
A4
350
337
  3
A5
350
338
  3
A6
350
339
  3
A7
350
33A
  3
A8
350
33B
  3
A9
350
33C
  3
B0
350
33D
  3
B1
350
33E
  3
B2
350
33F
  3
B3
350
340
  3
B4
350
341
  3
B5
350
342
  3
B6
350
343
  3
B7
350
344
  3
B8
350
345
  3
B9
350
346
  3
C0
350
347
  3
C1
350
348
  3
C2
350
349
  3
C3
350
34A
  3
C4
350
34B
  3
C5
350
34C
  3
C6
350
34D
  3
C7
350
34E
  3
C8
350
34F
  3
C9
350
350
  3
D0
350
351
  3
D1
350
352
  3
D2
350
353
  0
DICTIONARY
  5
2C6
102
{ACAD_REACTORS
330
1A
102
}
330
1A
100
AcDbDictionary
281
     1
  3
QSTABFORI
350
31A
  3
QSTABREGION
350
2CC
  3
Standard
350
2C7
  0
DICTIONARY
  5
2B4
102
{ACAD_REACTORS
330
1A
102
}
330
1A
100
AcDbDictionary
281
     1
  3
2dWireframe
350
2BA
  3
3D Hidden
350
2BC
  3
3dWireframe
350
2BB
  3
Basic
350
2B9
  3
Brighten
350
2C0
  3
ColorChange
350
2C4
  3
Conceptual
350
2BD
  3
Dim
350
2BF
  3
EdgeColorOff
350
16FA
  3
Facepattern
350
2C3
  3
Flat
350
2B5
  3
FlatWithEdges
350
2B6
  3
Gouraud
350
2B7
  3
GouraudWithEdges
350
2B8
  3
Hidden
350
16F2
  3
JitterOff
350
16F8
  3
Linepattern
350
2C2
  3
OverhangOff
350
16F9
  3
Realistic
350
2BE
  3
Shaded
350
16F7
  3
Shaded with edges
350
16F6
  3
Shades of Gray
350
16F3
  3
Sketchy
350
16F4
  3
Thicken
350
2C1
  3
Wireframe
350
16F1
  3
X-Ray
350
16F5
  0
XRECORD
  5
1718
102
{ACAD_REACTORS
330
1A
102
}
330
1A
100
AcDbXrecord
280
     1
 90
        1
330
2C7
330
2CC
330
31A
  0
DICTIONARY
  5
2AA
102
{ACAD_REACTORS
330
1A
102
}
330
1A
100
AcDbDictionary
281
     1
  3
CANNOSCALE
350
36B
  3
CMLEADERSTYLE
350
369
  3
CTABLESTYLE
350
312
  3
DIMASSOC
350
2AB
  3
DRAWORDERCTL
350
1528
  3
INDEXCTL
350
314
  3
LAYEREVAL
350
152A
  3
LAYERNOTIFY
350
152B
  3
LIGHTINGUNITS
350
36C
  3
MLEADERSCALE
350
1529
  3
MSLTSCALE
350
36A
  3
SORTENTS
350
313
  3
XCLIPFRAME
350
1714
  0
DICTIONARY
  5
6EA
102
{ACAD_REACTORS
330
1A
102
}
330
1A
100
AcDbDictionary
281
     1
  0
XRECORD
  5
1719
102
{ACAD_REACTORS
330
1A
102
}
330
1A
100
AcDbXrecord
280
     1
  1
DWGPROPS COOKIE
  2

  3

  4

  6

  7

  8
mpistoia
  9

300
=
301
=
302
=
303
=
304
=
305
=
306
=
307
=
308
=
309
=
 40
0.0439928472222222
 41
2455048.595203623
 42
2455646.476082801
  1

 90
        0
  0
DICTIONARY
  5
50
102
{ACAD_REACTORS
330
1A
102
}
330
1A
100
AcDbDictionary
281
     1
  3
UCNT
350
51
  0
DICTIONARY
  5
6D9
102
{ACAD_REACTORS
330
1A
102
}
330
1A
100
AcDbDictionary
280
     1
281
     1
  3
DEFAULT
360
6DA
  0
DICTIONARY
  5
6EB
102
{ACAD_REACTORS
330
1A
102
}
330
1A
100
AcDbDictionary
281
     1
  3
DEFAULT
350
6EC
  0
DICTIONARY
  5
16E7
102
{ACAD_REACTORS
330
1A
102
}
330
1A
100
AcDbDictionary
281
     1
  3
TOP
350
16EC
  3
X0e18
350
16E9
  3
X0fde
350
16EA
  3
X656f
350
16E8
  3
X683e
350
16EB
  0
DICTIONARY
  5
6E0
102
{ACAD_REACTORS
330
1A
102
}
330
1A
100
AcDbDictionary
281
     1
  3
colors
350
6E1
  0
DICTIONARY
  5
925
102
{ACAD_REACTORS
330
924
102
}
330
924
100
AcDbDictionary
281
     1
  0
XRECORD
  5
1505
102
{ACAD_REACTORS
330
37B
102
}
330
37B
100
AcDbXrecord
280
     1
290
     1
  0
XRECORD
  5
1507
102
{ACAD_REACTORS
330
1506
102
}
330
1506
100
AcDbXrecord
280
     1
290
     1
  0
XRECORD
  5
1509
102
{ACAD_REACTORS
330
1508
102
}
330
1508
100
AcDbXrecord
280
     1
290
     1
  0
XRECORD
  5
150B
102
{ACAD_REACTORS
330
150A
102
}
330
150A
100
AcDbXrecord
280
     1
290
     1
  0
XRECORD
  5
150D
102
{ACAD_REACTORS
330
150C
102
}
330
150C
100
AcDbXrecord
280
     1
290
     1
  0
XRECORD
  5
150F
102
{ACAD_REACTORS
330
150E
102
}
330
150E
100
AcDbXrecord
280
     1
290
     1
  0
XRECORD
  5
1511
102
{ACAD_REACTORS
330
1510
102
}
330
1510
100
AcDbXrecord
280
     1
290
     1
  0
XRECORD
  5
1513
102
{ACAD_REACTORS
330
1512
102
}
330
1512
100
AcDbXrecord
280
     1
290
     1
  0
SORTENTSTABLE
  5
A40
102
{ACAD_REACTORS
330
A3F
102
}
330
A3F
100
AcDbSortentsTable
330
926
331
94A
  5
966
331
94E
  5
96A
331
93A
  5
958
331
952
  5
971
331
956
  5
975
331
93E
  5
95B
331
963
  5
984
331
95A
  5
979
331
942
  5
95D
331
967
  5
96F
331
983
  5
938
331
95E
  5
97D
331
946
  5
963
331
96B
  5
953
331
96F
  5
94B
331
973
  5
94F
331
977
  5
947
331
92B
  5
927
331
97B
  5
941
331
97F
  5
939
331
94B
  5
967
331
94F
  5
96B
331
937
  5
955
331
960
  5
97F
331
953
  5
972
331
93B
  5
959
331
964
  5
937
331
957
  5
976
331
93F
  5
95A
331
927
  5
92B
331
980
  5
93C
331
968
  5
970
331
943
  5
95F
331
95B
  5
97A
331
984
  5
983
331
96C
  5
954
331
947
  5
962
331
95F
  5
97E
331
970
  5
94C
331
974
  5
950
331
978
  5
948
331
928
  5
92C
331
97C
  5
943
331
92C
  5
928
331
948
  5
964
331
94C
  5
968
331
938
  5
956
331
950
  5
96C
331
961
  5
980
331
93C
  5
93F
331
954
  5
973
331
965
  5
93A
331
940
  5
95C
331
958
  5
977
331
969
  5
96D
331
981
  5
93B
331
944
  5
960
331
95C
  5
97B
331
96D
  5
949
331
971
  5
94D
331
975
  5
951
331
979
  5
93D
331
929
  5
92D
331
92D
  5
929
331
97D
  5
944
331
949
  5
965
331
94D
  5
969
331
939
  5
957
331
951
  5
96E
331
93D
  5
942
331
955
  5
974
331
962
  5
982
331
941
  5
95E
331
959
  5
978
331
966
  5
93E
331
945
  5
961
331
95D
  5
97C
331
96A
  5
952
331
982
  5
981
331
96E
  5
94A
331
972
  5
94E
331
976
  5
946
331
92A
  5
92E
331
97A
  5
940
331
92E
  5
92A
331
97E
  5
945
  0
XRECORD
  5
171B
102
{ACAD_REACTORS
330
171A
102
}
330
171A
100
AcDbXrecord
280
     1
340
2BB
  0
LAYOUT
  5
48
102
{ACAD_XDICTIONARY
360
171E
102
}
102
{ACAD_REACTORS
330
45
102
}
330
45
100
AcDbPlotSettings
  1

  2
RICOH Aficio 270 PCL 6 A4
  4

  6

 40
0.0
 41
0.0
 42
0.0
 43
0.0
 44
0.0
 45
0.0
 46
0.0
 47
0.0
 48
0.0
 49
0.0
140
0.0
141
0.0
142
1.0
143
1.0
 70
   688
 72
     0
 73
     0
 74
     5
  7
DIERRE BN.ctb
 75
    16
147
1.0
148
0.0
149
0.0
100
AcDbLayout
  1
Layout1
 70
     0
 71
     1
 10
0.0
 20
0.0
 11
12.0
 21
9.0
 12
0.0
 22
0.0
 32
0.0
 14
1.000000000000000E+20
 24
1.000000000000000E+20
 34
1.000000000000000E+20
 15
-1.000000000000000E+20
 25
-1.000000000000000E+20
 35
-1.000000000000000E+20
146
0.0
 13
0.0
 23
0.0
 33
0.0
 16
1.0
 26
0.0
 36
0.0
 17
0.0
 27
1.0
 37
0.0
 76
     0
330
7
  0
LAYOUT
  5
47
102
{ACAD_XDICTIONARY
360
171C
102
}
102
{ACAD_REACTORS
330
45
102
}
330
45
100
AcDbPlotSettings
  1
Olivetti_200 A4
  2
Olivetti_200.pc3
  4
A4
  6

 40
4.984749794006347
 41
5.154074668884277
 42
5.111740112304687
 43
4.9847412109375
 44
210.0156707763672
 45
297.0106506347656
 46
51.67548120477697
 47
0.0
 48
0.0
 49
0.0
140
0.0
141
0.0
142
1.0
143
0.4718508448115938
 70
 11956
 72
     1
 73
     0
 74
     1
  7
DIERRE BN.ctb
 75
     0
147
2.119313785268927
148
-222.4649060220283
149
-239.0808115236937
100
AcDbLayout
  1
Model
 70
     1
 71
     0
 10
0.0
 20
0.0
 11
12.0
 21
9.0
 12
0.0
 22
0.0
 32
0.0
 14
0.0
 24
0.0
 34
0.0
 15
0.0
 25
0.0
 35
0.0
146
0.0
 13
0.0
 23
0.0
 33
0.0
 16
1.0
 26
0.0
 36
0.0
 17
0.0
 27
1.0
 37
0.0
 76
     0
330
2
331
2AE
1001
ACAD_PSEXT
1000
Olivetti_200.pc3
1000
Olivetti d-Copia 200MF KX
1000
IP_192.168.1.151
1000

1070
     0
  0
MATERIAL
  5
2B2
102
{ACAD_XDICTIONARY
360
1722
102
}
102
{ACAD_REACTORS
330
2B0
102
}
330
2B0
100
AcDbMaterial
  1
ByBlock
 73
     1
 78
     1
172
     1
176
     1
270
     1
274
     1
  0
MATERIAL
  5
2B1
102
{ACAD_XDICTIONARY
360
1720
102
}
102
{ACAD_REACTORS
330
2B0
102
}
330
2B0
100
AcDbMaterial
  1
ByLayer
 73
     1
 78
     1
172
     1
176
     1
270
     1
274
     1
  0
MATERIAL
  5
2B3
102
{ACAD_XDICTIONARY
360
1724
102
}
102
{ACAD_REACTORS
330
2B0
102
}
330
2B0
100
AcDbMaterial
  1
Global
 73
     1
 78
     1
172
     1
176
     1
270
     1
274
     1
  0
MLEADERSTYLE
  5
355
102
{ACAD_REACTORS
330
354
102
}
330
354
100
AcDbMLeaderStyle
170
     2
171
     1
172
     0
 90
        2
 40
0.0
 41
0.0
173
     1
 91
-1056964608
340
E
 92
       -2
290
     1
 42
2.0
291
     1
 43
0.36
  3
Standard
 44
4.0
300

342
C
174
     1
178
     6
175
     1
176
     0
 93
-1056964608
 45
4.0
292
     0
297
     0
 46
4.0
 94
-1056964608
 47
1.0
 49
1.0
140
1.0
293
     1
141
0.0
294
     1
177
     0
142
1.0
295
     0
296
     0
143
0.125
1001
ACAD_MLEADERVER
1070
     2
  0
MLINESTYLE
  5
1C
102
{ACAD_REACTORS
330
19
102
}
330
19
100
AcDbMlineStyle
  2
STANDARD
 70
     0
  3

 62
     0
 51
90.0
 52
90.0
 71
     2
 49
0.5
 62
   256
  6
BYLAYER
 49
-0.5
 62
   256
  6
BYLAYER
  0
PLOTSETTINGS
  5
168E
102
{ACAD_XDICTIONARY
360
174A
102
}
102
{ACAD_REACTORS
330
46
102
}
330
46
100
AcDbPlotSettings
  1
Kyocera_1010 OR
  2
Kyocera_1010.pc3
  4
A4
  6

 40
4.984749794006347
 41
5.154074668884277
 42
5.111740112304687
 43
4.9847412109375
 44
210.0156707763672
 45
297.0106506347656
 46
0.0
 47
109.7870247470818
 48
0.0
 49
0.0
140
0.0
141
0.0
142
1.0
143
0.6770771918566143
 70
 11956
 72
     1
 73
     1
 74
     1
  7
DIERRE BN.ctb
 75
     0
147
1.476936473458659
148
-222.4649060220283
149
-239.0808115236937
1001
ACAD_PSEXT
1000
Kyocera_1010.pc3
1000
Kyocera Mita FS-1010 KX
1000
\\PC5
1000

1070
     0
  0
PLOTSETTINGS
  5
168F
102
{ACAD_XDICTIONARY
360
174C
102
}
102
{ACAD_REACTORS
330
46
102
}
330
46
100
AcDbPlotSettings
  1
Kyocera_1010 VER
  2
Kyocera_1010.pc3
  4
A4
  6

 40
4.984749794006347
 41
5.154074668884277
 42
5.111740112304687
 43
4.9847412109375
 44
210.0156707763672
 45
297.0106506347656
 46
51.67548120477697
 47
0.0
 48
0.0
 49
0.0
140
0.0
141
0.0
142
1.0
143
0.4718508448115938
 70
 11956
 72
     1
 73
     0
 74
     1
  7
DIERRE BN.ctb
 75
     0
147
2.119313785268927
148
-222.4649060220283
149
-239.0808115236937
1001
ACAD_PSEXT
1000
Kyocera_1010.pc3
1000
Kyocera Mita FS-1010 KX
1000
\\PC5
1000

1070
     0
  0
PLOTSETTINGS
  5
1690
102
{ACAD_XDICTIONARY
360
174E
102
}
102
{ACAD_REACTORS
330
46
102
}
330
46
100
AcDbPlotSettings
  1
Olivetti_200 A3
  2
Olivetti_200.pc3
  4
A3
  6

 40
4.984749794006347
 41
5.111746788024902
 42
5.154083251953125
 43
4.9847412109375
 44
297.0106506347656
 45
419.9889831542968
 46
0.0
 47
156.6621412366913
 48
0.0
 49
0.0
140
0.0
141
0.0
142
1.0
143
0.4718508730467012
 70
 11956
 72
     1
 73
     1
 74
     1
  7
DIERRE BN.ctb
 75
     0
147
2.119313658451206
148
-222.4649060220283
149
-239.0808115236937
1001
ACAD_PSEXT
1000
Olivetti_200.pc3
1000
Olivetti d-Copia 200MF KX
1000
IP_192.168.1.151
1000

1070
     0
  0
PLOTSETTINGS
  5
1691
102
{ACAD_XDICTIONARY
360
1750
102
}
102
{ACAD_REACTORS
330
46
102
}
330
46
100
AcDbPlotSettings
  1
Olivetti_200 A4
  2
Olivetti_200.pc3
  4
A4
  6

 40
4.984749794006347
 41
5.154074668884277
 42
5.111740112304687
 43
4.9847412109375
 44
210.0156707763672
 45
297.0106506347656
 46
51.67548120477697
 47
0.0
 48
0.0
 49
0.0
140
0.0
141
0.0
142
1.0
143
0.4718508448115938
 70
 11956
 72
     1
 73
     0
 74
     1
  7
DIERRE BN.ctb
 75
     0
147
2.119313785268927
148
-222.4649060220283
149
-239.0808115236937
1001
ACAD_PSEXT
1000
Olivetti_200.pc3
1000
Olivetti d-Copia 200MF KX
1000
IP_192.168.1.151
1000

1070
     0
  0
PLOTSETTINGS
  5
1692
102
{ACAD_XDICTIONARY
360
1752
102
}
102
{ACAD_REACTORS
330
46
102
}
330
46
100
AcDbPlotSettings
  1
PLOTTER
  2
PLOTTER.pc3
  4
User622
  6

 40
0.0
 41
0.0
 42
0.0
 43
0.0
 44
841.0
 45
1189.0
 46
0.0
 47
0.0
 48
0.0
 49
0.0
140
0.0
141
0.0
142
1.0
143
1.0
 70
 11936
 72
     1
 73
     0
 74
     1
  7
DIERRE BN.ctb
 75
     0
147
2.194137304425714
148
-222.4649060220283
149
-239.0808115236937
1001
ACAD_PSEXT
1000
PLOTTER.pc3
1000
HP DesignJet 430 (E/A0) by HP
1000
\\SERVER2003
1000

1070
     0
  0
ACDBPLACEHOLDER
  5
44
102
{ACAD_REACTORS
330
43
102
}
330
43
  0
SCALE
  5
333
102
{ACAD_REACTORS
330
332
102
}
330
332
100
AcDbScale
 70
     0
300
1:1
140
1.0
141
1.0
290
     1
  0
SCALE
  5
334
102
{ACAD_REACTORS
330
332
102
}
330
332
100
AcDbScale
 70
     0
300
1:2
140
1.0
141
2.0
290
     0
  0
SCALE
  5
335
102
{ACAD_REACTORS
330
332
102
}
330
332
100
AcDbScale
 70
     0
300
1:4
140
1.0
141
4.0
290
     0
  0
SCALE
  5
336
102
{ACAD_REACTORS
330
332
102
}
330
332
100
AcDbScale
 70
     0
300
1:5
140
1.0
141
5.0
290
     0
  0
SCALE
  5
337
102
{ACAD_REACTORS
330
332
102
}
330
332
100
AcDbScale
 70
     0
300
1:8
140
1.0
141
8.0
290
     0
  0
SCALE
  5
338
102
{ACAD_REACTORS
330
332
102
}
330
332
100
AcDbScale
 70
     0
300
1:10
140
1.0
141
10.0
290
     0
  0
SCALE
  5
339
102
{ACAD_REACTORS
330
332
102
}
330
332
100
AcDbScale
 70
     0
300
1:16
140
1.0
141
16.0
290
     0
  0
SCALE
  5
33A
102
{ACAD_REACTORS
330
332
102
}
330
332
100
AcDbScale
 70
     0
300
1:20
140
1.0
141
20.0
290
     0
  0
SCALE
  5
33B
102
{ACAD_REACTORS
330
332
102
}
330
332
100
AcDbScale
 70
     0
300
1:30
140
1.0
141
30.0
290
     0
  0
SCALE
  5
33C
102
{ACAD_REACTORS
330
332
102
}
330
332
100
AcDbScale
 70
     0
300
1:40
140
1.0
141
40.0
290
     0
  0
SCALE
  5
33D
102
{ACAD_REACTORS
330
332
102
}
330
332
100
AcDbScale
 70
     0
300
1:50
140
1.0
141
50.0
290
     0
  0
SCALE
  5
33E
102
{ACAD_REACTORS
330
332
102
}
330
332
100
AcDbScale
 70
     0
300
1:100
140
1.0
141
100.0
290
     0
  0
SCALE
  5
33F
102
{ACAD_REACTORS
330
332
102
}
330
332
100
AcDbScale
 70
     0
300
2:1
140
2.0
141
1.0
290
     0
  0
SCALE
  5
340
102
{ACAD_REACTORS
330
332
102
}
330
332
100
AcDbScale
 70
     0
300
4:1
140
4.0
141
1.0
290
     0
  0
SCALE
  5
341
102
{ACAD_REACTORS
330
332
102
}
330
332
100
AcDbScale
 70
     0
300
8:1
140
8.0
141
1.0
290
     0
  0
SCALE
  5
342
102
{ACAD_REACTORS
330
332
102
}
330
332
100
AcDbScale
 70
     0
300
10:1
140
10.0
141
1.0
290
     0
  0
SCALE
  5
343
102
{ACAD_REACTORS
330
332
102
}
330
332
100
AcDbScale
 70
     0
300
100:1
140
100.0
141
1.0
290
     0
  0
SCALE
  5
344
102
{ACAD_REACTORS
330
332
102
}
330
332
100
AcDbScale
 70
     0
300
1/128" = 1'-0"
140
0.0078125
141
12.0
290
     0
  0
SCALE
  5
345
102
{ACAD_REACTORS
330
332
102
}
330
332
100
AcDbScale
 70
     0
300
1/64" = 1'-0"
140
0.015625
141
12.0
290
     0
  0
SCALE
  5
346
102
{ACAD_REACTORS
330
332
102
}
330
332
100
AcDbScale
 70
     0
300
1/32" = 1'-0"
140
0.03125
141
12.0
290
     0
  0
SCALE
  5
347
102
{ACAD_REACTORS
330
332
102
}
330
332
100
AcDbScale
 70
     0
300
1/16" = 1'-0"
140
0.0625
141
12.0
290
     0
  0
SCALE
  5
348
102
{ACAD_REACTORS
330
332
102
}
330
332
100
AcDbScale
 70
     0
300
3/32" = 1'-0"
140
0.09375
141
12.0
290
     0
  0
SCALE
  5
349
102
{ACAD_REACTORS
330
332
102
}
330
332
100
AcDbScale
 70
     0
300
1/8" = 1'-0"
140
0.125
141
12.0
290
     0
  0
SCALE
  5
34A
102
{ACAD_REACTORS
330
332
102
}
330
332
100
AcDbScale
 70
     0
300
3/16" = 1'-0"
140
0.1875
141
12.0
290
     0
  0
SCALE
  5
34B
102
{ACAD_REACTORS
330
332
102
}
330
332
100
AcDbScale
 70
     0
300
1/4" = 1'-0"
140
0.25
141
12.0
290
     0
  0
SCALE
  5
34C
102
{ACAD_REACTORS
330
332
102
}
330
332
100
AcDbScale
 70
     0
300
3/8" = 1'-0"
140
0.375
141
12.0
290
     0
  0
SCALE
  5
34D
102
{ACAD_REACTORS
330
332
102
}
330
332
100
AcDbScale
 70
     0
300
1/2" = 1'-0"
140
0.5
141
12.0
290
     0
  0
SCALE
  5
34E
102
{ACAD_REACTORS
330
332
102
}
330
332
100
AcDbScale
 70
     0
300
3/4" = 1'-0"
140
0.75
141
12.0
290
     0
  0
SCALE
  5
34F
102
{ACAD_REACTORS
330
332
102
}
330
332
100
AcDbScale
 70
     0
300
1" = 1'-0"
140
1.0
141
12.0
290
     0
  0
SCALE
  5
350
102
{ACAD_REACTORS
330
332
102
}
330
332
100
AcDbScale
 70
     0
300
1-1/2" = 1'-0"
140
1.5
141
12.0
290
     0
  0
SCALE
  5
351
102
{ACAD_REACTORS
330
332
102
}
330
332
100
AcDbScale
 70
     0
300
3" = 1'-0"
140
3.0
141
12.0
290
     0
  0
SCALE
  5
352
102
{ACAD_REACTORS
330
332
102
}
330
332
100
AcDbScale
 70
     0
300
6" = 1'-0"
140
6.0
141
12.0
290
     0
  0
SCALE
  5
353
102
{ACAD_REACTORS
330
332
102
}
330
332
100
AcDbScale
 70
     0
300
1'-0" = 1'-0"
140
12.0
141
12.0
290
     0
  0
TABLESTYLE
  5
31A
102
{ACAD_XDICTIONARY
360
366
102
}
102
{ACAD_REACTORS
330
2C6
102
}
330
2C6
100
AcDbTableStyle
  3
Standard
 70
     1
 71
     0
 40
1.5
 41
1.5
280
     1
281
     0
  7
ROMANS
140
3.0
170
     5
 62
     7
 63
     7
283
     0
274
    -2
284
     1
 64
     0
275
    -2
285
     1
 65
     0
276
    -2
286
     1
 66
     0
277
    -2
287
     1
 67
     0
278
    -2
288
     1
 68
     0
279
    -2
289
     1
 69
     0
  7
ROMANS
140
6.0
170
     5
 62
     1
 63
     7
283
     0
274
    -2
284
     1
 64
     0
275
    -2
285
     1
 65
     0
276
    -2
286
     1
 66
     0
277
    -2
287
     1
 67
     0
278
    -2
288
     1
 68
     0
279
    -2
289
     1
 69
     0
  7
ROMANS
140
3.5
170
     5
 62
     3
 63
     7
283
     0
274
    -2
284
     1
 64
     0
275
    -2
285
     1
 65
     0
276
    -2
286
     1
 66
     0
277
    -2
287
     1
 67
     0
278
    -2
288
     1
 68
     0
279
    -2
289
     1
 69
     0
  0
TABLESTYLE
  5
2CC
102
{ACAD_XDICTIONARY
360
364
102
}
102
{ACAD_REACTORS
330
2C6
102
}
330
2C6
100
AcDbTableStyle
  3
Standard
 70
     0
 71
     0
 40
1.5
 41
1.5
280
     0
281
     0
  7
ROMANS
140
4.5
170
     5
 62
     7
 63
     7
283
     0
274
    -2
284
     1
 64
     0
275
    -2
285
     1
 65
     0
276
    -2
286
     1
 66
     0
277
    -2
287
     1
 67
     0
278
    -2
288
     1
 68
     0
279
    -2
289
     1
 69
     0
  7
ROMANS
140
6.0
170
     5
 62
     1
 63
     7
283
     0
274
    -2
284
     1
 64
     0
275
    -2
285
     1
 65
     0
276
    -2
286
     1
 66
     0
277
    -2
287
     1
 67
     0
278
    -2
288
     1
 68
     0
279
    -2
289
     1
 69
     0
  7
ROMANS
140
5.0
170
     5
 62
     3
 63
     7
283
     0
274
    -2
284
     1
 64
     0
275
    -2
285
     1
 65
     0
276
    -2
286
     1
 66
     0
277
    -2
287
     1
 67
     0
278
    -2
288
     1
 68
     0
279
    -2
289
     1
 69
     0
  0
TABLESTYLE
  5
2C7
102
{ACAD_XDICTIONARY
360
362
102
}
102
{ACAD_REACTORS
330
2C6
102
}
330
2C6
100
AcDbTableStyle
  3
Standard
 70
     0
 71
     0
 40
1.5
 41
1.5
280
     0
281
     0
  7
STANDARD
140
4.5
170
     2
 62
     0
 63
     7
283
     0
274
    -2
284
     1
 64
     0
275
    -2
285
     1
 65
     0
276
    -2
286
     1
 66
     0
277
    -2
287
     1
 67
     0
278
    -2
288
     1
 68
     0
279
    -2
289
     1
 69
     0
  7
STANDARD
140
6.0
170
     5
 62
     0
 63
     7
283
     0
274
    -2
284
     1
 64
     0
275
    -2
285
     1
 65
     0
276
    -2
286
     1
 66
     0
277
    -2
287
     1
 67
     0
278
    -2
288
     1
 68
     0
279
    -2
289
     1
 69
     0
  7
STANDARD
140
4.5
170
     5
 62
     0
 63
     7
283
     0
274
    -2
284
     1
 64
     0
275
    -2
285
     1
 65
     0
276
    -2
286
     1
 66
     0
277
    -2
287
     1
 67
     0
278
    -2
288
     1
 68
     0
279
    -2
289
     1
 69
     0
  0
VISUALSTYLE
  5
2BA
102
{ACAD_XDICTIONARY
360
1730
102
}
102
{ACAD_REACTORS
330
2B4
102
}
330
2B4
100
AcDbVisualStyle
  2
2dWireframe
 70
     4
 71
     0
 72
     2
 73
     0
 90
        0
 40
-0.6
 41
-30.0
 62
     5
 63
     7
 74
     1
 91
        4
 64
     7
 65
   257
 75
     1
175
     1
 42
1.0
 92
        0
 66
   257
 43
1.0
 76
     1
 77
     6
 78
     2
 67
     7
 79
     5
170
     0
171
     0
290
     0
174
     0
 93
        1
 44
0.0
173
     0
291
     0
 45
0.0
1001
ACAD
1000
AcDbSavedByObjectVersion
1070
     0
  0
VISUALSTYLE
  5
2BC
102
{ACAD_XDICTIONARY
360
1734
102
}
102
{ACAD_REACTORS
330
2B4
102
}
330
2B4
100
AcDbVisualStyle
  2
3D Hidden
 70
     6
 71
     1
 72
     2
 73
     2
 90
        0
 40
-0.6
 41
-30.0
 62
     5
 63
     7
 74
     2
 91
        2
 64
     7
 65
   257
 75
     2
175
     1
 42
40.0
 92
        0
 66
   257
 43
1.0
 76
     1
 77
     6
 78
     2
 67
     7
 79
     3
170
     0
171
     0
290
     0
174
     0
 93
        1
 44
0.0
173
     0
291
     0
 45
0.0
1001
ACAD
1000
AcDbSavedByObjectVersion
1070
     0
  0
VISUALSTYLE
  5
2BB
102
{ACAD_XDICTIONARY
360
1732
102
}
102
{ACAD_REACTORS
330
2B4
102
}
330
2B4
100
AcDbVisualStyle
  2
3dWireframe
 70
     5
 71
     0
 72
     2
 73
     0
 90
        0
 40
-0.6
 41
-30.0
 62
     5
 63
     7
 74
     1
 91
        4
 64
     7
 65
   257
 75
     1
175
     1
 42
1.0
 92
        0
 66
   257
 43
1.0
 76
     1
 77
     6
 78
     2
 67
     7
 79
     5
170
     0
171
     0
290
     0
174
     0
 93
        1
 44
0.0
173
     0
291
     0
 45
0.0
1001
ACAD
1000
AcDbSavedByObjectVersion
1070
     0
  0
VISUALSTYLE
  5
2B9
102
{ACAD_XDICTIONARY
360
172E
102
}
102
{ACAD_REACTORS
330
2B4
102
}
330
2B4
100
AcDbVisualStyle
  2
Basic
 70
     7
 71
     1
 72
     0
 73
     1
 90
        0
 40
-0.6
 41
-30.0
 62
     5
 63
     7
 74
     0
 91
        4
 64
     7
 65
   257
 75
     1
175
     1
 42
1.0
 92
        8
 66
     7
 43
1.0
 76
     1
 77
     6
 78
     2
 67
     7
 79
     5
170
     0
171
     0
290
     0
174
     0
 93
        1
 44
0.0
173
     0
291
     1
 45
0.0
1001
ACAD
1000
AcDbSavedByObjectVersion
1070
     0
  0
VISUALSTYLE
  5
2C0
102
{ACAD_XDICTIONARY
360
173C
102
}
102
{ACAD_REACTORS
330
2B4
102
}
330
2B4
100
AcDbVisualStyle
  2
Brighten
 70
    12
 71
     2
 72
     2
 73
     0
 90
        0
 40
-0.6
 41
-30.0
 62
     5
 63
     7
 74
     1
 91
        4
 64
     7
 65
   257
 75
     1
175
     1
 42
1.0
 92
        8
 66
     7
 43
1.0
 76
     1
 77
     6
 78
     2
 67
     7
 79
     5
170
     0
171
     0
290
     0
174
     0
 93
        1
 44
50.0
173
     0
291
     1
 45
0.0
1001
ACAD
1000
AcDbSavedByObjectVersion
1070
     0
  0
VISUALSTYLE
  5
2C4
102
{ACAD_XDICTIONARY
360
1744
102
}
102
{ACAD_REACTORS
330
2B4
102
}
330
2B4
100
AcDbVisualStyle
  2
ColorChange
 70
    16
 71
     2
 72
     2
 73
     3
 90
        0
 40
-0.6
 41
-30.0
 62
     5
 63
     8
 74
     1
 91
        4
 64
     7
 65
   257
 75
     1
175
     1
 42
1.0
 92
        8
 66
     8
 43
1.0
 76
     1
 77
     6
 78
     2
 67
     7
 79
     5
170
     0
171
     0
290
     0
174
     0
 93
        1
 44
0.0
173
     0
291
     1
 45
0.0
1001
ACAD
1000
AcDbSavedByObjectVersion
1070
     0
  0
VISUALSTYLE
  5
2BD
102
{ACAD_XDICTIONARY
360
1736
102
}
102
{ACAD_REACTORS
330
2B4
102
}
330
2B4
100
AcDbVisualStyle
  2
Conceptual
 70
     9
 71
     3
 72
     2
 73
     0
 90
        0
 40
-0.6
 41
-30.0
 62
     5
 63
     7
 74
     2
 91
        2
 64
     7
 65
   257
 75
     1
175
     1
 42
40.0
 92
        8
 66
     7
 43
1.0
 76
     1
 77
     6
 78
     2
 67
     7
 79
     3
170
     0
171
     0
290
     0
174
     0
 93
        1
 44
0.0
173
     0
291
     0
 45
0.0
1001
ACAD
1000
AcDbSavedByObjectVersion
1070
     0
  0
VISUALSTYLE
  5
2BF
102
{ACAD_XDICTIONARY
360
173A
102
}
102
{ACAD_REACTORS
330
2B4
102
}
330
2B4
100
AcDbVisualStyle
  2
Dim
 70
    11
 71
     2
 72
     2
 73
     0
 90
        0
 40
-0.6
 41
-30.0
 62
     5
 63
     7
 74
     1
 91
        4
 64
     7
 65
   257
 75
     1
175
     1
 42
1.0
 92
        8
 66
     7
 43
1.0
 76
     1
 77
     6
 78
     2
 67
     7
 79
     5
170
     0
171
     0
290
     0
174
     0
 93
        1
 44
-50.0
173
     0
291
     1
 45
0.0
1001
ACAD
1000
AcDbSavedByObjectVersion
1070
     0
  0
VISUALSTYLE
  5
16FA
102
{ACAD_XDICTIONARY
360
1766
102
}
102
{ACAD_REACTORS
330
2B4
102
}
330
2B4
100
AcDbVisualStyle
  2
EdgeColorOff
 70
    22
 71
     2
 72
     2
 73
     0
 90
        0
 40
-0.6
 41
-30.0
 62
     5
 63
     7
 74
     1
 91
        4
 64
     7
 65
   257
 75
     1
175
     1
 42
1.0
 92
        8
 66
     7
 43
1.0
 76
     1
 77
     6
 78
     2
 67
     7
 79
     5
170
     0
171
     0
290
     0
174
     0
 93
        1
 44
0.0
173
     0
291
     1
 45
0.0
1001
ACAD
1000
AcDbSavedByObjectVersion
1070
     0
  0
VISUALSTYLE
  5
2C3
102
{ACAD_XDICTIONARY
360
1742
102
}
102
{ACAD_REACTORS
330
2B4
102
}
330
2B4
100
AcDbVisualStyle
  2
Facepattern
 70
    15
 71
     2
 72
     2
 73
     0
 90
        0
 40
-0.6
 41
-30.0
 62
     5
 63
     7
 74
     1
 91
        4
 64
     7
 65
   257
 75
     1
175
     1
 42
1.0
 92
        8
 66
     7
 43
1.0
 76
     1
 77
     6
 78
     2
 67
     7
 79
     5
170
     0
171
     0
290
     0
174
     0
 93
        1
 44
0.0
173
     0
291
     1
 45
0.0
1001
ACAD
1000
AcDbSavedByObjectVersion
1070
     0
  0
VISUALSTYLE
  5
2B5
102
{ACAD_XDICTIONARY
360
1726
102
}
102
{ACAD_REACTORS
330
2B4
102
}
330
2B4
100
AcDbVisualStyle
  2
Flat
 70
     0
 71
     2
 72
     1
 73
     1
 90
        2
 40
-0.6
 41
30.0
 62
     5
 63
     7
 74
     0
 91
        4
 64
     7
 65
   257
 75
     1
175
     1
 42
1.0
 92
        8
 66
     7
 43
1.0
 76
     1
 77
     6
 78
     2
 67
     7
 79
     5
170
     0
171
     0
290
     0
174
     0
 93
       13
 44
0.0
173
     0
291
     1
 45
0.0
1001
ACAD
1000
AcDbSavedByObjectVersion
1070
     0
  0
VISUALSTYLE
  5
2B6
102
{ACAD_XDICTIONARY
360
1728
102
}
102
{ACAD_REACTORS
330
2B4
102
}
330
2B4
100
AcDbVisualStyle
  2
FlatWithEdges
 70
     1
 71
     2
 72
     1
 73
     1
 90
        2
 40
-0.6
 41
30.0
 62
     5
 63
     7
 74
     1
 91
        4
 64
     7
 65
   257
 75
     1
175
     1
 42
1.0
 92
        0
 66
   257
 43
1.0
 76
     1
 77
     6
 78
     2
 67
     7
 79
     5
170
     0
171
     0
290
     0
174
     0
 93
       13
 44
0.0
173
     0
291
     1
 45
0.0
1001
ACAD
1000
AcDbSavedByObjectVersion
1070
     0
  0
VISUALSTYLE
  5
2B7
102
{ACAD_XDICTIONARY
360
172A
102
}
102
{ACAD_REACTORS
330
2B4
102
}
330
2B4
100
AcDbVisualStyle
  2
Gouraud
 70
     2
 71
     2
 72
     2
 73
     1
 90
        2
 40
-0.6
 41
30.0
 62
     5
 63
     7
 74
     0
 91
        4
 64
     7
 65
   257
 75
     1
175
     1
 42
1.0
 92
        0
 66
     7
 43
1.0
 76
     1
 77
     6
 78
     2
 67
     7
 79
     5
170
     0
171
     0
290
     0
174
     0
 93
       13
 44
0.0
173
     0
291
     1
 45
0.0
1001
ACAD
1000
AcDbSavedByObjectVersion
1070
     0
  0
VISUALSTYLE
  5
2B8
102
{ACAD_XDICTIONARY
360
172C
102
}
102
{ACAD_REACTORS
330
2B4
102
}
330
2B4
100
AcDbVisualStyle
  2
GouraudWithEdges
 70
     3
 71
     2
 72
     2
 73
     1
 90
        2
 40
-0.6
 41
30.0
 62
     5
 63
     7
 74
     1
 91
        4
 64
     7
 65
   257
 75
     1
175
     1
 42
1.0
 92
        0
 66
   257
 43
1.0
 76
     1
 77
     6
 78
     2
 67
     7
 79
     5
170
     0
171
     0
290
     0
174
     0
 93
       13
 44
0.0
173
     0
291
     1
 45
0.0
1001
ACAD
1000
AcDbSavedByObjectVersion
1070
     0
  0
VISUALSTYLE
  5
16F2
102
{ACAD_XDICTIONARY
360
1756
102
}
102
{ACAD_REACTORS
330
2B4
102
}
330
2B4
100
AcDbVisualStyle
  2
Hidden
 70
     6
 71
     1
 72
     2
 73
     2
 90
        0
 40
-0.6
 41
-30.0
 62
     5
 63
     7
 74
     2
 91
        2
 64
     7
 65
   257
 75
     2
175
     1
 42
40.0
 92
        0
 66
   257
 43
1.0
 76
     1
 77
     6
 78
     2
 67
     7
 79
     3
170
     0
171
     0
290
     0
174
     0
 93
        1
 44
0.0
173
     0
291
     0
 45
0.0
1001
ACAD
1000
AcDbSavedByObjectVersion
1070
     0
  0
VISUALSTYLE
  5
16F8
102
{ACAD_XDICTIONARY
360
1762
102
}
102
{ACAD_REACTORS
330
2B4
102
}
330
2B4
100
AcDbVisualStyle
  2
JitterOff
 70
    20
 71
     2
 72
     2
 73
     0
 90
        0
 40
-0.6
 41
-30.0
 62
     5
 63
     7
 74
     1
 91
        4
 64
     7
 65
   257
 75
     1
175
     1
 42
1.0
 92
       10
 66
     7
 43
1.0
 76
     1
 77
     6
 78
     2
 67
     7
 79
     5
170
     0
171
     0
290
     0
174
     0
 93
        1
 44
0.0
173
     0
291
     1
 45
0.0
1001
ACAD
1000
AcDbSavedByObjectVersion
1070
     0
  0
VISUALSTYLE
  5
2C2
102
{ACAD_XDICTIONARY
360
1740
102
}
102
{ACAD_REACTORS
330
2B4
102
}
330
2B4
100
AcDbVisualStyle
  2
Linepattern
 70
    14
 71
     2
 72
     2
 73
     0
 90
        0
 40
-0.6
 41
-30.0
 62
     5
 63
     7
 74
     1
 91
        4
 64
     7
 65
   257
 75
     7
175
     7
 42
1.0
 92
        8
 66
     7
 43
1.0
 76
     1
 77
     6
 78
     2
 67
     7
 79
     5
170
     0
171
     0
290
     0
174
     0
 93
        1
 44
0.0
173
     0
291
     1
 45
0.0
1001
ACAD
1000
AcDbSavedByObjectVersion
1070
     0
  0
VISUALSTYLE
  5
16F9
102
{ACAD_XDICTIONARY
360
1764
102
}
102
{ACAD_REACTORS
330
2B4
102
}
330
2B4
100
AcDbVisualStyle
  2
OverhangOff
 70
    21
 71
     2
 72
     2
 73
     0
 90
        0
 40
-0.6
 41
-30.0
 62
     5
 63
     7
 74
     1
 91
        4
 64
     7
 65
   257
 75
     1
175
     1
 42
1.0
 92
        9
 66
     7
 43
1.0
 76
     1
 77
     6
 78
     2
 67
     7
 79
     5
170
     0
171
     0
290
     0
174
     0
 93
        1
 44
0.0
173
     0
291
     1
 45
0.0
1001
ACAD
1000
AcDbSavedByObjectVersion
1070
     0
  0
VISUALSTYLE
  5
2BE
102
{ACAD_XDICTIONARY
360
1738
102
}
102
{ACAD_REACTORS
330
2B4
102
}
330
2B4
100
AcDbVisualStyle
  2
Realistic
 70
     8
 71
     2
 72
     2
 73
     0
 90
        0
 40
-0.6
 41
-30.0
 62
     5
 63
     7
 74
     1
 91
        0
 64
     7
 65
   257
 75
     1
175
     1
 42
1.0
 92
        8
 66
     8
 43
1.0
 76
     1
 77
     6
 78
     2
 67
     7
 79
     5
170
     0
171
     0
290
     0
174
     0
 93
       13
 44
0.0
173
     0
291
     0
 45
0.0
1001
ACAD
1000
AcDbSavedByObjectVersion
1070
     0
  0
VISUALSTYLE
  5
16F7
102
{ACAD_XDICTIONARY
360
1760
102
}
102
{ACAD_REACTORS
330
2B4
102
}
330
2B4
100
AcDbVisualStyle
  2
Shaded
 70
    27
 71
     2
 72
     2
 73
     1
 90
        2
 40
-0.6
 41
30.0
 62
     5
 63
     7
 74
     0
 91
        4
 64
     7
 65
   257
 75
     1
175
     1
 42
1.0
 92
        8
 66
   257
 43
1.0
 76
     1
 77
     6
 78
     2
 67
     8
 79
     3
170
     0
171
     0
290
     0
174
     0
 93
        5
 44
0.0
173
     0
291
     0
 45
0.0
1001
ACAD
1000
AcDbSavedByObjectVersion
1070
     0
  0
VISUALSTYLE
  5
16F6
102
{ACAD_XDICTIONARY
360
175E
102
}
102
{ACAD_REACTORS
330
2B4
102
}
330
2B4
100
AcDbVisualStyle
  2
Shaded with edges
 70
    26
 71
     2
 72
     2
 73
     1
 90
        2
 40
-0.6
 41
30.0
 62
     5
 63
     7
 74
     1
 91
       10
 64
     7
 65
   257
 75
     2
175
     1
 42
1.0
 92
        8
 66
   257
 43
1.0
 76
     1
 77
     6
 78
     2
 67
     7
 79
     3
170
     0
171
     0
290
     0
174
     0
 93
        5
 44
0.0
173
     0
291
     0
 45
0.0
1001
ACAD
1000
AcDbSavedByObjectVersion
1070
     0
  0
VISUALSTYLE
  5
16F3
102
{ACAD_XDICTIONARY
360
1758
102
}
102
{ACAD_REACTORS
330
2B4
102
}
330
2B4
100
AcDbVisualStyle
  2
Shades of Gray
 70
    23
 71
     2
 72
     2
 73
     3
 90
        0
 40
-0.6
 41
-30.0
 62
     5
 63
     7
 74
     2
 91
        2
 64
     7
 65
     7
 75
     1
175
     1
 42
40.0
 92
        8
 66
     7
 43
1.0
 76
     1
 77
     6
 78
     2
 67
     7
 79
     3
170
     0
171
     0
290
     0
174
     0
 93
        1
 44
0.0
173
     0
291
     0
 45
0.0
1001
ACAD
1000
AcDbSavedByObjectVersion
1070
     0
  0
VISUALSTYLE
  5
16F4
102
{ACAD_XDICTIONARY
360
175A
102
}
102
{ACAD_REACTORS
330
2B4
102
}
330
2B4
100
AcDbVisualStyle
  2
Sketchy
 70
    24
 71
     1
 72
     2
 73
     2
 90
        0
 40
-0.6
 41
-30.0
 62
     5
 63
     7
 74
     2
 91
        2
 64
     7
 65
     7
 75
     1
175
     1
 42
40.0
 92
       11
 66
     7
 43
1.0
 76
     1
 77
     6
 78
     2
 67
     7
 79
     6
170
     0
171
     0
290
     0
174
     0
 93
        1
 44
0.0
173
     0
291
     0
 45
0.0
1001
ACAD
1000
AcDbSavedByObjectVersion
1070
     0
  0
VISUALSTYLE
  5
2C1
102
{ACAD_XDICTIONARY
360
173E
102
}
102
{ACAD_REACTORS
330
2B4
102
}
330
2B4
100
AcDbVisualStyle
  2
Thicken
 70
    13
 71
     2
 72
     2
 73
     0
 90
        0
 40
-0.6
 41
-30.0
 62
     5
 63
     7
 74
     1
 91
        4
 64
     7
 65
   257
 75
     1
175
     1
 42
1.0
 92
       12
 66
     7
 43
1.0
 76
     1
 77
     6
 78
     2
 67
     7
 79
     5
170
     0
171
     0
290
     0
174
     0
 93
        1
 44
0.0
173
     0
291
     1
 45
0.0
1001
ACAD
1000
AcDbSavedByObjectVersion
1070
     0
  0
VISUALSTYLE
  5
16F1
102
{ACAD_XDICTIONARY
360
1754
102
}
102
{ACAD_REACTORS
330
2B4
102
}
330
2B4
100
AcDbVisualStyle
  2
Wireframe
 70
     5
 71
     0
 72
     2
 73
     0
 90
        0
 40
-0.6
 41
-30.0
 62
     5
 63
     7
 74
     1
 91
        4
 64
     7
 65
   257
 75
     1
175
     1
 42
1.0
 92
        0
 66
   257
 43
1.0
 76
     1
 77
     6
 78
     2
 67
     7
 79
     3
170
     0
171
     0
290
     0
174
     0
 93
        1
 44
0.0
173
     0
291
     0
 45
0.0
1001
ACAD
1000
AcDbSavedByObjectVersion
1070
     0
  0
VISUALSTYLE
  5
16F5
102
{ACAD_XDICTIONARY
360
175C
102
}
102
{ACAD_REACTORS
330
2B4
102
}
330
2B4
100
AcDbVisualStyle
  2
X-Ray
 70
    25
 71
     2
 72
     2
 73
     1
 90
        1
 40
0.5
 41
-30.0
 62
     5
 63
     7
 74
     1
 91
        0
 64
     7
 65
   257
 75
     1
175
     1
 42
1.0
 92
        8
 66
     7
 43
1.0
 76
     1
 77
     6
 78
     2
 67
     7
 79
     3
170
     0
171
     0
290
     0
174
     0
 93
       13
 44
0.0
173
     0
291
     0
 45
0.0
1001
ACAD
1000
AcDbSavedByObjectVersion
1070
     0
  0
DICTIONARYVAR
  5
36B
102
{ACAD_REACTORS
330
2AA
102
}
330
2AA
100
DictionaryVariables
280
     0
  1
1:1
  0
DICTIONARYVAR
  5
369
102
{ACAD_REACTORS
330
2AA
102
}
330
2AA
100
DictionaryVariables
280
     0
  1
STANDARD
  0
DICTIONARYVAR
  5
312
102
{ACAD_REACTORS
330
2AA
102
}
330
2AA
100
DictionaryVariables
280
     0
  1
STANDARD
  0
DICTIONARYVAR
  5
2AB
102
{ACAD_REACTORS
330
2AA
102
}
330
2AA
100
DictionaryVariables
280
     0
  1
2
  0
DICTIONARYVAR
  5
1528
102
{ACAD_REACTORS
330
2AA
102
}
330
2AA
100
DictionaryVariables
280
     0
  1
0
  0
DICTIONARYVAR
  5
314
102
{ACAD_REACTORS
330
2AA
102
}
330
2AA
100
DictionaryVariables
280
     0
  1
0
  0
DICTIONARYVAR
  5
152A
102
{ACAD_REACTORS
330
2AA
102
}
330
2AA
100
DictionaryVariables
280
     0
  1
1
  0
DICTIONARYVAR
  5
152B
102
{ACAD_REACTORS
330
2AA
102
}
330
2AA
100
DictionaryVariables
280
     0
  1
15
  0
DICTIONARYVAR
  5
36C
102
{ACAD_REACTORS
330
2AA
102
}
330
2AA
100
DictionaryVariables
280
     0
  1
0
  0
DICTIONARYVAR
  5
1529
102
{ACAD_REACTORS
330
2AA
102
}
330
2AA
100
DictionaryVariables
280
     0
  1
10.000000
  0
DICTIONARYVAR
  5
36A
102
{ACAD_REACTORS
330
2AA
102
}
330
2AA
100
DictionaryVariables
280
     0
  1
0
  0
DICTIONARYVAR
  5
313
102
{ACAD_REACTORS
330
2AA
102
}
330
2AA
100
DictionaryVariables
280
     0
  1
127
  0
DICTIONARYVAR
  5
1714
102
{ACAD_REACTORS
330
2AA
102
}
330
2AA
100
DictionaryVariables
280
     0
  1
0
  0
XRECORD
  5
51
102
{ACAD_REACTORS
330
50
102
}
330
50
100
AcDbXrecord
280
     1
 91
        0
  0
ACAD_PROXY_OBJECT
  5
6DA
102
{ACAD_REACTORS
330
6D9
102
}
330
6D9
100
AcDbProxyObject
 90
      499
 91
      512
 95
  3276827
 70
     0
 93
      153
310
407907440045004600410055004C0054007A00CC
 94
        0
1001
ACAD
1000
AcRTDxfName
1000
ACDBQSCATEGORY
  0
ACAD_PROXY_OBJECT
  5
6EC
102
{ACAD_REACTORS
330
6EB
102
}
330
6EB
100
AcDbProxyObject
 90
      499
 91
      513
 95
  3276827
 70
     0
 93
     2908
310
40B520280D55480A0281203520280A0280C0000000000000A200000000000000448080C00000000000019200000000000000688120280A0280A0E88008A008C008200AA009800A80082280027802980170020E88008A008C008200AA009800A80080A180202860120C86009E008800920086008A008A220024802680228027
310
00298024802780270024802F8022002480268018801680220024802680190024EA2007400B800A200A600BE00A4008A00A8008A00B80082009A00840092008A009C00A8009200B800A8009E00A000BE00880092008A00A400A4008A00B800A8008200840060005C008800AE008E0095A8801D002E00288029802F802900228
310
02A0022802E002080268021002480228027002A0024802E002A00278028002F802200248022802900290022802E002A00278028002F802800208026002600170022002B80238020C86009E008800920086008A0085A200228029802180290024802D00248027802700228050413C
 94
        0
1001
ACAD
1000
AcRTDxfName
1000
ACDBQSPALLSTYLE
  0
XRECORD
  5
16EC
102
{ACAD_REACTORS
330
16E7
102
}
330
16E7
100
AcDbXrecord
280
     1
  9
X656f
  0
XRECORD
  5
16E9
102
{ACAD_REACTORS
330
16E7
102
}
330
16E7
100
AcDbXrecord
280
     1
  2
.cart
  3
P-01CB
  6
X656f
280
     1
310
6465736372697A696F6E65002E6361727400444154410030342F30382F30390064697365676E61746F7265004D6172636F20412E00717461003100554D004E52005245560030005343414C4100313A31300000
 10
0.0
 20
0.0
 30
0.0
  0
XRECORD
  5
16EA
102
{ACAD_REACTORS
330
16E7
102
}
330
16E7
100
AcDbXrecord
280
     1
  2
.1
  3
P-50F5
  6
X656f
280
     1
310
6465736372697A696F6E65002E3100444154410030342F30382F30390064697365676E61746F7265004D6172636F20412E00717461003100554D004E52005245560030005343414C4100313A310000
 10
0.0
 20
0.0
 30
0.0
  0
XRECORD
  5
16E8
102
{ACAD_REACTORS
330
16E7
102
}
330
16E7
100
AcDbXrecord
280
     1
  2
PROFIL.Q30-SCORR.PLAST./ARG.
  3
P-0000
280
     1
310
6465736372697A696F6E650050524F46494C2E5133302D53434F52522E504C4153542E2F4152472E00444154410030342F30382F303900554D004D4C0052455600300044495345474E41544F5245004D6172636F20412E005343414C4100313A3130005452415454414D454E544900414E4F442E415247454E544F005154410031004E4F544500414E5449434F524F44414C204C454741363036302F554E49203930303631004D4154455249414C4500414C4C554D494E494F00434F444943450058423236363330002E666D7400340000
 10
0.0
 20
0.0
 30
0.0
  0
XRECORD
  5
16EB
102
{ACAD_REACTORS
330
16E7
102
}
330
16E7
100
AcDbXrecord
280
     1
  2
PROF.Q30  SCORR. ALL.ANOD.ARG.
  3
P-0595
  6
X656f
280
     2
310
6465736372697A696F6E650050524F462E513330202053434F52522E20414C4C2E414E4F442E4152472E00444154410030362F30382F30390064697365676E61746F7265004D6172636F20412E00717461003100554D004D4C0052455600300024736F7572636500416E61677261666963612047657374696F6E616C6500434F4449434500584232363633300044494D3100313030300044494D454E53494F4E495F44494D312D44494D320031303030005452415454414D454E544900414E4F442E415247454E544F004E4F544500414E5449434F524F44414C204C454741363036302F554E49203930303631004D4154455249414C4500414C4C554D494E
311
494F0000
 10
1387.169660276523
 20
1921.791970490237
 30
0.0
  0
XRECORD
  5
6E1
102
{ACAD_REACTORS
330
6E0
102
}
330
6E0
100
AcDbXrecord
280
     1
 90
      202
 91
      144
  0
DICTIONARY
  5
171E
330
48
100
AcDbDictionary
280
     1
281
     1
  3
ACAD_XREC_ROUNDTRIP
360
171F
  0
DICTIONARY
  5
171C
330
47
100
AcDbDictionary
280
     1
281
     1
  3
ACAD_XREC_ROUNDTRIP
360
171D
  0
DICTIONARY
  5
1722
330
2B2
100
AcDbDictionary
280
     1
281
     1
  3
ACAD_XREC_ROUNDTRIP
360
1723
  0
DICTIONARY
  5
1720
330
2B1
100
AcDbDictionary
280
     1
281
     1
  3
ACAD_XREC_ROUNDTRIP
360
1721
  0
DICTIONARY
  5
1724
330
2B3
100
AcDbDictionary
280
     1
281
     1
  3
ACAD_XREC_ROUNDTRIP
360
1725
  0
DICTIONARY
  5
174A
330
168E
100
AcDbDictionary
280
     1
281
     1
  3
ACAD_XREC_ROUNDTRIP
360
174B
  0
DICTIONARY
  5
174C
330
168F
100
AcDbDictionary
280
     1
281
     1
  3
ACAD_XREC_ROUNDTRIP
360
174D
  0
DICTIONARY
  5
174E
330
1690
100
AcDbDictionary
280
     1
281
     1
  3
ACAD_XREC_ROUNDTRIP
360
174F
  0
DICTIONARY
  5
1750
330
1691
100
AcDbDictionary
280
     1
281
     1
  3
ACAD_XREC_ROUNDTRIP
360
1751
  0
DICTIONARY
  5
1752
330
1692
100
AcDbDictionary
280
     1
281
     1
  3
ACAD_XREC_ROUNDTRIP
360
1753
  0
DICTIONARY
  5
366
330
31A
100
AcDbDictionary
280
     1
281
     1
  3
ACAD_ROUNDTRIP_2008_TABLESTYLE_CELLSTYLEMAP
360
1717
  3
ACAD_XREC_ROUNDTRIP
360
1748
  0
DICTIONARY
  5
364
330
2CC
100
AcDbDictionary
280
     1
281
     1
  3
ACAD_ROUNDTRIP_2008_TABLESTYLE_CELLSTYLEMAP
360
1716
  3
ACAD_XREC_ROUNDTRIP
360
1747
  0
DICTIONARY
  5
362
330
2C7
100
AcDbDictionary
280
     1
281
     1
  3
ACAD_ROUNDTRIP_2008_TABLESTYLE_CELLSTYLEMAP
360
1715
  3
ACAD_XREC_ROUNDTRIP
360
1746
  0
DICTIONARY
  5
1730
330
2BA
100
AcDbDictionary
280
     1
281
     1
  3
ACAD_XREC_ROUNDTRIP
360
1731
  0
DICTIONARY
  5
1734
330
2BC
100
AcDbDictionary
280
     1
281
     1
  3
ACAD_XREC_ROUNDTRIP
360
1735
  0
DICTIONARY
  5
1732
330
2BB
100
AcDbDictionary
280
     1
281
     1
  3
ACAD_XREC_ROUNDTRIP
360
1733
  0
DICTIONARY
  5
172E
330
2B9
100
AcDbDictionary
280
     1
281
     1
  3
ACAD_XREC_ROUNDTRIP
360
172F
  0
DICTIONARY
  5
173C
330
2C0
100
AcDbDictionary
280
     1
281
     1
  3
ACAD_XREC_ROUNDTRIP
360
173D
  0
DICTIONARY
  5
1744
330
2C4
100
AcDbDictionary
280
     1
281
     1
  3
ACAD_XREC_ROUNDTRIP
360
1745
  0
DICTIONARY
  5
1736
330
2BD
100
AcDbDictionary
280
     1
281
     1
  3
ACAD_XREC_ROUNDTRIP
360
1737
  0
DICTIONARY
  5
173A
330
2BF
100
AcDbDictionary
280
     1
281
     1
  3
ACAD_XREC_ROUNDTRIP
360
173B
  0
DICTIONARY
  5
1766
330
16FA
100
AcDbDictionary
280
     1
281
     1
  3
ACAD_XREC_ROUNDTRIP
360
1767
  0
DICTIONARY
  5
1742
330
2C3
100
AcDbDictionary
280
     1
281
     1
  3
ACAD_XREC_ROUNDTRIP
360
1743
  0
DICTIONARY
  5
1726
330
2B5
100
AcDbDictionary
280
     1
281
     1
  3
ACAD_XREC_ROUNDTRIP
360
1727
  0
DICTIONARY
  5
1728
330
2B6
100
AcDbDictionary
280
     1
281
     1
  3
ACAD_XREC_ROUNDTRIP
360
1729
  0
DICTIONARY
  5
172A
330
2B7
100
AcDbDictionary
280
     1
281
     1
  3
ACAD_XREC_ROUNDTRIP
360
172B
  0
DICTIONARY
  5
172C
330
2B8
100
AcDbDictionary
280
     1
281
     1
  3
ACAD_XREC_ROUNDTRIP
360
172D
  0
DICTIONARY
  5
1756
330
16F2
100
AcDbDictionary
280
     1
281
     1
  3
ACAD_XREC_ROUNDTRIP
360
1757
  0
DICTIONARY
  5
1762
330
16F8
100
AcDbDictionary
280
     1
281
     1
  3
ACAD_XREC_ROUNDTRIP
360
1763
  0
DICTIONARY
  5
1740
330
2C2
100
AcDbDictionary
280
     1
281
     1
  3
ACAD_XREC_ROUNDTRIP
360
1741
  0
DICTIONARY
  5
1764
330
16F9
100
AcDbDictionary
280
     1
281
     1
  3
ACAD_XREC_ROUNDTRIP
360
1765
  0
DICTIONARY
  5
1738
330
2BE
100
AcDbDictionary
280
     1
281
     1
  3
ACAD_XREC_ROUNDTRIP
360
1739
  0
DICTIONARY
  5
1760
330
16F7
100
AcDbDictionary
280
     1
281
     1
  3
ACAD_XREC_ROUNDTRIP
360
1761
  0
DICTIONARY
  5
175E
330
16F6
100
AcDbDictionary
280
     1
281
     1
  3
ACAD_XREC_ROUNDTRIP
360
175F
  0
DICTIONARY
  5
1758
330
16F3
100
AcDbDictionary
280
     1
281
     1
  3
ACAD_XREC_ROUNDTRIP
360
1759
  0
DICTIONARY
  5
175A
330
16F4
100
AcDbDictionary
280
     1
281
     1
  3
ACAD_XREC_ROUNDTRIP
360
175B
  0
DICTIONARY
  5
173E
330
2C1
100
AcDbDictionary
280
     1
281
     1
  3
ACAD_XREC_ROUNDTRIP
360
173F
  0
DICTIONARY
  5
1754
330
16F1
100
AcDbDictionary
280
     1
281
     1
  3
ACAD_XREC_ROUNDTRIP
360
1755
  0
DICTIONARY
  5
175C
330
16F5
100
AcDbDictionary
280
     1
281
     1
  3
ACAD_XREC_ROUNDTRIP
360
175D
  0
XRECORD
  5
171F
102
{ACAD_REACTORS
330
171E
102
}
330
171E
100
AcDbXrecord
280
     1
102
SHADEPLOT
 70
     0
102
SHADEPLOTRESLEVEL
 70
     2
102
SHADEPLOTCUSTOMDPI
 70
   300
  0
XRECORD
  5
171D
102
{ACAD_REACTORS
330
171C
102
}
330
171C
100
AcDbXrecord
280
     1
102
SHADEPLOT
 70
     0
102
SHADEPLOTRESLEVEL
 70
     2
102
SHADEPLOTCUSTOMDPI
 70
   300
  0
XRECORD
  5
1723
102
{ACAD_REACTORS
330
1722
102
}
330
1722
100
AcDbXrecord
280
     1
102
MATERIAL
148
0.0
149
0.0
149
0.0
 93
        0
 94
       63
282
     0
 72
     1
 77
     1
171
     1
175
     1
179
     1
273
     0
  0
XRECORD
  5
1721
102
{ACAD_REACTORS
330
1720
102
}
330
1720
100
AcDbXrecord
280
     1
102
MATERIAL
148
0.0
149
0.0
149
0.0
 93
        0
 94
       63
282
     0
 72
     1
 77
     1
171
     1
175
     1
179
     1
273
     0
  0
XRECORD
  5
1725
102
{ACAD_REACTORS
330
1724
102
}
330
1724
100
AcDbXrecord
280
     1
102
MATERIAL
148
0.0
149
0.0
149
0.0
 93
        0
 94
       63
282
     0
 72
     1
 77
     1
171
     1
175
     1
179
     1
273
     0
  0
XRECORD
  5
174B
102
{ACAD_REACTORS
330
174A
102
}
330
174A
100
AcDbXrecord
280
     1
102
SHADEPLOT
 70
     0
102
SHADEPLOTRESLEVEL
 70
     2
102
SHADEPLOTCUSTOMDPI
 70
   300
  0
XRECORD
  5
174D
102
{ACAD_REACTORS
330
174C
102
}
330
174C
100
AcDbXrecord
280
     1
102
SHADEPLOT
 70
     0
102
SHADEPLOTRESLEVEL
 70
     2
102
SHADEPLOTCUSTOMDPI
 70
   300
  0
XRECORD
  5
174F
102
{ACAD_REACTORS
330
174E
102
}
330
174E
100
AcDbXrecord
280
     1
102
SHADEPLOT
 70
     0
102
SHADEPLOTRESLEVEL
 70
     2
102
SHADEPLOTCUSTOMDPI
 70
   300
  0
XRECORD
  5
1751
102
{ACAD_REACTORS
330
1750
102
}
330
1750
100
AcDbXrecord
280
     1
102
SHADEPLOT
 70
     0
102
SHADEPLOTRESLEVEL
 70
     2
102
SHADEPLOTCUSTOMDPI
 70
   300
  0
XRECORD
  5
1753
102
{ACAD_REACTORS
330
1752
102
}
330
1752
100
AcDbXrecord
280
     1
102
SHADEPLOT
 70
     0
102
SHADEPLOTRESLEVEL
 70
     2
102
SHADEPLOTCUSTOMDPI
 70
   300
  0
CELLSTYLEMAP
  5
1717
102
{ACAD_REACTORS
330
366
102
}
330
366
100
AcDbCellStyleMap
 90
        3
300
CELLSTYLE
  1
TABLEFORMAT_BEGIN
 90
        5
170
     1
 91
        0
 92
    32768
 62
   257
 93
        1
300
CONTENTFORMAT
  1
CONTENTFORMAT_BEGIN
 90
        0
 91
        0
 92
      512
 93
        0
300

 40
0.0
140
1.0
 94
        5
 62
     1
340
1B
144
6.0
309
CONTENTFORMAT_END
171
     1
301
MARGIN
  1
CELLMARGIN_BEGIN
 40
1.5
 40
1.5
 40
1.5
 40
1.5
 40
0.18
 40
0.18
309
CELLMARGIN_END
 94
        6
 95
        1
302
GRIDFORMAT
  1
GRIDFORMAT_BEGIN
 90
        0
 91
        1
 62
     0
 92
       -2
340
0
 93
        0
 40
0.045
309
GRIDFORMAT_END
 95
        2
302
GRIDFORMAT
  1
GRIDFORMAT_BEGIN
 90
        0
 91
        1
 62
     0
 92
       -2
340
0
 93
        0
 40
0.045
309
GRIDFORMAT_END
 95
        4
302
GRIDFORMAT
  1
GRIDFORMAT_BEGIN
 90
        0
 91
        1
 62
     0
 92
       -2
340
0
 93
        0
 40
0.045
309
GRIDFORMAT_END
 95
        8
302
GRIDFORMAT
  1
GRIDFORMAT_BEGIN
 90
        0
 91
        1
 62
     0
 92
       -2
340
0
 93
        0
 40
0.045
309
GRIDFORMAT_END
 95
       16
302
GRIDFORMAT
  1
GRIDFORMAT_BEGIN
 90
        0
 91
        1
 62
     0
 92
       -2
340
0
 93
        0
 40
0.045
309
GRIDFORMAT_END
 95
       32
302
GRIDFORMAT
  1
GRIDFORMAT_BEGIN
 90
        0
 91
        1
 62
     0
 92
       -2
340
0
 93
        0
 40
0.045
309
GRIDFORMAT_END
309
TABLEFORMAT_END
  1
CELLSTYLE_BEGIN
 90
        1
 91
        1
300
_TITLE
309
CELLSTYLE_END
300
CELLSTYLE
  1
TABLEFORMAT_BEGIN
 90
        5
170
     1
 91
        0
 92
        0
 62
   257
 93
        1
300
CONTENTFORMAT
  1
CONTENTFORMAT_BEGIN
 90
        0
 91
        0
 92
      512
 93
        0
300

 40
0.0
140
1.0
 94
        5
 62
     3
340
1B
144
3.5
309
CONTENTFORMAT_END
171
     1
301
MARGIN
  1
CELLMARGIN_BEGIN
 40
1.5
 40
1.5
 40
1.5
 40
1.5
 40
0.18
 40
0.18
309
CELLMARGIN_END
 94
        6
 95
        1
302
GRIDFORMAT
  1
GRIDFORMAT_BEGIN
 90
        0
 91
        1
 62
     0
 92
       -2
340
0
 93
        0
 40
0.045
309
GRIDFORMAT_END
 95
        2
302
GRIDFORMAT
  1
GRIDFORMAT_BEGIN
 90
        0
 91
        1
 62
     0
 92
       -2
340
0
 93
        0
 40
0.045
309
GRIDFORMAT_END
 95
        4
302
GRIDFORMAT
  1
GRIDFORMAT_BEGIN
 90
        0
 91
        1
 62
     0
 92
       -2
340
0
 93
        0
 40
0.045
309
GRIDFORMAT_END
 95
        8
302
GRIDFORMAT
  1
GRIDFORMAT_BEGIN
 90
        0
 91
        1
 62
     0
 92
       -2
340
0
 93
        0
 40
0.045
309
GRIDFORMAT_END
 95
       16
302
GRIDFORMAT
  1
GRIDFORMAT_BEGIN
 90
        0
 91
        1
 62
     0
 92
       -2
340
0
 93
        0
 40
0.045
309
GRIDFORMAT_END
 95
       32
302
GRIDFORMAT
  1
GRIDFORMAT_BEGIN
 90
        0
 91
        1
 62
     0
 92
       -2
340
0
 93
        0
 40
0.045
309
GRIDFORMAT_END
309
TABLEFORMAT_END
  1
CELLSTYLE_BEGIN
 90
        2
 91
        1
300
_HEADER
309
CELLSTYLE_END
300
CELLSTYLE
  1
TABLEFORMAT_BEGIN
 90
        5
170
     1
 91
        0
 92
        0
 62
   257
 93
        1
300
CONTENTFORMAT
  1
CONTENTFORMAT_BEGIN
 90
        0
 91
        0
 92
      512
 93
        0
300

 40
0.0
140
1.0
 94
        5
 62
     7
340
1B
144
3.0
309
CONTENTFORMAT_END
171
     1
301
MARGIN
  1
CELLMARGIN_BEGIN
 40
1.5
 40
1.5
 40
1.5
 40
1.5
 40
0.18
 40
0.18
309
CELLMARGIN_END
 94
        6
 95
        1
302
GRIDFORMAT
  1
GRIDFORMAT_BEGIN
 90
        0
 91
        1
 62
     0
 92
       -2
340
0
 93
        0
 40
0.045
309
GRIDFORMAT_END
 95
        2
302
GRIDFORMAT
  1
GRIDFORMAT_BEGIN
 90
        0
 91
        1
 62
     0
 92
       -2
340
0
 93
        0
 40
0.045
309
GRIDFORMAT_END
 95
        4
302
GRIDFORMAT
  1
GRIDFORMAT_BEGIN
 90
        0
 91
        1
 62
     0
 92
       -2
340
0
 93
        0
 40
0.045
309
GRIDFORMAT_END
 95
        8
302
GRIDFORMAT
  1
GRIDFORMAT_BEGIN
 90
        0
 91
        1
 62
     0
 92
       -2
340
0
 93
        0
 40
0.045
309
GRIDFORMAT_END
 95
       16
302
GRIDFORMAT
  1
GRIDFORMAT_BEGIN
 90
        0
 91
        1
 62
     0
 92
       -2
340
0
 93
        0
 40
0.045
309
GRIDFORMAT_END
 95
       32
302
GRIDFORMAT
  1
GRIDFORMAT_BEGIN
 90
        0
 91
        1
 62
     0
 92
       -2
340
0
 93
        0
 40
0.045
309
GRIDFORMAT_END
309
TABLEFORMAT_END
  1
CELLSTYLE_BEGIN
 90
        3
 91
        2
300
_DATA
309
CELLSTYLE_END
  0
XRECORD
  5
1748
102
{ACAD_REACTORS
330
366
102
}
330
366
100
AcDbXrecord
280
     1
102
ACAD_ROUNDTRIP_PRE2007_TABLESTYLE
 90
      512
 91
        0
  1

 92
      512
 93
        0
  2

 94
      512
 95
        0
  3

  0
CELLSTYLEMAP
  5
1716
102
{ACAD_REACTORS
330
364
102
}
330
364
100
AcDbCellStyleMap
 90
        3
300
CELLSTYLE
  1
TABLEFORMAT_BEGIN
 90
        5
170
     1
 91
        0
 92
    32768
 62
   257
 93
        1
300
CONTENTFORMAT
  1
CONTENTFORMAT_BEGIN
 90
        0
 91
        0
 92
      512
 93
        0
300

 40
0.0
140
1.0
 94
        5
 62
     1
340
1B
144
6.0
309
CONTENTFORMAT_END
171
     1
301
MARGIN
  1
CELLMARGIN_BEGIN
 40
1.5
 40
1.5
 40
1.5
 40
1.5
 40
0.18
 40
0.18
309
CELLMARGIN_END
 94
        6
 95
        1
302
GRIDFORMAT
  1
GRIDFORMAT_BEGIN
 90
        0
 91
        1
 62
     0
 92
       -2
340
0
 93
        0
 40
0.045
309
GRIDFORMAT_END
 95
        2
302
GRIDFORMAT
  1
GRIDFORMAT_BEGIN
 90
        0
 91
        1
 62
     0
 92
       -2
340
0
 93
        0
 40
0.045
309
GRIDFORMAT_END
 95
        4
302
GRIDFORMAT
  1
GRIDFORMAT_BEGIN
 90
        0
 91
        1
 62
     0
 92
       -2
340
0
 93
        0
 40
0.045
309
GRIDFORMAT_END
 95
        8
302
GRIDFORMAT
  1
GRIDFORMAT_BEGIN
 90
        0
 91
        1
 62
     0
 92
       -2
340
0
 93
        0
 40
0.045
309
GRIDFORMAT_END
 95
       16
302
GRIDFORMAT
  1
GRIDFORMAT_BEGIN
 90
        0
 91
        1
 62
     0
 92
       -2
340
0
 93
        0
 40
0.045
309
GRIDFORMAT_END
 95
       32
302
GRIDFORMAT
  1
GRIDFORMAT_BEGIN
 90
        0
 91
        1
 62
     0
 92
       -2
340
0
 93
        0
 40
0.045
309
GRIDFORMAT_END
309
TABLEFORMAT_END
  1
CELLSTYLE_BEGIN
 90
        1
 91
        1
300
_TITLE
309
CELLSTYLE_END
300
CELLSTYLE
  1
TABLEFORMAT_BEGIN
 90
        5
170
     1
 91
        0
 92
        0
 62
   257
 93
        1
300
CONTENTFORMAT
  1
CONTENTFORMAT_BEGIN
 90
        0
 91
        0
 92
      512
 93
        0
300

 40
0.0
140
1.0
 94
        5
 62
     3
340
1B
144
5.0
309
CONTENTFORMAT_END
171
     1
301
MARGIN
  1
CELLMARGIN_BEGIN
 40
1.5
 40
1.5
 40
1.5
 40
1.5
 40
0.18
 40
0.18
309
CELLMARGIN_END
 94
        6
 95
        1
302
GRIDFORMAT
  1
GRIDFORMAT_BEGIN
 90
        0
 91
        1
 62
     0
 92
       -2
340
0
 93
        0
 40
0.045
309
GRIDFORMAT_END
 95
        2
302
GRIDFORMAT
  1
GRIDFORMAT_BEGIN
 90
        0
 91
        1
 62
     0
 92
       -2
340
0
 93
        0
 40
0.045
309
GRIDFORMAT_END
 95
        4
302
GRIDFORMAT
  1
GRIDFORMAT_BEGIN
 90
        0
 91
        1
 62
     0
 92
       -2
340
0
 93
        0
 40
0.045
309
GRIDFORMAT_END
 95
        8
302
GRIDFORMAT
  1
GRIDFORMAT_BEGIN
 90
        0
 91
        1
 62
     0
 92
       -2
340
0
 93
        0
 40
0.045
309
GRIDFORMAT_END
 95
       16
302
GRIDFORMAT
  1
GRIDFORMAT_BEGIN
 90
        0
 91
        1
 62
     0
 92
       -2
340
0
 93
        0
 40
0.045
309
GRIDFORMAT_END
 95
       32
302
GRIDFORMAT
  1
GRIDFORMAT_BEGIN
 90
        0
 91
        1
 62
     0
 92
       -2
340
0
 93
        0
 40
0.045
309
GRIDFORMAT_END
309
TABLEFORMAT_END
  1
CELLSTYLE_BEGIN
 90
        2
 91
        1
300
_HEADER
309
CELLSTYLE_END
300
CELLSTYLE
  1
TABLEFORMAT_BEGIN
 90
        5
170
     1
 91
        0
 92
        0
 62
   257
 93
        1
300
CONTENTFORMAT
  1
CONTENTFORMAT_BEGIN
 90
        0
 91
        0
 92
      512
 93
        0
300

 40
0.0
140
1.0
 94
        5
 62
     7
340
1B
144
4.5
309
CONTENTFORMAT_END
171
     1
301
MARGIN
  1
CELLMARGIN_BEGIN
 40
1.5
 40
1.5
 40
1.5
 40
1.5
 40
0.18
 40
0.18
309
CELLMARGIN_END
 94
        6
 95
        1
302
GRIDFORMAT
  1
GRIDFORMAT_BEGIN
 90
        0
 91
        1
 62
     0
 92
       -2
340
0
 93
        0
 40
0.045
309
GRIDFORMAT_END
 95
        2
302
GRIDFORMAT
  1
GRIDFORMAT_BEGIN
 90
        0
 91
        1
 62
     0
 92
       -2
340
0
 93
        0
 40
0.045
309
GRIDFORMAT_END
 95
        4
302
GRIDFORMAT
  1
GRIDFORMAT_BEGIN
 90
        0
 91
        1
 62
     0
 92
       -2
340
0
 93
        0
 40
0.045
309
GRIDFORMAT_END
 95
        8
302
GRIDFORMAT
  1
GRIDFORMAT_BEGIN
 90
        0
 91
        1
 62
     0
 92
       -2
340
0
 93
        0
 40
0.045
309
GRIDFORMAT_END
 95
       16
302
GRIDFORMAT
  1
GRIDFORMAT_BEGIN
 90
        0
 91
        1
 62
     0
 92
       -2
340
0
 93
        0
 40
0.045
309
GRIDFORMAT_END
 95
       32
302
GRIDFORMAT
  1
GRIDFORMAT_BEGIN
 90
        0
 91
        1
 62
     0
 92
       -2
340
0
 93
        0
 40
0.045
309
GRIDFORMAT_END
309
TABLEFORMAT_END
  1
CELLSTYLE_BEGIN
 90
        3
 91
        2
300
_DATA
309
CELLSTYLE_END
  0
XRECORD
  5
1747
102
{ACAD_REACTORS
330
364
102
}
330
364
100
AcDbXrecord
280
     1
102
ACAD_ROUNDTRIP_PRE2007_TABLESTYLE
 90
      512
 91
        0
  1

 92
      512
 93
        0
  2

 94
      512
 95
        0
  3

  0
CELLSTYLEMAP
  5
1715
102
{ACAD_REACTORS
330
362
102
}
330
362
100
AcDbCellStyleMap
 90
        3
300
CELLSTYLE
  1
TABLEFORMAT_BEGIN
 90
        5
170
     1
 91
        0
 92
    32768
 62
   257
 93
        1
300
CONTENTFORMAT
  1
CONTENTFORMAT_BEGIN
 90
        0
 91
        0
 92
      512
 93
        0
300

 40
0.0
140
1.0
 94
        5
 62
     0
340
C
144
6.0
309
CONTENTFORMAT_END
171
     1
301
MARGIN
  1
CELLMARGIN_BEGIN
 40
1.5
 40
1.5
 40
1.5
 40
1.5
 40
0.18
 40
0.18
309
CELLMARGIN_END
 94
        6
 95
        1
302
GRIDFORMAT
  1
GRIDFORMAT_BEGIN
 90
        0
 91
        1
 62
     0
 92
       -2
340
0
 93
        0
 40
0.045
309
GRIDFORMAT_END
 95
        2
302
GRIDFORMAT
  1
GRIDFORMAT_BEGIN
 90
        0
 91
        1
 62
     0
 92
       -2
340
0
 93
        0
 40
0.045
309
GRIDFORMAT_END
 95
        4
302
GRIDFORMAT
  1
GRIDFORMAT_BEGIN
 90
        0
 91
        1
 62
     0
 92
       -2
340
0
 93
        0
 40
0.045
309
GRIDFORMAT_END
 95
        8
302
GRIDFORMAT
  1
GRIDFORMAT_BEGIN
 90
        0
 91
        1
 62
     0
 92
       -2
340
0
 93
        0
 40
0.045
309
GRIDFORMAT_END
 95
       16
302
GRIDFORMAT
  1
GRIDFORMAT_BEGIN
 90
        0
 91
        1
 62
     0
 92
       -2
340
0
 93
        0
 40
0.045
309
GRIDFORMAT_END
 95
       32
302
GRIDFORMAT
  1
GRIDFORMAT_BEGIN
 90
        0
 91
        1
 62
     0
 92
       -2
340
0
 93
        0
 40
0.045
309
GRIDFORMAT_END
309
TABLEFORMAT_END
  1
CELLSTYLE_BEGIN
 90
        1
 91
        1
300
_TITLE
309
CELLSTYLE_END
300
CELLSTYLE
  1
TABLEFORMAT_BEGIN
 90
        5
170
     1
 91
        0
 92
        0
 62
   257
 93
        1
300
CONTENTFORMAT
  1
CONTENTFORMAT_BEGIN
 90
        0
 91
        0
 92
      512
 93
        0
300

 40
0.0
140
1.0
 94
        5
 62
     0
340
C
144
4.5
309
CONTENTFORMAT_END
171
     1
301
MARGIN
  1
CELLMARGIN_BEGIN
 40
1.5
 40
1.5
 40
1.5
 40
1.5
 40
0.18
 40
0.18
309
CELLMARGIN_END
 94
        6
 95
        1
302
GRIDFORMAT
  1
GRIDFORMAT_BEGIN
 90
        0
 91
        1
 62
     0
 92
       -2
340
0
 93
        0
 40
0.045
309
GRIDFORMAT_END
 95
        2
302
GRIDFORMAT
  1
GRIDFORMAT_BEGIN
 90
        0
 91
        1
 62
     0
 92
       -2
340
0
 93
        0
 40
0.045
309
GRIDFORMAT_END
 95
        4
302
GRIDFORMAT
  1
GRIDFORMAT_BEGIN
 90
        0
 91
        1
 62
     0
 92
       -2
340
0
 93
        0
 40
0.045
309
GRIDFORMAT_END
 95
        8
302
GRIDFORMAT
  1
GRIDFORMAT_BEGIN
 90
        0
 91
        1
 62
     0
 92
       -2
340
0
 93
        0
 40
0.045
309
GRIDFORMAT_END
 95
       16
302
GRIDFORMAT
  1
GRIDFORMAT_BEGIN
 90
        0
 91
        1
 62
     0
 92
       -2
340
0
 93
        0
 40
0.045
309
GRIDFORMAT_END
 95
       32
302
GRIDFORMAT
  1
GRIDFORMAT_BEGIN
 90
        0
 91
        1
 62
     0
 92
       -2
340
0
 93
        0
 40
0.045
309
GRIDFORMAT_END
309
TABLEFORMAT_END
  1
CELLSTYLE_BEGIN
 90
        2
 91
        1
300
_HEADER
309
CELLSTYLE_END
300
CELLSTYLE
  1
TABLEFORMAT_BEGIN
 90
        5
170
     1
 91
        0
 92
        0
 62
   257
 93
        1
300
CONTENTFORMAT
  1
CONTENTFORMAT_BEGIN
 90
        0
 91
        0
 92
      512
 93
        0
300

 40
0.0
140
1.0
 94
        2
 62
     0
340
C
144
4.5
309
CONTENTFORMAT_END
171
     1
301
MARGIN
  1
CELLMARGIN_BEGIN
 40
1.5
 40
1.5
 40
1.5
 40
1.5
 40
0.18
 40
0.18
309
CELLMARGIN_END
 94
        6
 95
        1
302
GRIDFORMAT
  1
GRIDFORMAT_BEGIN
 90
        0
 91
        1
 62
     0
 92
       -2
340
0
 93
        0
 40
0.045
309
GRIDFORMAT_END
 95
        2
302
GRIDFORMAT
  1
GRIDFORMAT_BEGIN
 90
        0
 91
        1
 62
     0
 92
       -2
340
0
 93
        0
 40
0.045
309
GRIDFORMAT_END
 95
        4
302
GRIDFORMAT
  1
GRIDFORMAT_BEGIN
 90
        0
 91
        1
 62
     0
 92
       -2
340
0
 93
        0
 40
0.045
309
GRIDFORMAT_END
 95
        8
302
GRIDFORMAT
  1
GRIDFORMAT_BEGIN
 90
        0
 91
        1
 62
     0
 92
       -2
340
0
 93
        0
 40
0.045
309
GRIDFORMAT_END
 95
       16
302
GRIDFORMAT
  1
GRIDFORMAT_BEGIN
 90
        0
 91
        1
 62
     0
 92
       -2
340
0
 93
        0
 40
0.045
309
GRIDFORMAT_END
 95
       32
302
GRIDFORMAT
  1
GRIDFORMAT_BEGIN
 90
        0
 91
        1
 62
     0
 92
       -2
340
0
 93
        0
 40
0.045
309
GRIDFORMAT_END
309
TABLEFORMAT_END
  1
CELLSTYLE_BEGIN
 90
        3
 91
        2
300
_DATA
309
CELLSTYLE_END
  0
XRECORD
  5
1746
102
{ACAD_REACTORS
330
362
102
}
330
362
100
AcDbXrecord
280
     1
102
ACAD_ROUNDTRIP_PRE2007_TABLESTYLE
 90
      512
 91
        0
  1

 92
      512
 93
        0
  2

 94
      512
 95
        0
  3

  0
XRECORD
  5
1731
102
{ACAD_REACTORS
330
1730
102
}
330
1730
100
AcDbXrecord
280
     1
102
RTVSPropertyOp0
 70
     1
102
RTVSPropertyOp1
 70
     1
102
RTVSPropertyOp2
 70
     1
102
RTVSPropertyOp3
 70
     1
102
RTVSPropertyOp4
 70
     1
102
RTVSPropertyOp5
 70
     1
102
RTVSPropertyOp6
 70
     1
102
RTVSPropertyOp7
 70
     1
102
RTVSPropertyOp8
 70
     1
102
RTVSPropertyOp9
 70
     1
102
RTVSPropertyOp10
 70
     1
102
RTVSPropertyOp11
 70
     1
102
RTVSPropertyOp12
 70
     1
102
RTVSPropertyOp13
 70
     1
102
RTVSPropertyOp14
 70
     1
102
RTVSPropertyOp15
 70
     1
102
RTVSPropertyOp16
 70
     1
102
RTVSPropertyOp17
 70
     1
102
RTVSPropertyOp18
 70
     1
102
RTVSPropertyOp19
 70
     1
102
RTVSPropertyOp20
 70
     1
102
RTVSPropertyOp21
 70
     1
102
RTVSPropertyOp22
 70
     1
102
RTVSPropertyOp23
 70
     1
102
RTVSPropertyOp24
 70
     1
102
RTVSPropertyOp25
 70
     1
102
RTVSPropertyOp26
 70
     1
102
RTVSPropertyOp27
 70
     1
102
RTVSPropertyOp28
 70
     1
102
RTVSPropertyOp29
 70
     1
102
RTVSPropertyOp30
 70
     1
102
RTVSPropertyOp31
 70
     1
102
RTVSPropertyOp32
 70
     1
  0
XRECORD
  5
1735
102
{ACAD_REACTORS
330
1734
102
}
330
1734
100
AcDbXrecord
280
     1
102
RTVSPropertyOp0
 70
     1
102
RTVSPropertyOp1
 70
     1
102
RTVSPropertyOp2
 70
     1
102
RTVSPropertyOp3
 70
     1
102
RTVSPropertyOp4
 70
     1
102
RTVSPropertyOp5
 70
     1
102
RTVSPropertyOp6
 70
     1
102
RTVSPropertyOp7
 70
     1
102
RTVSPropertyOp8
 70
     1
102
RTVSPropertyOp9
 70
     1
102
RTVSPropertyOp10
 70
     1
102
RTVSPropertyOp11
 70
     1
102
RTVSPropertyOp12
 70
     1
102
RTVSPropertyOp13
 70
     1
102
RTVSPropertyOp14
 70
     1
102
RTVSPropertyOp15
 70
     1
102
RTVSPropertyOp16
 70
     1
102
RTVSPropertyOp17
 70
     1
102
RTVSPropertyOp18
 70
     1
102
RTVSPropertyOp19
 70
     1
102
RTVSPropertyOp20
 70
     1
102
RTVSPropertyOp21
 70
     1
102
RTVSPropertyOp22
 70
     1
102
RTVSPropertyOp23
 70
     1
102
RTVSPropertyOp24
 70
     1
102
RTVSPropertyOp25
 70
     1
102
RTVSPropertyOp26
 70
     1
102
RTVSPropertyOp27
 70
     1
102
RTVSPropertyOp28
 70
     1
102
RTVSPropertyOp29
 70
     1
102
RTVSPropertyOp30
 70
     1
102
RTVSPropertyOp31
 70
     1
102
RTVSPropertyOp32
 70
     1
  0
XRECORD
  5
1733
102
{ACAD_REACTORS
330
1732
102
}
330
1732
100
AcDbXrecord
280
     1
102
RTVSPropertyOp0
 70
     1
102
RTVSPropertyOp1
 70
     1
102
RTVSPropertyOp2
 70
     1
102
RTVSPropertyOp3
 70
     1
102
RTVSPropertyOp4
 70
     1
102
RTVSPropertyOp5
 70
     1
102
RTVSPropertyOp6
 70
     1
102
RTVSPropertyOp7
 70
     1
102
RTVSPropertyOp8
 70
     1
102
RTVSPropertyOp9
 70
     1
102
RTVSPropertyOp10
 70
     1
102
RTVSPropertyOp11
 70
     1
102
RTVSPropertyOp12
 70
     1
102
RTVSPropertyOp13
 70
     1
102
RTVSPropertyOp14
 70
     1
102
RTVSPropertyOp15
 70
     1
102
RTVSPropertyOp16
 70
     1
102
RTVSPropertyOp17
 70
     1
102
RTVSPropertyOp18
 70
     1
102
RTVSPropertyOp19
 70
     1
102
RTVSPropertyOp20
 70
     1
102
RTVSPropertyOp21
 70
     1
102
RTVSPropertyOp22
 70
     1
102
RTVSPropertyOp23
 70
     1
102
RTVSPropertyOp24
 70
     1
102
RTVSPropertyOp25
 70
     1
102
RTVSPropertyOp26
 70
     1
102
RTVSPropertyOp27
 70
     1
102
RTVSPropertyOp28
 70
     1
102
RTVSPropertyOp29
 70
     1
102
RTVSPropertyOp30
 70
     1
102
RTVSPropertyOp31
 70
     1
102
RTVSPropertyOp32
 70
     1
  0
XRECORD
  5
172F
102
{ACAD_REACTORS
330
172E
102
}
330
172E
100
AcDbXrecord
280
     1
102
RTVSPropertyOp0
 70
     1
102
RTVSPropertyOp1
 70
     1
102
RTVSPropertyOp2
 70
     1
102
RTVSPropertyOp3
 70
     1
102
RTVSPropertyOp4
 70
     1
102
RTVSPropertyOp5
 70
     1
102
RTVSPropertyOp6
 70
     1
102
RTVSPropertyOp7
 70
     1
102
RTVSPropertyOp8
 70
     1
102
RTVSPropertyOp9
 70
     1
102
RTVSPropertyOp10
 70
     1
102
RTVSPropertyOp11
 70
     1
102
RTVSPropertyOp12
 70
     1
102
RTVSPropertyOp13
 70
     1
102
RTVSPropertyOp14
 70
     1
102
RTVSPropertyOp15
 70
     1
102
RTVSPropertyOp16
 70
     1
102
RTVSPropertyOp17
 70
     1
102
RTVSPropertyOp18
 70
     1
102
RTVSPropertyOp19
 70
     1
102
RTVSPropertyOp20
 70
     1
102
RTVSPropertyOp21
 70
     1
102
RTVSPropertyOp22
 70
     1
102
RTVSPropertyOp23
 70
     1
102
RTVSPropertyOp24
 70
     1
102
RTVSPropertyOp25
 70
     1
102
RTVSPropertyOp26
 70
     1
102
RTVSPropertyOp27
 70
     1
102
RTVSPropertyOp28
 70
     1
102
RTVSPropertyOp29
 70
     1
102
RTVSPropertyOp30
 70
     1
102
RTVSPropertyOp31
 70
     1
102
RTVSPropertyOp32
 70
     1
  0
XRECORD
  5
173D
102
{ACAD_REACTORS
330
173C
102
}
330
173C
100
AcDbXrecord
280
     1
102
RTVSPropertyOp0
 70
     1
102
RTVSPropertyOp1
 70
     1
102
RTVSPropertyOp2
 70
     1
102
RTVSPropertyOp3
 70
     1
102
RTVSPropertyOp4
 70
     1
102
RTVSPropertyOp5
 70
     1
102
RTVSPropertyOp6
 70
     1
102
RTVSPropertyOp7
 70
     1
102
RTVSPropertyOp8
 70
     1
102
RTVSPropertyOp9
 70
     1
102
RTVSPropertyOp10
 70
     1
102
RTVSPropertyOp11
 70
     1
102
RTVSPropertyOp12
 70
     1
102
RTVSPropertyOp13
 70
     1
102
RTVSPropertyOp14
 70
     1
102
RTVSPropertyOp15
 70
     1
102
RTVSPropertyOp16
 70
     1
102
RTVSPropertyOp17
 70
     1
102
RTVSPropertyOp18
 70
     1
102
RTVSPropertyOp19
 70
     1
102
RTVSPropertyOp20
 70
     1
102
RTVSPropertyOp21
 70
     1
102
RTVSPropertyOp22
 70
     1
102
RTVSPropertyOp23
 70
     1
102
RTVSPropertyOp24
 70
     1
102
RTVSPropertyOp25
 70
     1
102
RTVSPropertyOp26
 70
     1
102
RTVSPropertyOp27
 70
     1
102
RTVSPropertyOp28
 70
     1
102
RTVSPropertyOp29
 70
     1
102
RTVSPropertyOp30
 70
     1
102
RTVSPropertyOp31
 70
     1
102
RTVSPropertyOp32
 70
     1
  0
XRECORD
  5
1745
102
{ACAD_REACTORS
330
1744
102
}
330
1744
100
AcDbXrecord
280
     1
102
RTVSPropertyOp0
 70
     1
102
RTVSPropertyOp1
 70
     1
102
RTVSPropertyOp2
 70
     1
102
RTVSPropertyOp3
 70
     1
102
RTVSPropertyOp4
 70
     1
102
RTVSPropertyOp5
 70
     1
102
RTVSPropertyOp6
 70
     1
102
RTVSPropertyOp7
 70
     1
102
RTVSPropertyOp8
 70
     1
102
RTVSPropertyOp9
 70
     1
102
RTVSPropertyOp10
 70
     1
102
RTVSPropertyOp11
 70
     1
102
RTVSPropertyOp12
 70
     1
102
RTVSPropertyOp13
 70
     1
102
RTVSPropertyOp14
 70
     1
102
RTVSPropertyOp15
 70
     1
102
RTVSPropertyOp16
 70
     1
102
RTVSPropertyOp17
 70
     1
102
RTVSPropertyOp18
 70
     1
102
RTVSPropertyOp19
 70
     1
102
RTVSPropertyOp20
 70
     1
102
RTVSPropertyOp21
 70
     1
102
RTVSPropertyOp22
 70
     1
102
RTVSPropertyOp23
 70
     1
102
RTVSPropertyOp24
 70
     1
102
RTVSPropertyOp25
 70
     1
102
RTVSPropertyOp26
 70
     1
102
RTVSPropertyOp27
 70
     1
102
RTVSPropertyOp28
 70
     1
102
RTVSPropertyOp29
 70
     1
102
RTVSPropertyOp30
 70
     1
102
RTVSPropertyOp31
 70
     1
102
RTVSPropertyOp32
 70
     1
  0
XRECORD
  5
1737
102
{ACAD_REACTORS
330
1736
102
}
330
1736
100
AcDbXrecord
280
     1
102
RTVSPropertyOp0
 70
     1
102
RTVSPropertyOp1
 70
     1
102
RTVSPropertyOp2
 70
     1
102
RTVSPropertyOp3
 70
     1
102
RTVSPropertyOp4
 70
     1
102
RTVSPropertyOp5
 70
     1
102
RTVSPropertyOp6
 70
     1
102
RTVSPropertyOp7
 70
     1
102
RTVSPropertyOp8
 70
     1
102
RTVSPropertyOp9
 70
     1
102
RTVSPropertyOp10
 70
     1
102
RTVSPropertyOp11
 70
     1
102
RTVSPropertyOp12
 70
     1
102
RTVSPropertyOp13
 70
     1
102
RTVSPropertyOp14
 70
     1
102
RTVSPropertyOp15
 70
     1
102
RTVSPropertyOp16
 70
     1
102
RTVSPropertyOp17
 70
     1
102
RTVSPropertyOp18
 70
     1
102
RTVSPropertyOp19
 70
     1
102
RTVSPropertyOp20
 70
     1
102
RTVSPropertyOp21
 70
     1
102
RTVSPropertyOp22
 70
     1
102
RTVSPropertyOp23
 70
     1
102
RTVSPropertyOp24
 70
     1
102
RTVSPropertyOp25
 70
     1
102
RTVSPropertyOp26
 70
     1
102
RTVSPropertyOp27
 70
     1
102
RTVSPropertyOp28
 70
     1
102
RTVSPropertyOp29
 70
     1
102
RTVSPropertyOp30
 70
     1
102
RTVSPropertyOp31
 70
     1
102
RTVSPropertyOp32
 70
     1
  0
XRECORD
  5
173B
102
{ACAD_REACTORS
330
173A
102
}
330
173A
100
AcDbXrecord
280
     1
102
RTVSPropertyOp0
 70
     1
102
RTVSPropertyOp1
 70
     1
102
RTVSPropertyOp2
 70
     1
102
RTVSPropertyOp3
 70
     1
102
RTVSPropertyOp4
 70
     1
102
RTVSPropertyOp5
 70
     1
102
RTVSPropertyOp6
 70
     1
102
RTVSPropertyOp7
 70
     1
102
RTVSPropertyOp8
 70
     1
102
RTVSPropertyOp9
 70
     1
102
RTVSPropertyOp10
 70
     1
102
RTVSPropertyOp11
 70
     1
102
RTVSPropertyOp12
 70
     1
102
RTVSPropertyOp13
 70
     1
102
RTVSPropertyOp14
 70
     1
102
RTVSPropertyOp15
 70
     1
102
RTVSPropertyOp16
 70
     1
102
RTVSPropertyOp17
 70
     1
102
RTVSPropertyOp18
 70
     1
102
RTVSPropertyOp19
 70
     1
102
RTVSPropertyOp20
 70
     1
102
RTVSPropertyOp21
 70
     1
102
RTVSPropertyOp22
 70
     1
102
RTVSPropertyOp23
 70
     1
102
RTVSPropertyOp24
 70
     1
102
RTVSPropertyOp25
 70
     1
102
RTVSPropertyOp26
 70
     1
102
RTVSPropertyOp27
 70
     1
102
RTVSPropertyOp28
 70
     1
102
RTVSPropertyOp29
 70
     1
102
RTVSPropertyOp30
 70
     1
102
RTVSPropertyOp31
 70
     1
102
RTVSPropertyOp32
 70
     1
  0
XRECORD
  5
1767
102
{ACAD_REACTORS
330
1766
102
}
330
1766
100
AcDbXrecord
280
     1
102
RTVSPropertyOp0
 70
     0
102
RTVSPropertyOp1
 70
     0
102
RTVSPropertyOp2
 70
     0
102
RTVSPropertyOp3
 70
     0
102
RTVSPropertyOp4
 70
     0
102
RTVSPropertyOp5
 70
     0
102
RTVSPropertyOp6
 70
     0
102
RTVSPropertyOp7
 70
     0
102
RTVSPropertyOp8
 70
     0
102
RTVSPropertyOp9
 70
     0
102
RTVSPropertyOp10
 70
     0
102
RTVSPropertyOp11
 70
     0
102
RTVSPropertyOp12
 70
     0
102
RTVSPropertyOp13
 70
     0
102
RTVSPropertyOp14
 70
     2
102
RTVSPropertyOp15
 70
     0
102
RTVSPropertyOp16
 70
     0
102
RTVSPropertyOp17
 70
     0
102
RTVSPropertyOp18
 70
     0
102
RTVSPropertyOp19
 70
     0
102
RTVSPropertyOp20
 70
     0
102
RTVSPropertyOp21
 70
     0
102
RTVSPropertyOp22
 70
     0
102
RTVSPropertyOp23
 70
     0
102
RTVSPropertyOp24
 70
     0
102
RTVSPropertyOp25
 70
     0
102
RTVSPropertyOp26
 70
     0
102
RTVSPropertyOp27
 70
     0
102
RTVSPropertyOp28
 70
     0
102
RTVSPropertyOp29
 70
     0
102
RTVSPropertyOp30
 70
     0
102
RTVSPropertyOp31
 70
     0
102
RTVSPropertyOp32
 70
     0
  0
XRECORD
  5
1743
102
{ACAD_REACTORS
330
1742
102
}
330
1742
100
AcDbXrecord
280
     1
102
RTVSPropertyOp0
 70
     1
102
RTVSPropertyOp1
 70
     1
102
RTVSPropertyOp2
 70
     1
102
RTVSPropertyOp3
 70
     1
102
RTVSPropertyOp4
 70
     1
102
RTVSPropertyOp5
 70
     1
102
RTVSPropertyOp6
 70
     1
102
RTVSPropertyOp7
 70
     1
102
RTVSPropertyOp8
 70
     1
102
RTVSPropertyOp9
 70
     1
102
RTVSPropertyOp10
 70
     1
102
RTVSPropertyOp11
 70
     1
102
RTVSPropertyOp12
 70
     1
102
RTVSPropertyOp13
 70
     1
102
RTVSPropertyOp14
 70
     1
102
RTVSPropertyOp15
 70
     1
102
RTVSPropertyOp16
 70
     1
102
RTVSPropertyOp17
 70
     1
102
RTVSPropertyOp18
 70
     1
102
RTVSPropertyOp19
 70
     1
102
RTVSPropertyOp20
 70
     1
102
RTVSPropertyOp21
 70
     1
102
RTVSPropertyOp22
 70
     1
102
RTVSPropertyOp23
 70
     1
102
RTVSPropertyOp24
 70
     1
102
RTVSPropertyOp25
 70
     1
102
RTVSPropertyOp26
 70
     1
102
RTVSPropertyOp27
 70
     1
102
RTVSPropertyOp28
 70
     1
102
RTVSPropertyOp29
 70
     1
102
RTVSPropertyOp30
 70
     1
102
RTVSPropertyOp31
 70
     1
102
RTVSPropertyOp32
 70
     1
  0
XRECORD
  5
1727
102
{ACAD_REACTORS
330
1726
102
}
330
1726
100
AcDbXrecord
280
     1
102
RTVSPropertyOp0
 70
     1
102
RTVSPropertyOp1
 70
     1
102
RTVSPropertyOp2
 70
     1
102
RTVSPropertyOp3
 70
     1
102
RTVSPropertyOp4
 70
     1
102
RTVSPropertyOp5
 70
     1
102
RTVSPropertyOp6
 70
     1
102
RTVSPropertyOp7
 70
     1
102
RTVSPropertyOp8
 70
     1
102
RTVSPropertyOp9
 70
     1
102
RTVSPropertyOp10
 70
     1
102
RTVSPropertyOp11
 70
     1
102
RTVSPropertyOp12
 70
     1
102
RTVSPropertyOp13
 70
     1
102
RTVSPropertyOp14
 70
     1
102
RTVSPropertyOp15
 70
     1
102
RTVSPropertyOp16
 70
     1
102
RTVSPropertyOp17
 70
     1
102
RTVSPropertyOp18
 70
     1
102
RTVSPropertyOp19
 70
     1
102
RTVSPropertyOp20
 70
     1
102
RTVSPropertyOp21
 70
     1
102
RTVSPropertyOp22
 70
     1
102
RTVSPropertyOp23
 70
     1
102
RTVSPropertyOp24
 70
     1
102
RTVSPropertyOp25
 70
     1
102
RTVSPropertyOp26
 70
     1
102
RTVSPropertyOp27
 70
     1
102
RTVSPropertyOp28
 70
     1
102
RTVSPropertyOp29
 70
     1
102
RTVSPropertyOp30
 70
     1
102
RTVSPropertyOp31
 70
     1
102
RTVSPropertyOp32
 70
     1
  0
XRECORD
  5
1729
102
{ACAD_REACTORS
330
1728
102
}
330
1728
100
AcDbXrecord
280
     1
102
RTVSPropertyOp0
 70
     1
102
RTVSPropertyOp1
 70
     1
102
RTVSPropertyOp2
 70
     1
102
RTVSPropertyOp3
 70
     1
102
RTVSPropertyOp4
 70
     1
102
RTVSPropertyOp5
 70
     1
102
RTVSPropertyOp6
 70
     1
102
RTVSPropertyOp7
 70
     1
102
RTVSPropertyOp8
 70
     1
102
RTVSPropertyOp9
 70
     1
102
RTVSPropertyOp10
 70
     1
102
RTVSPropertyOp11
 70
     1
102
RTVSPropertyOp12
 70
     1
102
RTVSPropertyOp13
 70
     1
102
RTVSPropertyOp14
 70
     1
102
RTVSPropertyOp15
 70
     1
102
RTVSPropertyOp16
 70
     1
102
RTVSPropertyOp17
 70
     1
102
RTVSPropertyOp18
 70
     1
102
RTVSPropertyOp19
 70
     1
102
RTVSPropertyOp20
 70
     1
102
RTVSPropertyOp21
 70
     1
102
RTVSPropertyOp22
 70
     1
102
RTVSPropertyOp23
 70
     1
102
RTVSPropertyOp24
 70
     1
102
RTVSPropertyOp25
 70
     1
102
RTVSPropertyOp26
 70
     1
102
RTVSPropertyOp27
 70
     1
102
RTVSPropertyOp28
 70
     1
102
RTVSPropertyOp29
 70
     1
102
RTVSPropertyOp30
 70
     1
102
RTVSPropertyOp31
 70
     1
102
RTVSPropertyOp32
 70
     1
  0
XRECORD
  5
172B
102
{ACAD_REACTORS
330
172A
102
}
330
172A
100
AcDbXrecord
280
     1
102
RTVSPropertyOp0
 70
     1
102
RTVSPropertyOp1
 70
     1
102
RTVSPropertyOp2
 70
     1
102
RTVSPropertyOp3
 70
     1
102
RTVSPropertyOp4
 70
     1
102
RTVSPropertyOp5
 70
     1
102
RTVSPropertyOp6
 70
     1
102
RTVSPropertyOp7
 70
     1
102
RTVSPropertyOp8
 70
     1
102
RTVSPropertyOp9
 70
     1
102
RTVSPropertyOp10
 70
     1
102
RTVSPropertyOp11
 70
     1
102
RTVSPropertyOp12
 70
     1
102
RTVSPropertyOp13
 70
     1
102
RTVSPropertyOp14
 70
     1
102
RTVSPropertyOp15
 70
     1
102
RTVSPropertyOp16
 70
     1
102
RTVSPropertyOp17
 70
     1
102
RTVSPropertyOp18
 70
     1
102
RTVSPropertyOp19
 70
     1
102
RTVSPropertyOp20
 70
     1
102
RTVSPropertyOp21
 70
     1
102
RTVSPropertyOp22
 70
     1
102
RTVSPropertyOp23
 70
     1
102
RTVSPropertyOp24
 70
     1
102
RTVSPropertyOp25
 70
     1
102
RTVSPropertyOp26
 70
     1
102
RTVSPropertyOp27
 70
     1
102
RTVSPropertyOp28
 70
     1
102
RTVSPropertyOp29
 70
     1
102
RTVSPropertyOp30
 70
     1
102
RTVSPropertyOp31
 70
     1
102
RTVSPropertyOp32
 70
     1
  0
XRECORD
  5
172D
102
{ACAD_REACTORS
330
172C
102
}
330
172C
100
AcDbXrecord
280
     1
102
RTVSPropertyOp0
 70
     1
102
RTVSPropertyOp1
 70
     1
102
RTVSPropertyOp2
 70
     1
102
RTVSPropertyOp3
 70
     1
102
RTVSPropertyOp4
 70
     1
102
RTVSPropertyOp5
 70
     1
102
RTVSPropertyOp6
 70
     1
102
RTVSPropertyOp7
 70
     1
102
RTVSPropertyOp8
 70
     1
102
RTVSPropertyOp9
 70
     1
102
RTVSPropertyOp10
 70
     1
102
RTVSPropertyOp11
 70
     1
102
RTVSPropertyOp12
 70
     1
102
RTVSPropertyOp13
 70
     1
102
RTVSPropertyOp14
 70
     1
102
RTVSPropertyOp15
 70
     1
102
RTVSPropertyOp16
 70
     1
102
RTVSPropertyOp17
 70
     1
102
RTVSPropertyOp18
 70
     1
102
RTVSPropertyOp19
 70
     1
102
RTVSPropertyOp20
 70
     1
102
RTVSPropertyOp21
 70
     1
102
RTVSPropertyOp22
 70
     1
102
RTVSPropertyOp23
 70
     1
102
RTVSPropertyOp24
 70
     1
102
RTVSPropertyOp25
 70
     1
102
RTVSPropertyOp26
 70
     1
102
RTVSPropertyOp27
 70
     1
102
RTVSPropertyOp28
 70
     1
102
RTVSPropertyOp29
 70
     1
102
RTVSPropertyOp30
 70
     1
102
RTVSPropertyOp31
 70
     1
102
RTVSPropertyOp32
 70
     1
  0
XRECORD
  5
1757
102
{ACAD_REACTORS
330
1756
102
}
330
1756
100
AcDbXrecord
280
     1
102
RTVSPropertyOp0
 70
     1
102
RTVSPropertyOp1
 70
     1
102
RTVSPropertyOp2
 70
     1
102
RTVSPropertyOp3
 70
     1
102
RTVSPropertyOp4
 70
     1
102
RTVSPropertyOp5
 70
     1
102
RTVSPropertyOp6
 70
     1
102
RTVSPropertyOp7
 70
     1
102
RTVSPropertyOp8
 70
     1
102
RTVSPropertyOp9
 70
     1
102
RTVSPropertyOp10
 70
     1
102
RTVSPropertyOp11
 70
     1
102
RTVSPropertyOp12
 70
     1
102
RTVSPropertyOp13
 70
     1
102
RTVSPropertyOp14
 70
     1
102
RTVSPropertyOp15
 70
     1
102
RTVSPropertyOp16
 70
     1
102
RTVSPropertyOp17
 70
     1
102
RTVSPropertyOp18
 70
     1
102
RTVSPropertyOp19
 70
     1
102
RTVSPropertyOp20
 70
     1
102
RTVSPropertyOp21
 70
     1
102
RTVSPropertyOp22
 70
     1
102
RTVSPropertyOp23
 70
     1
102
RTVSPropertyOp24
 70
     1
102
RTVSPropertyOp25
 70
     1
102
RTVSPropertyOp26
 70
     1
102
RTVSPropertyOp27
 70
     1
102
RTVSPropertyOp28
 70
     1
102
RTVSPropertyOp29
 70
     1
102
RTVSPropertyOp30
 70
     1
102
RTVSPropertyOp31
 70
     1
102
RTVSPropertyOp32
 70
     1
  0
XRECORD
  5
1763
102
{ACAD_REACTORS
330
1762
102
}
330
1762
100
AcDbXrecord
280
     1
102
RTVSPropertyOp0
 70
     0
102
RTVSPropertyOp1
 70
     0
102
RTVSPropertyOp2
 70
     0
102
RTVSPropertyOp3
 70
     0
102
RTVSPropertyOp4
 70
     0
102
RTVSPropertyOp5
 70
     0
102
RTVSPropertyOp6
 70
     0
102
RTVSPropertyOp7
 70
     0
102
RTVSPropertyOp8
 70
     0
102
RTVSPropertyOp9
 70
     0
102
RTVSPropertyOp10
 70
     0
102
RTVSPropertyOp11
 70
     0
102
RTVSPropertyOp12
 70
     0
102
RTVSPropertyOp13
 70
     0
102
RTVSPropertyOp14
 70
     2
102
RTVSPropertyOp15
 70
     0
102
RTVSPropertyOp16
 70
     0
102
RTVSPropertyOp17
 70
     0
102
RTVSPropertyOp18
 70
     0
102
RTVSPropertyOp19
 70
     0
102
RTVSPropertyOp20
 70
     0
102
RTVSPropertyOp21
 70
     0
102
RTVSPropertyOp22
 70
     0
102
RTVSPropertyOp23
 70
     0
102
RTVSPropertyOp24
 70
     0
102
RTVSPropertyOp25
 70
     0
102
RTVSPropertyOp26
 70
     0
102
RTVSPropertyOp27
 70
     0
102
RTVSPropertyOp28
 70
     0
102
RTVSPropertyOp29
 70
     0
102
RTVSPropertyOp30
 70
     0
102
RTVSPropertyOp31
 70
     0
102
RTVSPropertyOp32
 70
     0
  0
XRECORD
  5
1741
102
{ACAD_REACTORS
330
1740
102
}
330
1740
100
AcDbXrecord
280
     1
102
RTVSPropertyOp0
 70
     1
102
RTVSPropertyOp1
 70
     1
102
RTVSPropertyOp2
 70
     1
102
RTVSPropertyOp3
 70
     1
102
RTVSPropertyOp4
 70
     1
102
RTVSPropertyOp5
 70
     1
102
RTVSPropertyOp6
 70
     1
102
RTVSPropertyOp7
 70
     1
102
RTVSPropertyOp8
 70
     1
102
RTVSPropertyOp9
 70
     1
102
RTVSPropertyOp10
 70
     1
102
RTVSPropertyOp11
 70
     1
102
RTVSPropertyOp12
 70
     1
102
RTVSPropertyOp13
 70
     1
102
RTVSPropertyOp14
 70
     1
102
RTVSPropertyOp15
 70
     1
102
RTVSPropertyOp16
 70
     1
102
RTVSPropertyOp17
 70
     1
102
RTVSPropertyOp18
 70
     1
102
RTVSPropertyOp19
 70
     1
102
RTVSPropertyOp20
 70
     1
102
RTVSPropertyOp21
 70
     1
102
RTVSPropertyOp22
 70
     1
102
RTVSPropertyOp23
 70
     1
102
RTVSPropertyOp24
 70
     1
102
RTVSPropertyOp25
 70
     1
102
RTVSPropertyOp26
 70
     1
102
RTVSPropertyOp27
 70
     1
102
RTVSPropertyOp28
 70
     1
102
RTVSPropertyOp29
 70
     1
102
RTVSPropertyOp30
 70
     1
102
RTVSPropertyOp31
 70
     1
102
RTVSPropertyOp32
 70
     1
  0
XRECORD
  5
1765
102
{ACAD_REACTORS
330
1764
102
}
330
1764
100
AcDbXrecord
280
     1
102
RTVSPropertyOp0
 70
     0
102
RTVSPropertyOp1
 70
     0
102
RTVSPropertyOp2
 70
     0
102
RTVSPropertyOp3
 70
     0
102
RTVSPropertyOp4
 70
     0
102
RTVSPropertyOp5
 70
     0
102
RTVSPropertyOp6
 70
     0
102
RTVSPropertyOp7
 70
     0
102
RTVSPropertyOp8
 70
     0
102
RTVSPropertyOp9
 70
     0
102
RTVSPropertyOp10
 70
     0
102
RTVSPropertyOp11
 70
     0
102
RTVSPropertyOp12
 70
     0
102
RTVSPropertyOp13
 70
     0
102
RTVSPropertyOp14
 70
     2
102
RTVSPropertyOp15
 70
     0
102
RTVSPropertyOp16
 70
     0
102
RTVSPropertyOp17
 70
     0
102
RTVSPropertyOp18
 70
     0
102
RTVSPropertyOp19
 70
     0
102
RTVSPropertyOp20
 70
     0
102
RTVSPropertyOp21
 70
     0
102
RTVSPropertyOp22
 70
     0
102
RTVSPropertyOp23
 70
     0
102
RTVSPropertyOp24
 70
     0
102
RTVSPropertyOp25
 70
     0
102
RTVSPropertyOp26
 70
     0
102
RTVSPropertyOp27
 70
     0
102
RTVSPropertyOp28
 70
     0
102
RTVSPropertyOp29
 70
     0
102
RTVSPropertyOp30
 70
     0
102
RTVSPropertyOp31
 70
     0
102
RTVSPropertyOp32
 70
     0
  0
XRECORD
  5
1739
102
{ACAD_REACTORS
330
1738
102
}
330
1738
100
AcDbXrecord
280
     1
102
RTVSPropertyOp0
 70
     1
102
RTVSPropertyOp1
 70
     1
102
RTVSPropertyOp2
 70
     1
102
RTVSPropertyOp3
 70
     1
102
RTVSPropertyOp4
 70
     1
102
RTVSPropertyOp5
 70
     1
102
RTVSPropertyOp6
 70
     1
102
RTVSPropertyOp7
 70
     1
102
RTVSPropertyOp8
 70
     1
102
RTVSPropertyOp9
 70
     1
102
RTVSPropertyOp10
 70
     1
102
RTVSPropertyOp11
 70
     1
102
RTVSPropertyOp12
 70
     1
102
RTVSPropertyOp13
 70
     1
102
RTVSPropertyOp14
 70
     1
102
RTVSPropertyOp15
 70
     1
102
RTVSPropertyOp16
 70
     1
102
RTVSPropertyOp17
 70
     1
102
RTVSPropertyOp18
 70
     1
102
RTVSPropertyOp19
 70
     1
102
RTVSPropertyOp20
 70
     1
102
RTVSPropertyOp21
 70
     1
102
RTVSPropertyOp22
 70
     1
102
RTVSPropertyOp23
 70
     1
102
RTVSPropertyOp24
 70
     1
102
RTVSPropertyOp25
 70
     1
102
RTVSPropertyOp26
 70
     1
102
RTVSPropertyOp27
 70
     1
102
RTVSPropertyOp28
 70
     1
102
RTVSPropertyOp29
 70
     1
102
RTVSPropertyOp30
 70
     1
102
RTVSPropertyOp31
 70
     1
102
RTVSPropertyOp32
 70
     1
  0
XRECORD
  5
1761
102
{ACAD_REACTORS
330
1760
102
}
330
1760
100
AcDbXrecord
280
     1
102
RTVSPropertyOp0
 70
     1
102
RTVSPropertyOp1
 70
     1
102
RTVSPropertyOp2
 70
     1
102
RTVSPropertyOp3
 70
     1
102
RTVSPropertyOp4
 70
     1
102
RTVSPropertyOp5
 70
     1
102
RTVSPropertyOp6
 70
     1
102
RTVSPropertyOp7
 70
     1
102
RTVSPropertyOp8
 70
     1
102
RTVSPropertyOp9
 70
     1
102
RTVSPropertyOp10
 70
     1
102
RTVSPropertyOp11
 70
     1
102
RTVSPropertyOp12
 70
     1
102
RTVSPropertyOp13
 70
     1
102
RTVSPropertyOp14
 70
     1
102
RTVSPropertyOp15
 70
     1
102
RTVSPropertyOp16
 70
     1
102
RTVSPropertyOp17
 70
     1
102
RTVSPropertyOp18
 70
     1
102
RTVSPropertyOp19
 70
     1
102
RTVSPropertyOp20
 70
     1
102
RTVSPropertyOp21
 70
     1
102
RTVSPropertyOp22
 70
     1
102
RTVSPropertyOp23
 70
     1
102
RTVSPropertyOp24
 70
     1
102
RTVSPropertyOp25
 70
     1
102
RTVSPropertyOp26
 70
     1
102
RTVSPropertyOp27
 70
     1
102
RTVSPropertyOp28
 70
     1
102
RTVSPropertyOp29
 70
     1
102
RTVSPropertyOp30
 70
     1
102
RTVSPropertyOp31
 70
     1
102
RTVSPropertyOp32
 70
     1
  0
XRECORD
  5
175F
102
{ACAD_REACTORS
330
175E
102
}
330
175E
100
AcDbXrecord
280
     1
102
RTVSPropertyOp0
 70
     1
102
RTVSPropertyOp1
 70
     1
102
RTVSPropertyOp2
 70
     1
102
RTVSPropertyOp3
 70
     1
102
RTVSPropertyOp4
 70
     1
102
RTVSPropertyOp5
 70
     1
102
RTVSPropertyOp6
 70
     1
102
RTVSPropertyOp7
 70
     1
102
RTVSPropertyOp8
 70
     1
102
RTVSPropertyOp9
 70
     1
102
RTVSPropertyOp10
 70
     1
102
RTVSPropertyOp11
 70
     1
102
RTVSPropertyOp12
 70
     1
102
RTVSPropertyOp13
 70
     1
102
RTVSPropertyOp14
 70
     1
102
RTVSPropertyOp15
 70
     1
102
RTVSPropertyOp16
 70
     1
102
RTVSPropertyOp17
 70
     1
102
RTVSPropertyOp18
 70
     1
102
RTVSPropertyOp19
 70
     1
102
RTVSPropertyOp20
 70
     1
102
RTVSPropertyOp21
 70
     1
102
RTVSPropertyOp22
 70
     1
102
RTVSPropertyOp23
 70
     1
102
RTVSPropertyOp24
 70
     1
102
RTVSPropertyOp25
 70
     1
102
RTVSPropertyOp26
 70
     1
102
RTVSPropertyOp27
 70
     1
102
RTVSPropertyOp28
 70
     1
102
RTVSPropertyOp29
 70
     1
102
RTVSPropertyOp30
 70
     1
102
RTVSPropertyOp31
 70
     1
102
RTVSPropertyOp32
 70
     1
  0
XRECORD
  5
1759
102
{ACAD_REACTORS
330
1758
102
}
330
1758
100
AcDbXrecord
280
     1
102
RTVSPropertyOp0
 70
     1
102
RTVSPropertyOp1
 70
     1
102
RTVSPropertyOp2
 70
     1
102
RTVSPropertyOp3
 70
     1
102
RTVSPropertyOp4
 70
     1
102
RTVSPropertyOp5
 70
     1
102
RTVSPropertyOp6
 70
     1
102
RTVSPropertyOp7
 70
     1
102
RTVSPropertyOp8
 70
     1
102
RTVSPropertyOp9
 70
     1
102
RTVSPropertyOp10
 70
     1
102
RTVSPropertyOp11
 70
     1
102
RTVSPropertyOp12
 70
     1
102
RTVSPropertyOp13
 70
     1
102
RTVSPropertyOp14
 70
     1
102
RTVSPropertyOp15
 70
     1
102
RTVSPropertyOp16
 70
     1
102
RTVSPropertyOp17
 70
     1
102
RTVSPropertyOp18
 70
     1
102
RTVSPropertyOp19
 70
     1
102
RTVSPropertyOp20
 70
     1
102
RTVSPropertyOp21
 70
     1
102
RTVSPropertyOp22
 70
     1
102
RTVSPropertyOp23
 70
     1
102
RTVSPropertyOp24
 70
     1
102
RTVSPropertyOp25
 70
     1
102
RTVSPropertyOp26
 70
     1
102
RTVSPropertyOp27
 70
     1
102
RTVSPropertyOp28
 70
     1
102
RTVSPropertyOp29
 70
     1
102
RTVSPropertyOp30
 70
     1
102
RTVSPropertyOp31
 70
     1
102
RTVSPropertyOp32
 70
     1
  0
XRECORD
  5
175B
102
{ACAD_REACTORS
330
175A
102
}
330
175A
100
AcDbXrecord
280
     1
102
RTVSPropertyOp0
 70
     1
102
RTVSPropertyOp1
 70
     1
102
RTVSPropertyOp2
 70
     1
102
RTVSPropertyOp3
 70
     1
102
RTVSPropertyOp4
 70
     1
102
RTVSPropertyOp5
 70
     1
102
RTVSPropertyOp6
 70
     1
102
RTVSPropertyOp7
 70
     1
102
RTVSPropertyOp8
 70
     1
102
RTVSPropertyOp9
 70
     1
102
RTVSPropertyOp10
 70
     1
102
RTVSPropertyOp11
 70
     1
102
RTVSPropertyOp12
 70
     1
102
RTVSPropertyOp13
 70
     1
102
RTVSPropertyOp14
 70
     1
102
RTVSPropertyOp15
 70
     1
102
RTVSPropertyOp16
 70
     1
102
RTVSPropertyOp17
 70
     1
102
RTVSPropertyOp18
 70
     1
102
RTVSPropertyOp19
 70
     1
102
RTVSPropertyOp20
 70
     1
102
RTVSPropertyOp21
 70
     1
102
RTVSPropertyOp22
 70
     1
102
RTVSPropertyOp23
 70
     1
102
RTVSPropertyOp24
 70
     1
102
RTVSPropertyOp25
 70
     1
102
RTVSPropertyOp26
 70
     1
102
RTVSPropertyOp27
 70
     1
102
RTVSPropertyOp28
 70
     1
102
RTVSPropertyOp29
 70
     1
102
RTVSPropertyOp30
 70
     1
102
RTVSPropertyOp31
 70
     1
102
RTVSPropertyOp32
 70
     1
  0
XRECORD
  5
173F
102
{ACAD_REACTORS
330
173E
102
}
330
173E
100
AcDbXrecord
280
     1
102
RTVSPropertyOp0
 70
     1
102
RTVSPropertyOp1
 70
     1
102
RTVSPropertyOp2
 70
     1
102
RTVSPropertyOp3
 70
     1
102
RTVSPropertyOp4
 70
     1
102
RTVSPropertyOp5
 70
     1
102
RTVSPropertyOp6
 70
     1
102
RTVSPropertyOp7
 70
     1
102
RTVSPropertyOp8
 70
     1
102
RTVSPropertyOp9
 70
     1
102
RTVSPropertyOp10
 70
     1
102
RTVSPropertyOp11
 70
     1
102
RTVSPropertyOp12
 70
     1
102
RTVSPropertyOp13
 70
     1
102
RTVSPropertyOp14
 70
     1
102
RTVSPropertyOp15
 70
     1
102
RTVSPropertyOp16
 70
     1
102
RTVSPropertyOp17
 70
     1
102
RTVSPropertyOp18
 70
     1
102
RTVSPropertyOp19
 70
     1
102
RTVSPropertyOp20
 70
     1
102
RTVSPropertyOp21
 70
     1
102
RTVSPropertyOp22
 70
     1
102
RTVSPropertyOp23
 70
     1
102
RTVSPropertyOp24
 70
     1
102
RTVSPropertyOp25
 70
     1
102
RTVSPropertyOp26
 70
     1
102
RTVSPropertyOp27
 70
     1
102
RTVSPropertyOp28
 70
     1
102
RTVSPropertyOp29
 70
     1
102
RTVSPropertyOp30
 70
     1
102
RTVSPropertyOp31
 70
     1
102
RTVSPropertyOp32
 70
     1
  0
XRECORD
  5
1755
102
{ACAD_REACTORS
330
1754
102
}
330
1754
100
AcDbXrecord
280
     1
102
RTVSPropertyOp0
 70
     1
102
RTVSPropertyOp1
 70
     1
102
RTVSPropertyOp2
 70
     1
102
RTVSPropertyOp3
 70
     1
102
RTVSPropertyOp4
 70
     1
102
RTVSPropertyOp5
 70
     1
102
RTVSPropertyOp6
 70
     1
102
RTVSPropertyOp7
 70
     1
102
RTVSPropertyOp8
 70
     1
102
RTVSPropertyOp9
 70
     1
102
RTVSPropertyOp10
 70
     1
102
RTVSPropertyOp11
 70
     1
102
RTVSPropertyOp12
 70
     1
102
RTVSPropertyOp13
 70
     1
102
RTVSPropertyOp14
 70
     1
102
RTVSPropertyOp15
 70
     1
102
RTVSPropertyOp16
 70
     1
102
RTVSPropertyOp17
 70
     1
102
RTVSPropertyOp18
 70
     1
102
RTVSPropertyOp19
 70
     1
102
RTVSPropertyOp20
 70
     1
102
RTVSPropertyOp21
 70
     1
102
RTVSPropertyOp22
 70
     1
102
RTVSPropertyOp23
 70
     1
102
RTVSPropertyOp24
 70
     1
102
RTVSPropertyOp25
 70
     1
102
RTVSPropertyOp26
 70
     1
102
RTVSPropertyOp27
 70
     1
102
RTVSPropertyOp28
 70
     1
102
RTVSPropertyOp29
 70
     1
102
RTVSPropertyOp30
 70
     1
102
RTVSPropertyOp31
 70
     1
102
RTVSPropertyOp32
 70
     1
  0
XRECORD
  5
175D
102
{ACAD_REACTORS
330
175C
102
}
330
175C
100
AcDbXrecord
280
     1
102
RTVSPropertyOp0
 70
     1
102
RTVSPropertyOp1
 70
     1
102
RTVSPropertyOp2
 70
     1
102
RTVSPropertyOp3
 70
     1
102
RTVSPropertyOp4
 70
     1
102
RTVSPropertyOp5
 70
     1
102
RTVSPropertyOp6
 70
     1
102
RTVSPropertyOp7
 70
     1
102
RTVSPropertyOp8
 70
     1
102
RTVSPropertyOp9
 70
     1
102
RTVSPropertyOp10
 70
     1
102
RTVSPropertyOp11
 70
     1
102
RTVSPropertyOp12
 70
     1
102
RTVSPropertyOp13
 70
     1
102
RTVSPropertyOp14
 70
     1
102
RTVSPropertyOp15
 70
     1
102
RTVSPropertyOp16
 70
     1
102
RTVSPropertyOp17
 70
     1
102
RTVSPropertyOp18
 70
     1
102
RTVSPropertyOp19
 70
     1
102
RTVSPropertyOp20
 70
     1
102
RTVSPropertyOp21
 70
     1
102
RTVSPropertyOp22
 70
     1
102
RTVSPropertyOp23
 70
     1
102
RTVSPropertyOp24
 70
     1
102
RTVSPropertyOp25
 70
     1
102
RTVSPropertyOp26
 70
     1
102
RTVSPropertyOp27
 70
     1
102
RTVSPropertyOp28
 70
     1
102
RTVSPropertyOp29
 70
     1
102
RTVSPropertyOp30
 70
     1
102
RTVSPropertyOp31
 70
     1
102
RTVSPropertyOp32
 70
     1
  0
ENDSEC
  0
EOF
