  0
SECTION
  2
HEADER
  9
$ACADVER
  1
AC1015
  9
$ACADMAINTVER
 70
    20
  9
$DWGCODEPAGE
  3
ANSI_1252
  9
$INSBASE
 10
0.0
 20
0.0
 30
0.0
  9
$EXTMIN
 10
-2.674551081225217
 20
-2.670185892900917
 30
-0.0000000116194983
  9
$EXTMAX
 10
27.71230716208629
 20
44.69208702793184
 30
0.0000000465872742
  9
$LIMMIN
 10
0.0
 20
0.0
  9
$LIMMAX
 10
420.0
 20
300.0
  9
$ORTHOMODE
 70
     0
  9
$REGENMODE
 70
     1
  9
$FILLMODE
 70
     1
  9
$QTEXTMODE
 70
     0
  9
$MIRRTEXT
 70
     0
  9
$LTSCALE
 40
10.0
  9
$ATTMODE
 70
     1
  9
$TEXTSIZE
 40
3.0
  9
$TRACEWID
 40
0.05
  9
$TEXTSTYLE
  7
ROMANS
  9
$CLAYER
  8
P-0000
  9
$CELTYPE
  6
CONTINUOUS
  9
$CECOLOR
 62
     7
  9
$CELTSCALE
 40
1.0
  9
$DISPSILH
 70
     0
  9
$DIMSCALE
 40
10.0
  9
$DIMASZ
 40
2.0
  9
$DIMEXO
 40
1.0
  9
$DIMDLI
 40
10.0
  9
$DIMRND
 40
0.0
  9
$DIMDLE
 40
0.0
  9
$DIMEXE
 40
1.5
  9
$DIMTP
 40
0.0
  9
$DIMTM
 40
0.0
  9
$DIMTXT
 40
2.0
  9
$DIMCEN
 40
2.0
  9
$DIMTSZ
 40
0.0
  9
$DIMTOL
 70
     0
  9
$DIMLIM
 70
     0
  9
$DIMTIH
 70
     0
  9
$DIMTOH
 70
     0
  9
$DIMSE1
 70
     0
  9
$DIMSE2
 70
     0
  9
$DIMTAD
 70
     1
  9
$DIMZIN
 70
     8
  9
$DIMBLK
  1

  9
$DIMASO
 70
     1
  9
$DIMSHO
 70
     1
  9
$DIMPOST
  1

  9
$DIMAPOST
  1

  9
$DIMALT
 70
     0
  9
$DIMALTD
 70
     2
  9
$DIMALTF
 40
25.4
  9
$DIMLFAC
 40
1.0
  9
$DIMTOFL
 70
     1
  9
$DIMTVP
 40
0.0
  9
$DIMTIX
 70
     0
  9
$DIMSOXD
 70
     0
  9
$DIMSAH
 70
     0
  9
$DIMBLK1
  1

  9
$DIMBLK2
  1

  9
$DIMSTYLE
  2
ACADTOP
  9
$DIMCLRD
 70
     2
  9
$DIMCLRE
 70
     2
  9
$DIMCLRT
 70
     1
  9
$DIMTFAC
 40
0.6
  9
$DIMGAP
 40
1.0
  9
$DIMJUST
 70
     0
  9
$DIMSD1
 70
     0
  9
$DIMSD2
 70
     0
  9
$DIMTOLJ
 70
     1
  9
$DIMTZIN
 70
     8
  9
$DIMALTZ
 70
     0
  9
$DIMALTTZ
 70
     0
  9
$DIMUPT
 70
     0
  9
$DIMDEC
 70
     2
  9
$DIMTDEC
 70
     2
  9
$DIMALTU
 70
     2
  9
$DIMALTTD
 70
     2
  9
$DIMTXSTY
  7
Stile_Quota
  9
$DIMAUNIT
 70
     0
  9
$DIMADEC
 70
     1
  9
$DIMALTRND
 40
0.0
  9
$DIMAZIN
 70
     2
  9
$DIMDSEP
 70
    46
  9
$DIMATFIT
 70
     0
  9
$DIMFRAC
 70
     0
  9
$DIMLDRBLK
  1

  9
$DIMLUNIT
 70
     2
  9
$DIMLWD
 70
    -2
  9
$DIMLWE
 70
    -2
  9
$DIMTMOVE
 70
     0
  9
$LUNITS
 70
     2
  9
$LUPREC
 70
     3
  9
$SKETCHINC
 40
0.1
  9
$FILLETRAD
 40
0.0
  9
$AUNITS
 70
     0
  9
$AUPREC
 70
     3
  9
$MENU
  1
.
  9
$ELEVATION
 40
0.0
  9
$PELEVATION
 40
0.0
  9
$THICKNESS
 40
0.0
  9
$LIMCHECK
 70
     0
  9
$CHAMFERA
 40
0.5
  9
$CHAMFERB
 40
0.5
  9
$CHAMFERC
 40
1.0
  9
$CHAMFERD
 40
0.0
  9
$SKPOLY
 70
     1
  9
$TDCREATE
 40
2455048.621608252
  9
$TDUCREATE
 40
2455048.579941586
  9
$TDUPDATE
 40
2455646.478843635
  9
$TDUUPDATE
 40
2455646.437176968
  9
$TDINDWG
 40
0.1756983912
  9
$TDUSRTIMER
 40
0.1756982060
  9
$USRTIMER
 70
     1
  9
$ANGBASE
 50
0.0
  9
$ANGDIR
 70
     0
  9
$PDMODE
 70
     0
  9
$PDSIZE
 40
0.0
  9
$PLINEWID
 40
0.0
  9
$SPLFRAME
 70
     0
  9
$SPLINETYPE
 70
     6
  9
$SPLINESEGS
 70
     8
  9
$HANDSEED
  5
17D9
  9
$SURFTAB1
 70
     6
  9
$SURFTAB2
 70
     6
  9
$SURFTYPE
 70
     6
  9
$SURFU
 70
     6
  9
$SURFV
 70
     6
  9
$UCSBASE
  2

  9
$UCSNAME
  2

  9
$UCSORG
 10
0.0
 20
0.0
 30
0.0
  9
$UCSXDIR
 10
1.0
 20
0.0
 30
0.0
  9
$UCSYDIR
 10
0.0
 20
1.0
 30
0.0
  9
$UCSORTHOREF
  2

  9
$UCSORTHOVIEW
 70
     0
  9
$UCSORGTOP
 10
0.0
 20
0.0
 30
0.0
  9
$UCSORGBOTTOM
 10
0.0
 20
0.0
 30
0.0
  9
$UCSORGLEFT
 10
0.0
 20
0.0
 30
0.0
  9
$UCSORGRIGHT
 10
0.0
 20
0.0
 30
0.0
  9
$UCSORGFRONT
 10
0.0
 20
0.0
 30
0.0
  9
$UCSORGBACK
 10
0.0
 20
0.0
 30
0.0
  9
$PUCSBASE
  2

  9
$PUCSNAME
  2

  9
$PUCSORG
 10
0.0
 20
0.0
 30
0.0
  9
$PUCSXDIR
 10
1.0
 20
0.0
 30
0.0
  9
$PUCSYDIR
 10
0.0
 20
1.0
 30
0.0
  9
$PUCSORTHOREF
  2

  9
$PUCSORTHOVIEW
 70
     0
  9
$PUCSORGTOP
 10
0.0
 20
0.0
 30
0.0
  9
$PUCSORGBOTTOM
 10
0.0
 20
0.0
 30
0.0
  9
$PUCSORGLEFT
 10
0.0
 20
0.0
 30
0.0
  9
$PUCSORGRIGHT
 10
0.0
 20
0.0
 30
0.0
  9
$PUCSORGFRONT
 10
0.0
 20
0.0
 30
0.0
  9
$PUCSORGBACK
 10
0.0
 20
0.0
 30
0.0
  9
$USERI1
 70
     0
  9
$USERI2
 70
     0
  9
$USERI3
 70
     0
  9
$USERI4
 70
     0
  9
$USERI5
 70
     0
  9
$USERR1
 40
0.0
  9
$USERR2
 40
0.0
  9
$USERR3
 40
0.0
  9
$USERR4
 40
0.0
  9
$USERR5
 40
0.0
  9
$WORLDVIEW
 70
     1
  9
$SHADEDGE
 70
     3
  9
$SHADEDIF
 70
    70
  9
$TILEMODE
 70
     1
  9
$MAXACTVP
 70
    48
  9
$PINSBASE
 10
0.0
 20
0.0
 30
0.0
  9
$PLIMCHECK
 70
     0
  9
$PEXTMIN
 10
1.000000000000000E+20
 20
1.000000000000000E+20
 30
1.000000000000000E+20
  9
$PEXTMAX
 10
-1.000000000000000E+20
 20
-1.000000000000000E+20
 30
-1.000000000000000E+20
  9
$PLIMMIN
 10
0.0
 20
0.0
  9
$PLIMMAX
 10
12.0
 20
9.0
  9
$UNITMODE
 70
     0
  9
$VISRETAIN
 70
     1
  9
$PLINEGEN
 70
     0
  9
$PSLTSCALE
 70
     0
  9
$TREEDEPTH
 70
  3020
  9
$CMLSTYLE
  2
STANDARD
  9
$CMLJUST
 70
     0
  9
$CMLSCALE
 40
1.0
  9
$PROXYGRAPHICS
 70
     1
  9
$MEASUREMENT
 70
     1
  9
$CELWEIGHT
370
    -1
  9
$ENDCAPS
280
     0
  9
$JOINSTYLE
280
     0
  9
$LWDISPLAY
290
     0
  9
$INSUNITS
 70
     0
  9
$HYPERLINKBASE
  1

  9
$STYLESHEET
  1

  9
$XEDIT
290
     1
  9
$CEPSNTYPE
380
     0
  9
$PSTYLEMODE
290
     1
  9
$FINGERPRINTGUID
  2
{CABBECB8-5FF5-41F1-A5D9-0CDA9E9A19FF}
  9
$VERSIONGUID
  2
{35AFCD3F-7FCF-475F-9193-CC7014ECF9E1}
  9
$EXTNAMES
290
     1
  9
$PSVPSCALE
 40
0.0
  9
$OLESTARTUP
290
     0
  0
ENDSEC
  0
SECTION
  2
CLASSES
  0
CLASS
  1
DICTIONARYVAR
  2
AcDbDictionaryVar
  3
ObjectDBX Classes
 90
        0
280
     0
281
     0
  0
CLASS
  1
ACDBDICTIONARYWDFLT
  2
AcDbDictionaryWithDefault
  3
ObjectDBX Classes
 90
        0
280
     0
281
     0
  0
CLASS
  1
ACDBPLACEHOLDER
  2
AcDbPlaceHolder
  3
ObjectDBX Classes
 90
        0
280
     0
281
     0
  0
CLASS
  1
LAYOUT
  2
AcDbLayout
  3
ObjectDBX Classes
 90
        0
280
     0
281
     0
  0
CLASS
  1
PLOTSETTINGS
  2
AcDbPlotSettings
  3
ObjectDBX Classes
 90
        0
280
     0
281
     0
  0
CLASS
  1
MATERIAL
  2
AcDbMaterial
  3
ObjectDBX Classes
 90
     1153
280
     0
281
     0
  0
CLASS
  1
VISUALSTYLE
  2
AcDbVisualStyle
  3
ObjectDBX Classes
 90
     4095
280
     0
281
     0
  0
CLASS
  1
TABLESTYLE
  2
AcDbTableStyle
  3
ObjectDBX Classes
 90
     4095
280
     0
281
     0
  0
CLASS
  1
SCALE
  2
AcDbScale
  3
ObjectDBX Classes
 90
     1153
280
     0
281
     0
  0
CLASS
  1
MLEADERSTYLE
  2
AcDbMLeaderStyle
  3
ACDB_MLEADERSTYLE_CLASS
 90
     4095
280
     0
281
     0
  0
CLASS
  1
CELLSTYLEMAP
  2
AcDbCellStyleMap
  3
ObjectDBX Classes
 90
     1152
280
     0
281
     0
  0
CLASS
  1
DIMASSOC
  2
AcDbDimAssoc
  3
"AcDbDimAssoc|Product Desc:     AcDim ARX App For Dimension|Company:          Autodesk, Inc.|WEB Address:      www.autodesk.com"
 90
        0
280
     0
281
     0
  0
CLASS
  1
ACDBQSCATEGORY
  2
AcQsCategory
  3
categories
 90
     1024
280
     0
281
     0
  0
CLASS
  1
ACDBQSPALLSTYLE
  2
AcQsPallStyle
  3
pallcart
 90
     1024
280
     0
281
     0
  0
CLASS
  1
AEC_REFEDIT_STATUS_TRACKER
  2
AecDbRefEditStatusTracker
  3
AecArchBase60|Product Desc: Autodesk Architectural Desktop 2007 |Company: Autodesk,Inc. |WEB Address: www.autodesk.com
 90
    32897
280
     0
281
     0
  0
CLASS
  1
NPOCOLLECTION
  2
AcDbImpNonPersistentObjectsCollection
  3
ObjectDBX Classes
 90
    33921
280
     0
281
     0
  0
CLASS
  1
SORTENTSTABLE
  2
AcDbSortentsTable
  3
ObjectDBX Classes
 90
        0
280
     0
281
     0
  0
ENDSEC
  0
SECTION
  2
TABLES
  0
TABLE
  2
VPORT
  5
12
102
{ACAD_XDICTIONARY
360
300
102
}
330
0
100
AcDbSymbolTable
 70
     1
  0
VPORT
  5
2AE
330
12
100
AcDbSymbolTableRecord
100
AcDbViewportTableRecord
  2
*Active
 70
     0
 10
0.0
 20
0.0
 11
1.0
 21
1.0
 12
12.51887804043053
 22
21.01095056751546
 13
0.0
 23
0.0
 14
1.0
 24
1.0
 15
1.0
 25
1.0
 16
0.0
 26
0.0
 36
1.0
 17
0.0
 27
0.0
 37
0.0
 40
47.71009867055735
 41
2.251225490196078
 42
50.0
 43
0.0
 44
0.0
 50
0.0
 51
0.0
 71
     0
 72
   100
 73
     1
 74
     0
 75
     0
 76
     0
 77
     0
 78
     0
281
     0
 65
     1
110
0.0
120
0.0
130
0.0
111
1.0
121
0.0
131
0.0
112
0.0
122
1.0
132
0.0
 79
     0
146
0.0
  0
ENDTAB
  0
TABLE
  2
LTYPE
  5
D
330
0
100
AcDbSymbolTable
 70
     7
  0
LTYPE
  5
E
330
D
100
AcDbSymbolTableRecord
100
AcDbLinetypeTableRecord
  2
BYBLOCK
 70
     0
  3

 72
    65
 73
     0
 40
0.0
  0
LTYPE
  5
F
330
D
100
AcDbSymbolTableRecord
100
AcDbLinetypeTableRecord
  2
BYLAYER
 70
     0
  3

 72
    65
 73
     0
 40
0.0
  0
LTYPE
  5
5
330
D
100
AcDbSymbolTableRecord
100
AcDbLinetypeTableRecord
  2
CONTINUOUS
 70
     0
  3
Solid line
 72
    65
 73
     0
 40
0.0
  0
LTYPE
  5
9F6
330
D
100
AcDbSymbolTableRecord
100
AcDbLinetypeTableRecord
  2
DASHDOT2
 70
     0
  3
_._._._._._._._._._._._._._._._._._._._._._._._
 72
    65
 73
     4
 40
0.5
 49
0.25
 74
     0
 49
-0.125
 74
     0
 49
0.0
 74
     0
 49
-0.125
 74
     0
  0
LTYPE
  5
9F7
330
D
100
AcDbSymbolTableRecord
100
AcDbLinetypeTableRecord
  2
ASSI
 70
     0
  3
-.-.-.-.-.-.-.-.-.-.-.-.-.-.-.-.-.-.-.-.-.-.-.-
 72
    65
 73
     4
 40
16.0
 49
10.0
 74
     0
 49
-2.0
 74
     0
 49
2.0
 74
     0
 49
-2.0
 74
     0
  0
LTYPE
  5
9F8
330
D
100
AcDbSymbolTableRecord
100
AcDbLinetypeTableRecord
  2
INGOMBRI
 70
     0
  3
--..--..--..--..--..--..--..--..--..--..--..--
 72
    65
 73
     6
 40
20.0
 49
10.0
 74
     0
 49
-2.0
 74
     0
 49
2.0
 74
     0
 49
-2.0
 74
     0
 49
2.0
 74
     0
 49
-2.0
 74
     0
  0
LTYPE
  5
9F9
330
D
100
AcDbSymbolTableRecord
100
AcDbLinetypeTableRecord
  2
TRATTEGGIO
 70
     0
  3
- - - - - - - - - - - - - - - - - - - - - -
 72
    65
 73
     2
 40
5.5
 49
4.0
 74
     0
 49
-1.5
 74
     0
  0
LTYPE
  5
9FA
330
D
100
AcDbSymbolTableRecord
100
AcDbLinetypeTableRecord
  2
PUNTO
 70
     0
  3
Punto . . . . . . . . . . . . . . . . . . . . .
 72
    65
 73
     2
 40
6.349999999999999
 49
0.0
 74
     0
 49
-6.349999999999999
 74
     0
  0
LTYPE
  5
1378
330
D
100
AcDbSymbolTableRecord
100
AcDbLinetypeTableRecord
  2
DASHDOTX2
 70
     0
  3
____  .  ____  .  ____  .  ____  .  ____  .  __
 72
    65
 73
     4
 40
2.0
 49
1.0
 74
     0
 49
-0.5
 74
     0
 49
0.0
 74
     0
 49
-0.5
 74
     0
  0
ENDTAB
  0
TABLE
  2
LAYER
  5
A
102
{ACAD_XDICTIONARY
360
A09
102
}
330
0
100
AcDbSymbolTable
 70
    11
  0
LAYER
  5
4
102
{ACAD_XDICTIONARY
360
37B
102
}
330
A
100
AcDbSymbolTableRecord
100
AcDbLayerTableRecord
  2
0
 70
     0
 62
     7
  6
CONTINUOUS
370
    -3
390
44
  0
LAYER
  5
118
330
A
100
AcDbSymbolTableRecord
100
AcDbLayerTableRecord
  2
Defpoints
 70
     0
 62
     7
  6
CONTINUOUS
290
     0
370
    -3
390
44
  0
LAYER
  5
6DB
102
{ACAD_XDICTIONARY
360
1384
102
}
330
A
100
AcDbSymbolTableRecord
100
AcDbLayerTableRecord
  2
P-0000
 70
     0
 62
     7
  6
CONTINUOUS
370
    -3
390
44
1001
AcAecLayerStandard
1000

1000
PROFIL.Q30-PANN.ASPORT./ARG.
  0
LAYER
  5
9F4
102
{ACAD_XDICTIONARY
360
1386
102
}
330
A
100
AcDbSymbolTableRecord
100
AcDbLayerTableRecord
  2
P-1437
 70
     0
 62
     7
  6
CONTINUOUS
370
    -3
390
44
1001
AcAecLayerStandard
1000

1000
.cart
  0
LAYER
  5
B90
102
{ACAD_XDICTIONARY
360
1388
102
}
330
A
100
AcDbSymbolTableRecord
100
AcDbLayerTableRecord
  2
P-4FAA
 70
     0
 62
     7
  6
CONTINUOUS
370
    -3
390
44
1001
AcAecLayerStandard
1000

1000
.1
  0
LAYER
  5
11EE
102
{ACAD_XDICTIONARY
360
11EF
102
}
330
A
100
AcDbSymbolTableRecord
100
AcDbLayerTableRecord
  2
P-6B6E
 70
     0
 62
     7
  6
CONTINUOUS
370
    -3
390
44
1001
AcAecLayerStandard
1000

1000
.1
  0
LAYER
  5
1379
102
{ACAD_XDICTIONARY
360
138B
102
}
330
A
100
AcDbSymbolTableRecord
100
AcDbLayerTableRecord
  2
2
 70
     0
 62
     2
  6
CONTINUOUS
370
    -3
390
44
  0
LAYER
  5
137A
102
{ACAD_XDICTIONARY
360
138D
102
}
330
A
100
AcDbSymbolTableRecord
100
AcDbLayerTableRecord
  2
SOTTILI
 70
     0
 62
     3
  6
CONTINUOUS
370
    -3
390
44
  0
LAYER
  5
13F1
330
A
100
AcDbSymbolTableRecord
100
AcDbLayerTableRecord
  2
P-536E
 70
     0
 62
     7
  6
CONTINUOUS
370
    -3
390
44
1001
AcAecLayerStandard
1000

1000
PROF.Q30 PANN.ASP. ALL.ANOD.ARG.
  0
LAYER
  5
157B
330
A
100
AcDbSymbolTableRecord
100
AcDbLayerTableRecord
  2
P-42A1
 70
     0
 62
     7
  6
CONTINUOUS
370
    -3
390
44
1001
AcAecLayerStandard
1000

1000
ROND.RAGG.(XVTC CR.) M5 /R.7039
  0
LAYER
  5
157D
330
A
100
AcDbSymbolTableRecord
100
AcDbLayerTableRecord
  2
P-386F
 70
     0
 62
     7
  6
CONTINUOUS
370
    -3
390
44
1001
AcAecLayerStandard
1000

1000
INSERTO FIL.M 5 TFL/ZIGRINATO
  0
ENDTAB
  0
TABLE
  2
STYLE
  5
B
330
0
100
AcDbSymbolTable
 70
    10
  0
STYLE
  5
C
330
B
100
AcDbSymbolTableRecord
100
AcDbTextStyleTableRecord
  2
STANDARD
 70
     0
 40
0.0
 41
0.8
 50
0.0
 71
     0
 42
0.2
  3
romans.shx
  4

  0
STYLE
  5
1B
330
B
100
AcDbSymbolTableRecord
100
AcDbTextStyleTableRecord
  2
ROMANS
 70
     0
 40
0.0
 41
0.8
 50
0.0
 71
     0
 42
3.0
  3
ROMANS.shx
  4

  0
STYLE
  5
35C
330
B
100
AcDbSymbolTableRecord
100
AcDbTextStyleTableRecord
  2
Stile_Quota
 70
     0
 40
0.0
 41
1.0
 50
0.0
 71
     0
 42
3.0
  3
BOD_I.TTF
  4

1001
ACAD
1000
Bodoni MT
1071
 16777234
  0
STYLE
  5
9FB
330
B
100
AcDbSymbolTableRecord
100
AcDbTextStyleTableRecord
  2
STYLE1
 70
     0
 40
0.0
 41
1.0
 50
0.0
 71
     0
 42
3.0
  3
eurr____.ttf
  4

1001
ACAD
1000
EuroRoman
1071
      514
  0
STYLE
  5
9FC
330
B
100
AcDbSymbolTableRecord
100
AcDbTextStyleTableRecord
  2
arial_ttf
 70
     0
 40
0.0
 41
1.0
 50
0.0
 71
     0
 42
0.2
  3
ARIAL.TTF
  4

1001
ACAD
1000
Arial
1071
        2
  0
STYLE
  5
9FD
330
B
100
AcDbSymbolTableRecord
100
AcDbTextStyleTableRecord
  2
seansi_ttf
 70
     0
 40
0.0
 41
1.0
 50
0.0
 71
     0
 42
0.2
  3
seansi.ttf
  4

  0
STYLE
  5
9FE
330
B
100
AcDbSymbolTableRecord
100
AcDbTextStyleTableRecord
  2
Stile_Cart
 70
     0
 40
0.0
 41
1.0
 50
0.0
 71
     0
 42
1.5
  3
TIMES.TTF
  4

1001
ACAD
1000
Times New Roman
1071
       18
  0
STYLE
  5
9FF
330
B
100
AcDbSymbolTableRecord
100
AcDbTextStyleTableRecord
  2

 70
     1
 40
0.0
 41
1.0
 50
0.0
 71
     0
 42
0.2
  3
ltypeshp.shx
  4

  0
STYLE
  5
A00
330
B
100
AcDbSymbolTableRecord
100
AcDbTextStyleTableRecord
  2
Stile_Quota_FISSO
 70
     0
 40
20.0
 41
1.0
 50
0.0
 71
     0
 42
3.0
  3
BOD_I.TTF
  4

1001
ACAD
1000
Bodoni MT
1071
 16777234
  0
STYLE
  5
12AE
330
B
100
AcDbSymbolTableRecord
100
AcDbTextStyleTableRecord
  2
SIMPLEX
 70
     0
 40
0.0
 41
1.0
 50
0.0
 71
     0
 42
0.2
  3
SIMPLEX.shx
  4

  0
ENDTAB
  0
TABLE
  2
VIEW
  5
10
330
0
100
AcDbSymbolTable
 70
     0
  0
ENDTAB
  0
TABLE
  2
UCS
  5
11
330
0
100
AcDbSymbolTable
 70
     0
  0
ENDTAB
  0
TABLE
  2
APPID
  5
14
330
0
100
AcDbSymbolTable
 70
    14
  0
APPID
  5
15
330
14
100
AcDbSymbolTableRecord
100
AcDbRegAppTableRecord
  2
ACAD
 70
     0
  0
APPID
  5
53
330
14
100
AcDbSymbolTableRecord
100
AcDbRegAppTableRecord
  2
TOP
 70
     0
  0
APPID
  5
356
330
14
100
AcDbSymbolTableRecord
100
AcDbRegAppTableRecord
  2
ACAD_MLEADERVER
 70
     0
  0
APPID
  5
35A
330
14
100
AcDbSymbolTableRecord
100
AcDbRegAppTableRecord
  2
ACAD_DSTYLE_DIMJAG
 70
     0
  0
APPID
  5
35B
330
14
100
AcDbSymbolTableRecord
100
AcDbRegAppTableRecord
  2
ACAD_DSTYLE_DIMTALN
 70
     0
  0
APPID
  5
35D
330
14
100
AcDbSymbolTableRecord
100
AcDbRegAppTableRecord
  2
AcadAnnoPO
 70
     0
  0
APPID
  5
374
330
14
100
AcDbSymbolTableRecord
100
AcDbRegAppTableRecord
  2
ACAD_EXEMPT_FROM_CAD_STANDARDS
 70
     0
  0
APPID
  5
38F
330
14
100
AcDbSymbolTableRecord
100
AcDbRegAppTableRecord
  2
ACAD_PSEXT
 70
     0
  0
APPID
  5
3BC
330
14
100
AcDbSymbolTableRecord
100
AcDbRegAppTableRecord
  2
ACAD_DSTYLE_DIMBREAK
 70
     0
  0
APPID
  5
6DC
330
14
100
AcDbSymbolTableRecord
100
AcDbRegAppTableRecord
  2
AcAecLayerStandard
 70
     0
  0
APPID
  5
B43
330
14
100
AcDbSymbolTableRecord
100
AcDbRegAppTableRecord
  2
Bound
 70
     0
  0
APPID
  5
B46
330
14
100
AcDbSymbolTableRecord
100
AcDbRegAppTableRecord
  2
OrigLayer
 70
     0
  0
APPID
  5
FDA
330
14
100
AcDbSymbolTableRecord
100
AcDbRegAppTableRecord
  2
ACAD_DSTYLE_DIMRADIAL_EXTENSION
 70
     0
  0
APPID
  5
17B8
330
14
100
AcDbSymbolTableRecord
100
AcDbRegAppTableRecord
  2
ACAD_DSTYLE_DIMJOGGED_JOGANGLE_SYMBOL
 70
     0
  0
ENDTAB
  0
TABLE
  2
DIMSTYLE
  5
16
330
0
100
AcDbSymbolTable
 70
     9
100
AcDbDimStyleTable
 71
     5
340
1D
340
B9E
340
A04
340
A03
340
A02
  0
DIMSTYLE
105
1D
330
16
100
AcDbSymbolTableRecord
100
AcDbDimStyleTableRecord
  2
ACADTOP
 70
     0
 40
10.0
 41
2.0
 42
1.0
 43
10.0
 44
1.5
 73
     0
 74
     0
 77
     1
 78
     8
 79
     2
140
2.0
141
2.0
146
0.6
147
1.0
172
     1
176
     2
177
     2
178
     1
179
     1
271
     2
272
     2
284
     8
289
     0
340
35C
1001
ACAD_DSTYLE_DIMJAG
1070
   388
1040
1.5
1001
ACAD_DSTYLE_DIMTALN
1070
   392
1070
     0
  0
DIMSTYLE
105
A01
330
16
100
AcDbSymbolTableRecord
100
AcDbDimStyleTableRecord
  2
STANDARD
 70
     0
340
C
  0
DIMSTYLE
105
A02
330
16
100
AcDbSymbolTableRecord
100
AcDbDimStyleTableRecord
  2
DIERRE_LUNG-ALT
 70
     0
 41
3.0
 42
1.0
 43
10.0
 44
1.5
 73
     0
 74
     0
 75
     1
 76
     1
 78
     8
 79
     2
140
20.0
141
2.0
146
0.6
147
1.0
172
     1
176
     3
177
     3
178
    30
179
     1
271
     1
272
     1
281
     1
282
     1
284
     8
340
A00
1001
ACAD_DSTYLE_DIMBREAK
1070
   391
1040
3.75
1001
ACAD_DSTYLE_DIMJAG
1070
   388
1040
1.5
1001
ACAD_DSTYLE_DIMTALN
1070
   392
1070
     0
  0
DIMSTYLE
105
A03
330
16
100
AcDbSymbolTableRecord
100
AcDbDimStyleTableRecord
  2
DIERRE_LARG
 70
     0
 41
3.0
 42
1.0
 43
10.0
 44
1.5
 73
     0
 74
     0
 75
     1
 76
     1
 78
     8
 79
     2
140
20.0
141
2.0
146
0.6
147
1.0
172
     1
176
     4
177
     4
178
     4
179
     1
271
     1
272
     1
281
     1
282
     1
284
     8
340
A00
1001
ACAD_DSTYLE_DIMBREAK
1070
   391
1040
3.75
1001
ACAD_DSTYLE_DIMJAG
1070
   388
1040
1.5
1001
ACAD_DSTYLE_DIMTALN
1070
   392
1070
     0
  0
DIMSTYLE
105
A04
330
16
100
AcDbSymbolTableRecord
100
AcDbDimStyleTableRecord
  2
ISO-25
 70
     0
 41
2.5
 42
0.625
 43
3.75
 44
1.25
 73
     0
 74
     0
 77
     1
 78
     8
140
2.5
141
2.5
143
0.03937007874016
147
0.625
171
     3
172
     1
271
     2
272
     2
274
     3
278
    44
283
     0
284
     8
340
C
1001
ACAD_DSTYLE_DIMJOGGED_JOGANGLE_SYMBOL
1070
   384
1040
1.570796326794896
  0
DIMSTYLE
105
B9E
330
16
100
AcDbSymbolTableRecord
100
AcDbDimStyleTableRecord
  2
ACADTOP10_0_0_10
 70
     0
 40
10.0
 41
2.0
 42
1.0
 43
10.0
 44
1.5
 73
     0
 74
     0
 77
     1
 78
     8
 79
     2
140
2.0
141
2.0
144
0.1
146
0.6
147
1.0
172
     1
176
     2
177
     2
178
     1
179
     1
271
     2
272
     2
284
     8
289
     0
340
35C
  0
DIMSTYLE
105
11F0
330
16
100
AcDbSymbolTableRecord
100
AcDbDimStyleTableRecord
  2
MAURO
 70
     0
 40
10.0
 41
20.0
 42
20.0
 73
     0
 74
     0
 77
     1
140
10.0
147
2.2
172
     1
271
     1
272
     1
279
     2
340
1B
  0
DIMSTYLE
105
137B
330
16
100
AcDbSymbolTableRecord
100
AcDbDimStyleTableRecord
  2
MECC
 70
     0
 41
25.0
 42
30.0
 44
5.0
 73
     0
 74
     0
 77
     1
 78
     8
140
25.0
146
0.0072
147
8.0
172
     1
271
     2
272
     2
279
     2
284
     8
285
     8
286
     8
340
12AE
  0
DIMSTYLE
105
137C
330
16
100
AcDbSymbolTableRecord
100
AcDbDimStyleTableRecord
  2
ETICHETTE
 70
     0
 41
25.0
 42
30.0
 44
5.0
 73
     0
 74
     0
 75
     1
 76
     1
 77
     1
 78
     8
140
17.0
146
0.0072
147
6.5
172
     1
173
     1
271
     2
272
     2
281
     1
282
     1
284
     8
285
     8
286
     8
340
12AE
341
135C
343
135C
344
135C
  0
ENDTAB
  0
TABLE
  2
BLOCK_RECORD
  5
1
330
0
100
AcDbSymbolTable
 70
    44
  0
BLOCK_RECORD
  5
2
330
1
100
AcDbSymbolTableRecord
100
AcDbBlockTableRecord
  2
*MODEL_SPACE
340
47
  0
BLOCK_RECORD
  5
7
330
1
100
AcDbSymbolTableRecord
100
AcDbBlockTableRecord
  2
*PAPER_SPACE
340
48
  0
BLOCK_RECORD
  5
A0B
102
{ACAD_XDICTIONARY
360
B24
102
}
330
1
100
AcDbSymbolTableRecord
100
AcDbBlockTableRecord
  2
TAB-A4
340
0
  0
BLOCK_RECORD
  5
BA0
330
1
100
AcDbSymbolTableRecord
100
AcDbBlockTableRecord
  2
*D1
340
0
  0
BLOCK_RECORD
  5
BB8
330
1
100
AcDbSymbolTableRecord
100
AcDbBlockTableRecord
  2
*D2
340
0
  0
BLOCK_RECORD
  5
BD4
330
1
100
AcDbSymbolTableRecord
100
AcDbBlockTableRecord
  2
*D3
340
0
  0
BLOCK_RECORD
  5
C06
330
1
100
AcDbSymbolTableRecord
100
AcDbBlockTableRecord
  2
*D4
340
0
  0
BLOCK_RECORD
  5
C1E
330
1
100
AcDbSymbolTableRecord
100
AcDbBlockTableRecord
  2
*D5
340
0
  0
BLOCK_RECORD
  5
C3A
330
1
100
AcDbSymbolTableRecord
100
AcDbBlockTableRecord
  2
*D6
340
0
  0
BLOCK_RECORD
  5
C56
330
1
100
AcDbSymbolTableRecord
100
AcDbBlockTableRecord
  2
*D7
340
0
  0
BLOCK_RECORD
  5
C72
330
1
100
AcDbSymbolTableRecord
100
AcDbBlockTableRecord
  2
*D8
340
0
  0
BLOCK_RECORD
  5
CA4
330
1
100
AcDbSymbolTableRecord
100
AcDbBlockTableRecord
  2
*D9
340
0
  0
BLOCK_RECORD
  5
CD6
330
1
100
AcDbSymbolTableRecord
100
AcDbBlockTableRecord
  2
*D10
340
0
  0
BLOCK_RECORD
  5
CEE
330
1
100
AcDbSymbolTableRecord
100
AcDbBlockTableRecord
  2
*D11
340
0
  0
BLOCK_RECORD
  5
D06
330
1
100
AcDbSymbolTableRecord
100
AcDbBlockTableRecord
  2
*D12
340
0
  0
BLOCK_RECORD
  5
D30
330
1
100
AcDbSymbolTableRecord
100
AcDbBlockTableRecord
  2
*D13
340
0
  0
BLOCK_RECORD
  5
D51
330
1
100
AcDbSymbolTableRecord
100
AcDbBlockTableRecord
  2
*D14
340
0
  0
BLOCK_RECORD
  5
D6D
330
1
100
AcDbSymbolTableRecord
100
AcDbBlockTableRecord
  2
*D15
340
0
  0
BLOCK_RECORD
  5
D85
330
1
100
AcDbSymbolTableRecord
100
AcDbBlockTableRecord
  2
*D16
340
0
  0
BLOCK_RECORD
  5
D9D
330
1
100
AcDbSymbolTableRecord
100
AcDbBlockTableRecord
  2
*D17
340
0
  0
BLOCK_RECORD
  5
DDA
330
1
100
AcDbSymbolTableRecord
100
AcDbBlockTableRecord
  2
*D18
340
0
  0
BLOCK_RECORD
  5
DF2
330
1
100
AcDbSymbolTableRecord
100
AcDbBlockTableRecord
  2
*D19
340
0
  0
BLOCK_RECORD
  5
E0A
330
1
100
AcDbSymbolTableRecord
100
AcDbBlockTableRecord
  2
*D20
340
0
  0
BLOCK_RECORD
  5
E2F
330
1
100
AcDbSymbolTableRecord
100
AcDbBlockTableRecord
  2
*D21
340
0
  0
BLOCK_RECORD
  5
E4B
330
1
100
AcDbSymbolTableRecord
100
AcDbBlockTableRecord
  2
*D22
340
0
  0
BLOCK_RECORD
  5
E67
330
1
100
AcDbSymbolTableRecord
100
AcDbBlockTableRecord
  2
*D23
340
0
  0
BLOCK_RECORD
  5
E99
330
1
100
AcDbSymbolTableRecord
100
AcDbBlockTableRecord
  2
*D24
340
0
  0
BLOCK_RECORD
  5
EB1
330
1
100
AcDbSymbolTableRecord
100
AcDbBlockTableRecord
  2
*D25
340
0
  0
BLOCK_RECORD
  5
F13
330
1
100
AcDbSymbolTableRecord
100
AcDbBlockTableRecord
  2
*D26
340
0
  0
BLOCK_RECORD
  5
F24
330
1
100
AcDbSymbolTableRecord
100
AcDbBlockTableRecord
  2
*D27
340
0
  0
BLOCK_RECORD
  5
F33
330
1
100
AcDbSymbolTableRecord
100
AcDbBlockTableRecord
  2
*D28
340
0
  0
BLOCK_RECORD
  5
FDC
330
1
100
AcDbSymbolTableRecord
100
AcDbBlockTableRecord
  2
*D29
340
0
  0
BLOCK_RECORD
  5
FEE
330
1
100
AcDbSymbolTableRecord
100
AcDbBlockTableRecord
  2
*D30
340
0
  0
BLOCK_RECORD
  5
1000
330
1
100
AcDbSymbolTableRecord
100
AcDbBlockTableRecord
  2
*D31
340
0
  0
BLOCK_RECORD
  5
1010
330
1
100
AcDbSymbolTableRecord
100
AcDbBlockTableRecord
  2
*D32
340
0
  0
BLOCK_RECORD
  5
1068
330
1
100
AcDbSymbolTableRecord
100
AcDbBlockTableRecord
  2
*D33
340
0
  0
BLOCK_RECORD
  5
1084
330
1
100
AcDbSymbolTableRecord
100
AcDbBlockTableRecord
  2
*D34
340
0
  0
BLOCK_RECORD
  5
10F1
330
1
100
AcDbSymbolTableRecord
100
AcDbBlockTableRecord
  2
*D35
340
0
  0
BLOCK_RECORD
  5
1112
330
1
100
AcDbSymbolTableRecord
100
AcDbBlockTableRecord
  2
*D36
340
0
  0
BLOCK_RECORD
  5
11B9
330
1
100
AcDbSymbolTableRecord
100
AcDbBlockTableRecord
  2
*D37
340
0
  0
BLOCK_RECORD
  5
11CB
330
1
100
AcDbSymbolTableRecord
100
AcDbBlockTableRecord
  2
*D38
340
0
  0
BLOCK_RECORD
  5
135C
330
1
100
AcDbSymbolTableRecord
100
AcDbBlockTableRecord
  2
_NONE
340
0
  0
BLOCK_RECORD
  5
1360
330
1
100
AcDbSymbolTableRecord
100
AcDbBlockTableRecord
  2
A$C002022D9
340
0
  0
BLOCK_RECORD
  5
16AA
330
1
100
AcDbSymbolTableRecord
100
AcDbBlockTableRecord
  2
*D42
340
0
  0
BLOCK_RECORD
  5
16FE
330
1
100
AcDbSymbolTableRecord
100
AcDbBlockTableRecord
  2
*D43
340
0
  0
ENDTAB
  0
ENDSEC
  0
SECTION
  2
BLOCKS
  0
BLOCK
  5
3
330
2
100
AcDbEntity
  8
0
100
AcDbBlockBegin
  2
*MODEL_SPACE
 70
     0
 10
0.0
 20
0.0
 30
0.0
  3
*MODEL_SPACE
  1

  0
ENDBLK
  5
6
330
2
100
AcDbEntity
  8
0
100
AcDbBlockEnd
  0
BLOCK
  5
8
330
7
100
AcDbEntity
 67
     1
  8
0
100
AcDbBlockBegin
  2
*PAPER_SPACE
 70
     0
 10
0.0
 20
0.0
 30
0.0
  3
*PAPER_SPACE
  1

  0
ENDBLK
  5
9
330
7
100
AcDbEntity
 67
     1
  8
0
100
AcDbBlockEnd
  0
BLOCK
  5
B26
330
A0B
100
AcDbEntity
  8
0
 62
     7
100
AcDbBlockBegin
  2
TAB-A4
 70
     2
 10
0.0
 20
0.0
 30
0.0
  3
TAB-A4
  1

  0
LINE
  5
A0C
330
A0B
100
AcDbEntity
  8
0
  6
Continuous
 62
     0
100
AcDbLine
 10
100.0
 20
143.5
 30
0.0
 11
-100.0
 21
143.5
 31
0.0
1001
TOP
1070
     7
  0
LINE
  5
A0D
330
A0B
100
AcDbEntity
  8
0
  6
Continuous
 62
     0
100
AcDbLine
 10
-100.0
 20
143.5
 30
0.0
 11
-100.0
 21
-143.5
 31
0.0
1001
TOP
1070
     7
  0
LINE
  5
A0E
330
A0B
100
AcDbEntity
  8
0
  6
Continuous
 62
     0
100
AcDbLine
 10
-100.0
 20
-143.5
 30
0.0
 11
100.0
 21
-143.5
 31
0.0
1001
TOP
1070
     7
  0
LINE
  5
A0F
330
A0B
100
AcDbEntity
  8
0
  6
Continuous
 62
     0
100
AcDbLine
 10
100.0
 20
-143.5
 30
0.0
 11
100.0
 21
143.5
 31
0.0
1001
TOP
1070
     7
  0
LINE
  5
A10
330
A0B
100
AcDbEntity
  8
0
  6
Continuous
 62
     0
100
AcDbLine
 10
105.0
 20
148.5
 30
0.0
 11
-105.0
 21
148.5
 31
0.0
1001
TOP
1070
     3
  0
LINE
  5
A11
330
A0B
100
AcDbEntity
  8
0
  6
Continuous
 62
     0
100
AcDbLine
 10
-105.0
 20
148.5
 30
0.0
 11
-105.0
 21
-148.5
 31
0.0
1001
TOP
1070
     3
  0
LINE
  5
A12
330
A0B
100
AcDbEntity
  8
0
  6
Continuous
 62
     0
100
AcDbLine
 10
-105.0
 20
-148.5
 30
0.0
 11
105.0
 21
-148.5
 31
0.0
1001
TOP
1070
     3
  0
LINE
  5
A13
330
A0B
100
AcDbEntity
  8
0
  6
Continuous
 62
     0
100
AcDbLine
 10
105.0
 20
-148.5
 30
0.0
 11
105.0
 21
148.5
 31
0.0
1001
TOP
1070
     3
  0
ATTDEF
  5
A14
330
A0B
100
AcDbEntity
  8
0
 62
     0
 48
35.0
100
AcDbText
 10
-76.25989897767704
 20
-84.74999999999999
 30
0.0
 40
2.5
  1

  7
Stile_Cart
 11
-76.25989897767704
 21
-83.49999999999999
 31
0.0
100
AcDbAttributeDefinition
  3

  2
DESCRIZIONE
 70
     4
 74
     2
1001
TOP
1070
     7
  0
LINE
  5
A15
330
A0B
100
AcDbEntity
  8
0
 62
     0
 48
35.0
100
AcDbLine
 10
100.0
 20
-138.5
 30
0.0
 11
-100.0
 21
-138.5
 31
0.0
1001
TOP
1070
     3
  0
MTEXT
  5
A16
330
A0B
100
AcDbEntity
  8
0
 62
     0
 48
35.0
100
AcDbMText
 10
0.0
 20
-141.0
 30
0.0
 40
1.499624999999999
 41
190.3973187722231
 71
     5
 72
     1
  1
{\C256;SI VIETA L'USO E LA RIPRODUZIONE O LA VISIONE A TERZI DEL PRESENTE DISEGNO SENZA ESPLICITA AUTORIZZAZIONE, \H1.333x;Dierre \H0.75x;TUTELERA' I PROPRI DIRITTI A NORMA DI LEGGE}
  7
Stile_Cart
 73
     1
 44
1.0
1001
TOP
1070
     3
1001
ACAD
1000
MTEXTBEGIN
1070
    73
1070
     1
1070
    44
1040
1.0
1070
    74
1070
     0
1000
MTEXTEND
  0
LINE
  5
A17
330
A0B
100
AcDbEntity
  8
0
 62
     0
 48
35.0
100
AcDbLine
 10
-100.0
 20
-78.5
 30
0.0
 11
100.0
 21
-78.49999999999988
 31
0.0
1001
TOP
1070
     3
  0
LINE
  5
A18
330
A0B
100
AcDbEntity
  8
0
 62
     0
 48
35.0
100
AcDbLine
 10
35.0
 20
-78.5
 30
0.0
 11
35.0
 21
-138.5
 31
0.0
1001
TOP
1070
     3
  0
LINE
  5
A19
330
A0B
100
AcDbEntity
  8
0
 62
     0
 48
35.0
100
AcDbLine
 10
-100.0
 20
-130.5
 30
0.0
 11
35.0
 21
-130.5
 31
0.0
1001
TOP
1070
     1
  0
LINE
  5
A1A
330
A0B
100
AcDbEntity
  8
0
 62
     0
 48
35.0
100
AcDbLine
 10
-100.0
 20
-108.5
 30
0.0
 11
35.0
 21
-108.5
 31
0.0
1001
TOP
1070
     1
  0
LINE
  5
A1B
330
A0B
100
AcDbEntity
  8
0
 62
     0
 48
35.0
100
AcDbLine
 10
-66.25
 20
-130.5
 30
0.0
 11
-66.25
 21
-138.5
 31
0.0
1001
TOP
1070
     7
  0
LINE
  5
A1C
330
A0B
100
AcDbEntity
  8
0
 62
     0
 48
35.0
100
AcDbLine
 10
-100.0
 20
-98.50000000000001
 30
0.0
 11
35.0
 21
-98.50000000000001
 31
0.0
1001
TOP
1070
     1
  0
LINE
  5
A1D
330
A0B
100
AcDbEntity
  8
0
 62
     0
 48
35.0
100
AcDbLine
 10
-27.5
 20
-98.50000000000001
 30
0.0
 11
-27.5
 21
-108.5
 31
0.0
1001
TOP
1070
     1
  0
TEXT
  5
A1E
330
A0B
100
AcDbEntity
  8
0
 62
     0
 48
35.0
100
AcDbText
 10
-99.24333629514059
 20
-84.74999999999999
 30
0.0
 40
1.6
  1
DENOMINAZIONE:
  7
STYLE1
100
AcDbText
1001
TOP
1070
     1
  0
TEXT
  5
A1F
330
A0B
100
AcDbEntity
  8
0
 62
     0
 48
35.0
100
AcDbText
 10
-99.24333629514059
 20
-105.5
 30
0.0
 40
1.6
  1
CLIENTE:
  7
STYLE1
100
AcDbText
1001
TOP
1070
     1
  0
LINE
  5
A20
330
A0B
100
AcDbEntity
  8
0
 62
     0
 48
35.0
100
AcDbLine
 10
-27.5
 20
-103.5
 30
0.0
 11
35.00000000000091
 21
-103.5
 31
0.0
1001
TOP
1070
     1
  0
TEXT
  5
A21
330
A0B
100
AcDbEntity
  8
0
 62
     0
 48
35.0
100
AcDbText
 10
-26.74333629514058
 20
-102.25
 30
0.0
 40
1.6
  1
COD. CLIENTE:
  7
STYLE1
100
AcDbText
1001
TOP
1070
     1
  0
TEXT
  5
A22
330
A0B
100
AcDbEntity
  8
0
 62
     0
 48
35.0
100
AcDbText
 10
-26.74333629514058
 20
-107.25
 30
0.0
 40
1.6
  1
CC CLIENTE:
  7
STYLE1
100
AcDbText
1001
TOP
1070
     1
  0
LINE
  5
A23
330
A0B
100
AcDbEntity
  8
0
 62
     0
 48
35.0
100
AcDbLine
 10
35.0
 20
-85.99999999999988
 30
0.0
 11
100.0
 21
-85.99999999999988
 31
0.0
1001
TOP
1070
     7
  0
LINE
  5
A24
330
A0B
100
AcDbEntity
  8
0
 62
     0
 48
35.0
100
AcDbLine
 10
35.0
 20
-93.49999999999988
 30
0.0
 11
100.0
 21
-93.49999999999988
 31
0.0
1001
TOP
1070
     7
  0
LINE
  5
A25
330
A0B
100
AcDbEntity
  8
0
 62
     0
 48
35.0
100
AcDbLine
 10
35.0
 20
-100.9999999999999
 30
0.0
 11
100.0
 21
-100.9999999999999
 31
0.0
1001
TOP
1070
     7
  0
TEXT
  5
A26
330
A0B
100
AcDbEntity
  8
0
 62
     0
 48
35.0
100
AcDbText
 10
35.75666370485942
 20
-83.99999999999989
 30
0.0
 40
1.6
  1
Data:
  7
STYLE1
100
AcDbText
1001
TOP
1070
     1
  0
TEXT
  5
A27
330
A0B
100
AcDbEntity
  8
0
 62
     0
 48
35.0
100
AcDbText
 10
35.75666370485942
 20
-90.74999999999988
 30
0.0
 40
1.6
  1
Diseg.:        
  7
STYLE1
100
AcDbText
1001
TOP
1070
     1
  0
TEXT
  5
A28
330
A0B
100
AcDbEntity
  8
0
 62
     0
 48
35.0
100
AcDbText
 10
35.75666370485942
 20
-98.49999999999988
 30
0.0
 40
1.6
  1
Rifer. ordine:
  7
STYLE1
100
AcDbText
1001
TOP
1070
     1
  0
LINE
  5
A29
330
A0B
100
AcDbEntity
  8
0
 62
     0
 48
35.0
100
AcDbLine
 10
72.0
 20
-78.49999999999988
 30
0.0
 11
72.0
 21
-93.49999999999999
 31
0.0
  0
TEXT
  5
A2A
330
A0B
100
AcDbEntity
  8
0
 62
     0
 48
35.0
100
AcDbText
 10
72.75666370485942
 20
-83.99999999999989
 30
0.0
 40
1.6
  1
Scala:
  7
STYLE1
100
AcDbText
1001
TOP
1070
     1
  0
TEXT
  5
A2B
330
A0B
100
AcDbEntity
  8
0
 62
     0
 48
35.0
100
AcDbText
 10
72.75666370485942
 20
-91.49999999999989
 30
0.0
 40
1.6
  1
Q.ta:
  7
STYLE1
100
AcDbText
1001
TOP
1070
     1
  0
TEXT
  5
A2C
330
A0B
100
AcDbEntity
  8
0
 62
     0
 48
35.0
100
AcDbText
 10
35.85819235127565
 20
-110.1249999999999
 30
0.0
 40
1.76
  1
Codice N
  7
STYLE1
100
AcDbText
1001
TOP
1070
     1
  0
LINE
  5
A2D
330
A0B
100
AcDbEntity
  8
0
 62
     0
 48
35.0
100
AcDbLine
 10
35.0
 20
-114.7499999999999
 30
0.0
 11
100.0
 21
-114.7499999999999
 31
0.0
1001
TOP
1070
     7
  0
LINE
  5
A2E
330
A0B
100
AcDbEntity
  8
0
 62
     0
 48
35.0
100
AcDbLine
 10
35.0
 20
-124.7499999999999
 30
0.0
 11
100.0
 21
-124.7499999999999
 31
0.0
1001
TOP
1070
     7
  0
LINE
  5
A2F
330
A0B
100
AcDbEntity
  8
0
 62
     0
 48
35.0
100
AcDbLine
 10
35.0
 20
-130.5
 30
0.0
 11
100.0
 21
-130.5
 31
0.0
1001
TOP
1070
     7
  0
CIRCLE
  5
A30
330
A0B
100
AcDbEntity
  8
0
  6
Continuous
 62
     0
100
AcDbCircle
 10
94.1449550471707
 20
-134.5409172698267
 30
0.0
 40
3.0
1001
TOP
1070
     2
  0
LINE
  5
A31
330
A0B
100
AcDbEntity
  8
0
  6
DASHDOT2
 62
     0
100
AcDbLine
 10
94.1449550471707
 20
-131.5409172698267
 30
0.0
 11
94.1449550471707
 21
-137.5409172698267
 31
0.0
1001
TOP
1070
     2
  0
CIRCLE
  5
A32
330
A0B
100
AcDbEntity
  8
0
  6
Continuous
 62
     0
100
AcDbCircle
 10
94.1449550471707
 20
-134.5409172698267
 30
0.0
 40
1.5
1001
TOP
1070
     2
  0
LINE
  5
A33
330
A0B
100
AcDbEntity
  8
0
  6
DASHDOT2
 62
     0
100
AcDbLine
 10
81.35716881113784
 20
-134.5409172698267
 30
0.0
 11
97.14495504717071
 21
-134.5409172698267
 31
0.0
1001
TOP
1070
     2
  0
LINE
  5
A34
330
A0B
100
AcDbEntity
  8
0
  6
Continuous
 62
     0
100
AcDbLine
 10
88.51173788868619
 20
-131.5409172698267
 30
0.0
 11
88.51173788868619
 21
-137.8298833532369
 31
0.0
1001
TOP
1070
     2
  0
LINE
  5
A35
330
A0B
100
AcDbEntity
  8
0
  6
Continuous
 62
     0
100
AcDbLine
 10
81.35716881113784
 20
-133.0409172698267
 30
0.0
 11
81.35716881113784
 21
-136.0409172698267
 31
0.0
1001
TOP
1070
     2
  0
LINE
  5
A36
330
A0B
100
AcDbEntity
  8
0
  6
Continuous
 62
     0
100
AcDbLine
 10
81.35716881113784
 20
-136.0409172698267
 30
0.0
 11
88.51173788868619
 21
-137.8298833532369
 31
0.0
1001
TOP
1070
     2
  0
LINE
  5
A37
330
A0B
100
AcDbEntity
  8
0
  6
Continuous
 62
     0
100
AcDbLine
 10
88.51173788868619
 20
-131.5409172698267
 30
0.0
 11
81.35716881113784
 21
-133.0409172698267
 31
0.0
1001
TOP
1070
     2
  0
LINE
  5
A38
330
A0B
100
AcDbEntity
  8
0
 62
     0
 48
35.0
100
AcDbLine
 10
78.5
 20
-138.5
 30
0.0
 11
78.5
 21
-130.5
 31
0.0
  0
MTEXT
  5
A39
330
A0B
100
AcDbEntity
  8
0
 62
     0
 48
35.0
100
AcDbMText
 10
36.70159610234714
 20
-116.147829675845
 30
0.0
 40
2.0
 41
187.0802
 71
     1
 72
     5
  1
{\C256;LE TOLLERANZE SI INTENDONO SU PEZZO\PFINITO COMPLETO DI ZINCATURA}
  7
Stile_Cart
 73
     1
 44
1.0
1001
TOP
1070
     3
1001
ACAD
1000
MTEXTBEGIN
1070
    73
1070
     1
1070
    44
1040
1.0
1070
    74
1070
     0
1000
MTEXTEND
  0
LINE
  5
A3A
330
A0B
100
AcDbEntity
  8
0
 62
     0
100
AcDbLine
 10
-100.0
 20
-71.0
 30
0.0
 11
99.99999999999909
 21
-71.00000000000012
 31
0.0
1001
TOP
1070
     3
  0
LINE
  5
A3B
330
A0B
100
AcDbEntity
  8
0
 62
     0
100
AcDbLine
 10
-100.0
 20
-67.0
 30
0.0
 11
99.99999999999909
 21
-67.0
 31
0.0
1001
TOP
1070
     3
  0
LINE
  5
A3C
330
A0B
100
AcDbEntity
  8
0
 62
     0
100
AcDbLine
 10
-100.0
 20
-62.0
 30
0.0
 11
99.99999999999909
 21
-61.99999999999988
 31
0.0
1001
TOP
1070
     3
  0
LINE
  5
A3D
330
A0B
100
AcDbEntity
  8
0
 62
     0
 48
35.0
100
AcDbLine
 10
-85.0
 20
-61.99999999999999
 30
0.0
 11
-85.0
 21
-78.5
 31
0.0
1001
TOP
1070
     1
  0
TEXT
  5
A3E
330
A0B
100
AcDbEntity
  8
0
 62
     0
 48
35.0
100
AcDbText
 10
-99.24333629514149
 20
-76.0
 30
0.0
 40
1.6
  1
POS.
  7
STYLE1
100
AcDbText
1001
TOP
1070
     1
  0
TEXT
  5
A3F
330
A0B
100
AcDbEntity
  8
0
 62
     0
 48
35.0
100
AcDbText
 10
-84.2433362951424
 20
-76.0
 30
0.0
 40
1.6
  1
MATERIALE:
  7
STYLE1
100
AcDbText
1001
TOP
1070
     1
  0
LINE
  5
A40
330
A0B
100
AcDbEntity
  8
0
 62
     0
 48
35.0
100
AcDbLine
 10
14.99999999999909
 20
-71.00000000000022
 30
0.0
 11
15.0
 21
-78.5
 31
0.0
1001
TOP
1070
     1
  0
TEXT
  5
A41
330
A0B
100
AcDbEntity
  8
0
 62
     0
 48
35.0
100
AcDbText
 10
15.75666370485669
 20
-76.0
 30
0.0
 40
1.6
  1
TRATTAMENTI:
  7
STYLE1
100
AcDbText
1001
TOP
1070
     1
  0
TEXT
  5
A42
330
A0B
100
AcDbEntity
  8
0
 62
     0
 48
35.0
100
AcDbText
 10
-94.94297836942587
 20
-69.79763860700177
 30
0.0
 40
1.6
  1
Rev.
  7
STYLE1
100
AcDbText
1001
TOP
1070
     1
  0
LINE
  5
A43
330
A0B
100
AcDbEntity
  8
0
 62
     0
 48
35.0
100
AcDbLine
 10
80.0
 20
-61.9999999999999
 30
0.0
 11
80.0000000000009
 21
-71.00000000000012
 31
0.0
1001
TOP
1070
     1
  0
LINE
  5
A44
330
A0B
100
AcDbEntity
  8
0
 62
     0
 48
35.0
100
AcDbLine
 10
65.00000000000032
 20
-61.99999999999991
 30
0.0
 11
65.00000000000091
 21
-71.00000000000114
 31
0.0
1001
TOP
1070
     1
  0
TEXT
  5
A45
330
A0B
100
AcDbEntity
  8
0
 62
     0
 48
35.0
100
AcDbText
 10
70.05702163057503
 20
-69.79763860700177
 30
0.0
 40
1.6
  1
Data
  7
STYLE1
100
AcDbText
1001
TOP
1070
     1
  0
TEXT
  5
A46
330
A0B
100
AcDbEntity
  8
0
 62
     0
 48
35.0
100
AcDbText
 10
87.79240430569643
 20
-69.79763860700177
 30
0.0
 40
1.6
  1
Diseg.
  7
STYLE1
100
AcDbText
1001
TOP
1070
     1
  0
LINE
  5
A47
330
A0B
100
AcDbEntity
  8
0
 62
     0
 48
35.0
100
AcDbLine
 10
-32.5
 20
-130.5
 30
0.0
 11
-32.5
 21
-138.5
 31
0.0
1001
TOP
1070
     7
  0
LINE
  5
A48
330
A0B
100
AcDbEntity
  8
0
 62
     0
 48
35.0
100
AcDbLine
 10
1.25
 20
-130.5
 30
0.0
 11
1.25
 21
-138.5
 31
0.0
1001
TOP
1070
     7
  0
LINE
  5
A49
330
A0B
100
AcDbEntity
  8
0
  6
Continuous
 62
     0
100
AcDbLine
 10
-84.625
 20
-135.2853677388285
 30
0.0
 11
-83.125
 21
-138.2853677388285
 31
0.0
1001
TOP
1070
     2
  0
LINE
  5
A4A
330
A0B
100
AcDbEntity
  8
0
  6
Continuous
 62
     0
100
AcDbLine
 10
-83.125
 20
-138.2853677388285
 30
0.0
 11
-80.12500000000001
 21
-132.2853677388285
 31
0.0
1001
TOP
1070
     2
  0
CIRCLE
  5
A4B
330
A0B
100
AcDbEntity
  8
0
  6
Continuous
 62
     0
100
AcDbCircle
 10
-83.125
 20
-136.1513931426129
 30
0.0
 40
0.8660254037843873
1001
TOP
1070
     2
  0
TEXT
  5
A4C
330
A0B
100
AcDbEntity
  8
0
  6
Continuous
 62
     0
100
AcDbText
 10
36.65725579953532
 20
-127.6856811538551
 30
0.0
 40
1.5
  1
Le QUOTE senza tolleranze si intendono h 11 / H 11
  7
Stile_Cart
100
AcDbText
1001
TOP
1070
     7
  0
TEXT
  5
A4D
330
A0B
100
AcDbEntity
  8
0
  6
Continuous
 62
     0
100
AcDbText
 10
36.56316783991022
 20
-136.7809056532263
 30
0.0
 40
1.5
  1
Smussi e raggi non quotati = 1 mm
  7
Stile_Cart
100
AcDbText
1001
TOP
1070
     7
  0
TEXT
  5
A4E
330
A0B
100
AcDbEntity
  8
0
  6
Continuous
 62
     0
100
AcDbText
 10
36.70159610234714
 20
-133.4356811538553
 30
0.0
 40
1.5
  1
Negli spigoli non quotati smussi 0,5 x 45°
  7
Stile_Cart
100
AcDbText
1001
TOP
1070
     7
  0
LINE
  5
A4F
330
A0B
100
AcDbEntity
  8
0
  6
Continuous
 62
     0
100
AcDbLine
 10
22.04910490551336
 20
-135.2267571184318
 30
0.0
 11
23.54910490551336
 21
-138.2267571184318
 31
0.0
1001
TOP
1070
     2
  0
LINE
  5
A50
330
A0B
100
AcDbEntity
  8
0
  6
Continuous
 62
     0
100
AcDbLine
 10
23.54910490551336
 20
-138.2267571184318
 30
0.0
 11
26.54910490551336
 21
-132.2267571184318
 31
0.0
1001
TOP
1070
     2
  0
TEXT
  5
A51
330
A0B
100
AcDbEntity
  8
0
  6
Continuous
 62
     0
100
AcDbText
 10
21.21024234627165
 20
-134.7267571184318
 30
0.0
 40
2.0
  1
0,8
  7
seansi_ttf
 11
21.21024234627165
 21
-132.7267571184318
 31
0.0
100
AcDbText
 73
     3
1001
TOP
1070
     2
  0
LINE
  5
A52
330
A0B
100
AcDbEntity
  8
0
  6
Continuous
 62
     0
100
AcDbLine
 10
14.18630267108197
 20
-135.2559419652411
 30
0.0
 11
15.68630267108197
 21
-138.2559419652411
 31
0.0
1001
TOP
1070
     2
  0
LINE
  5
A53
330
A0B
100
AcDbEntity
  8
0
  6
Continuous
 62
     0
100
AcDbLine
 10
15.68630267108197
 20
-138.2559419652411
 30
0.0
 11
17.18630267108197
 21
-135.2559419652411
 31
0.0
1001
TOP
1070
     2
  0
LINE
  5
A54
330
A0B
100
AcDbEntity
  8
0
  6
Continuous
 62
     0
100
AcDbLine
 10
17.18630267108197
 20
-135.2559419652411
 30
0.0
 11
14.18630267108197
 21
-135.2559419652411
 31
0.0
1001
TOP
1070
     2
  0
LINE
  5
A55
330
A0B
100
AcDbEntity
  8
0
  6
Continuous
 62
     0
100
AcDbLine
 10
14.18630267108197
 20
-135.2559419652411
 30
0.0
 11
12.68630267108197
 21
-138.2559419652411
 31
0.0
1001
TOP
1070
     2
  0
LINE
  5
A56
330
A0B
100
AcDbEntity
  8
0
  6
Continuous
 62
     0
100
AcDbLine
 10
12.68630267108197
 20
-138.2559419652411
 30
0.0
 11
11.18630267108197
 21
-135.2559419652411
 31
0.0
1001
TOP
1070
     2
  0
LINE
  5
A57
330
A0B
100
AcDbEntity
  8
0
  6
Continuous
 62
     0
100
AcDbLine
 10
11.18630267108197
 20
-135.2559419652411
 30
0.0
 11
14.18630267108197
 21
-135.2559419652411
 31
0.0
1001
TOP
1070
     2
  0
LINE
  5
A58
330
A0B
100
AcDbEntity
  8
0
  6
Continuous
 62
     0
100
AcDbLine
 10
11.18630267108197
 20
-135.2559419652411
 30
0.0
 11
9.686302671081968
 21
-138.2559419652411
 31
0.0
1001
TOP
1070
     2
  0
LINE
  5
A59
330
A0B
100
AcDbEntity
  8
0
  6
Continuous
 62
     0
100
AcDbLine
 10
9.686302671081968
 20
-138.2559419652411
 30
0.0
 11
8.186302671081968
 21
-135.2559419652411
 31
0.0
1001
TOP
1070
     2
  0
LINE
  5
A5A
330
A0B
100
AcDbEntity
  8
0
  6
Continuous
 62
     0
100
AcDbLine
 10
8.186302671081968
 20
-135.2559419652411
 30
0.0
 11
11.18630267108197
 21
-135.2559419652411
 31
0.0
1001
TOP
1070
     2
  0
LINE
  5
A5B
330
A0B
100
AcDbEntity
  8
0
  6
Continuous
 62
     0
100
AcDbLine
 10
-11.09407416882067
 20
-135.2999430320282
 30
0.0
 11
-9.594074168820668
 21
-138.2999430320282
 31
0.0
1001
TOP
1070
     2
  0
LINE
  5
A5C
330
A0B
100
AcDbEntity
  8
0
  6
Continuous
 62
     0
100
AcDbLine
 10
-9.594074168820668
 20
-138.2999430320282
 30
0.0
 11
-6.594074168820668
 21
-132.2999430320282
 31
0.0
1001
TOP
1070
     2
  0
TEXT
  5
A5D
330
A0B
100
AcDbEntity
  8
0
  6
Continuous
 62
     0
100
AcDbText
 10
-11.93293672806237
 20
-134.7999430320282
 30
0.0
 40
2.0
  1
1,6
  7
seansi_ttf
 11
-11.93293672806237
 21
-132.7999430320282
 31
0.0
100
AcDbText
 73
     3
1001
TOP
1070
     2
  0
LINE
  5
A5E
330
A0B
100
AcDbEntity
  8
0
  6
Continuous
 62
     0
100
AcDbLine
 10
-21.65592583117933
 20
-135.2999430320282
 30
0.0
 11
-20.15592583117933
 21
-138.2999430320282
 31
0.0
1001
TOP
1070
     2
  0
LINE
  5
A5F
330
A0B
100
AcDbEntity
  8
0
  6
Continuous
 62
     0
100
AcDbLine
 10
-20.15592583117933
 20
-138.2999430320282
 30
0.0
 11
-18.65592583117933
 21
-135.2999430320282
 31
0.0
1001
TOP
1070
     2
  0
LINE
  5
A60
330
A0B
100
AcDbEntity
  8
0
  6
Continuous
 62
     0
100
AcDbLine
 10
-18.65592583117933
 20
-135.2999430320282
 30
0.0
 11
-21.65592583117933
 21
-135.2999430320282
 31
0.0
1001
TOP
1070
     2
  0
LINE
  5
A61
330
A0B
100
AcDbEntity
  8
0
  6
Continuous
 62
     0
100
AcDbLine
 10
-21.65592583117933
 20
-135.2999430320282
 30
0.0
 11
-23.15592583117933
 21
-138.2999430320282
 31
0.0
1001
TOP
1070
     2
  0
LINE
  5
A62
330
A0B
100
AcDbEntity
  8
0
  6
Continuous
 62
     0
100
AcDbLine
 10
-23.15592583117933
 20
-138.2999430320282
 30
0.0
 11
-24.65592583117933
 21
-135.2999430320282
 31
0.0
1001
TOP
1070
     2
  0
LINE
  5
A63
330
A0B
100
AcDbEntity
  8
0
  6
Continuous
 62
     0
100
AcDbLine
 10
-24.65592583117933
 20
-135.2999430320282
 30
0.0
 11
-21.65592583117933
 21
-135.2999430320282
 31
0.0
1001
TOP
1070
     2
  0
LINE
  5
A64
330
A0B
100
AcDbEntity
  8
0
  6
Continuous
 62
     0
100
AcDbLine
 10
-58.06883755106941
 20
-135.3397943988076
 30
0.0
 11
-56.56883755106941
 21
-138.3397943988076
 31
0.0
1001
TOP
1070
     2
  0
LINE
  5
A65
330
A0B
100
AcDbEntity
  8
0
  6
Continuous
 62
     0
100
AcDbLine
 10
-56.56883755106941
 20
-138.3397943988076
 30
0.0
 11
-55.0688375510694
 21
-135.3397943988076
 31
0.0
1001
TOP
1070
     2
  0
LINE
  5
A66
330
A0B
100
AcDbEntity
  8
0
  6
Continuous
 62
     0
100
AcDbLine
 10
-55.0688375510694
 20
-135.3397943988076
 30
0.0
 11
-58.06883755106941
 21
-135.3397943988076
 31
0.0
1001
TOP
1070
     2
  0
LINE
  5
A67
330
A0B
100
AcDbEntity
  8
0
  6
Continuous
 62
     0
100
AcDbLine
 10
-43.68116244893059
 20
-135.3397943988076
 30
0.0
 11
-42.18116244893059
 21
-138.3397943988076
 31
0.0
1001
TOP
1070
     2
  0
LINE
  5
A68
330
A0B
100
AcDbEntity
  8
0
  6
Continuous
 62
     0
100
AcDbLine
 10
-42.18116244893059
 20
-138.3397943988076
 30
0.0
 11
-39.18116244893059
 21
-132.3397943988076
 31
0.0
1001
TOP
1070
     2
  0
TEXT
  5
A69
330
A0B
100
AcDbEntity
  8
0
  6
Continuous
 62
     0
100
AcDbText
 10
-44.52002500817229
 20
-134.8397943988076
 30
0.0
 40
2.0
  1
6,3
  7
seansi_ttf
 11
-44.52002500817229
 21
-132.8397943988076
 31
0.0
100
AcDbText
 73
     3
1001
TOP
1070
     2
  0
ATTDEF
  5
A6A
330
A0B
100
AcDbEntity
  8
0
 62
     0
 48
35.0
100
AcDbText
 10
-76.25989897767704
 20
-89.74999999999999
 30
0.0
 40
2.5
  1

  7
Stile_Cart
 11
-76.25989897767704
 21
-88.49999999999999
 31
0.0
100
AcDbAttributeDefinition
  3

  2
DESCRIZIONE2
 70
     4
 74
     2
1001
TOP
1070
     7
  0
ATTDEF
  5
A6B
330
A0B
100
AcDbEntity
  8
0
 62
     0
 48
35.0
100
AcDbText
 10
-76.25989897767704
 20
-94.74999999999999
 30
0.0
 40
2.5
  1

  7
Stile_Cart
 11
-76.25989897767704
 21
-93.49999999999999
 31
0.0
100
AcDbAttributeDefinition
  3

  2
DESCRIZIONE3
 70
     4
 74
     2
1001
TOP
1070
     7
  0
ATTDEF
  5
A6C
330
A0B
100
AcDbEntity
  8
0
 62
     0
 48
35.0
100
AcDbText
 10
42.76829842361894
 20
-83.99999999999989
 30
0.0
 40
3.5
  1

  7
Stile_Cart
 11
42.76829842361894
 21
-82.2499999999999
 31
0.0
100
AcDbAttributeDefinition
  3

  2
DATA
 70
     4
 74
     2
1001
TOP
1070
     7
  0
ATTDEF
  5
A6D
330
A0B
100
AcDbEntity
  8
0
 62
     0
 48
35.0
100
AcDbText
 10
79.15321575123653
 20
-83.99999999999989
 30
0.0
 40
3.5
  1

  7
Stile_Cart
 11
79.15321575123653
 21
-82.24999999999988
 31
0.0
100
AcDbAttributeDefinition
  3

  2
SCALA
 70
     4
 74
     2
1001
TOP
1070
     7
  0
ATTDEF
  5
A6E
330
A0B
100
AcDbEntity
  8
0
 62
     0
 48
35.0
100
AcDbText
 10
79.15321575123653
 20
-91.49999999999989
 30
0.0
 40
3.5
  1

  7
Stile_Cart
 11
79.15321575123653
 21
-89.74999999999988
 31
0.0
100
AcDbAttributeDefinition
  3

  2
QTA
 70
     4
 74
     2
1001
TOP
1070
     7
  0
ATTDEF
  5
A6F
330
A0B
100
AcDbEntity
  8
0
 62
     0
 48
35.0
100
AcDbText
 10
42.76829842361894
 20
-90.74999999999988
 30
0.0
 40
2.0
  1

  7
Stile_Cart
 11
42.76829842361894
 21
-89.74999999999988
 31
0.0
100
AcDbAttributeDefinition
  3

  2
DISEGNATORE
 70
     4
 74
     2
1001
TOP
1070
     7
  0
ATTDEF
  5
A70
330
A0B
100
AcDbEntity
  8
0
 62
     0
 48
35.0
100
AcDbText
 10
51.64776592404542
 20
-98.49999999999988
 30
0.0
 40
2.5
  1

  7
Stile_Cart
 11
51.64776592404542
 21
-97.24999999999988
 31
0.0
100
AcDbAttributeDefinition
  3

  2
RIF_ORDINE
 70
     4
 74
     2
1001
TOP
1070
     7
  0
ATTDEF
  5
A71
330
A0B
100
AcDbEntity
  8
0
 62
     0
 48
35.0
100
AcDbText
 10
50.29007657152305
 20
-110.1249999999999
 30
0.0
 40
4.5
  1

  7
Stile_Cart
 11
50.29007657152305
 21
-107.8749999999999
 31
0.0
100
AcDbAttributeDefinition
  3

  2
CODICE
 70
     4
 74
     2
1001
TOP
1070
     7
  0
ATTDEF
  5
A72
330
A0B
100
AcDbEntity
  8
0
 62
     0
 48
35.0
100
AcDbText
 10
-10.1983793647978
 20
-102.25
 30
0.0
 40
2.5
  1

  7
Stile_Cart
 11
-10.1983793647978
 21
-101.0
 31
0.0
100
AcDbAttributeDefinition
  3

  2
COD_CLIENTE
 70
     4
 74
     2
1001
TOP
1070
     7
  0
ATTDEF
  5
A73
330
A0B
100
AcDbEntity
  8
0
 62
     0
 48
35.0
100
AcDbText
 10
-10.18785708582345
 20
-107.25
 30
0.0
 40
2.5
  1

  7
Stile_Cart
 11
-10.18785708582345
 21
-106.0
 31
0.0
100
AcDbAttributeDefinition
  3

  2
COMMESSA
 70
     4
 74
     2
1001
TOP
1070
     7
  0
ATTDEF
  5
A74
330
A0B
100
AcDbEntity
  8
0
 62
     0
 48
35.0
100
AcDbText
 10
-87.23964845993032
 20
-105.5
 30
0.0
 40
4.0
  1

  7
Stile_Cart
 11
-87.23964845993032
 21
-103.5
 31
0.0
100
AcDbAttributeDefinition
  3

  2
CLIENTE
 70
     4
 74
     2
1001
TOP
1070
     7
  0
ATTDEF
  5
A75
330
A0B
100
AcDbEntity
  8
0
 62
     0
 48
35.0
100
AcDbText
 10
-67.95452598552799
 20
-76.0
 30
0.0
 40
2.5
  1

  7
Stile_Cart
 11
-67.95452598552799
 21
-74.75
 31
0.0
100
AcDbAttributeDefinition
  3

  2
MATERIALE
 70
     4
 74
     2
1001
TOP
1070
     7
  0
ATTDEF
  5
A76
330
A0B
100
AcDbEntity
  8
0
 62
     0
 48
35.0
100
AcDbText
 10
35.56280592835867
 20
-76.0
 30
0.0
 40
2.5
  1

  7
Stile_Cart
 11
35.56280592835867
 21
-74.75
 31
0.0
100
AcDbAttributeDefinition
  3

  2
TRATTAMENTI
 70
     4
 74
     2
1001
TOP
1070
     7
  0
ATTDEF
  5
A77
330
A0B
100
AcDbEntity
  8
0
 62
     0
 48
35.0
100
AcDbText
 10
-89.96922082042067
 20
-76.0
 30
0.0
 40
2.5
  1

  7
Stile_Cart
 72
     1
 11
-89.96922082042067
 21
-74.75
 31
0.0
100
AcDbAttributeDefinition
  3

  2
POS.
 70
     4
 74
     2
1001
TOP
1070
     7
  0
ATTDEF
  5
A78
330
A0B
100
AcDbEntity
  8
0
 62
     0
 48
35.0
100
AcDbText
 10
-92.5
 20
-65.75
 30
0.0
 40
2.5
  1

  7
Stile_Cart
 72
     1
 11
-92.5
 21
-64.5
 31
0.0
100
AcDbAttributeDefinition
  3

  2
REV
 70
     4
 74
     2
1001
TOP
1070
     7
  0
ATTDEF
  5
A79
330
A0B
100
AcDbEntity
  8
0
 62
     0
 48
35.0
100
AcDbText
 10
-83.0
 20
-65.75
 30
0.0
 40
2.5
  1

  7
Stile_Cart
 11
-83.0
 21
-64.5
 31
0.0
100
AcDbAttributeDefinition
  3

  2
MOD_REV
 70
     4
 74
     2
1001
TOP
1070
     7
  0
ATTDEF
  5
A7A
330
A0B
100
AcDbEntity
  8
0
 62
     0
 48
35.0
100
AcDbText
 10
72.50000000000032
 20
-65.74999999999994
 30
0.0
 40
2.5
  1

  7
Stile_Cart
 72
     1
 11
72.50000000000032
 21
-64.49999999999994
 31
0.0
100
AcDbAttributeDefinition
  3

  2
DATA_REV
 70
     4
 74
     2
1001
TOP
1070
     7
  0
ATTDEF
  5
A7B
330
A0B
100
AcDbEntity
  8
0
 62
     0
 48
35.0
100
AcDbText
 10
89.96023144605638
 20
-65.49999999999994
 30
0.0
 40
2.0
  1

 41
0.8
  7
Stile_Cart
 72
     1
 11
89.96023144605638
 21
-64.49999999999994
 31
0.0
100
AcDbAttributeDefinition
  3

  2
DISEGN_REV
 70
     4
 74
     2
1001
TOP
1070
     7
  0
TEXT
  5
A7C
330
A0B
100
AcDbEntity
  8
P-0000
  6
Continuous
 62
     0
 48
35.0
100
AcDbText
 10
-46.28135167661025
 20
-113.3527525052883
 30
0.0
 40
1.846799999999999
  1
Sedi operative: Fiorano Circ.le S. Giovanni Ev.,23   41042 Spezzano (MO)
  7
STYLE1
100
AcDbText
1001
TOP
1070
     7
  0
TEXT
  5
A7D
330
A0B
100
AcDbEntity
  8
P-0000
  6
Continuous
 62
     0
 48
35.0
100
AcDbText
 10
-6.340918626483258
 20
-117.0692022869476
 30
0.0
 40
1.846799999999999
  1
Tel. 0536 921322  Fax 0536 921218
  7
STYLE1
100
AcDbText
1001
TOP
1070
     7
  0
TEXT
  5
A7E
330
A0B
100
AcDbEntity
  8
P-0000
  6
Continuous
 62
     0
 48
35.0
100
AcDbText
 10
-29.75490795040492
 20
-120.7856520686069
 30
0.0
 40
1.846799999999999
  1
Bologna Via Del Selciatore, 12   40127 (BO) 
  7
STYLE1
100
AcDbText
1001
TOP
1070
     7
  0
TEXT
  5
A7F
330
A0B
100
AcDbEntity
  8
P-0000
  6
Continuous
 62
     0
 48
35.0
100
AcDbText
 10
-3.770224758554846
 20
-124.5021018502664
 30
0.0
 40
1.846799999999999
  1
Tel. 051 535318  Fax 051 531297
  7
STYLE1
100
AcDbText
1001
TOP
1070
     7
  0
TEXT
  5
A80
330
A0B
100
AcDbEntity
  8
P-0000
  6
Continuous
 62
     0
 48
35.0
100
AcDbText
 10
-29.75453034516
 20
-128.1147363829751
 30
0.0
 40
1.5
  1
www.dierremacap.com . tecnico@dierreprotezioni.com  
  7
STYLE1
100
AcDbText
1001
TOP
1070
     7
  0
ARC
  5
A81
330
A0B
100
AcDbEntity
  8
P-0000
  6
Continuous
 62
     0
370
     0
100
AcDbCircle
 10
-87.55587540093328
 20
-119.8343908033039
 30
0.0
 40
7.264056604142308
100
AcDbArc
 50
54.62314853322836
 51
125.3768514667716
1001
TOP
1070
    85
  0
ARC
  5
A82
330
A0B
100
AcDbEntity
  8
P-0000
  6
Continuous
 62
     0
370
     0
100
AcDbCircle
 10
-88.37772146816295
 20
-119.8661633216503
 30
0.0
 40
7.793069759999999
100
AcDbArc
 50
49.82610094250764
 51
223.428751725223
1001
TOP
1070
    85
  0
ARC
  5
A83
330
A0B
100
AcDbEntity
  8
P-0000
  6
Continuous
 62
     0
370
     0
100
AcDbCircle
 10
-87.77383862674813
 20
-119.1102130429075
 30
0.0
 40
4.056769053873
100
AcDbArc
 50
51.09712919102834
 51
223.6094645412326
1001
TOP
1070
    85
  0
ARC
  5
A84
330
A0B
100
AcDbEntity
  8
P-0000
  6
Continuous
 62
     0
370
     0
100
AcDbCircle
 10
-88.42266163376624
 20
-119.4851385567151
 30
0.0
 40
4.763630338834137
100
AcDbArc
 50
47.85430720588668
 51
226.8522865263435
1001
TOP
1070
    85
  0
ARC
  5
A85
330
A0B
100
AcDbEntity
  8
P-0000
  6
Continuous
 62
     0
370
     0
100
AcDbCircle
 10
-88.82997178899747
 20
-120.0817487520743
 30
0.0
 40
4.056769053873
100
AcDbArc
 50
231.0971291910283
 51
43.60946454123257
1001
TOP
1070
    85
  0
ARC
  5
A86
330
A0B
100
AcDbEntity
  8
P-0000
  6
Continuous
 62
     0
370
     0
100
AcDbCircle
 10
-88.18114878197755
 20
-119.7068232382669
 30
0.0
 40
4.763630338834137
100
AcDbArc
 50
227.8543072058867
 51
46.85228652634355
1001
TOP
1070
    85
  0
ARC
  5
A87
330
A0B
100
AcDbEntity
  8
P-0000
  6
Continuous
 62
     0
370
     0
100
AcDbCircle
 10
-88.37772146816295
 20
-119.8661633216503
 30
0.0
 40
7.793069759999999
100
AcDbArc
 50
230.1466606584018
 51
45.36258570986113
1001
TOP
1070
    85
  0
ARC
  5
A88
330
A0B
100
AcDbEntity
  8
P-0000
  6
Continuous
 62
     0
370
     0
100
AcDbCircle
 10
-89.52593793590565
 20
-119.7374591014475
 30
0.0
 40
7.220700683144739
100
AcDbArc
 50
237.8184274609863
 51
321.1976420062348
1001
TOP
1070
    85
  0
ARC
  5
A89
330
A0B
100
AcDbEntity
  8
P-0000
  6
Continuous
 62
     0
370
     0
100
AcDbCircle
 10
-88.50216480330599
 20
-119.1656258049447
 30
0.0
 40
5.663278842528495
100
AcDbArc
 50
171.3036725542784
 51
228.0269063594487
1001
TOP
1070
    85
  0
LINE
  5
A8A
330
A0B
100
AcDbEntity
  8
P-0000
  6
Continuous
 62
     0
370
     0
100
AcDbLine
 10
-92.28966119657778
 20
-123.3760412617837
 30
0.0
 11
-94.03728088778988
 21
-125.2235249353502
 31
0.0
1001
TOP
1070
    85
  0
LINE
  5
A8B
330
A0B
100
AcDbEntity
  8
P-0000
  6
Continuous
 62
     0
370
     0
100
AcDbLine
 10
-90.71117445104736
 20
-121.9083255159412
 30
0.0
 11
-91.68042069830406
 21
-122.9606500129607
 31
0.0
1001
TOP
1070
    85
  0
ARC
  5
A8C
330
A0B
100
AcDbEntity
  8
P-0000
  6
Continuous
 62
     0
370
     0
100
AcDbCircle
 10
-88.54309328048001
 20
-118.4440510223681
 30
0.0
 40
5.558875133404746
100
AcDbArc
 50
125.3768514667716
 51
178.611514748478
1001
TOP
1070
    85
  0
LINE
  5
A8D
330
A0B
100
AcDbEntity
  8
P-0000
  6
Continuous
 62
     0
370
     0
100
AcDbLine
 10
-53.65438013237113
 20
-115.6426918998433
 30
0.0
 11
-52.51302380375555
 21
-115.6426918998433
 31
0.0
1001
TOP
1070
     7
  0
ARC
  5
A8E
330
A0B
100
AcDbEntity
  8
P-0000
  6
Continuous
 62
     0
370
     0
100
AcDbCircle
 10
-54.83784997234598
 20
-114.9033114623533
 30
0.0
 40
2.439569664000001
100
AcDbArc
 50
354.0835439993975
 51
342.3574175336751
1001
TOP
1070
     7
  0
LINE
  5
A8F
330
A0B
100
AcDbEntity
  8
P-0000
  6
Continuous
 62
     0
370
     0
100
AcDbLine
 10
-56.253151669302
 20
-115.1547779670433
 30
0.0
 11
-52.39829186638807
 21
-115.1547779670433
 31
0.0
1001
TOP
1070
     7
  0
ARC
  5
A90
330
A0B
100
AcDbEntity
  8
P-0000
  6
Continuous
 62
     0
370
     0
100
AcDbCircle
 10
-67.13328107890589
 20
-114.9033114623533
 30
0.0
 40
2.439569664000001
100
AcDbArc
 50
354.0835439993975
 51
342.3574175336751
1001
TOP
1070
     7
  0
LINE
  5
A91
330
A0B
100
AcDbEntity
  8
P-0000
  6
Continuous
 62
     0
370
     0
100
AcDbLine
 10
-77.50234959180421
 20
-117.3428811263534
 30
0.0
 11
-74.57486599500507
 21
-117.3428811263534
 31
0.0
1001
TOP
1070
     7
  0
LINE
  5
A92
330
A0B
100
AcDbEntity
  8
P-0000
  6
Continuous
 62
     0
370
     0
100
AcDbLine
 10
-74.57486599500507
 20
-110.9999999999532
 30
0.0
 11
-77.50234959180421
 21
-110.9999999999532
 31
0.0
1001
TOP
1070
     7
  0
LINE
  5
A93
330
A0B
100
AcDbEntity
  8
P-0000
  6
Continuous
 62
     0
370
     0
100
AcDbLine
 10
-82.90217148550416
 20
-114.320869039862
 30
0.0
 11
-84.48030571869711
 21
-115.9543842828061
 31
0.0
1001
TOP
1070
    85
  0
ARC
  5
A94
330
A0B
100
AcDbEntity
  8
P-0000
  6
Continuous
 62
     0
370
     0
100
AcDbCircle
 10
-89.02722975211579
 20
-120.4469356245718
 30
0.0
 40
6.391989965892938
100
AcDbArc
 50
323.352977406186
 51
44.65536847523573
1001
TOP
1070
    85
  0
LINE
  5
A95
330
A0B
100
AcDbEntity
  8
P-0000
  6
Continuous
 62
     0
370
     0
100
AcDbLine
 10
-85.89263596469553
 20
-117.283636279041
 30
0.0
 11
-84.92338971744155
 21
-116.2313117820216
 31
0.0
1001
TOP
1070
    85
  0
LINE
  5
A96
330
A0B
100
AcDbEntity
  8
P-0000
  6
Continuous
 62
     0
370
     0
100
AcDbLine
 10
-77.50234959180421
 20
-110.9999999999532
 30
0.0
 11
-77.50234959180421
 21
-117.3428811263534
 31
0.0
1001
TOP
1070
     7
  0
ARC
  5
A97
330
A0B
100
AcDbEntity
  8
P-0000
  6
Continuous
 62
     0
370
     0
100
AcDbCircle
 10
-74.81882296140435
 20
-113.6835266303536
 30
0.0
 40
1.5857202816
100
AcDbArc
 50
0.0
 51
90.0
1001
TOP
1070
     7
  0
ARC
  5
A98
330
A0B
100
AcDbEntity
  8
P-0000
  6
Continuous
 62
     0
370
     0
100
AcDbCircle
 10
-74.81882296140435
 20
-114.6593544959532
 30
0.0
 40
1.5857202816
100
AcDbArc
 50
270.0
 51
0.0
1001
TOP
1070
     7
  0
ARC
  5
A99
330
A0B
100
AcDbEntity
  8
P-0000
  6
Continuous
 62
     0
370
     0
100
AcDbCircle
 10
-74.57486599500507
 20
-114.9033114623533
 30
0.0
 40
2.439569663999999
100
AcDbArc
 50
270.0
 51
0.0
1001
TOP
1070
     7
  0
ARC
  5
A9A
330
A0B
100
AcDbEntity
  8
P-0000
  6
Continuous
 62
     0
370
     0
100
AcDbCircle
 10
-74.57486599500507
 20
-113.4395696639535
 30
0.0
 40
2.439569663999999
100
AcDbArc
 50
0.0
 51
90.0
1001
TOP
1070
     7
  0
LINE
  5
A9B
330
A0B
100
AcDbEntity
  8
P-0000
  6
Continuous
 62
     0
370
     0
100
AcDbLine
 10
-76.40454324300486
 20
-112.0978063487534
 30
0.0
 11
-76.40454324300486
 21
-116.2450747775533
 31
0.0
1001
TOP
1070
     7
  0
LINE
  5
A9C
330
A0B
100
AcDbEntity
  8
P-0000
  6
Continuous
 62
     0
370
     0
100
AcDbLine
 10
-76.40454324300486
 20
-116.2450747775533
 30
0.0
 11
-74.81882296140435
 21
-116.2450747775533
 31
0.0
1001
TOP
1070
     7
  0
LINE
  5
A9D
330
A0B
100
AcDbEntity
  8
P-0000
  6
Continuous
 62
     0
370
     0
100
AcDbLine
 10
-74.81882296140435
 20
-112.0978063487534
 30
0.0
 11
-76.40454324300486
 21
-112.0978063487534
 31
0.0
1001
TOP
1070
     7
  0
LINE
  5
A9E
330
A0B
100
AcDbEntity
  8
P-0000
  6
Continuous
 62
     0
370
     0
100
AcDbLine
 10
-70.30472164210562
 20
-117.3428811263534
 30
0.0
 11
-70.30472164210562
 21
-112.4637417983535
 31
0.0
1001
TOP
1070
     7
  0
LINE
  5
A9F
330
A0B
100
AcDbEntity
  8
P-0000
  6
Continuous
 62
     0
370
     0
100
AcDbLine
 10
-71.4025279909076
 20
-112.4637417983535
 30
0.0
 11
-71.4025279909076
 21
-117.3428811263534
 31
0.0
1001
TOP
1070
     7
  0
LINE
  5
AA0
330
A0B
100
AcDbEntity
  8
P-0000
  6
Continuous
 62
     0
370
     0
100
AcDbLine
 10
-71.4025279909076
 20
-117.3428811263534
 30
0.0
 11
-70.30472164210562
 21
-117.3428811263534
 31
0.0
1001
TOP
1070
     7
  0
LINE
  5
AA1
330
A0B
100
AcDbEntity
  8
P-0000
  6
Continuous
 62
     0
370
     0
100
AcDbLine
 10
-71.4025279909076
 20
-111.9758278655534
 30
0.0
 11
-70.30472164210562
 21
-111.9758278655534
 31
0.0
1001
TOP
1070
     7
  0
LINE
  5
AA2
330
A0B
100
AcDbEntity
  8
P-0000
  6
Continuous
 62
     0
370
     0
100
AcDbLine
 10
-70.30472164210562
 20
-110.9999999999532
 30
0.0
 11
-71.4025279909076
 21
-110.9999999999532
 31
0.0
1001
TOP
1070
     7
  0
HATCH
  5
AA3
330
A0B
100
AcDbEntity
  8
P-0000
  6
Continuous
 62
     0
100
AcDbHatch
 10
0.0
 20
0.0
 30
0.0
210
0.0
220
0.0
230
1.0
  2
SOLID
 70
     1
 71
     0
 91
        1
 92
        1
 93
        4
 72
     1
 10
-70.30472164210627
 20
-110.9999999999534
 11
-71.40252799090693
 21
-110.9999999999534
 72
     1
 10
-71.40252799090564
 20
-110.9999999999534
 11
-71.40252799090564
 21
-111.9758278655534
 72
     1
 10
-71.40252799090564
 20
-111.9758278655535
 11
-70.30472164210498
 21
-111.9758278655535
 72
     1
 10
-70.30472164210627
 20
-111.9758278655535
 11
-70.30472164210627
 21
-110.9999999999535
 97
        0
 75
     0
 76
     1
 98
        1
 10
-136.4839087803873
 20
-204.8924935638848
1001
TOP
1070
     3
  0
LINE
  5
AA4
330
A0B
100
AcDbEntity
  8
P-0000
  6
Continuous
 62
     0
370
     0
100
AcDbLine
 10
-70.30472164210562
 20
-112.4637417983535
 30
0.0
 11
-71.4025279909076
 21
-112.4637417983535
 31
0.0
1001
TOP
1070
     7
  0
LINE
  5
AA5
330
A0B
100
AcDbEntity
  8
P-0000
  6
Continuous
 62
     0
370
     0
100
AcDbLine
 10
-73.23310267980318
 20
-114.6593544959532
 30
0.0
 11
-73.23310267980318
 21
-113.6835266303536
 31
0.0
1001
TOP
1070
     7
  0
LINE
  5
AA6
330
A0B
100
AcDbEntity
  8
P-0000
  6
Continuous
 62
     0
370
     0
100
AcDbLine
 10
-72.13529633100447
 20
-114.9033114623533
 30
0.0
 11
-72.13529633100447
 21
-113.4395696639535
 31
0.0
1001
TOP
1070
     7
  0
LINE
  5
AA7
330
A0B
100
AcDbEntity
  8
P-0000
  6
Continuous
 62
     0
370
     0
100
AcDbLine
 10
-71.4025279909076
 20
-110.9999999999532
 30
0.0
 11
-71.4025279909076
 21
-111.9758278655534
 31
0.0
1001
TOP
1070
     7
  0
LINE
  5
AA8
330
A0B
100
AcDbEntity
  8
P-0000
  6
Continuous
 62
     0
370
     0
100
AcDbLine
 10
-70.30472164210562
 20
-111.9758278655534
 30
0.0
 11
-70.30472164210562
 21
-110.9999999999532
 31
0.0
1001
TOP
1070
     7
  0
LINE
  5
AA9
330
A0B
100
AcDbEntity
  8
P-0000
  6
Continuous
 62
     0
370
     0
100
AcDbLine
 10
-61.67972155649409
 20
-112.4637417983535
 30
0.0
 11
-61.22362894667041
 21
-112.4637417983535
 31
0.0
1001
TOP
1070
     7
  0
ARC
  5
AAA
330
A0B
100
AcDbEntity
  8
P-0000
  6
Continuous
 62
     0
370
     0
100
AcDbCircle
 10
-61.22455238416592
 20
-115.7450893416161
 30
0.0
 40
2.30551986259622
100
AcDbArc
 50
89.97705113130741
 51
144.7782320142388
1001
TOP
1070
     7
  0
LINE
  5
AAB
330
A0B
100
AcDbEntity
  8
P-0000
  6
Continuous
 62
     0
370
     0
100
AcDbLine
 10
-65.94981123893105
 20
-115.6426918998433
 30
0.0
 11
-64.80845491031482
 21
-115.6426918998433
 31
0.0
1001
TOP
1070
     7
  0
LINE
  5
AAC
330
A0B
100
AcDbEntity
  8
P-0000
  6
Continuous
 62
     0
370
     0
100
AcDbLine
 10
-68.54858277585996
 20
-115.1547779670433
 30
0.0
 11
-64.69372297294865
 21
-115.1547779670433
 31
0.0
1001
TOP
1070
     7
  0
ARC
  5
AAD
330
A0B
100
AcDbEntity
  8
P-0000
  6
Continuous
 62
     0
370
     0
100
AcDbCircle
 10
-67.13328107890589
 20
-114.7813329791535
 30
0.0
 40
1.463741798400002
100
AcDbArc
 50
194.7813103722914
 51
323.9519363800095
1001
TOP
1070
     7
  0
ARC
  5
AAE
330
A0B
100
AcDbEntity
  8
P-0000
  6
Continuous
 62
     0
370
     0
100
AcDbCircle
 10
-67.13315394981435
 20
-114.7246775057507
 30
0.0
 40
1.309503544180366
100
AcDbArc
 50
23.46032899247153
 51
156.5396710075285
1001
TOP
1070
     7
  0
LINE
  5
AAF
330
A0B
100
AcDbEntity
  8
P-0000
  6
Continuous
 62
     0
370
     0
100
AcDbLine
 10
-68.33440862006644
 20
-114.2033457980831
 30
0.0
 11
-65.93189927956226
 21
-114.2033457980831
 31
0.0
1001
TOP
1070
     7
  0
LINE
  5
AB0
330
A0B
100
AcDbEntity
  8
P-0000
  6
Continuous
 62
     0
370
     0
100
AcDbLine
 10
-63.1079911333061
 20
-117.3428811263534
 30
0.0
 11
-63.1079911333061
 21
-114.4153975295534
 31
0.0
1001
TOP
1070
     7
  0
LINE
  5
AB1
330
A0B
100
AcDbEntity
  8
P-0000
  6
Continuous
 62
     0
370
     0
100
AcDbLine
 10
-64.2057974821061
 20
-112.4637417983535
 30
0.0
 11
-64.2057974821061
 21
-117.3428811263534
 31
0.0
1001
TOP
1070
     7
  0
LINE
  5
AB2
330
A0B
100
AcDbEntity
  8
P-0000
  6
Continuous
 62
     0
370
     0
100
AcDbLine
 10
-64.2057974821061
 20
-117.3428811263534
 30
0.0
 11
-63.1079911333061
 21
-117.3428811263534
 31
0.0
1001
TOP
1070
     7
  0
LINE
  5
AB3
330
A0B
100
AcDbEntity
  8
P-0000
  6
Continuous
 62
     0
370
     0
100
AcDbLine
 10
-63.1079911333061
 20
-112.4637417983535
 30
0.0
 11
-64.2057974821061
 21
-112.4637417983535
 31
0.0
1001
TOP
1070
     7
  0
ARC
  5
AB4
330
A0B
100
AcDbEntity
  8
P-0000
  6
Continuous
 62
     0
370
     0
100
AcDbCircle
 10
-61.5678898700862
 20
-114.1605808182826
 30
0.0
 40
1.700520210299701
100
AcDbArc
 50
93.77067625261986
 51
154.9129671807329
1001
TOP
1070
     7
  0
LINE
  5
AB5
330
A0B
100
AcDbEntity
  8
P-0000
  6
Continuous
 62
     0
370
     0
100
AcDbLine
 10
-63.1079911333061
 20
-113.4395696639535
 30
0.0
 11
-63.1079911333061
 21
-112.4637417983535
 31
0.0
1001
TOP
1070
     7
  0
LINE
  5
AB6
330
A0B
100
AcDbEntity
  8
P-0000
  6
Continuous
 62
     0
370
     0
100
AcDbLine
 10
-63.1079911333061
 20
-112.4637417983535
 30
0.0
 11
-63.1079911333061
 21
-113.4395696639535
 31
0.0
1001
TOP
1070
     7
  0
LINE
  5
AB7
330
A0B
100
AcDbEntity
  8
P-0000
  6
Continuous
 62
     0
370
     0
100
AcDbLine
 10
-59.39496610469735
 20
-117.3428811263534
 30
0.0
 11
-59.39496610469735
 21
-114.4153975295534
 31
0.0
1001
TOP
1070
     7
  0
LINE
  5
AB8
330
A0B
100
AcDbEntity
  8
P-0000
  6
Continuous
 62
     0
370
     0
100
AcDbLine
 10
-60.49277245349801
 20
-112.4637417983535
 30
0.0
 11
-60.49277245349801
 21
-117.3428811263534
 31
0.0
1001
TOP
1070
     7
  0
LINE
  5
AB9
330
A0B
100
AcDbEntity
  8
P-0000
  6
Continuous
 62
     0
370
     0
100
AcDbLine
 10
-60.49277245349801
 20
-117.3428811263534
 30
0.0
 11
-59.39496610469735
 21
-117.3428811263534
 31
0.0
1001
TOP
1070
     7
  0
ARC
  5
ABA
330
A0B
100
AcDbEntity
  8
P-0000
  6
Continuous
 62
     0
370
     0
100
AcDbCircle
 10
-57.8548648414781
 20
-114.1605808182826
 30
0.0
 40
1.700520210299701
100
AcDbArc
 50
93.77067625261986
 51
154.9129671807329
1001
TOP
1070
     7
  0
ARC
  5
ABB
330
A0B
100
AcDbEntity
  8
P-0000
  6
Continuous
 62
     0
370
     0
100
AcDbCircle
 10
-57.51152735555913
 20
-115.7450893416161
 30
0.0
 40
2.30551986259622
100
AcDbArc
 50
89.97705113130741
 51
144.7782320142388
1001
TOP
1070
     7
  0
LINE
  5
ABC
330
A0B
100
AcDbEntity
  8
P-0000
  6
Continuous
 62
     0
370
     0
100
AcDbLine
 10
-59.39496610469735
 20
-113.4395696639535
 30
0.0
 11
-59.39496610469735
 21
-112.4637417983535
 31
0.0
1001
TOP
1070
     7
  0
LINE
  5
ABD
330
A0B
100
AcDbEntity
  8
P-0000
  6
Continuous
 62
     0
370
     0
100
AcDbLine
 10
-61.22362894667041
 20
-113.4395696639535
 30
0.0
 11
-61.22362894667041
 21
-112.4637417983535
 31
0.0
1001
TOP
1070
     7
  0
LINE
  5
ABE
330
A0B
100
AcDbEntity
  8
P-0000
  6
Continuous
 62
     0
370
     0
100
AcDbLine
 10
-59.39496610469735
 20
-112.4637417983535
 30
0.0
 11
-59.39496610469735
 21
-113.4395696639535
 31
0.0
1001
TOP
1070
     7
  0
LINE
  5
ABF
330
A0B
100
AcDbEntity
  8
P-0000
  6
Continuous
 62
     0
370
     0
100
AcDbLine
 10
-59.39496610469735
 20
-112.4637417983535
 30
0.0
 11
-60.49277245349801
 21
-112.4637417983535
 31
0.0
1001
TOP
1070
     7
  0
LINE
  5
AC0
330
A0B
100
AcDbEntity
  8
P-0000
  6
Continuous
 62
     0
370
     0
100
AcDbLine
 10
-57.5106039180623
 20
-113.4395696639535
 30
0.0
 11
-57.5106039180623
 21
-112.4637417983535
 31
0.0
1001
TOP
1070
     7
  0
LINE
  5
AC1
330
A0B
100
AcDbEntity
  8
P-0000
  6
Continuous
 62
     0
370
     0
100
AcDbLine
 10
-57.96669652788599
 20
-112.4637417983535
 30
0.0
 11
-57.5106039180623
 21
-112.4637417983535
 31
0.0
1001
TOP
1070
     7
  0
ARC
  5
AC2
330
A0B
100
AcDbEntity
  8
P-0000
  6
Continuous
 62
     0
370
     0
100
AcDbCircle
 10
-54.83784997234598
 20
-114.7813329791535
 30
0.0
 40
1.463741798400002
100
AcDbArc
 50
194.7813103722914
 51
323.9519363800095
1001
TOP
1070
     7
  0
ARC
  5
AC3
330
A0B
100
AcDbEntity
  8
P-0000
  6
Continuous
 62
     0
370
     0
100
AcDbCircle
 10
-54.83772284325443
 20
-114.7246775057507
 30
0.0
 40
1.309503544180366
100
AcDbArc
 50
23.46032899247153
 51
156.5396710075285
1001
TOP
1070
     7
  0
LINE
  5
AC4
330
A0B
100
AcDbEntity
  8
P-0000
  6
Continuous
 62
     0
370
     0
100
AcDbLine
 10
-56.03897751350586
 20
-114.2033457980831
 30
0.0
 11
-53.63646817300168
 21
-114.2033457980831
 31
0.0
1001
TOP
1070
     7
  0
HATCH
  5
AC5
330
A0B
100
AcDbEntity
  8
P-0000
  6
Continuous
 62
     0
 48
35.0
100
AcDbHatch
 10
0.0
 20
0.0
 30
0.0
210
0.0
220
0.0
230
1.0
  2
SOLID
 70
     1
 71
     0
 91
        4
 92
        7
 72
     1
 73
     1
 93
        5
 10
-94.03728088778988
 20
-125.2235249353502
 42
0.0
 10
-92.28966119657778
 20
-123.3760412617837
 42
-0.2526825286644691
 10
-94.10033621549056
 20
-118.3093524326913
 42
-0.2365496875282557
 10
-91.7614140375581
 20
-113.911556758355
 42
-0.3189181398811662
 10
-83.35033676430748
 20
-113.9115567583528
 42
0.9456749006874259
 97
        0
 92
       23
 72
     1
 73
     1
 93
        3
 10
-91.68042069830406
 20
-122.9606500129607
 42
0.0
 10
-90.71117445104736
 20
-121.9083255159412
 42
-0.9367032511192487
 10
-85.2261793413445
 20
-115.9531879682591
 42
0.991293729556146
 97
        0
 92
       23
 72
     1
 73
     1
 93
        3
 10
-91.37763107440111
 20
-123.2387738267226
 42
0.9912937295513184
 10
-84.92338971744155
 20
-116.2313117820216
 42
0.0
 10
-85.89263596469553
 20
-117.283636279041
 42
-0.9367032511219315
 97
        0
 92
        7
 72
     1
 73
     1
 93
        4
 10
-83.89875797035076
 20
-124.2622092592821
 42
-0.3807594385329842
 10
-93.37171269560638
 20
-125.8488038677993
 42
0.9590989174885454
 10
-82.90217148550416
 20
-114.320869039862
 42
0.0
 10
-84.48030571869711
 20
-115.9543842828061
 42
-0.3704192144445529
 97
        0
 75
     0
 76
     1
 47
0.0537802133905057
 98
        4
 10
-95.28899908413293
 20
-117.9121948253558
 10
-92.51811574438377
 20
-119.1148667670212
 10
-84.53359595731015
 20
-120.3175387086872
 10
-82.20022029262763
 20
-118.4953086011877
1001
TOP
1070
     3
  0
HATCH
  5
AC6
330
A0B
100
AcDbEntity
  8
P-0000
  6
Continuous
 62
     0
 48
35.0
100
AcDbHatch
 10
0.0
 20
0.0
 30
0.0
210
0.0
220
0.0
230
1.0
  2
SOLID
 70
     1
 71
     0
 91
        9
 92
        7
 72
     1
 73
     1
 93
        6
 10
-74.57486599500573
 20
-110.9999999999531
 42
0.0
 10
-77.50234959180421
 20
-110.9999999999531
 42
0.0
 10
-77.50234959180485
 20
-117.3428811263533
 42
0.0
 10
-74.57486599500573
 20
-117.3428811263533
 42
0.4142135623732426
 10
-72.13529633100447
 20
-114.9033114623533
 42
0.0
 10
-72.13529633100447
 20
-113.4395696639534
 42
0.4142135623732917
 97
        0
 92
       22
 72
     1
 73
     1
 93
        6
 10
-76.40454324300486
 20
-112.0978063487534
 42
0.0
 10
-74.81882296140435
 20
-112.0978063487534
 42
-0.4142135623733217
 10
-73.23310267980318
 20
-113.6835266303533
 42
0.0
 10
-73.23310267980318
 20
-114.6593544959533
 42
-0.4142135623732008
 10
-74.81882296140369
 20
-116.2450747775532
 42
0.0
 10
-76.40454324300486
 20
-116.2450747775532
 42
0.0
 97
        0
 92
        7
 72
     0
 73
     1
 93
        4
 10
-71.40252799090825
 20
-117.3428811263533
 10
-70.30472164210562
 20
-117.3428811263534
 10
-70.30472164210562
 20
-112.4637417983535
 10
-71.4025279909076
 20
-112.4637417983534
 97
        0
 92
        7
 72
     1
 73
     1
 93
        4
 10
-68.5485827758606
 20
-115.1547779670432
 42
0.0
 10
-64.70670638553077
 20
-115.1547779670432
 42
19.52759892169242
 10
-64.80845491031548
 20
-115.6426918998433
 42
0.0
 10
-65.94981123892972
 20
-115.6426918998433
 42
-0.6319943824460191
 97
        0
 92
       22
 72
     1
 73
     1
 93
        2
 10
-68.33440862006513
 20
-114.2033457980811
 42
-0.6561238478654379
 10
-65.93189927956356
 20
-114.2033457980831
 42
0.0
 97
        0
 92
        7
 72
     1
 73
     1
 93
        9
 10
-63.1079911333061
 20
-114.4153975295551
 42
-0.2437791817823871
 10
-61.22362894667041
 20
-113.4395696639536
 42
0.0
 10
-61.22362894667041
 20
-112.4637417983535
 42
0.0
 10
-61.6797215564895
 20
-112.4637417983534
 42
0.2732984134248683
 10
-63.1079911333061
 20
-113.4395696639525
 42
0.0
 10
-63.1079911333061
 20
-112.4637417983534
 42
0.0
 10
-64.20579748210546
 20
-112.4637417983534
 42
0.0
 10
-64.2057974821061
 20
-117.3428811263532
 42
0.0
 10
-63.10799113330676
 20
-117.3428811263532
 42
0.0
 97
        0
 92
        7
 72
     1
 73
     1
 93
        9
 10
-60.49277245349736
 20
-117.3428811263533
 42
0.0
 10
-59.3949661046967
 20
-117.3428811263534
 42
0.0
 10
-59.39496610469735
 20
-114.4153975295523
 42
-0.2437791817821463
 10
-57.5106039180623
 20
-113.4395696639536
 42
0.0
 10
-57.5106039180623
 20
-112.4637417983535
 42
0.0
 10
-57.9666965278814
 20
-112.4637417983534
 42
0.2732984134246251
 10
-59.39496610469735
 20
-113.4395696639511
 42
0.0
 10
-59.39496610469735
 20
-112.4637417983534
 42
0.0
 10
-60.49277245349801
 20
-112.4637417983535
 42
0.0
 97
        0
 92
        7
 72
     1
 73
     1
 93
        4
 10
-52.41127527897084
 20
-115.1547779670432
 42
19.52759892169242
 10
-52.51302380375555
 20
-115.6426918998433
 42
0.0
 10
-53.65438013237048
 20
-115.6426918998433
 42
-0.631994382445661
 10
-56.25315166930069
 20
-115.1547779670432
 42
0.0
 97
        0
 92
       22
 72
     1
 73
     1
 93
        2
 10
-56.03897751350586
 20
-114.2033457980832
 42
-0.6561238478663365
 10
-53.63646817300299
 20
-114.2033457980831
 42
0.0
 97
        0
 75
     0
 76
     1
 47
0.1054092179442032
 98
        9
 10
-77.30509361450609
 20
-111.652214293695
 10
-77.30509361450609
 20
-111.652214293695
 10
-70.92517770860029
 20
-114.0180230722183
 10
-68.97004263540313
 20
-114.9952049659171
 10
-68.97004263540313
 20
-114.9952049659171
 10
-63.41334181494616
 20
-115.2523580455926
 10
-60.12048197631124
 20
-115.1494968773671
 10
-55.90150541812637
 20
-114.429468063343
 10
-55.90150541812637
 20
-114.429468063343
1001
TOP
1070
     5
  0
MTEXT
  5
AC7
330
A0B
100
AcDbEntity
  8
P-0000
  6
Continuous
 62
     0
100
AcDbMText
 10
-77.50752909622914
 20
-125.390962447158
 30
0.0
 40
1.5
 41
15.89275572328779
 71
     1
 72
     5
  1
{\f@Arial Unicode MS|b0|i0|c0|p34;\H2x;Group\H0.5x; srl}
  7
ROMANS
 73
     1
 44
1.0
1001
TOP
1070
     7
1001
ACAD
1000
MTEXTBEGIN
1070
    73
1070
     1
1070
    44
1040
1.0
1070
    74
1070
     0
1000
MTEXTEND
  0
LINE
  5
AC8
330
A0B
100
AcDbEntity
  8
P-0000
  6
Continuous
 62
     0
100
AcDbLine
 10
-60.31400746853627
 20
-118.6190131723036
 30
0.0
 11
-65.10163245619105
 21
-118.6190131723036
 31
0.0
1001
TOP
1070
     7
  0
LINE
  5
AC9
330
A0B
100
AcDbEntity
  8
P-0000
  6
Continuous
 62
     0
100
AcDbLine
 10
-65.10163245619105
 20
-118.6190131723036
 30
0.0
 11
-60.31400746853627
 21
-118.6190131723036
 31
0.0
1001
TOP
1070
     7
  0
LINE
  5
ACA
330
A0B
100
AcDbEntity
  8
P-0000
  6
Continuous
 62
     0
100
AcDbLine
 10
-60.60899754084211
 20
-122.4817401737899
 30
0.0
 11
-59.78513540320495
 21
-121.2719230596353
 31
0.0
1001
TOP
1070
     7
  0
LINE
  5
ACB
330
A0B
100
AcDbEntity
  8
P-0000
  6
Continuous
 62
     0
100
AcDbLine
 10
-60.60899754084211
 20
-122.4817401737899
 30
0.0
 11
-59.78513540320495
 21
-121.2719230596353
 31
0.0
1001
TOP
1070
     7
  0
LINE
  5
ACC
330
A0B
100
AcDbEntity
  8
P-0000
  6
Continuous
 62
     0
100
AcDbLine
 10
-60.60899754084211
 20
-122.4817401737899
 30
0.0
 11
-58.9612732655678
 21
-122.4817401737899
 31
0.0
1001
TOP
1070
     7
  0
LINE
  5
ACD
330
A0B
100
AcDbEntity
  8
P-0000
  6
Continuous
 62
     0
100
AcDbLine
 10
-58.9612732655678
 20
-122.4817401737899
 30
0.0
 11
-60.60899754084211
 21
-122.4817401737899
 31
0.0
1001
TOP
1070
     7
  0
LINE
  5
ACE
330
A0B
100
AcDbEntity
  8
P-0000
  6
Continuous
 62
     0
100
AcDbLine
 10
-63.4872398605242
 20
-124.055443766988
 30
0.0
 11
-56.08303094588571
 21
-124.055443766988
 31
0.0
1001
TOP
1070
     7
  0
LINE
  5
ACF
330
A0B
100
AcDbEntity
  8
P-0000
  6
Continuous
 62
     0
100
AcDbLine
 10
-63.4872398605242
 20
-124.055443766988
 30
0.0
 11
-56.08303094588571
 21
-124.055443766988
 31
0.0
1001
TOP
1070
     7
  0
LINE
  5
AD0
330
A0B
100
AcDbEntity
  8
P-0000
  6
Continuous
 62
     0
100
AcDbLine
 10
-61.88263947056615
 20
-120.9225027431548
 30
0.0
 11
-60.31400746853627
 21
-118.6190131723036
 31
0.0
1001
TOP
1070
     7
  0
LINE
  5
AD1
330
A0B
100
AcDbEntity
  8
P-0000
  6
Continuous
 62
     0
100
AcDbLine
 10
-61.88263947056615
 20
-120.9225027431548
 30
0.0
 11
-60.31400746853627
 21
-118.6190131723036
 31
0.0
1001
TOP
1070
     7
  0
LINE
  5
AD2
330
A0B
100
AcDbEntity
  8
P-0000
  6
Continuous
 62
     0
100
AcDbLine
 10
-63.4872398605242
 20
-124.055443766988
 30
0.0
 11
-59.78513540320495
 21
-118.6190131723036
 31
0.0
1001
TOP
1070
     7
  0
LINE
  5
AD3
330
A0B
100
AcDbEntity
  8
P-0000
  6
Continuous
 62
     0
100
AcDbLine
 10
-59.78513540320495
 20
-118.6190131723036
 30
0.0
 11
-63.4872398605242
 21
-124.055443766988
 31
0.0
1001
TOP
1070
     7
  0
LINE
  5
AD4
330
A0B
100
AcDbEntity
  8
P-0000
  6
Continuous
 62
     0
100
AcDbLine
 10
-72.47806497115667
 20
-118.6190131723036
 30
0.0
 11
-68.77596051383742
 21
-118.6190131723036
 31
0.0
1001
TOP
1070
     7
  0
LINE
  5
AD5
330
A0B
100
AcDbEntity
  8
P-0000
  6
Continuous
 62
     0
100
AcDbLine
 10
-72.47806497115667
 20
-118.6190131723036
 30
0.0
 11
-68.77596051383742
 21
-118.6190131723036
 31
0.0
1001
TOP
1070
     7
  0
LINE
  5
AD6
330
A0B
100
AcDbEntity
  8
P-0000
  6
Continuous
 62
     0
100
AcDbLine
 10
-71.94919290582532
 20
-124.055443766988
 30
0.0
 11
-68.24708844850608
 21
-118.6190131723036
 31
0.0
1001
TOP
1070
     7
  0
LINE
  5
AD7
330
A0B
100
AcDbEntity
  8
P-0000
  6
Continuous
 62
     0
100
AcDbLine
 10
-72.47806497115667
 20
-124.055443766988
 30
0.0
 11
-68.77596051383742
 21
-118.6190131723036
 31
0.0
1001
TOP
1070
     7
  0
LINE
  5
AD8
330
A0B
100
AcDbEntity
  8
P-0000
  6
Continuous
 62
     0
100
AcDbLine
 10
-71.94919290582532
 20
-124.055443766988
 30
0.0
 11
-68.24708844850608
 21
-118.6190131723036
 31
0.0
1001
TOP
1070
     7
  0
LINE
  5
AD9
330
A0B
100
AcDbEntity
  8
P-0000
  6
Continuous
 62
     0
100
AcDbLine
 10
-68.77596051383742
 20
-118.6190131723036
 30
0.0
 11
-72.47806497115667
 21
-124.055443766988
 31
0.0
1001
TOP
1070
     7
  0
LINE
  5
ADA
330
A0B
100
AcDbEntity
  8
P-0000
  6
Continuous
 62
     0
100
AcDbLine
 10
-71.94919290582532
 20
-124.055443766988
 30
0.0
 11
-64.54498399118683
 21
-124.055443766988
 31
0.0
1001
TOP
1070
     7
  0
LINE
  5
ADB
330
A0B
100
AcDbEntity
  8
P-0000
  6
Continuous
 62
     0
100
AcDbLine
 10
-64.54498399118683
 20
-124.055443766988
 30
0.0
 11
-71.94919290582532
 21
-124.055443766988
 31
0.0
1001
TOP
1070
     7
  0
LINE
  5
ADC
330
A0B
100
AcDbEntity
  8
P-0000
  6
Continuous
 62
     0
100
AcDbLine
 10
-77.50234959180421
 20
-118.6190131723036
 30
0.0
 11
-75.2546433141461
 21
-118.6190131723036
 31
0.0
1001
TOP
1070
     7
  0
LINE
  5
ADD
330
A0B
100
AcDbEntity
  8
P-0000
  6
Continuous
 62
     0
100
AcDbLine
 10
-77.50234959180421
 20
-124.055443766988
 30
0.0
 11
-75.2546433141461
 21
-124.055443766988
 31
0.0
1001
TOP
1070
     7
  0
LINE
  5
ADE
330
A0B
100
AcDbEntity
  8
P-0000
  6
Continuous
 62
     0
100
AcDbLine
 10
-75.2546433141461
 20
-124.055443766988
 30
0.0
 11
-77.50234959180421
 21
-124.055443766988
 31
0.0
1001
TOP
1070
     7
  0
LINE
  5
ADF
330
A0B
100
AcDbEntity
  8
P-0000
  6
Continuous
 62
     0
100
AcDbLine
 10
-77.50234959180421
 20
-118.6190131723036
 30
0.0
 11
-75.2546433141461
 21
-118.6190131723036
 31
0.0
1001
TOP
1070
     7
  0
LINE
  5
AE0
330
A0B
100
AcDbEntity
  8
P-0000
  6
Continuous
 62
     0
100
AcDbLine
 10
-77.50234959180421
 20
-124.055443766988
 30
0.0
 11
-77.50234959180421
 21
-118.6190131723036
 31
0.0
1001
TOP
1070
     7
  0
LINE
  5
AE1
330
A0B
100
AcDbEntity
  8
P-0000
  6
Continuous
 62
     0
100
AcDbLine
 10
-77.50234959180421
 20
-124.055443766988
 30
0.0
 11
-77.50234959180421
 21
-118.6190131723036
 31
0.0
1001
TOP
1070
     7
  0
LINE
  5
AE2
330
A0B
100
AcDbEntity
  8
P-0000
  6
Continuous
 62
     0
100
AcDbLine
 10
-72.47806497115667
 20
-121.7664203586998
 30
0.0
 11
-73.8663541426514
 21
-124.055443766988
 31
0.0
1001
TOP
1070
     7
  0
LINE
  5
AE3
330
A0B
100
AcDbEntity
  8
P-0000
  6
Continuous
 62
     0
100
AcDbLine
 10
-72.47806497115667
 20
-121.7664203586998
 30
0.0
 11
-72.47806497115667
 21
-124.055443766988
 31
0.0
1001
TOP
1070
     7
  0
LINE
  5
AE4
330
A0B
100
AcDbEntity
  8
P-0000
  6
Continuous
 62
     0
100
AcDbLine
 10
-72.47806497115667
 20
-121.7664203586998
 30
0.0
 11
-73.8663541426514
 21
-124.055443766988
 31
0.0
1001
TOP
1070
     7
  0
LINE
  5
AE5
330
A0B
100
AcDbEntity
  8
P-0000
  6
Continuous
 62
     0
100
AcDbLine
 10
-72.47806497115667
 20
-124.055443766988
 30
0.0
 11
-72.47806497115667
 21
-121.7664203586998
 31
0.0
1001
TOP
1070
     7
  0
LINE
  5
AE6
330
A0B
100
AcDbEntity
  8
P-0000
  6
Continuous
 62
     0
100
AcDbLine
 10
-75.2546433141461
 20
-124.055443766988
 30
0.0
 11
-75.2546433141461
 21
-121.7664203586998
 31
0.0
1001
TOP
1070
     7
  0
LINE
  5
AE7
330
A0B
100
AcDbEntity
  8
P-0000
  6
Continuous
 62
     0
100
AcDbLine
 10
-75.2546433141461
 20
-121.7664203586998
 30
0.0
 11
-75.2546433141461
 21
-124.055443766988
 31
0.0
1001
TOP
1070
     7
  0
LINE
  5
AE8
330
A0B
100
AcDbEntity
  8
P-0000
  6
Continuous
 62
     0
100
AcDbLine
 10
-75.2546433141461
 20
-121.7664203586998
 30
0.0
 11
-73.8663541426514
 21
-124.055443766988
 31
0.0
1001
TOP
1070
     7
  0
LINE
  5
AE9
330
A0B
100
AcDbEntity
  8
P-0000
  6
Continuous
 62
     0
100
AcDbLine
 10
-73.8663541426514
 20
-124.055443766988
 30
0.0
 11
-75.2546433141461
 21
-121.7664203586998
 31
0.0
1001
TOP
1070
     7
  0
LINE
  5
AEA
330
A0B
100
AcDbEntity
  8
P-0000
  6
Continuous
 62
     0
100
AcDbLine
 10
-72.47806497115667
 20
-118.6190131723036
 30
0.0
 11
-73.8663541426514
 21
-120.9080365805917
 31
0.0
1001
TOP
1070
     7
  0
LINE
  5
AEB
330
A0B
100
AcDbEntity
  8
P-0000
  6
Continuous
 62
     0
100
AcDbLine
 10
-73.8663541426514
 20
-120.9080365805917
 30
0.0
 11
-72.47806497115667
 21
-118.6190131723036
 31
0.0
1001
TOP
1070
     7
  0
LINE
  5
AEC
330
A0B
100
AcDbEntity
  8
P-0000
  6
Continuous
 62
     0
100
AcDbLine
 10
-75.2546433141461
 20
-118.6190131723036
 30
0.0
 11
-73.8663541426514
 21
-120.9080365805917
 31
0.0
1001
TOP
1070
     7
  0
LINE
  5
AED
330
A0B
100
AcDbEntity
  8
P-0000
  6
Continuous
 62
     0
100
AcDbLine
 10
-75.2546433141461
 20
-118.6190131723036
 30
0.0
 11
-73.8663541426514
 21
-120.9080365805917
 31
0.0
1001
TOP
1070
     7
  0
ELLIPSE
  5
AEE
330
A0B
100
AcDbEntity
  8
P-0000
  6
Continuous
 62
     0
100
AcDbEllipse
 10
-65.10163245619105
 20
-120.0496528024836
 30
0.0
 11
-0.0000000000000277
 21
1.430639630180138
 31
0.0
210
0.0
220
0.0
230
-1.0
 40
0.9241881291669729
 41
4.077362244994374
 42
6.283185307179586
1001
TOP
1070
     7
  0
LINE
  5
AEF
330
A0B
100
AcDbEntity
  8
P-0000
  6
Continuous
 62
     0
100
AcDbLine
 10
-64.54498399118683
 20
-124.055443766988
 30
0.0
 11
-68.24708844850608
 21
-118.6190131723036
 31
0.0
1001
TOP
1070
     7
  0
LINE
  5
AF0
330
A0B
100
AcDbEntity
  8
P-0000
  6
Continuous
 62
     0
100
AcDbLine
 10
-68.24708844850608
 20
-118.6190131723036
 30
0.0
 11
-64.54498399118683
 21
-124.055443766988
 31
0.0
1001
TOP
1070
     7
  0
ELLIPSE
  5
AF1
330
A0B
100
AcDbEntity
  8
P-0000
  6
Continuous
 62
     0
100
AcDbEllipse
 10
-65.10163245619105
 20
-120.0496528024836
 30
0.0
 11
0.0000000000000073
 21
1.430639630180138
 31
0.0
210
0.0
220
0.0
230
1.0
 40
0.9241881291669608
 41
0.0000000000000056
 42
2.205823062185215
1001
TOP
1070
     7
  0
LINE
  5
AF2
330
A0B
100
AcDbEntity
  8
P-0000
  6
Continuous
 62
     0
100
AcDbLine
 10
-64.01611192585551
 20
-124.055443766988
 30
0.0
 11
-66.16606131471133
 21
-120.8983068549025
 31
0.0
1001
TOP
1070
     7
  0
LINE
  5
AF3
330
A0B
100
AcDbEntity
  8
P-0000
  6
Continuous
 62
     0
100
AcDbLine
 10
-66.16606131471133
 20
-120.8983068549025
 30
0.0
 11
-64.01611192585551
 21
-124.055443766988
 31
0.0
1001
TOP
1070
     7
  0
LINE
  5
AF4
330
A0B
100
AcDbEntity
  8
P-0000
  6
Continuous
 62
     0
100
AcDbLine
 10
-67.42322631086892
 20
-122.4817401737899
 30
0.0
 11
-68.24708844850608
 21
-121.2719230596353
 31
0.0
1001
TOP
1070
     7
  0
LINE
  5
AF5
330
A0B
100
AcDbEntity
  8
P-0000
  6
Continuous
 62
     0
100
AcDbLine
 10
-68.24708844850608
 20
-121.2719230596353
 30
0.0
 11
-67.42322631086892
 21
-122.4817401737899
 31
0.0
1001
TOP
1070
     7
  0
LINE
  5
AF6
330
A0B
100
AcDbEntity
  8
P-0000
  6
Continuous
 62
     0
100
AcDbLine
 10
-69.07095058614323
 20
-122.4817401737899
 30
0.0
 11
-68.24708844850608
 21
-121.2719230596353
 31
0.0
1001
TOP
1070
     7
  0
LINE
  5
AF7
330
A0B
100
AcDbEntity
  8
P-0000
  6
Continuous
 62
     0
100
AcDbLine
 10
-69.07095058614323
 20
-122.4817401737899
 30
0.0
 11
-68.24708844850608
 21
-121.2719230596353
 31
0.0
1001
TOP
1070
     7
  0
LINE
  5
AF8
330
A0B
100
AcDbEntity
  8
P-0000
  6
Continuous
 62
     0
100
AcDbLine
 10
-69.07095058614323
 20
-122.4817401737899
 30
0.0
 11
-67.42322631086892
 21
-122.4817401737899
 31
0.0
1001
TOP
1070
     7
  0
LINE
  5
AF9
330
A0B
100
AcDbEntity
  8
P-0000
  6
Continuous
 62
     0
100
AcDbLine
 10
-67.42322631086892
 20
-122.4817401737899
 30
0.0
 11
-69.07095058614323
 21
-122.4817401737899
 31
0.0
1001
TOP
1070
     7
  0
LINE
  5
AFA
330
A0B
100
AcDbEntity
  8
P-0000
  6
Continuous
 62
     0
100
AcDbLine
 10
-64.01611192585551
 20
-124.055443766988
 30
0.0
 11
-62.44747992382563
 21
-121.7519541961368
 31
0.0
1001
TOP
1070
     7
  0
LINE
  5
AFB
330
A0B
100
AcDbEntity
  8
P-0000
  6
Continuous
 62
     0
100
AcDbLine
 10
-64.01611192585551
 20
-124.055443766988
 30
0.0
 11
-62.44747992382563
 21
-121.7519541961368
 31
0.0
1001
TOP
1070
     7
  0
LINE
  5
AFC
330
A0B
100
AcDbEntity
  8
P-0000
  6
Continuous
 62
     0
100
AcDbLine
 10
-62.44747992382563
 20
-121.7519541961368
 30
0.0
 11
-63.46925566656012
 21
-121.7519541961368
 31
0.0
1001
TOP
1070
     7
  0
LINE
  5
AFD
330
A0B
100
AcDbEntity
  8
P-0000
  6
Continuous
 62
     0
100
AcDbLine
 10
-63.46925566656012
 20
-120.9225027431548
 30
0.0
 11
-61.88263947056615
 21
-120.9225027431548
 31
0.0
1001
TOP
1070
     7
  0
LINE
  5
AFE
330
A0B
100
AcDbEntity
  8
P-0000
  6
Continuous
 62
     0
100
AcDbLine
 10
-62.44747992382563
 20
-121.7519541961368
 30
0.0
 11
-63.46925566656012
 21
-121.7519541961368
 31
0.0
1001
TOP
1070
     7
  0
LINE
  5
AFF
330
A0B
100
AcDbEntity
  8
P-0000
  6
Continuous
 62
     0
100
AcDbLine
 10
-61.88263947056615
 20
-120.9225027431548
 30
0.0
 11
-63.46925566656012
 21
-120.9225027431548
 31
0.0
1001
TOP
1070
     7
  0
ELLIPSE
  5
B00
330
A0B
100
AcDbEntity
  8
P-0000
  6
Continuous
 62
     0
100
AcDbEllipse
 10
-63.46925566656012
 20
-121.3372284696458
 30
0.0
 11
0.0000000000000016
 21
0.4147257264910956
 31
0.0
210
0.0
220
0.0
230
-1.0
 40
0.9241881291669779
 41
3.141592653589793
 42
6.283185307179586
1001
TOP
1070
     7
  0
ELLIPSE
  5
B01
330
A0B
100
AcDbEntity
  8
P-0000
  6
Continuous
 62
     0
100
AcDbEllipse
 10
-63.46925566656012
 20
-121.3372284696458
 30
0.0
 11
-0.0000000000000201
 21
0.4147257264910956
 31
0.0
210
0.0
220
0.0
230
1.0
 40
0.9241881291669438
 41
-0.0000000000000524
 42
3.14159265358974
1001
TOP
1070
     7
  0
ELLIPSE
  5
B02
330
A0B
100
AcDbEntity
  8
P-0000
  6
Continuous
 62
     0
100
AcDbEllipse
 10
-55.55415888055438
 20
-120.3357807285197
 30
0.0
 11
-0.0000000000001066
 21
0.6294814372792618
 31
0.0
210
0.0
220
0.0
230
1.0
 40
0.9241881291669697
 41
3.141592653589633
 42
6.283185307179426
1001
TOP
1070
     7
  0
ELLIPSE
  5
B03
330
A0B
100
AcDbEntity
  8
P-0000
  6
Continuous
 62
     0
100
AcDbEllipse
 10
-55.55415888055438
 20
-120.3357807285197
 30
0.0
 11
0.0000000000000215
 21
0.6294814372792617
 31
0.0
210
0.0
220
0.0
230
-1.0
 40
0.9241881291669697
 41
0.0
 42
3.141592653589793
1001
TOP
1070
     7
  0
ELLIPSE
  5
B04
330
A0B
100
AcDbEntity
  8
P-0000
  6
Continuous
 62
     0
100
AcDbEllipse
 10
-55.55415888055438
 20
-120.3357807285197
 30
0.0
 11
0.0000000000000215
 21
1.716767556216168
 31
0.0
210
0.0
220
0.0
230
1.0
 40
0.9241881291669681
 41
3.141592653589806
 42
6.283185307179599
1001
TOP
1070
     7
  0
ELLIPSE
  5
B05
330
A0B
100
AcDbEntity
  8
P-0000
  6
Continuous
 62
     0
100
AcDbEllipse
 10
-55.55415888055438
 20
-120.3357807285197
 30
0.0
 11
0.0000000000000018
 21
1.716767556216167
 31
0.0
210
0.0
220
0.0
230
-1.0
 40
0.9241881291669688
 41
0.0
 42
3.141592653589793
1001
TOP
1070
     7
  0
LINE
  5
B06
330
A0B
100
AcDbEntity
  8
P-0000
  6
Continuous
 62
     0
100
AcDbLine
 10
-59.78513540320495
 20
-121.2719230596353
 30
0.0
 11
-58.9612732655678
 21
-122.4817401737899
 31
0.0
1001
TOP
1070
     7
  0
LINE
  5
B07
330
A0B
100
AcDbEntity
  8
P-0000
  6
Continuous
 62
     0
100
AcDbLine
 10
-58.9612732655678
 20
-122.4817401737899
 30
0.0
 11
-59.78513540320495
 21
-121.2719230596353
 31
0.0
1001
TOP
1070
     7
  0
LINE
  5
B08
330
A0B
100
AcDbEntity
  8
P-0000
  6
Continuous
 62
     0
100
AcDbLine
 10
-56.08303094588571
 20
-124.055443766988
 30
0.0
 11
-59.78513540320495
 21
-118.6190131723036
 31
0.0
1001
TOP
1070
     7
  0
LINE
  5
B09
330
A0B
100
AcDbEntity
  8
P-0000
  6
Continuous
 62
     0
100
AcDbLine
 10
-55.55415888055438
 20
-124.055443766988
 30
0.0
 11
-59.25626333787364
 21
-118.6190131723036
 31
0.0
1001
TOP
1070
     7
  0
LINE
  5
B0A
330
A0B
100
AcDbEntity
  8
P-0000
  6
Continuous
 62
     0
100
AcDbLine
 10
-55.55415888055438
 20
-124.055443766988
 30
0.0
 11
-59.25626333787364
 21
-118.6190131723036
 31
0.0
1001
TOP
1070
     7
  0
LINE
  5
B0B
330
A0B
100
AcDbEntity
  8
P-0000
  6
Continuous
 62
     0
100
AcDbLine
 10
-56.08303094588571
 20
-124.055443766988
 30
0.0
 11
-59.78513540320495
 21
-118.6190131723036
 31
0.0
1001
TOP
1070
     7
  0
LINE
  5
B0C
330
A0B
100
AcDbEntity
  8
P-0000
  6
Continuous
 62
     0
100
AcDbLine
 10
-55.55415888055438
 20
-124.055443766988
 30
0.0
 11
-55.55415888055438
 21
-122.0525482847359
 31
0.0
1001
TOP
1070
     7
  0
LINE
  5
B0D
330
A0B
100
AcDbEntity
  8
P-0000
  6
Continuous
 62
     0
100
AcDbLine
 10
-55.55415888055438
 20
-122.0525482847359
 30
0.0
 11
-55.55415888055438
 21
-124.055443766988
 31
0.0
1001
TOP
1070
     7
  0
LINE
  5
B0E
330
A0B
100
AcDbEntity
  8
P-0000
  6
Continuous
 62
     0
100
AcDbLine
 10
-59.25626333787364
 20
-118.6190131723036
 30
0.0
 11
-55.55415888055438
 21
-118.6190131723036
 31
0.0
1001
TOP
1070
     7
  0
LINE
  5
B0F
330
A0B
100
AcDbEntity
  8
P-0000
  6
Continuous
 62
     0
100
AcDbLine
 10
-59.25626333787364
 20
-118.6190131723036
 30
0.0
 11
-55.55415888055438
 21
-118.6190131723036
 31
0.0
1001
TOP
1070
     7
  0
LINE
  5
B10
330
A0B
100
AcDbEntity
  8
P-0000
  6
Continuous
 62
     0
100
AcDbLine
 10
-55.55415888055438
 20
-119.7062992912404
 30
0.0
 11
-56.41148833382832
 21
-119.7062992912404
 31
0.0
1001
TOP
1070
     7
  0
LINE
  5
B11
330
A0B
100
AcDbEntity
  8
P-0000
  6
Continuous
 62
     0
100
AcDbLine
 10
-56.41148833382832
 20
-119.7062992912404
 30
0.0
 11
-55.55415888055438
 21
-119.7062992912404
 31
0.0
1001
TOP
1070
     7
  0
LINE
  5
B12
330
A0B
100
AcDbEntity
  8
P-0000
  6
Continuous
 62
     0
100
AcDbLine
 10
-55.55415888055438
 20
-120.9652621657989
 30
0.0
 11
-56.41148833382832
 21
-119.7062992912404
 31
0.0
1001
TOP
1070
     7
  0
LINE
  5
B13
330
A0B
100
AcDbEntity
  8
P-0000
  6
Continuous
 62
     0
100
AcDbLine
 10
-55.55415888055438
 20
-120.9652621657989
 30
0.0
 11
-56.41148833382832
 21
-119.7062992912404
 31
0.0
1001
TOP
1070
     7
  0
LINE
  5
B14
330
A0B
100
AcDbEntity
  8
0
 62
     0
 48
35.0
100
AcDbLine
 10
7.000000000000056
 20
142.5
 30
0.0
 11
98.00000000000004
 21
142.5
 31
0.0
1001
TOP
1070
     1
  0
LINE
  5
B15
330
A0B
100
AcDbEntity
  8
0
 62
     0
100
AcDbLine
 10
7.000000000000056
 20
143.5
 30
0.0
 11
100.0
 21
143.5
 31
0.0
1001
TOP
1070
   256
  0
ARC
  5
B16
330
A0B
100
AcDbEntity
  8
0
 62
     0
 48
35.0
100
AcDbCircle
 10
98.00000000000004
 20
141.5
 30
0.0
 40
1.0
100
AcDbArc
 50
0.0
 51
90.0
1001
TOP
1070
     1
  0
LINE
  5
B17
330
A0B
100
AcDbEntity
  8
0
 62
     0
 48
35.0
100
AcDbLine
 10
99.00000000000003
 20
141.5
 30
0.0
 11
99.00000000000005
 21
113.5
 31
0.0
1001
TOP
1070
     1
  0
LINE
  5
B18
330
A0B
100
AcDbEntity
  8
0
 62
     0
100
AcDbLine
 10
100.0
 20
143.5
 30
0.0
 11
100.0
 21
113.5
 31
0.0
1001
TOP
1070
   256
  0
ARC
  5
B19
330
A0B
100
AcDbEntity
  8
0
 62
     0
 48
35.0
100
AcDbCircle
 10
98.00000000000006
 20
113.5
 30
0.0
 40
1.0
100
AcDbArc
 50
270.0
 51
0.0
1001
TOP
1070
     1
  0
ARC
  5
B1A
330
A0B
100
AcDbEntity
  8
0
 62
     0
100
AcDbCircle
 10
98.00000000000006
 20
113.5
 30
0.0
 40
2.0
100
AcDbArc
 50
270.0
 51
0.0
1001
TOP
1070
   256
  0
LINE
  5
B1B
330
A0B
100
AcDbEntity
  8
0
 62
     0
 48
35.0
100
AcDbLine
 10
98.00000000000006
 20
112.5
 30
0.0
 11
7.000000000000056
 21
112.5
 31
0.0
1001
TOP
1070
     1
  0
LINE
  5
B1C
330
A0B
100
AcDbEntity
  8
0
 62
     0
100
AcDbLine
 10
98.00000000000006
 20
111.4999999999999
 30
0.0
 11
7.000000000000056
 21
111.5
 31
0.0
1001
TOP
1070
   256
  0
ARC
  5
B1D
330
A0B
100
AcDbEntity
  8
0
 62
     0
 48
35.0
100
AcDbCircle
 10
7.000000000000056
 20
113.5
 30
0.0
 40
1.0
100
AcDbArc
 50
180.0
 51
270.0
1001
TOP
1070
     1
  0
ARC
  5
B1E
330
A0B
100
AcDbEntity
  8
0
 62
     0
100
AcDbCircle
 10
7.000000000000056
 20
113.5
 30
0.0
 40
2.0
100
AcDbArc
 50
180.0
 51
270.0
1001
TOP
1070
   256
  0
LINE
  5
B1F
330
A0B
100
AcDbEntity
  8
0
 62
     0
 48
35.0
100
AcDbLine
 10
6.000000000000056
 20
113.5
 30
0.0
 11
6.000000000000056
 21
141.5
 31
0.0
1001
TOP
1070
     1
  0
LINE
  5
B20
330
A0B
100
AcDbEntity
  8
0
 62
     0
100
AcDbLine
 10
5.000000000000056
 20
113.5
 30
0.0
 11
5.000000000000056
 21
141.5
 31
0.0
1001
TOP
1070
   256
  0
ARC
  5
B21
330
A0B
100
AcDbEntity
  8
0
 62
     0
 48
35.0
100
AcDbCircle
 10
7.000000000000056
 20
141.5
 30
0.0
 40
1.0
100
AcDbArc
 50
90.0
 51
180.0
1001
TOP
1070
     1
  0
ARC
  5
B22
330
A0B
100
AcDbEntity
  8
0
 62
     0
100
AcDbCircle
 10
7.000000000000056
 20
141.5
 30
0.0
 40
2.0
100
AcDbArc
 50
90.0
 51
180.0
1001
TOP
1070
   256
  0
MTEXT
  5
B23
330
A0B
100
AcDbEntity
  8
0
 62
     0
100
AcDbMText
 10
29.58535811428735
 20
135.6251466847724
 30
0.0
 40
6.0
 41
54.93080742428151
 71
     1
 72
     5
  1
{\fVrinda|b0|i0|c0|p2;BAR CODE\PMontaggio}
 73
     1
 44
1.0
1001
TOP
1070
   256
1001
ACAD
1000
MTEXTBEGIN
1070
    73
1070
     1
1070
    44
1040
1.0
1070
    74
1070
     0
1000
MTEXTEND
  0
ENDBLK
  5
B27
330
A0B
100
AcDbEntity
  8
0
 62
     7
100
AcDbBlockEnd
  0
BLOCK
  5
BA1
330
BA0
100
AcDbEntity
  8
0
 62
     3
100
AcDbBlockBegin
  2
*D1
 70
     1
 10
0.0
 20
0.0
 30
0.0
  3
*D1
  1

  0
LINE
  5
FD1
330
BA0
100
AcDbEntity
  8
P-4FAA
  6
Continuous
 62
     2
370
    -2
100
AcDbLine
 10
-469.6960514370912
 20
1522.999116583031
 30
0.0
 11
-469.6960514370912
 21
1206.086010995778
 31
0.0
  0
LINE
  5
FD2
330
BA0
100
AcDbEntity
  8
P-4FAA
  6
Continuous
 62
     2
370
    -2
100
AcDbLine
 10
-169.69605143739
 20
1522.999116583031
 30
0.0
 11
-169.69605143739
 21
1206.086010995778
 31
0.0
  0
LINE
  5
FD3
330
BA0
100
AcDbEntity
  8
P-4FAA
  6
Continuous
 62
     2
370
    -2
100
AcDbLine
 10
-449.6960514370912
 20
1221.086010995778
 30
0.0
 11
-189.69605143739
 21
1221.086010995778
 31
0.0
  0
SOLID
  5
FD4
330
BA0
100
AcDbEntity
  8
P-4FAA
  6
Continuous
 62
     2
100
AcDbTrace
 10
-449.6960514370912
 20
1224.419344329112
 30
0.0
 11
-449.6960514370912
 21
1217.752677662445
 31
0.0
 12
-469.6960514370912
 22
1221.086010995778
 32
0.0
 13
-469.6960514370912
 23
1221.086010995778
 33
0.0
  0
SOLID
  5
FD5
330
BA0
100
AcDbEntity
  8
P-4FAA
  6
Continuous
 62
     2
100
AcDbTrace
 10
-189.69605143739
 20
1224.419344329112
 30
0.0
 11
-189.69605143739
 21
1217.752677662445
 31
0.0
 12
-169.69605143739
 22
1221.086010995778
 32
0.0
 13
-169.69605143739
 23
1221.086010995778
 33
0.0
  0
MTEXT
  5
FD6
330
BA0
100
AcDbEntity
  8
P-4FAA
  6
Continuous
 62
     1
100
AcDbMText
 10
-319.6960514372406
 20
1241.311958517644
 30
0.0
 40
20.0
 41
0.0
 71
     5
 72
     1
  1
\A1;30
  7
Stile_Quota
 73
     1
 44
1.0
1001
ACAD
1000
MTEXTBEGIN
1070
    73
1070
     1
1070
    44
1040
1.0
1070
    74
1070
     0
1000
MTEXTEND
  0
POINT
  5
FD7
330
BA0
100
AcDbEntity
  8
Defpoints
  6
Continuous
 62
     0
100
AcDbPoint
 10
-469.6960514370912
 20
1532.999116583031
 30
0.0
  0
POINT
  5
FD8
330
BA0
100
AcDbEntity
  8
Defpoints
  6
Continuous
 62
     0
100
AcDbPoint
 10
-169.69605143739
 20
1532.999116583031
 30
0.0
  0
POINT
  5
FD9
330
BA0
100
AcDbEntity
  8
Defpoints
  6
Continuous
 62
     0
100
AcDbPoint
 10
-169.69605143739
 20
1221.086010995778
 30
0.0
  0
ENDBLK
  5
BA2
330
BA0
100
AcDbEntity
  8
0
 62
     3
100
AcDbBlockEnd
  0
BLOCK
  5
BB9
330
BB8
100
AcDbEntity
  8
0
 62
     3
100
AcDbBlockBegin
  2
*D2
 70
     1
 10
0.0
 20
0.0
 30
0.0
  3
*D2
  1

  0
LINE
  5
F4A
330
BB8
100
AcDbEntity
  8
P-4FAA
  6
Continuous
 62
     2
370
    -2
100
AcDbLine
 10
-394.6960514371658
 20
1514.999116583038
 30
0.0
 11
-394.6960514371658
 21
1323.236797419044
 31
0.0
  0
LINE
  5
F4B
330
BB8
100
AcDbEntity
  8
P-4FAA
  6
Continuous
 62
     2
370
    -2
100
AcDbLine
 10
-449.6960514371121
 20
1522.999116583031
 30
0.0
 11
-449.6960514371121
 21
1323.236797419044
 31
0.0
  0
LINE
  5
F4C
330
BB8
100
AcDbEntity
  8
P-4FAA
  6
Continuous
 62
     2
370
    -2
100
AcDbLine
 10
-374.6960514371658
 20
1338.236797419044
 30
0.0
 11
-354.6960514371658
 21
1338.236797419044
 31
0.0
  0
LINE
  5
F4D
330
BB8
100
AcDbEntity
  8
P-4FAA
  6
Continuous
 62
     2
370
    -2
100
AcDbLine
 10
-469.6960514371121
 20
1338.236797419044
 30
0.0
 11
-546.7805995420683
 21
1338.236797419044
 31
0.0
  0
LINE
  5
F4E
330
BB8
100
AcDbEntity
  8
P-4FAA
  6
Continuous
 62
     2
370
    -2
100
AcDbLine
 10
-394.6960514371658
 20
1338.236797419044
 30
0.0
 11
-449.6960514371121
 21
1338.236797419044
 31
0.0
  0
SOLID
  5
F4F
330
BB8
100
AcDbEntity
  8
P-4FAA
  6
Continuous
 62
     2
100
AcDbTrace
 10
-374.6960514371658
 20
1341.570130752377
 30
0.0
 11
-374.6960514371658
 21
1334.90346408571
 31
0.0
 12
-394.6960514371658
 22
1338.236797419044
 32
0.0
 13
-394.6960514371658
 23
1338.236797419044
 33
0.0
  0
SOLID
  5
F50
330
BB8
100
AcDbEntity
  8
P-4FAA
  6
Continuous
 62
     2
100
AcDbTrace
 10
-469.6960514371121
 20
1341.570130752377
 30
0.0
 11
-469.6960514371121
 21
1334.90346408571
 31
0.0
 12
-449.6960514371121
 22
1338.236797419044
 32
0.0
 13
-449.6960514371121
 23
1338.236797419044
 33
0.0
  0
MTEXT
  5
F51
330
BB8
100
AcDbEntity
  8
P-4FAA
  6
Continuous
 62
     1
100
AcDbMText
 10
-518.2383254895902
 20
1358.46274494091
 30
0.0
 40
20.0
 41
0.0
 71
     5
 72
     1
  1
\A1;5.5
  7
Stile_Quota
 73
     1
 44
1.0
1001
ACAD
1000
MTEXTBEGIN
1070
    73
1070
     1
1070
    44
1040
1.0
1070
    74
1070
     0
1000
MTEXTEND
  0
POINT
  5
F52
330
BB8
100
AcDbEntity
  8
Defpoints
  6
Continuous
 62
     0
100
AcDbPoint
 10
-394.6960514371658
 20
1524.999116583039
 30
0.0
  0
POINT
  5
F53
330
BB8
100
AcDbEntity
  8
Defpoints
  6
Continuous
 62
     0
100
AcDbPoint
 10
-449.6960514371121
 20
1532.999116583031
 30
0.0
  0
POINT
  5
F54
330
BB8
100
AcDbEntity
  8
Defpoints
  6
Continuous
 62
     0
100
AcDbPoint
 10
-449.6960514371121
 20
1338.236797419044
 30
0.0
  0
ENDBLK
  5
BBA
330
BB8
100
AcDbEntity
  8
0
 62
     3
100
AcDbBlockEnd
  0
BLOCK
  5
BD5
330
BD4
100
AcDbEntity
  8
0
 62
     3
100
AcDbBlockBegin
  2
*D3
 70
     1
 10
0.0
 20
0.0
 30
0.0
  3
*D3
  1

  0
LINE
  5
F55
330
BD4
100
AcDbEntity
  8
P-4FAA
  6
Continuous
 62
     2
370
    -2
100
AcDbLine
 10
-394.6960514371658
 20
1514.999116583038
 30
0.0
 11
-394.6960514371658
 21
1323.236797419044
 31
0.0
  0
LINE
  5
F56
330
BD4
100
AcDbEntity
  8
P-4FAA
  6
Continuous
 62
     2
370
    -2
100
AcDbLine
 10
-344.6960514372158
 20
1514.999116583038
 30
0.0
 11
-344.6960514372158
 21
1323.236797419044
 31
0.0
  0
LINE
  5
F57
330
BD4
100
AcDbEntity
  8
P-4FAA
  6
Continuous
 62
     2
370
    -2
100
AcDbLine
 10
-414.6960514371658
 20
1338.236797419044
 30
0.0
 11
-434.6960514371658
 21
1338.236797419044
 31
0.0
  0
LINE
  5
F58
330
BD4
100
AcDbEntity
  8
P-4FAA
  6
Continuous
 62
     2
370
    -2
100
AcDbLine
 10
-324.6960514372158
 20
1338.236797419044
 30
0.0
 11
-304.6960514372158
 21
1338.236797419044
 31
0.0
  0
LINE
  5
F59
330
BD4
100
AcDbEntity
  8
P-4FAA
  6
Continuous
 62
     2
370
    -2
100
AcDbLine
 10
-394.6960514371658
 20
1338.236797419044
 30
0.0
 11
-344.6960514372158
 21
1338.236797419044
 31
0.0
  0
SOLID
  5
F5A
330
BD4
100
AcDbEntity
  8
P-4FAA
  6
Continuous
 62
     2
100
AcDbTrace
 10
-414.6960514371658
 20
1341.570130752377
 30
0.0
 11
-414.6960514371658
 21
1334.90346408571
 31
0.0
 12
-394.6960514371658
 22
1338.236797419044
 32
0.0
 13
-394.6960514371658
 23
1338.236797419044
 33
0.0
  0
SOLID
  5
F5B
330
BD4
100
AcDbEntity
  8
P-4FAA
  6
Continuous
 62
     2
100
AcDbTrace
 10
-324.6960514372158
 20
1341.570130752377
 30
0.0
 11
-324.6960514372158
 21
1334.90346408571
 31
0.0
 12
-344.6960514372158
 22
1338.236797419044
 32
0.0
 13
-344.6960514372158
 23
1338.236797419044
 33
0.0
  0
MTEXT
  5
F5C
330
BD4
100
AcDbEntity
  8
P-4FAA
  6
Continuous
 62
     1
100
AcDbMText
 10
-369.6960514371908
 20
1358.46274494091
 30
0.0
 40
20.0
 41
0.0
 71
     5
 72
     1
  1
\A1;5
  7
Stile_Quota
 73
     1
 44
1.0
1001
ACAD
1000
MTEXTBEGIN
1070
    73
1070
     1
1070
    44
1040
1.0
1070
    74
1070
     0
1000
MTEXTEND
  0
POINT
  5
F5D
330
BD4
100
AcDbEntity
  8
Defpoints
  6
Continuous
 62
     0
100
AcDbPoint
 10
-394.6960514371658
 20
1524.999116583039
 30
0.0
  0
POINT
  5
F5E
330
BD4
100
AcDbEntity
  8
Defpoints
  6
Continuous
 62
     0
100
AcDbPoint
 10
-344.6960514372158
 20
1524.999116583039
 30
0.0
  0
POINT
  5
F5F
330
BD4
100
AcDbEntity
  8
Defpoints
  6
Continuous
 62
     0
100
AcDbPoint
 10
-344.6960514372158
 20
1338.236797419044
 30
0.0
  0
ENDBLK
  5
BD6
330
BD4
100
AcDbEntity
  8
0
 62
     3
100
AcDbBlockEnd
  0
BLOCK
  5
C07
330
C06
100
AcDbEntity
  8
0
 62
     3
100
AcDbBlockBegin
  2
*D4
 70
     1
 10
0.0
 20
0.0
 30
0.0
  3
*D4
  1

  0
LINE
  5
FA9
330
C06
100
AcDbEntity
  8
P-4FAA
  6
Continuous
 62
     2
370
    -2
100
AcDbLine
 10
-449.6960514371121
 20
1522.999116583031
 30
0.0
 11
-449.6960514371121
 21
1262.19235662937
 31
0.0
  0
LINE
  5
FAA
330
C06
100
AcDbEntity
  8
P-4FAA
  6
Continuous
 62
     2
370
    -2
100
AcDbLine
 10
-189.6960514373686
 20
1522.999116583031
 30
0.0
 11
-189.6960514373686
 21
1262.19235662937
 31
0.0
  0
LINE
  5
FAB
330
C06
100
AcDbEntity
  8
P-4FAA
  6
Continuous
 62
     2
370
    -2
100
AcDbLine
 10
-429.6960514371121
 20
1277.19235662937
 30
0.0
 11
-209.6960514373686
 21
1277.19235662937
 31
0.0
  0
SOLID
  5
FAC
330
C06
100
AcDbEntity
  8
P-4FAA
  6
Continuous
 62
     2
100
AcDbTrace
 10
-429.6960514371121
 20
1280.525689962703
 30
0.0
 11
-429.6960514371121
 21
1273.859023296036
 31
0.0
 12
-449.6960514371121
 22
1277.19235662937
 32
0.0
 13
-449.6960514371121
 23
1277.19235662937
 33
0.0
  0
SOLID
  5
FAD
330
C06
100
AcDbEntity
  8
P-4FAA
  6
Continuous
 62
     2
100
AcDbTrace
 10
-209.6960514373686
 20
1280.525689962703
 30
0.0
 11
-209.6960514373686
 21
1273.859023296036
 31
0.0
 12
-189.6960514373686
 22
1277.19235662937
 32
0.0
 13
-189.6960514373686
 23
1277.19235662937
 33
0.0
  0
MTEXT
  5
FAE
330
C06
100
AcDbEntity
  8
P-4FAA
  6
Continuous
 62
     1
100
AcDbMText
 10
-319.6960514372404
 20
1297.418304151236
 30
0.0
 40
20.0
 41
0.0
 71
     5
 72
     1
  1
\A1;26
  7
Stile_Quota
 73
     1
 44
1.0
1001
ACAD
1000
MTEXTBEGIN
1070
    73
1070
     1
1070
    44
1040
1.0
1070
    74
1070
     0
1000
MTEXTEND
  0
POINT
  5
FAF
330
C06
100
AcDbEntity
  8
Defpoints
  6
Continuous
 62
     0
100
AcDbPoint
 10
-449.6960514371121
 20
1532.999116583031
 30
0.0
  0
POINT
  5
FB0
330
C06
100
AcDbEntity
  8
Defpoints
  6
Continuous
 62
     0
100
AcDbPoint
 10
-189.6960514373686
 20
1532.999116583031
 30
0.0
  0
POINT
  5
FB1
330
C06
100
AcDbEntity
  8
Defpoints
  6
Continuous
 62
     0
100
AcDbPoint
 10
-189.6960514373686
 20
1277.19235662937
 30
0.0
  0
ENDBLK
  5
C08
330
C06
100
AcDbEntity
  8
0
 62
     3
100
AcDbBlockEnd
  0
BLOCK
  5
C1F
330
C1E
100
AcDbEntity
  8
0
 62
     3
100
AcDbBlockBegin
  2
*D5
 70
     1
 10
0.0
 20
0.0
 30
0.0
  3
*D5
  1

  0
LINE
  5
FB2
330
C1E
100
AcDbEntity
  8
P-4FAA
  6
Continuous
 62
     2
370
    -2
100
AcDbLine
 10
-449.6960514371121
 20
1522.999116583031
 30
0.0
 11
-449.6960514371121
 21
1262.19235662937
 31
0.0
  0
LINE
  5
FB3
330
C1E
100
AcDbEntity
  8
P-4FAA
  6
Continuous
 62
     2
370
    -2
100
AcDbLine
 10
-469.6960514370907
 20
1522.999116583031
 30
0.0
 11
-469.6960514370907
 21
1262.19235662937
 31
0.0
  0
LINE
  5
FB4
330
C1E
100
AcDbEntity
  8
P-4FAA
  6
Continuous
 62
     2
370
    -2
100
AcDbLine
 10
-429.6960514371121
 20
1277.19235662937
 30
0.0
 11
-409.6960514371121
 21
1277.19235662937
 31
0.0
  0
LINE
  5
FB5
330
C1E
100
AcDbEntity
  8
P-4FAA
  6
Continuous
 62
     2
370
    -2
100
AcDbLine
 10
-489.6960514370907
 20
1277.19235662937
 30
0.0
 11
-543.0925528948166
 21
1277.19235662937
 31
0.0
  0
LINE
  5
FB6
330
C1E
100
AcDbEntity
  8
P-4FAA
  6
Continuous
 62
     2
370
    -2
100
AcDbLine
 10
-449.6960514371121
 20
1277.19235662937
 30
0.0
 11
-469.6960514370907
 21
1277.19235662937
 31
0.0
  0
SOLID
  5
FB7
330
C1E
100
AcDbEntity
  8
P-4FAA
  6
Continuous
 62
     2
100
AcDbTrace
 10
-429.6960514371121
 20
1280.525689962703
 30
0.0
 11
-429.6960514371121
 21
1273.859023296036
 31
0.0
 12
-449.6960514371121
 22
1277.19235662937
 32
0.0
 13
-449.6960514371121
 23
1277.19235662937
 33
0.0
  0
SOLID
  5
FB8
330
C1E
100
AcDbEntity
  8
P-4FAA
  6
Continuous
 62
     2
100
AcDbTrace
 10
-489.6960514370907
 20
1280.525689962703
 30
0.0
 11
-489.6960514370907
 21
1273.859023296036
 31
0.0
 12
-469.6960514370907
 22
1277.19235662937
 32
0.0
 13
-469.6960514370907
 23
1277.19235662937
 33
0.0
  0
MTEXT
  5
FB9
330
C1E
100
AcDbEntity
  8
P-4FAA
  6
Continuous
 62
     1
100
AcDbMText
 10
-526.3943021659537
 20
1297.19235662937
 30
0.0
 40
20.0
 41
0.0
 71
     5
 72
     1
  1
\A1;2
  7
Stile_Quota
 73
     1
 44
1.0
1001
ACAD
1000
MTEXTBEGIN
1070
    73
1070
     1
1070
    44
1040
1.0
1070
    74
1070
     0
1000
MTEXTEND
  0
POINT
  5
FBA
330
C1E
100
AcDbEntity
  8
Defpoints
  6
Continuous
 62
     0
100
AcDbPoint
 10
-449.6960514371121
 20
1532.999116583031
 30
0.0
  0
POINT
  5
FBB
330
C1E
100
AcDbEntity
  8
Defpoints
  6
Continuous
 62
     0
100
AcDbPoint
 10
-469.6960514370907
 20
1532.999116583031
 30
0.0
  0
POINT
  5
FBC
330
C1E
100
AcDbEntity
  8
Defpoints
  6
Continuous
 62
     0
100
AcDbPoint
 10
-469.6960514370907
 20
1277.19235662937
 30
0.0
  0
ENDBLK
  5
C20
330
C1E
100
AcDbEntity
  8
0
 62
     3
100
AcDbBlockEnd
  0
BLOCK
  5
C3B
330
C3A
100
AcDbEntity
  8
0
 62
     3
100
AcDbBlockBegin
  2
*D6
 70
     1
 10
0.0
 20
0.0
 30
0.0
  3
*D6
  1

  0
LINE
  5
FBD
330
C3A
100
AcDbEntity
  8
P-4FAA
  6
Continuous
 62
     2
370
    -2
100
AcDbLine
 10
-189.6960514373686
 20
1522.999116583031
 30
0.0
 11
-189.6960514373686
 21
1262.19235662937
 31
0.0
  0
LINE
  5
FBE
330
C3A
100
AcDbEntity
  8
P-4FAA
  6
Continuous
 62
     2
370
    -2
100
AcDbLine
 10
-169.69605143739
 20
1522.999116583031
 30
0.0
 11
-169.69605143739
 21
1262.19235662937
 31
0.0
  0
LINE
  5
FBF
330
C3A
100
AcDbEntity
  8
P-4FAA
  6
Continuous
 62
     2
370
    -2
100
AcDbLine
 10
-209.6960514373686
 20
1277.19235662937
 30
0.0
 11
-229.6960514373687
 21
1277.19235662937
 31
0.0
  0
LINE
  5
FC0
330
C3A
100
AcDbEntity
  8
P-4FAA
  6
Continuous
 62
     2
370
    -2
100
AcDbLine
 10
-149.69605143739
 20
1277.19235662937
 30
0.0
 11
-96.29954997966407
 21
1277.19235662937
 31
0.0
  0
LINE
  5
FC1
330
C3A
100
AcDbEntity
  8
P-4FAA
  6
Continuous
 62
     2
370
    -2
100
AcDbLine
 10
-189.6960514373686
 20
1277.19235662937
 30
0.0
 11
-169.69605143739
 21
1277.19235662937
 31
0.0
  0
SOLID
  5
FC2
330
C3A
100
AcDbEntity
  8
P-4FAA
  6
Continuous
 62
     2
100
AcDbTrace
 10
-209.6960514373686
 20
1280.525689962703
 30
0.0
 11
-209.6960514373686
 21
1273.859023296036
 31
0.0
 12
-189.6960514373686
 22
1277.19235662937
 32
0.0
 13
-189.6960514373686
 23
1277.19235662937
 33
0.0
  0
SOLID
  5
FC3
330
C3A
100
AcDbEntity
  8
P-4FAA
  6
Continuous
 62
     2
100
AcDbTrace
 10
-149.69605143739
 20
1280.525689962703
 30
0.0
 11
-149.69605143739
 21
1273.859023296036
 31
0.0
 12
-169.69605143739
 22
1277.19235662937
 32
0.0
 13
-169.69605143739
 23
1277.19235662937
 33
0.0
  0
MTEXT
  5
FC4
330
C3A
100
AcDbEntity
  8
P-4FAA
  6
Continuous
 62
     1
100
AcDbMText
 10
-112.997800708527
 20
1297.19235662937
 30
0.0
 40
20.0
 41
0.0
 71
     5
 72
     1
  1
\A1;2
  7
Stile_Quota
 73
     1
 44
1.0
1001
ACAD
1000
MTEXTBEGIN
1070
    73
1070
     1
1070
    44
1040
1.0
1070
    74
1070
     0
1000
MTEXTEND
  0
POINT
  5
FC5
330
C3A
100
AcDbEntity
  8
Defpoints
  6
Continuous
 62
     0
100
AcDbPoint
 10
-189.6960514373686
 20
1532.999116583031
 30
0.0
  0
POINT
  5
FC6
330
C3A
100
AcDbEntity
  8
Defpoints
  6
Continuous
 62
     0
100
AcDbPoint
 10
-169.69605143739
 20
1532.999116583031
 30
0.0
  0
POINT
  5
FC7
330
C3A
100
AcDbEntity
  8
Defpoints
  6
Continuous
 62
     0
100
AcDbPoint
 10
-169.69605143739
 20
1277.19235662937
 30
0.0
  0
ENDBLK
  5
C3C
330
C3A
100
AcDbEntity
  8
0
 62
     3
100
AcDbBlockEnd
  0
BLOCK
  5
C57
330
C56
100
AcDbEntity
  8
0
 62
     3
100
AcDbBlockBegin
  2
*D7
 70
     1
 10
0.0
 20
0.0
 30
0.0
  3
*D7
  1

  0
LINE
  5
F7F
330
C56
100
AcDbEntity
  8
P-4FAA
  6
Continuous
 62
     2
370
    -2
100
AcDbLine
 10
-244.696051437315
 20
1514.999116583038
 30
0.0
 11
-244.696051437315
 21
1323.236797419044
 31
0.0
  0
LINE
  5
F80
330
C56
100
AcDbEntity
  8
P-4FAA
  6
Continuous
 62
     2
370
    -2
100
AcDbLine
 10
-189.6960514373686
 20
1522.999116583031
 30
0.0
 11
-189.6960514373686
 21
1323.236797419044
 31
0.0
  0
LINE
  5
F81
330
C56
100
AcDbEntity
  8
P-4FAA
  6
Continuous
 62
     2
370
    -2
100
AcDbLine
 10
-264.696051437315
 20
1338.236797419044
 30
0.0
 11
-284.6960514373149
 21
1338.236797419044
 31
0.0
  0
LINE
  5
F82
330
C56
100
AcDbEntity
  8
P-4FAA
  6
Continuous
 62
     2
370
    -2
100
AcDbLine
 10
-169.6960514373686
 20
1338.236797419044
 30
0.0
 11
-92.61150333241236
 21
1338.236797419044
 31
0.0
  0
LINE
  5
F83
330
C56
100
AcDbEntity
  8
P-4FAA
  6
Continuous
 62
     2
370
    -2
100
AcDbLine
 10
-244.696051437315
 20
1338.236797419044
 30
0.0
 11
-189.6960514373686
 21
1338.236797419044
 31
0.0
  0
SOLID
  5
F84
330
C56
100
AcDbEntity
  8
P-4FAA
  6
Continuous
 62
     2
100
AcDbTrace
 10
-264.696051437315
 20
1341.570130752377
 30
0.0
 11
-264.696051437315
 21
1334.90346408571
 31
0.0
 12
-244.696051437315
 22
1338.236797419044
 32
0.0
 13
-244.696051437315
 23
1338.236797419044
 33
0.0
  0
SOLID
  5
F85
330
C56
100
AcDbEntity
  8
P-4FAA
  6
Continuous
 62
     2
100
AcDbTrace
 10
-169.6960514373686
 20
1341.570130752377
 30
0.0
 11
-169.6960514373686
 21
1334.90346408571
 31
0.0
 12
-189.6960514373686
 22
1338.236797419044
 32
0.0
 13
-189.6960514373686
 23
1338.236797419044
 33
0.0
  0
MTEXT
  5
F86
330
C56
100
AcDbEntity
  8
P-4FAA
  6
Continuous
 62
     1
100
AcDbMText
 10
-121.1537773848905
 20
1358.46274494091
 30
0.0
 40
20.0
 41
0.0
 71
     5
 72
     1
  1
\A1;5.5
  7
Stile_Quota
 73
     1
 44
1.0
1001
ACAD
1000
MTEXTBEGIN
1070
    73
1070
     1
1070
    44
1040
1.0
1070
    74
1070
     0
1000
MTEXTEND
  0
POINT
  5
F87
330
C56
100
AcDbEntity
  8
Defpoints
  6
Continuous
 62
     0
100
AcDbPoint
 10
-244.696051437315
 20
1524.999116583039
 30
0.0
  0
POINT
  5
F88
330
C56
100
AcDbEntity
  8
Defpoints
  6
Continuous
 62
     0
100
AcDbPoint
 10
-189.6960514373686
 20
1532.999116583031
 30
0.0
  0
POINT
  5
F89
330
C56
100
AcDbEntity
  8
Defpoints
  6
Continuous
 62
     0
100
AcDbPoint
 10
-189.6960514373686
 20
1338.236797419044
 30
0.0
  0
ENDBLK
  5
C58
330
C56
100
AcDbEntity
  8
0
 62
     3
100
AcDbBlockEnd
  0
BLOCK
  5
C73
330
C72
100
AcDbEntity
  8
0
 62
     3
100
AcDbBlockBegin
  2
*D8
 70
     1
 10
0.0
 20
0.0
 30
0.0
  3
*D8
  1

  0
LINE
  5
F8A
330
C72
100
AcDbEntity
  8
P-4FAA
  6
Continuous
 62
     2
370
    -2
100
AcDbLine
 10
-294.6960514372658
 20
1514.999116583038
 30
0.0
 11
-294.6960514372658
 21
1323.236797419044
 31
0.0
  0
LINE
  5
F8B
330
C72
100
AcDbEntity
  8
P-4FAA
  6
Continuous
 62
     2
370
    -2
100
AcDbLine
 10
-244.696051437315
 20
1514.999116583038
 30
0.0
 11
-244.696051437315
 21
1323.236797419044
 31
0.0
  0
LINE
  5
F8C
330
C72
100
AcDbEntity
  8
P-4FAA
  6
Continuous
 62
     2
370
    -2
100
AcDbLine
 10
-314.6960514372659
 20
1338.236797419044
 30
0.0
 11
-334.6960514372658
 21
1338.236797419044
 31
0.0
  0
LINE
  5
F8D
330
C72
100
AcDbEntity
  8
P-4FAA
  6
Continuous
 62
     2
370
    -2
100
AcDbLine
 10
-224.6960514373149
 20
1338.236797419044
 30
0.0
 11
-204.696051437315
 21
1338.236797419044
 31
0.0
  0
LINE
  5
F8E
330
C72
100
AcDbEntity
  8
P-4FAA
  6
Continuous
 62
     2
370
    -2
100
AcDbLine
 10
-294.6960514372658
 20
1338.236797419044
 30
0.0
 11
-244.696051437315
 21
1338.236797419044
 31
0.0
  0
SOLID
  5
F8F
330
C72
100
AcDbEntity
  8
P-4FAA
  6
Continuous
 62
     2
100
AcDbTrace
 10
-314.6960514372659
 20
1341.570130752377
 30
0.0
 11
-314.6960514372659
 21
1334.90346408571
 31
0.0
 12
-294.6960514372658
 22
1338.236797419044
 32
0.0
 13
-294.6960514372658
 23
1338.236797419044
 33
0.0
  0
SOLID
  5
F90
330
C72
100
AcDbEntity
  8
P-4FAA
  6
Continuous
 62
     2
100
AcDbTrace
 10
-224.6960514373149
 20
1341.570130752377
 30
0.0
 11
-224.6960514373149
 21
1334.90346408571
 31
0.0
 12
-244.696051437315
 22
1338.236797419044
 32
0.0
 13
-244.696051437315
 23
1338.236797419044
 33
0.0
  0
MTEXT
  5
F91
330
C72
100
AcDbEntity
  8
P-4FAA
  6
Continuous
 62
     1
100
AcDbMText
 10
-269.6960514372904
 20
1358.46274494091
 30
0.0
 40
20.0
 41
0.0
 71
     5
 72
     1
  1
\A1;5
  7
Stile_Quota
 73
     1
 44
1.0
1001
ACAD
1000
MTEXTBEGIN
1070
    73
1070
     1
1070
    44
1040
1.0
1070
    74
1070
     0
1000
MTEXTEND
  0
POINT
  5
F92
330
C72
100
AcDbEntity
  8
Defpoints
  6
Continuous
 62
     0
100
AcDbPoint
 10
-294.6960514372658
 20
1524.999116583039
 30
0.0
  0
POINT
  5
F93
330
C72
100
AcDbEntity
  8
Defpoints
  6
Continuous
 62
     0
100
AcDbPoint
 10
-244.696051437315
 20
1524.999116583039
 30
0.0
  0
POINT
  5
F94
330
C72
100
AcDbEntity
  8
Defpoints
  6
Continuous
 62
     0
100
AcDbPoint
 10
-244.696051437315
 20
1338.236797419044
 30
0.0
  0
ENDBLK
  5
C74
330
C72
100
AcDbEntity
  8
0
 62
     3
100
AcDbBlockEnd
  0
BLOCK
  5
CA5
330
CA4
100
AcDbEntity
  8
0
 62
     3
100
AcDbBlockBegin
  2
*D9
 70
     1
 10
0.0
 20
0.0
 30
0.0
  3
*D9
  1

  0
LINE
  5
F95
330
CA4
100
AcDbEntity
  8
P-4FAA
  6
Continuous
 62
     2
370
    -2
100
AcDbLine
 10
-344.6960514372158
 20
1514.999116583038
 30
0.0
 11
-344.6960514372158
 21
1323.236797419044
 31
0.0
  0
LINE
  5
F96
330
CA4
100
AcDbEntity
  8
P-4FAA
  6
Continuous
 62
     2
370
    -2
100
AcDbLine
 10
-294.6960514372658
 20
1514.999116583038
 30
0.0
 11
-294.6960514372658
 21
1323.236797419044
 31
0.0
  0
LINE
  5
F97
330
CA4
100
AcDbEntity
  8
P-4FAA
  6
Continuous
 62
     2
370
    -2
100
AcDbLine
 10
-364.6960514372158
 20
1338.236797419044
 30
0.0
 11
-384.6960514372158
 21
1338.236797419044
 31
0.0
  0
LINE
  5
F98
330
CA4
100
AcDbEntity
  8
P-4FAA
  6
Continuous
 62
     2
370
    -2
100
AcDbLine
 10
-274.6960514372659
 20
1338.236797419044
 30
0.0
 11
-254.6960514372659
 21
1338.236797419044
 31
0.0
  0
LINE
  5
F99
330
CA4
100
AcDbEntity
  8
P-4FAA
  6
Continuous
 62
     2
370
    -2
100
AcDbLine
 10
-344.6960514372158
 20
1338.236797419044
 30
0.0
 11
-294.6960514372658
 21
1338.236797419044
 31
0.0
  0
SOLID
  5
F9A
330
CA4
100
AcDbEntity
  8
P-4FAA
  6
Continuous
 62
     2
100
AcDbTrace
 10
-364.6960514372158
 20
1341.570130752377
 30
0.0
 11
-364.6960514372158
 21
1334.90346408571
 31
0.0
 12
-344.6960514372158
 22
1338.236797419044
 32
0.0
 13
-344.6960514372158
 23
1338.236797419044
 33
0.0
  0
SOLID
  5
F9B
330
CA4
100
AcDbEntity
  8
P-4FAA
  6
Continuous
 62
     2
100
AcDbTrace
 10
-274.6960514372659
 20
1341.570130752377
 30
0.0
 11
-274.6960514372659
 21
1334.90346408571
 31
0.0
 12
-294.6960514372658
 22
1338.236797419044
 32
0.0
 13
-294.6960514372658
 23
1338.236797419044
 33
0.0
  0
MTEXT
  5
F9C
330
CA4
100
AcDbEntity
  8
P-4FAA
  6
Continuous
 62
     1
100
AcDbMText
 10
-319.6960514372408
 20
1358.46274494091
 30
0.0
 40
20.0
 41
0.0
 71
     5
 72
     1
  1
\A1;5
  7
Stile_Quota
 73
     1
 44
1.0
1001
ACAD
1000
MTEXTBEGIN
1070
    73
1070
     1
1070
    44
1040
1.0
1070
    74
1070
     0
1000
MTEXTEND
  0
POINT
  5
F9D
330
CA4
100
AcDbEntity
  8
Defpoints
  6
Continuous
 62
     0
100
AcDbPoint
 10
-344.6960514372158
 20
1524.999116583039
 30
0.0
  0
POINT
  5
F9E
330
CA4
100
AcDbEntity
  8
Defpoints
  6
Continuous
 62
     0
100
AcDbPoint
 10
-294.6960514372658
 20
1524.999116583039
 30
0.0
  0
POINT
  5
F9F
330
CA4
100
AcDbEntity
  8
Defpoints
  6
Continuous
 62
     0
100
AcDbPoint
 10
-294.6960514372658
 20
1338.236797419044
 30
0.0
  0
ENDBLK
  5
CA6
330
CA4
100
AcDbEntity
  8
0
 62
     3
100
AcDbBlockEnd
  0
BLOCK
  5
CD7
330
CD6
100
AcDbEntity
  8
0
 62
     3
100
AcDbBlockBegin
  2
*D10
 70
     1
 10
0.0
 20
0.0
 30
0.0
  3
*D10
  1

  0
LINE
  5
10D1
330
CD6
100
AcDbEntity
  8
P-4FAA
  6
Continuous
 62
     2
370
    -2
100
AcDbLine
 10
-184.696051437365
 20
1507.999116583056
 30
0.0
 11
105.4262666204304
 21
1507.999116583056
 31
0.0
  0
LINE
  5
10D2
330
CD6
100
AcDbEntity
  8
P-4FAA
  6
Continuous
 62
     2
370
    -2
100
AcDbLine
 10
-184.696051437365
 20
1807.999116582757
 30
0.0
 11
105.4262666204304
 21
1807.999116582757
 31
0.0
  0
LINE
  5
10D3
330
CD6
100
AcDbEntity
  8
P-4FAA
  6
Continuous
 62
     2
370
    -2
100
AcDbLine
 10
90.42626662043037
 20
1527.999116583056
 30
0.0
 11
90.42626662043042
 21
1787.999116582757
 31
0.0
  0
SOLID
  5
10D4
330
CD6
100
AcDbEntity
  8
P-4FAA
  6
Continuous
 62
     2
100
AcDbTrace
 10
87.09293328709703
 20
1527.999116583056
 30
0.0
 11
93.75959995376369
 21
1527.999116583056
 31
0.0
 12
90.42626662043037
 22
1507.999116583056
 32
0.0
 13
90.42626662043037
 23
1507.999116583056
 33
0.0
  0
SOLID
  5
10D5
330
CD6
100
AcDbEntity
  8
P-4FAA
  6
Continuous
 62
     2
100
AcDbTrace
 10
87.0929332870971
 20
1787.999116582757
 30
0.0
 11
93.75959995376375
 21
1787.999116582757
 31
0.0
 12
90.42626662043042
 22
1807.999116582757
 32
0.0
 13
90.42626662043042
 23
1807.999116582757
 33
0.0
  0
MTEXT
  5
10D6
330
CD6
100
AcDbEntity
  8
P-4FAA
  6
Continuous
 62
     1
100
AcDbMText
 10
70.20031909856424
 20
1657.999116582907
 30
0.0
 40
20.0
 41
0.0
 71
     5
 72
     1
  1
\A1;30
  7
Stile_Quota
 11
0.0000000000000001
 21
1.0
 31
0.0
 73
     1
 44
1.0
1001
ACAD
1000
MTEXTBEGIN
1070
    73
1070
     1
1070
    44
1040
1.0
1070
    74
1070
     0
1000
MTEXTEND
  0
POINT
  5
10D7
330
CD6
100
AcDbEntity
  8
Defpoints
  6
Continuous
 62
     0
100
AcDbPoint
 10
-194.696051437365
 20
1507.999116583056
 30
0.0
  0
POINT
  5
10D8
330
CD6
100
AcDbEntity
  8
Defpoints
  6
Continuous
 62
     0
100
AcDbPoint
 10
-194.696051437365
 20
1807.999116582757
 30
0.0
  0
POINT
  5
10D9
330
CD6
100
AcDbEntity
  8
Defpoints
  6
Continuous
 62
     0
100
AcDbPoint
 10
90.42626662043042
 20
1807.999116582757
 30
0.0
  0
ENDBLK
  5
CD8
330
CD6
100
AcDbEntity
  8
0
 62
     3
100
AcDbBlockEnd
  0
BLOCK
  5
CEF
330
CEE
100
AcDbEntity
  8
0
 62
     3
100
AcDbBlockBegin
  2
*D11
 70
     1
 10
0.0
 20
0.0
 30
0.0
  3
*D11
  1

  0
LINE
  5
10AB
330
CEE
100
AcDbEntity
  8
P-4FAA
  6
Continuous
 62
     2
370
    -2
100
AcDbLine
 10
-184.696051437365
 20
1807.999116582757
 30
0.0
 11
105.4262666204304
 21
1807.999116582757
 31
0.0
  0
LINE
  5
10AC
330
CEE
100
AcDbEntity
  8
P-4FAA
  6
Continuous
 62
     2
370
    -2
100
AcDbLine
 10
-249.6960514373905
 20
1977.999116582757
 30
0.0
 11
105.4262666204305
 21
1977.999116582757
 31
0.0
  0
LINE
  5
10AD
330
CEE
100
AcDbEntity
  8
P-4FAA
  6
Continuous
 62
     2
370
    -2
100
AcDbLine
 10
90.42626662043046
 20
1827.999116582757
 30
0.0
 11
90.42626662043048
 21
1957.999116582757
 31
0.0
  0
SOLID
  5
10AE
330
CEE
100
AcDbEntity
  8
P-4FAA
  6
Continuous
 62
     2
100
AcDbTrace
 10
87.09293328709712
 20
1827.999116582757
 30
0.0
 11
93.75959995376378
 21
1827.999116582757
 31
0.0
 12
90.42626662043044
 22
1807.999116582757
 32
0.0
 13
90.42626662043044
 23
1807.999116582757
 33
0.0
  0
SOLID
  5
10AF
330
CEE
100
AcDbEntity
  8
P-4FAA
  6
Continuous
 62
     2
100
AcDbTrace
 10
87.09293328709716
 20
1957.999116582757
 30
0.0
 11
93.75959995376382
 21
1957.999116582757
 31
0.0
 12
90.42626662043048
 22
1977.999116582757
 32
0.0
 13
90.42626662043048
 23
1977.999116582757
 33
0.0
  0
MTEXT
  5
10B0
330
CEE
100
AcDbEntity
  8
P-4FAA
  6
Continuous
 62
     1
100
AcDbMText
 10
70.12743280118818
 20
1892.999116582757
 30
0.0
 40
20.0
 41
0.0
 71
     5
 72
     1
  1
\A1;17
  7
Stile_Quota
 11
0.0000000000000001
 21
1.0
 31
0.0
 73
     1
 44
1.0
1001
ACAD
1000
MTEXTBEGIN
1070
    73
1070
     1
1070
    44
1040
1.0
1070
    74
1070
     0
1000
MTEXTEND
  0
POINT
  5
10B1
330
CEE
100
AcDbEntity
  8
Defpoints
  6
Continuous
 62
     0
100
AcDbPoint
 10
-194.696051437365
 20
1807.999116582757
 30
0.0
  0
POINT
  5
10B2
330
CEE
100
AcDbEntity
  8
Defpoints
  6
Continuous
 62
     0
100
AcDbPoint
 10
-259.6960514373904
 20
1977.999116582757
 30
0.0
  0
POINT
  5
10B3
330
CEE
100
AcDbEntity
  8
Defpoints
  6
Continuous
 62
     0
100
AcDbPoint
 10
90.42626662043048
 20
1977.999116582757
 30
0.0
  0
ENDBLK
  5
CF0
330
CEE
100
AcDbEntity
  8
0
 62
     3
100
AcDbBlockEnd
  0
BLOCK
  5
D07
330
D06
100
AcDbEntity
  8
0
 62
     3
100
AcDbBlockBegin
  2
*D12
 70
     1
 10
0.0
 20
0.0
 30
0.0
  3
*D12
  1

  0
LINE
  5
10B4
330
D06
100
AcDbEntity
  8
P-4FAA
  6
Continuous
 62
     2
370
    -2
100
AcDbLine
 10
-389.6960514373905
 20
1907.928351760693
 30
0.0
 11
52.31879445169582
 21
1907.928351760693
 31
0.0
  0
LINE
  5
10B5
330
D06
100
AcDbEntity
  8
P-4FAA
  6
Continuous
 62
     2
370
    -2
100
AcDbLine
 10
-184.696051437365
 20
1807.999116582757
 30
0.0
 11
52.31879445169579
 21
1807.999116582757
 31
0.0
  0
LINE
  5
10B6
330
D06
100
AcDbEntity
  8
P-4FAA
  6
Continuous
 62
     2
370
    -2
100
AcDbLine
 10
37.3187944516958
 20
1887.928351760693
 30
0.0
 11
37.31879445169579
 21
1827.999116582757
 31
0.0
  0
SOLID
  5
10B7
330
D06
100
AcDbEntity
  8
P-4FAA
  6
Continuous
 62
     2
100
AcDbTrace
 10
33.98546111836246
 20
1887.928351760693
 30
0.0
 11
40.65212778502913
 21
1887.928351760693
 31
0.0
 12
37.31879445169581
 22
1907.928351760693
 32
0.0
 13
37.31879445169581
 23
1907.928351760693
 33
0.0
  0
SOLID
  5
10B8
330
D06
100
AcDbEntity
  8
P-4FAA
  6
Continuous
 62
     2
100
AcDbTrace
 10
33.98546111836245
 20
1827.999116582757
 30
0.0
 11
40.65212778502912
 21
1827.999116582757
 31
0.0
 12
37.31879445169578
 22
1807.999116582757
 32
0.0
 13
37.31879445169578
 23
1807.999116582757
 33
0.0
  0
MTEXT
  5
10B9
330
D06
100
AcDbEntity
  8
P-4FAA
  6
Continuous
 62
     1
100
AcDbMText
 10
17.0928469298296
 20
1857.963734171725
 30
0.0
 40
20.0
 41
0.0
 71
     5
 72
     1
  1
\A1;10
  7
Stile_Quota
 11
0.0000000000000001
 21
1.0
 31
0.0
 73
     1
 44
1.0
1001
ACAD
1000
MTEXTBEGIN
1070
    73
1070
     1
1070
    44
1040
1.0
1070
    74
1070
     0
1000
MTEXTEND
  0
POINT
  5
10BA
330
D06
100
AcDbEntity
  8
Defpoints
  6
Continuous
 62
     0
100
AcDbPoint
 10
-399.6960514373904
 20
1907.928351760693
 30
0.0
  0
POINT
  5
10BB
330
D06
100
AcDbEntity
  8
Defpoints
  6
Continuous
 62
     0
100
AcDbPoint
 10
-194.696051437365
 20
1807.999116582757
 30
0.0
  0
POINT
  5
10BC
330
D06
100
AcDbEntity
  8
Defpoints
  6
Continuous
 62
     0
100
AcDbPoint
 10
37.31879445169578
 20
1807.999116582757
 30
0.0
  0
ENDBLK
  5
D08
330
D06
100
AcDbEntity
  8
0
 62
     3
100
AcDbBlockEnd
  0
BLOCK
  5
D31
330
D30
100
AcDbEntity
  8
0
 62
     3
100
AcDbBlockBegin
  2
*D13
 70
     1
 10
0.0
 20
0.0
 30
0.0
  3
*D13
  1

  0
LINE
  5
122B
330
D30
100
AcDbEntity
  8
P-4FAA
  6
Continuous
 62
     2
370
    -2
100
AcDbLine
 10
-379.6960514373905
 20
1872.999116582757
 30
0.0
 11
2.610709859367506
 21
1872.999116582757
 31
0.0
  0
LINE
  5
122C
330
D30
100
AcDbEntity
  8
P-4FAA
  6
Continuous
 62
     2
370
    -2
100
AcDbLine
 10
-184.696051437365
 20
1807.999116582757
 30
0.0
 11
2.610709859367464
 21
1807.999116582757
 31
0.0
  0
LINE
  5
122D
330
D30
100
AcDbEntity
  8
P-4FAA
  6
Continuous
 62
     2
370
    -2
100
AcDbLine
 10
-12.38929014063251
 20
1852.999116582757
 30
0.0
 11
-12.38929014063252
 21
1827.999116582757
 31
0.0
  0
SOLID
  5
122E
330
D30
100
AcDbEntity
  8
P-4FAA
  6
Continuous
 62
     2
100
AcDbTrace
 10
-15.72262347396585
 20
1852.999116582757
 30
0.0
 11
-9.05595680729918
 21
1852.999116582757
 31
0.0
 12
-12.38929014063251
 22
1872.999116582757
 32
0.0
 13
-12.38929014063251
 23
1872.999116582757
 33
0.0
  0
SOLID
  5
122F
330
D30
100
AcDbEntity
  8
P-4FAA
  6
Continuous
 62
     2
100
AcDbTrace
 10
-15.72262347396585
 20
1827.999116582757
 30
0.0
 11
-9.055956807299187
 21
1827.999116582757
 31
0.0
 12
-12.38929014063252
 22
1807.999116582757
 32
0.0
 13
-12.38929014063252
 23
1807.999116582757
 33
0.0
  0
MTEXT
  5
1230
330
D30
100
AcDbEntity
  8
P-4FAA
  6
Continuous
 62
     1
100
AcDbMText
 10
-32.6152376624987
 20
1840.499116582757
 30
0.0
 40
20.0
 41
0.0
 71
     5
 72
     1
  1
\A1;6.5
  7
Stile_Quota
 11
0.0000000000000001
 21
1.0
 31
0.0
 73
     1
 44
1.0
1001
ACAD
1000
MTEXTBEGIN
1070
    73
1070
     1
1070
    44
1040
1.0
1070
    74
1070
     0
1000
MTEXTEND
  0
POINT
  5
1231
330
D30
100
AcDbEntity
  8
Defpoints
  6
Continuous
 62
     0
100
AcDbPoint
 10
-389.6960514373905
 20
1872.999116582757
 30
0.0
  0
POINT
  5
1232
330
D30
100
AcDbEntity
  8
Defpoints
  6
Continuous
 62
     0
100
AcDbPoint
 10
-194.696051437365
 20
1807.999116582757
 30
0.0
  0
POINT
  5
1233
330
D30
100
AcDbEntity
  8
Defpoints
  6
Continuous
 62
     0
100
AcDbPoint
 10
-12.38929014063252
 20
1807.999116582757
 30
0.0
  0
ENDBLK
  5
D32
330
D30
100
AcDbEntity
  8
0
 62
     3
100
AcDbBlockEnd
  0
BLOCK
  5
D52
330
D51
100
AcDbEntity
  8
0
 62
     3
100
AcDbBlockBegin
  2
*D14
 70
     1
 10
0.0
 20
0.0
 30
0.0
  3
*D14
  1

  0
LINE
  5
D60
330
D51
100
AcDbEntity
  8
P-4FAA
  6
Continuous
 62
     2
370
    -2
100
AcDbLine
 10
-186.6960514373722
 20
1692.999116582882
 30
0.0
 11
-186.6960514373722
 21
1722.080720982382
 31
0.0
  0
LINE
  5
D61
330
D51
100
AcDbEntity
  8
P-4FAA
  6
Continuous
 62
     2
370
    -2
100
AcDbLine
 10
-189.6960514373695
 20
1692.999116582882
 30
0.0
 11
-189.6960514373695
 21
1722.080720982382
 31
0.0
  0
LINE
  5
D62
330
D51
100
AcDbEntity
  8
P-4FAA
  6
Continuous
 62
     2
370
    -2
100
AcDbLine
 10
-166.6960514373722
 20
1707.080720982382
 30
0.0
 11
-146.6960514373722
 21
1707.080720982382
 31
0.0
  0
LINE
  5
D63
330
D51
100
AcDbEntity
  8
P-4FAA
  6
Continuous
 62
     2
370
    -2
100
AcDbLine
 10
-209.6960514373695
 20
1707.080720982382
 30
0.0
 11
-286.3432817580692
 21
1707.080720982382
 31
0.0
  0
LINE
  5
D64
330
D51
100
AcDbEntity
  8
P-4FAA
  6
Continuous
 62
     2
370
    -2
100
AcDbLine
 10
-186.6960514373722
 20
1707.080720982382
 30
0.0
 11
-189.6960514373695
 21
1707.080720982382
 31
0.0
  0
SOLID
  5
D65
330
D51
100
AcDbEntity
  8
P-4FAA
  6
Continuous
 62
     2
100
AcDbTrace
 10
-166.6960514373722
 20
1710.414054315716
 30
0.0
 11
-166.6960514373722
 21
1703.747387649049
 31
0.0
 12
-186.6960514373722
 22
1707.080720982382
 32
0.0
 13
-186.6960514373722
 23
1707.080720982382
 33
0.0
  0
SOLID
  5
D66
330
D51
100
AcDbEntity
  8
P-4FAA
  6
Continuous
 62
     2
100
AcDbTrace
 10
-209.6960514373695
 20
1710.414054315716
 30
0.0
 11
-209.6960514373695
 21
1703.747387649049
 31
0.0
 12
-189.6960514373695
 22
1707.080720982382
 32
0.0
 13
-189.6960514373695
 23
1707.080720982382
 33
0.0
  0
MTEXT
  5
D67
330
D51
100
AcDbEntity
  8
P-4FAA
  6
Continuous
 62
     1
100
AcDbMText
 10
-258.0196665977194
 20
1727.306668504248
 30
0.0
 40
20.0
 41
0.0
 71
     5
 72
     1
  1
\A1;0.3
  7
Stile_Quota
 73
     1
 44
1.0
1001
ACAD
1000
MTEXTBEGIN
1070
    73
1070
     1
1070
    44
1040
1.0
1070
    74
1070
     0
1000
MTEXTEND
  0
POINT
  5
D68
330
D51
100
AcDbEntity
  8
Defpoints
  6
Continuous
 62
     0
100
AcDbPoint
 10
-186.6960514373722
 20
1682.999116582882
 30
0.0
  0
POINT
  5
D69
330
D51
100
AcDbEntity
  8
Defpoints
  6
Continuous
 62
     0
100
AcDbPoint
 10
-189.6960514373695
 20
1682.999116582882
 30
0.0
  0
POINT
  5
D6A
330
D51
100
AcDbEntity
  8
Defpoints
  6
Continuous
 62
     0
100
AcDbPoint
 10
-189.6960514373695
 20
1707.080720982382
 30
0.0
  0
ENDBLK
  5
D53
330
D51
100
AcDbEntity
  8
0
 62
     3
100
AcDbBlockEnd
  0
BLOCK
  5
D6E
330
D6D
100
AcDbEntity
  8
0
 62
     3
100
AcDbBlockBegin
  2
*D15
 70
     1
 10
0.0
 20
0.0
 30
0.0
  3
*D15
  1

  0
LINE
  5
D7A
330
D6D
100
AcDbEntity
  8
P-4FAA
  6
Continuous
 62
     2
370
    -2
100
AcDbLine
 10
-169.69605143739
 20
1792.999116582782
 30
0.0
 11
-169.6960514373899
 21
2187.225367010685
 31
0.0
  0
LINE
  5
D7B
330
D6D
100
AcDbEntity
  8
P-4FAA
  6
Continuous
 62
     2
370
    -2
100
AcDbLine
 10
-254.6960514373905
 20
1982.999116582757
 30
0.0
 11
-254.6960514373905
 21
2187.225367010685
 31
0.0
  0
LINE
  5
D7C
330
D6D
100
AcDbEntity
  8
P-4FAA
  6
Continuous
 62
     2
370
    -2
100
AcDbLine
 10
-189.6960514373899
 20
2172.225367010685
 30
0.0
 11
-234.6960514373904
 21
2172.225367010685
 31
0.0
  0
SOLID
  5
D7D
330
D6D
100
AcDbEntity
  8
P-4FAA
  6
Continuous
 62
     2
100
AcDbTrace
 10
-189.6960514373899
 20
2175.558700344018
 30
0.0
 11
-189.6960514373899
 21
2168.892033677352
 31
0.0
 12
-169.6960514373899
 22
2172.225367010685
 32
0.0
 13
-169.6960514373899
 23
2172.225367010685
 33
0.0
  0
SOLID
  5
D7E
330
D6D
100
AcDbEntity
  8
P-4FAA
  6
Continuous
 62
     2
100
AcDbTrace
 10
-234.6960514373904
 20
2175.558700344018
 30
0.0
 11
-234.6960514373904
 21
2168.892033677352
 31
0.0
 12
-254.6960514373905
 22
2172.225367010685
 32
0.0
 13
-254.6960514373905
 23
2172.225367010685
 33
0.0
  0
MTEXT
  5
D7F
330
D6D
100
AcDbEntity
  8
P-4FAA
  6
Continuous
 62
     1
100
AcDbMText
 10
-212.1960514373902
 20
2192.451314532551
 30
0.0
 40
20.0
 41
0.0
 71
     5
 72
     1
  1
\A1;8.5
  7
Stile_Quota
 73
     1
 44
1.0
1001
ACAD
1000
MTEXTBEGIN
1070
    73
1070
     1
1070
    44
1040
1.0
1070
    74
1070
     0
1000
MTEXTEND
  0
POINT
  5
D80
330
D6D
100
AcDbEntity
  8
Defpoints
  6
Continuous
 62
     0
100
AcDbPoint
 10
-169.69605143739
 20
1782.999116582782
 30
0.0
  0
POINT
  5
D81
330
D6D
100
AcDbEntity
  8
Defpoints
  6
Continuous
 62
     0
100
AcDbPoint
 10
-254.6960514373905
 20
1972.999116582757
 30
0.0
  0
POINT
  5
D82
330
D6D
100
AcDbEntity
  8
Defpoints
  6
Continuous
 62
     0
100
AcDbPoint
 10
-254.6960514373905
 20
2172.225367010685
 30
0.0
  0
ENDBLK
  5
D6F
330
D6D
100
AcDbEntity
  8
0
 62
     3
100
AcDbBlockEnd
  0
BLOCK
  5
D86
330
D85
100
AcDbEntity
  8
0
 62
     3
100
AcDbBlockBegin
  2
*D16
 70
     1
 10
0.0
 20
0.0
 30
0.0
  3
*D16
  1

  0
LINE
  5
D92
330
D85
100
AcDbEntity
  8
P-4FAA
  6
Continuous
 62
     2
370
    -2
100
AcDbLine
 10
-254.6960514373905
 20
1982.999116582757
 30
0.0
 11
-254.6960514373905
 21
2187.225367010685
 31
0.0
  0
LINE
  5
D93
330
D85
100
AcDbEntity
  8
P-4FAA
  6
Continuous
 62
     2
370
    -2
100
AcDbLine
 10
-469.6983406609579
 20
1822.999116582757
 30
0.0
 11
-469.6983406609579
 21
2187.225367010685
 31
0.0
  0
LINE
  5
D94
330
D85
100
AcDbEntity
  8
P-4FAA
  6
Continuous
 62
     2
370
    -2
100
AcDbLine
 10
-274.6960514373904
 20
2172.225367010685
 30
0.0
 11
-449.6983406609579
 21
2172.225367010685
 31
0.0
  0
SOLID
  5
D95
330
D85
100
AcDbEntity
  8
P-4FAA
  6
Continuous
 62
     2
100
AcDbTrace
 10
-274.6960514373904
 20
2175.558700344018
 30
0.0
 11
-274.6960514373904
 21
2168.892033677352
 31
0.0
 12
-254.6960514373905
 22
2172.225367010685
 32
0.0
 13
-254.6960514373905
 23
2172.225367010685
 33
0.0
  0
SOLID
  5
D96
330
D85
100
AcDbEntity
  8
P-4FAA
  6
Continuous
 62
     2
100
AcDbTrace
 10
-449.6983406609579
 20
2175.558700344018
 30
0.0
 11
-449.6983406609579
 21
2168.892033677352
 31
0.0
 12
-469.6983406609579
 22
2172.225367010685
 32
0.0
 13
-469.6983406609579
 23
2172.225367010685
 33
0.0
  0
MTEXT
  5
D97
330
D85
100
AcDbEntity
  8
P-4FAA
  6
Continuous
 62
     1
100
AcDbMText
 10
-362.1971960491742
 20
2192.451314532551
 30
0.0
 40
20.0
 41
0.0
 71
     5
 72
     1
  1
\A1;21.5
  7
Stile_Quota
 73
     1
 44
1.0
1001
ACAD
1000
MTEXTBEGIN
1070
    73
1070
     1
1070
    44
1040
1.0
1070
    74
1070
     0
1000
MTEXTEND
  0
POINT
  5
D98
330
D85
100
AcDbEntity
  8
Defpoints
  6
Continuous
 62
     0
100
AcDbPoint
 10
-254.6960514373905
 20
1972.999116582757
 30
0.0
  0
POINT
  5
D99
330
D85
100
AcDbEntity
  8
Defpoints
  6
Continuous
 62
     0
100
AcDbPoint
 10
-469.6983406609579
 20
1812.999116582757
 30
0.0
  0
POINT
  5
D9A
330
D85
100
AcDbEntity
  8
Defpoints
  6
Continuous
 62
     0
100
AcDbPoint
 10
-469.6983406609579
 20
2172.225367010685
 30
0.0
  0
ENDBLK
  5
D87
330
D85
100
AcDbEntity
  8
0
 62
     3
100
AcDbBlockEnd
  0
BLOCK
  5
D9E
330
D9D
100
AcDbEntity
  8
0
 62
     3
100
AcDbBlockBegin
  2
*D17
 70
     1
 10
0.0
 20
0.0
 30
0.0
  3
*D17
  1

  0
LINE
  5
DCE
330
D9D
100
AcDbEntity
  8
P-4FAA
  6
Continuous
 62
     2
370
    -2
100
AcDbLine
 10
-469.698340660957
 20
1822.999116582682
 30
0.0
 11
-469.698340660957
 21
2124.090407753223
 31
0.0
  0
LINE
  5
DCF
330
D9D
100
AcDbEntity
  8
P-4FAA
  6
Continuous
 62
     2
370
    -2
100
AcDbLine
 10
-445.7240400792307
 20
1857.999116582757
 30
0.0
 11
-445.7240400792307
 21
2124.090407753223
 31
0.0
  0
LINE
  5
DD0
330
D9D
100
AcDbEntity
  8
P-4FAA
  6
Continuous
 62
     2
370
    -2
100
AcDbLine
 10
-425.7240400792307
 20
2109.090407753223
 30
0.0
 11
-405.7240400792307
 21
2109.090407753223
 31
0.0
  0
LINE
  5
DD1
330
D9D
100
AcDbEntity
  8
P-4FAA
  6
Continuous
 62
     2
370
    -2
100
AcDbLine
 10
-489.698340660957
 20
2109.090407753223
 30
0.0
 11
-567.2930928475459
 21
2109.090407753223
 31
0.0
  0
LINE
  5
DD2
330
D9D
100
AcDbEntity
  8
P-4FAA
  6
Continuous
 62
     2
370
    -2
100
AcDbLine
 10
-445.7240400792307
 20
2109.090407753223
 30
0.0
 11
-469.698340660957
 21
2109.090407753223
 31
0.0
  0
SOLID
  5
DD3
330
D9D
100
AcDbEntity
  8
P-4FAA
  6
Continuous
 62
     2
100
AcDbTrace
 10
-425.7240400792307
 20
2112.423741086556
 30
0.0
 11
-425.7240400792307
 21
2105.757074419889
 31
0.0
 12
-445.7240400792307
 22
2109.090407753223
 32
0.0
 13
-445.7240400792307
 23
2109.090407753223
 33
0.0
  0
SOLID
  5
DD4
330
D9D
100
AcDbEntity
  8
P-4FAA
  6
Continuous
 62
     2
100
AcDbTrace
 10
-489.698340660957
 20
2112.423741086556
 30
0.0
 11
-489.698340660957
 21
2105.757074419889
 31
0.0
 12
-469.698340660957
 22
2109.090407753223
 32
0.0
 13
-469.698340660957
 23
2109.090407753223
 33
0.0
  0
MTEXT
  5
DD5
330
D9D
100
AcDbEntity
  8
P-4FAA
  6
Continuous
 62
     1
100
AcDbMText
 10
-538.4957167542514
 20
2129.272623496663
 30
0.0
 40
20.0
 41
0.0
 71
     5
 72
     1
  1
\A1;2.4
  7
Stile_Quota
 73
     1
 44
1.0
1001
ACAD
1000
MTEXTBEGIN
1070
    73
1070
     1
1070
    44
1040
1.0
1070
    74
1070
     0
1000
MTEXTEND
  0
POINT
  5
DD6
330
D9D
100
AcDbEntity
  8
Defpoints
  6
Continuous
 62
     0
100
AcDbPoint
 10
-469.698340660957
 20
1812.999116582682
 30
0.0
  0
POINT
  5
DD7
330
D9D
100
AcDbEntity
  8
Defpoints
  6
Continuous
 62
     0
100
AcDbPoint
 10
-445.7240400792307
 20
1847.999116582757
 30
0.0
  0
POINT
  5
DD8
330
D9D
100
AcDbEntity
  8
Defpoints
  6
Continuous
 62
     0
100
AcDbPoint
 10
-445.7240400792307
 20
2109.090407753223
 30
0.0
  0
ENDBLK
  5
D9F
330
D9D
100
AcDbEntity
  8
0
 62
     3
100
AcDbBlockEnd
  0
BLOCK
  5
DDB
330
DDA
100
AcDbEntity
  8
0
 62
     3
100
AcDbBlockBegin
  2
*D18
 70
     1
 10
0.0
 20
0.0
 30
0.0
  3
*D18
  1

  0
LINE
  5
DE7
330
DDA
100
AcDbEntity
  8
P-4FAA
  6
Continuous
 62
     2
370
    -2
100
AcDbLine
 10
-445.7240400792307
 20
1857.999116582757
 30
0.0
 11
-445.7240400792307
 21
2124.090407753223
 31
0.0
  0
LINE
  5
DE8
330
DDA
100
AcDbEntity
  8
P-4FAA
  6
Continuous
 62
     2
370
    -2
100
AcDbLine
 10
-384.6960514373904
 20
1943.183413981141
 30
0.0
 11
-384.6960514373904
 21
2124.090407753223
 31
0.0
  0
LINE
  5
DE9
330
DDA
100
AcDbEntity
  8
P-4FAA
  6
Continuous
 62
     2
370
    -2
100
AcDbLine
 10
-425.7240400792307
 20
2109.090407753223
 30
0.0
 11
-404.6960514373904
 21
2109.090407753223
 31
0.0
  0
SOLID
  5
DEA
330
DDA
100
AcDbEntity
  8
P-4FAA
  6
Continuous
 62
     2
100
AcDbTrace
 10
-425.7240400792307
 20
2112.423741086556
 30
0.0
 11
-425.7240400792307
 21
2105.757074419889
 31
0.0
 12
-445.7240400792307
 22
2109.090407753223
 32
0.0
 13
-445.7240400792307
 23
2109.090407753223
 33
0.0
  0
SOLID
  5
DEB
330
DDA
100
AcDbEntity
  8
P-4FAA
  6
Continuous
 62
     2
100
AcDbTrace
 10
-404.6960514373904
 20
2112.423741086556
 30
0.0
 11
-404.6960514373904
 21
2105.757074419889
 31
0.0
 12
-384.6960514373904
 22
2109.090407753223
 32
0.0
 13
-384.6960514373904
 23
2109.090407753223
 33
0.0
  0
MTEXT
  5
DEC
330
DDA
100
AcDbEntity
  8
P-4FAA
  6
Continuous
 62
     1
100
AcDbMText
 10
-415.2100457583105
 20
2129.316355275088
 30
0.0
 40
20.0
 41
0.0
 71
     5
 72
     1
  1
\A1;6.1
  7
Stile_Quota
 73
     1
 44
1.0
1001
ACAD
1000
MTEXTBEGIN
1070
    73
1070
     1
1070
    44
1040
1.0
1070
    74
1070
     0
1000
MTEXTEND
  0
POINT
  5
DED
330
DDA
100
AcDbEntity
  8
Defpoints
  6
Continuous
 62
     0
100
AcDbPoint
 10
-445.7240400792307
 20
1847.999116582757
 30
0.0
  0
POINT
  5
DEE
330
DDA
100
AcDbEntity
  8
Defpoints
  6
Continuous
 62
     0
100
AcDbPoint
 10
-384.6960514373904
 20
1933.183413981141
 30
0.0
  0
POINT
  5
DEF
330
DDA
100
AcDbEntity
  8
Defpoints
  6
Continuous
 62
     0
100
AcDbPoint
 10
-384.6960514373904
 20
2109.090407753223
 30
0.0
  0
ENDBLK
  5
DDC
330
DDA
100
AcDbEntity
  8
0
 62
     3
100
AcDbBlockEnd
  0
BLOCK
  5
DF3
330
DF2
100
AcDbEntity
  8
0
 62
     3
100
AcDbBlockBegin
  2
*D19
 70
     1
 10
0.0
 20
0.0
 30
0.0
  3
*D19
  1

  0
LINE
  5
E25
330
DF2
100
AcDbEntity
  8
P-4FAA
  6
Continuous
 62
     2
370
    -2
100
AcDbLine
 10
-384.6960514373904
 20
1943.183413981141
 30
0.0
 11
-384.6960514373904
 21
2124.090407753223
 31
0.0
  0
LINE
  5
E26
330
DF2
100
AcDbEntity
  8
P-4FAA
  6
Continuous
 62
     2
370
    -2
100
AcDbLine
 10
-254.6960514373905
 20
1982.999116582757
 30
0.0
 11
-254.6960514373905
 21
2124.090407753223
 31
0.0
  0
LINE
  5
E27
330
DF2
100
AcDbEntity
  8
P-4FAA
  6
Continuous
 62
     2
370
    -2
100
AcDbLine
 10
-364.6960514373905
 20
2109.090407753223
 30
0.0
 11
-274.6960514373904
 21
2109.090407753223
 31
0.0
  0
SOLID
  5
E28
330
DF2
100
AcDbEntity
  8
P-4FAA
  6
Continuous
 62
     2
100
AcDbTrace
 10
-364.6960514373905
 20
2112.423741086556
 30
0.0
 11
-364.6960514373905
 21
2105.757074419889
 31
0.0
 12
-384.6960514373904
 22
2109.090407753223
 32
0.0
 13
-384.6960514373904
 23
2109.090407753223
 33
0.0
  0
SOLID
  5
E29
330
DF2
100
AcDbEntity
  8
P-4FAA
  6
Continuous
 62
     2
100
AcDbTrace
 10
-274.6960514373904
 20
2112.423741086556
 30
0.0
 11
-274.6960514373904
 21
2105.757074419889
 31
0.0
 12
-254.6960514373905
 22
2109.090407753223
 32
0.0
 13
-254.6960514373905
 23
2109.090407753223
 33
0.0
  0
MTEXT
  5
E2A
330
DF2
100
AcDbEntity
  8
P-4FAA
  6
Continuous
 62
     1
100
AcDbMText
 10
-319.6960514373905
 20
2129.301778015614
 30
0.0
 40
20.0
 41
0.0
 71
     5
 72
     1
  1
\A1;13
  7
Stile_Quota
 73
     1
 44
1.0
1001
ACAD
1000
MTEXTBEGIN
1070
    73
1070
     1
1070
    44
1040
1.0
1070
    74
1070
     0
1000
MTEXTEND
  0
POINT
  5
E2B
330
DF2
100
AcDbEntity
  8
Defpoints
  6
Continuous
 62
     0
100
AcDbPoint
 10
-384.6960514373904
 20
1933.183413981141
 30
0.0
  0
POINT
  5
E2C
330
DF2
100
AcDbEntity
  8
Defpoints
  6
Continuous
 62
     0
100
AcDbPoint
 10
-254.6960514373905
 20
1972.999116582757
 30
0.0
  0
POINT
  5
E2D
330
DF2
100
AcDbEntity
  8
Defpoints
  6
Continuous
 62
     0
100
AcDbPoint
 10
-254.6960514373905
 20
2109.090407753223
 30
0.0
  0
ENDBLK
  5
DF4
330
DF2
100
AcDbEntity
  8
0
 62
     3
100
AcDbBlockEnd
  0
BLOCK
  5
E0B
330
E0A
100
AcDbEntity
  8
0
 62
     3
100
AcDbBlockBegin
  2
*D20
 70
     1
 10
0.0
 20
0.0
 30
0.0
  3
*D20
  1

  0
LINE
  5
E19
330
E0A
100
AcDbEntity
  8
P-4FAA
  6
Continuous
 62
     2
370
    -2
100
AcDbLine
 10
-274.6960514373914
 20
1960.575765066879
 30
0.0
 11
-274.6960514373914
 21
2080.929270724003
 31
0.0
  0
LINE
  5
E1A
330
E0A
100
AcDbEntity
  8
P-4FAA
  6
Continuous
 62
     2
370
    -2
100
AcDbLine
 10
-254.6960514373905
 20
1982.999116582757
 30
0.0
 11
-254.6960514373905
 21
2080.929270724003
 31
0.0
  0
LINE
  5
E1B
330
E0A
100
AcDbEntity
  8
P-4FAA
  6
Continuous
 62
     2
370
    -2
100
AcDbLine
 10
-294.6960514373913
 20
2065.929270724003
 30
0.0
 11
-314.6960514373914
 21
2065.929270724003
 31
0.0
  0
LINE
  5
E1C
330
E0A
100
AcDbEntity
  8
P-4FAA
  6
Continuous
 62
     2
370
    -2
100
AcDbLine
 10
-234.6960514373904
 20
2065.929270724003
 30
0.0
 11
-181.2995499796645
 21
2065.929270724003
 31
0.0
  0
LINE
  5
E1D
330
E0A
100
AcDbEntity
  8
P-4FAA
  6
Continuous
 62
     2
370
    -2
100
AcDbLine
 10
-274.6960514373914
 20
2065.929270724003
 30
0.0
 11
-254.6960514373905
 21
2065.929270724003
 31
0.0
  0
SOLID
  5
E1E
330
E0A
100
AcDbEntity
  8
P-4FAA
  6
Continuous
 62
     2
100
AcDbTrace
 10
-294.6960514373913
 20
2069.262604057337
 30
0.0
 11
-294.6960514373913
 21
2062.595937390669
 31
0.0
 12
-274.6960514373914
 22
2065.929270724003
 32
0.0
 13
-274.6960514373914
 23
2065.929270724003
 33
0.0
  0
SOLID
  5
E1F
330
E0A
100
AcDbEntity
  8
P-4FAA
  6
Continuous
 62
     2
100
AcDbTrace
 10
-234.6960514373904
 20
2069.262604057337
 30
0.0
 11
-234.6960514373904
 21
2062.595937390669
 31
0.0
 12
-254.6960514373905
 22
2065.929270724003
 32
0.0
 13
-254.6960514373905
 23
2065.929270724003
 33
0.0
  0
MTEXT
  5
E20
330
E0A
100
AcDbEntity
  8
P-4FAA
  6
Continuous
 62
     1
100
AcDbMText
 10
-197.9978007085275
 20
2085.929270724003
 30
0.0
 40
20.0
 41
0.0
 71
     5
 72
     1
  1
\A1;2
  7
Stile_Quota
 73
     1
 44
1.0
1001
ACAD
1000
MTEXTBEGIN
1070
    73
1070
     1
1070
    44
1040
1.0
1070
    74
1070
     0
1000
MTEXTEND
  0
POINT
  5
E21
330
E0A
100
AcDbEntity
  8
Defpoints
  6
Continuous
 62
     0
100
AcDbPoint
 10
-274.6960514373914
 20
1950.575765066879
 30
0.0
  0
POINT
  5
E22
330
E0A
100
AcDbEntity
  8
Defpoints
  6
Continuous
 62
     0
100
AcDbPoint
 10
-254.6960514373905
 20
1972.999116582757
 30
0.0
  0
POINT
  5
E23
330
E0A
100
AcDbEntity
  8
Defpoints
  6
Continuous
 62
     0
100
AcDbPoint
 10
-254.6960514373905
 20
2065.929270724003
 30
0.0
  0
ENDBLK
  5
E0C
330
E0A
100
AcDbEntity
  8
0
 62
     3
100
AcDbBlockEnd
  0
BLOCK
  5
E30
330
E2F
100
AcDbEntity
  8
0
 62
     3
100
AcDbBlockBegin
  2
*D21
 70
     1
 10
0.0
 20
0.0
 30
0.0
  3
*D21
  1

  0
LINE
  5
170A
330
E2F
100
AcDbEntity
  8
P-4FAA
  6
Continuous
 62
     2
370
    -2
100
AcDbLine
 10
-165.5860672474879
 20
1642.468239702628
 30
0.0
 11
-197.6658253108935
 21
1642.468239702628
 31
0.0
  0
LINE
  5
170B
330
E2F
100
AcDbEntity
  8
P-4FAA
  6
Continuous
 62
     2
370
    -2
100
AcDbLine
 10
-165.5860672474878
 20
1640.46823970263
 30
0.0
 11
-197.6658253108935
 21
1640.46823970263
 31
0.0
  0
LINE
  5
170C
330
E2F
100
AcDbEntity
  8
P-4FAA
  6
Continuous
 62
     2
370
    -2
100
AcDbLine
 10
-182.6658253108935
 20
1662.468239702628
 30
0.0
 11
-182.6658253108935
 21
1682.468239702628
 31
0.0
  0
LINE
  5
170D
330
E2F
100
AcDbEntity
  8
P-4FAA
  6
Continuous
 62
     2
370
    -2
100
AcDbLine
 10
-182.6658253108935
 20
1620.46823970263
 30
0.0
 11
-182.6658253108935
 21
1543.412846116624
 31
0.0
  0
LINE
  5
170E
330
E2F
100
AcDbEntity
  8
P-4FAA
  6
Continuous
 62
     2
370
    -2
100
AcDbLine
 10
-182.6658253108935
 20
1642.468239702628
 30
0.0
 11
-182.6658253108935
 21
1640.46823970263
 31
0.0
  0
SOLID
  5
170F
330
E2F
100
AcDbEntity
  8
P-4FAA
  6
Continuous
 62
     2
100
AcDbTrace
 10
-185.9991586442268
 20
1662.468239702628
 30
0.0
 11
-179.3324919775602
 21
1662.468239702628
 31
0.0
 12
-182.6658253108935
 22
1642.468239702628
 32
0.0
 13
-182.6658253108935
 23
1642.468239702628
 33
0.0
  0
SOLID
  5
1710
330
E2F
100
AcDbEntity
  8
P-4FAA
  6
Continuous
 62
     2
100
AcDbTrace
 10
-185.9991586442268
 20
1620.46823970263
 30
0.0
 11
-179.3324919775602
 21
1620.46823970263
 31
0.0
 12
-182.6658253108935
 22
1640.46823970263
 32
0.0
 13
-182.6658253108935
 23
1640.46823970263
 33
0.0
  0
MTEXT
  5
1711
330
E2F
100
AcDbEntity
  8
P-4FAA
  6
Continuous
 62
     1
100
AcDbMText
 10
-202.8917728327597
 20
1571.940542909627
 30
0.0
 40
20.0
 41
0.0
 71
     5
 72
     1
  1
\A1;0.2
  7
Stile_Quota
 11
0.0000000000000001
 21
1.0
 31
0.0
 73
     1
 44
1.0
1001
ACAD
1000
MTEXTBEGIN
1070
    73
1070
     1
1070
    44
1040
1.0
1070
    74
1070
     0
1000
MTEXTEND
  0
POINT
  5
1712
330
E2F
100
AcDbEntity
  8
Defpoints
  6
Continuous
 62
     0
100
AcDbPoint
 10
-155.5860672474879
 20
1642.468239702628
 30
0.0
  0
POINT
  5
1713
330
E2F
100
AcDbEntity
  8
Defpoints
  6
Continuous
 62
     0
100
AcDbPoint
 10
-155.5860672474878
 20
1640.46823970263
 30
0.0
  0
POINT
  5
1714
330
E2F
100
AcDbEntity
  8
Defpoints
  6
Continuous
 62
     0
100
AcDbPoint
 10
-182.6658253108935
 20
1640.46823970263
 30
0.0
  0
ENDBLK
  5
E31
330
E2F
100
AcDbEntity
  8
0
 62
     3
100
AcDbBlockEnd
  0
BLOCK
  5
E4C
330
E4B
100
AcDbEntity
  8
0
 62
     3
100
AcDbBlockBegin
  2
*D22
 70
     1
 10
0.0
 20
0.0
 30
0.0
  3
*D22
  1

  0
LINE
  5
1715
330
E4B
100
AcDbEntity
  8
P-4FAA
  6
Continuous
 62
     2
370
    -2
100
AcDbLine
 10
-166.386067247487
 20
1647.968239702623
 30
0.0
 11
-191.5262972540371
 21
1647.968239702623
 31
0.0
  0
LINE
  5
1716
330
E4B
100
AcDbEntity
  8
P-4FAA
  6
Continuous
 62
     2
370
    -2
100
AcDbLine
 10
-165.5860672474879
 20
1642.468239702628
 30
0.0
 11
-191.5262972540371
 21
1642.468239702628
 31
0.0
  0
LINE
  5
1717
330
E4B
100
AcDbEntity
  8
P-4FAA
  6
Continuous
 62
     2
370
    -2
100
AcDbLine
 10
-176.5262972540371
 20
1667.968239702623
 30
0.0
 11
-176.5262972540371
 21
1687.968239702623
 31
0.0
  0
LINE
  5
1718
330
E4B
100
AcDbEntity
  8
P-4FAA
  6
Continuous
 62
     2
370
    -2
100
AcDbLine
 10
-176.5262972540371
 20
1622.468239702628
 30
0.0
 11
-176.5262972540371
 21
1530.777277603503
 31
0.0
  0
LINE
  5
1719
330
E4B
100
AcDbEntity
  8
P-4FAA
  6
Continuous
 62
     2
370
    -2
100
AcDbLine
 10
-176.5262972540371
 20
1647.968239702623
 30
0.0
 11
-176.5262972540371
 21
1642.468239702628
 31
0.0
  0
SOLID
  5
171A
330
E4B
100
AcDbEntity
  8
P-4FAA
  6
Continuous
 62
     2
100
AcDbTrace
 10
-179.8596305873705
 20
1667.968239702623
 30
0.0
 11
-173.1929639207038
 21
1667.968239702623
 31
0.0
 12
-176.5262972540371
 22
1647.968239702623
 32
0.0
 13
-176.5262972540371
 23
1647.968239702623
 33
0.0
  0
SOLID
  5
171B
330
E4B
100
AcDbEntity
  8
P-4FAA
  6
Continuous
 62
     2
100
AcDbTrace
 10
-179.8596305873705
 20
1622.468239702628
 30
0.0
 11
-173.1929639207038
 21
1622.468239702628
 31
0.0
 12
-176.5262972540371
 22
1642.468239702628
 32
0.0
 13
-176.5262972540371
 23
1642.468239702628
 33
0.0
  0
MTEXT
  5
171C
330
E4B
100
AcDbEntity
  8
P-4FAA
  6
Continuous
 62
     1
100
AcDbMText
 10
-196.7522447759033
 20
1566.622758653065
 30
0.0
 40
20.0
 41
0.0
 71
     5
 72
     1
  1
\A1;0.55
  7
Stile_Quota
 11
0.0000000000000001
 21
1.0
 31
0.0
 73
     1
 44
1.0
1001
ACAD
1000
MTEXTBEGIN
1070
    73
1070
     1
1070
    44
1040
1.0
1070
    74
1070
     0
1000
MTEXTEND
  0
POINT
  5
171D
330
E4B
100
AcDbEntity
  8
Defpoints
  6
Continuous
 62
     0
100
AcDbPoint
 10
-156.386067247487
 20
1647.968239702623
 30
0.0
  0
POINT
  5
171E
330
E4B
100
AcDbEntity
  8
Defpoints
  6
Continuous
 62
     0
100
AcDbPoint
 10
-155.5860672474879
 20
1642.468239702628
 30
0.0
  0
POINT
  5
171F
330
E4B
100
AcDbEntity
  8
Defpoints
  6
Continuous
 62
     0
100
AcDbPoint
 10
-176.5262972540371
 20
1642.468239702628
 30
0.0
  0
ENDBLK
  5
E4D
330
E4B
100
AcDbEntity
  8
0
 62
     3
100
AcDbBlockEnd
  0
BLOCK
  5
E68
330
E67
100
AcDbEntity
  8
0
 62
     3
100
AcDbBlockBegin
  2
*D23
 70
     1
 10
0.0
 20
0.0
 30
0.0
  3
*D23
  1

  0
LINE
  5
1720
330
E67
100
AcDbEntity
  8
P-4FAA
  6
Continuous
 62
     2
370
    -2
100
AcDbLine
 10
-167.386067247487
 20
1647.968239702623
 30
0.0
 11
-191.5262972540369
 21
1647.968239702623
 31
0.0
  0
LINE
  5
1721
330
E67
100
AcDbEntity
  8
P-4FAA
  6
Continuous
 62
     2
370
    -2
100
AcDbLine
 10
-166.386067247487
 20
1652.968239702618
 30
0.0
 11
-191.5262972540369
 21
1652.968239702618
 31
0.0
  0
LINE
  5
1722
330
E67
100
AcDbEntity
  8
P-4FAA
  6
Continuous
 62
     2
370
    -2
100
AcDbLine
 10
-176.5262972540369
 20
1627.968239702623
 30
0.0
 11
-176.5262972540369
 21
1607.968239702623
 31
0.0
  0
LINE
  5
1723
330
E67
100
AcDbEntity
  8
P-4FAA
  6
Continuous
 62
     2
370
    -2
100
AcDbLine
 10
-176.5262972540369
 20
1672.968239702617
 30
0.0
 11
-176.5262972540369
 21
1692.968239702618
 31
0.0
  0
LINE
  5
1724
330
E67
100
AcDbEntity
  8
P-4FAA
  6
Continuous
 62
     2
370
    -2
100
AcDbLine
 10
-176.5262972540369
 20
1647.968239702623
 30
0.0
 11
-176.5262972540369
 21
1652.968239702618
 31
0.0
  0
SOLID
  5
1725
330
E67
100
AcDbEntity
  8
P-4FAA
  6
Continuous
 62
     2
100
AcDbTrace
 10
-179.8596305873702
 20
1627.968239702623
 30
0.0
 11
-173.1929639207035
 21
1627.968239702623
 31
0.0
 12
-176.5262972540369
 22
1647.968239702623
 32
0.0
 13
-176.5262972540369
 23
1647.968239702623
 33
0.0
  0
SOLID
  5
1726
330
E67
100
AcDbEntity
  8
P-4FAA
  6
Continuous
 62
     2
100
AcDbTrace
 10
-179.8596305873702
 20
1672.968239702617
 30
0.0
 11
-173.1929639207035
 21
1672.968239702617
 31
0.0
 12
-176.5262972540369
 22
1652.968239702618
 32
0.0
 13
-176.5262972540369
 23
1652.968239702618
 33
0.0
  0
MTEXT
  5
1727
330
E67
100
AcDbEntity
  8
P-4FAA
  6
Continuous
 62
     1
100
AcDbMText
 10
-196.752244775903
 20
1650.46823970262
 30
0.0
 40
20.0
 41
0.0
 71
     5
 72
     1
  1
\A1;0.5
  7
Stile_Quota
 11
0.0000000000000001
 21
1.0
 31
0.0
 73
     1
 44
1.0
1001
ACAD
1000
MTEXTBEGIN
1070
    73
1070
     1
1070
    44
1040
1.0
1070
    74
1070
     0
1000
MTEXTEND
  0
POINT
  5
1728
330
E67
100
AcDbEntity
  8
Defpoints
  6
Continuous
 62
     0
100
AcDbPoint
 10
-157.386067247487
 20
1647.968239702623
 30
0.0
  0
POINT
  5
1729
330
E67
100
AcDbEntity
  8
Defpoints
  6
Continuous
 62
     0
100
AcDbPoint
 10
-156.386067247487
 20
1652.968239702618
 30
0.0
  0
POINT
  5
172A
330
E67
100
AcDbEntity
  8
Defpoints
  6
Continuous
 62
     0
100
AcDbPoint
 10
-176.5262972540369
 20
1652.968239702618
 30
0.0
  0
ENDBLK
  5
E69
330
E67
100
AcDbEntity
  8
0
 62
     3
100
AcDbBlockEnd
  0
BLOCK
  5
E9A
330
E99
100
AcDbEntity
  8
0
 62
     3
100
AcDbBlockBegin
  2
*D24
 70
     1
 10
0.0
 20
0.0
 30
0.0
  3
*D24
  1

  0
LINE
  5
172B
330
E99
100
AcDbEntity
  8
P-4FAA
  6
Continuous
 62
     2
370
    -2
100
AcDbLine
 10
-165.5860672474879
 20
1642.468239702628
 30
0.0
 11
-197.6658253108935
 21
1642.468239702628
 31
0.0
  0
LINE
  5
172C
330
E99
100
AcDbEntity
  8
P-4FAA
  6
Continuous
 62
     2
370
    -2
100
AcDbLine
 10
-165.5860672474879
 20
1668.468239702628
 30
0.0
 11
-197.6658253108935
 21
1668.468239702628
 31
0.0
  0
LINE
  5
172D
330
E99
100
AcDbEntity
  8
P-4FAA
  6
Continuous
 62
     2
370
    -2
100
AcDbLine
 10
-182.6658253108935
 20
1622.468239702628
 30
0.0
 11
-182.6658253108935
 21
1602.468239702628
 31
0.0
  0
LINE
  5
172E
330
E99
100
AcDbEntity
  8
P-4FAA
  6
Continuous
 62
     2
370
    -2
100
AcDbLine
 10
-182.6658253108935
 20
1688.468239702628
 30
0.0
 11
-182.6658253108935
 21
1766.237919002919
 31
0.0
  0
LINE
  5
172F
330
E99
100
AcDbEntity
  8
P-4FAA
  6
Continuous
 62
     2
370
    -2
100
AcDbLine
 10
-182.6658253108935
 20
1642.468239702628
 30
0.0
 11
-182.6658253108935
 21
1668.468239702628
 31
0.0
  0
SOLID
  5
1730
330
E99
100
AcDbEntity
  8
P-4FAA
  6
Continuous
 62
     2
100
AcDbTrace
 10
-185.9991586442268
 20
1622.468239702628
 30
0.0
 11
-179.3324919775602
 21
1622.468239702628
 31
0.0
 12
-182.6658253108935
 22
1642.468239702628
 32
0.0
 13
-182.6658253108935
 23
1642.468239702628
 33
0.0
  0
SOLID
  5
1731
330
E99
100
AcDbEntity
  8
P-4FAA
  6
Continuous
 62
     2
100
AcDbTrace
 10
-185.9991586442268
 20
1688.468239702628
 30
0.0
 11
-179.3324919775602
 21
1688.468239702628
 31
0.0
 12
-182.6658253108935
 22
1668.468239702628
 32
0.0
 13
-182.6658253108935
 23
1668.468239702628
 33
0.0
  0
MTEXT
  5
1732
330
E99
100
AcDbEntity
  8
P-4FAA
  6
Continuous
 62
     1
100
AcDbMText
 10
-202.8917728327597
 20
1737.353079352774
 30
0.0
 40
20.0
 41
0.0
 71
     5
 72
     1
  1
\A1;2.6
  7
Stile_Quota
 11
0.0000000000000001
 21
1.0
 31
0.0
 73
     1
 44
1.0
1001
ACAD
1000
MTEXTBEGIN
1070
    73
1070
     1
1070
    44
1040
1.0
1070
    74
1070
     0
1000
MTEXTEND
  0
POINT
  5
1733
330
E99
100
AcDbEntity
  8
Defpoints
  6
Continuous
 62
     0
100
AcDbPoint
 10
-155.5860672474879
 20
1642.468239702628
 30
0.0
  0
POINT
  5
1734
330
E99
100
AcDbEntity
  8
Defpoints
  6
Continuous
 62
     0
100
AcDbPoint
 10
-155.5860672474879
 20
1668.468239702628
 30
0.0
  0
POINT
  5
1735
330
E99
100
AcDbEntity
  8
Defpoints
  6
Continuous
 62
     0
100
AcDbPoint
 10
-182.6658253108935
 20
1668.468239702628
 30
0.0
  0
ENDBLK
  5
E9B
330
E99
100
AcDbEntity
  8
0
 62
     3
100
AcDbBlockEnd
  0
BLOCK
  5
EB2
330
EB1
100
AcDbEntity
  8
0
 62
     3
100
AcDbBlockBegin
  2
*D25
 70
     1
 10
0.0
 20
0.0
 30
0.0
  3
*D25
  1

  0
LINE
  5
1736
330
EB1
100
AcDbEntity
  8
P-4FAA
  6
Continuous
 62
     2
370
    -2
100
AcDbLine
 10
-166.386067247487
 20
1662.968239702608
 30
0.0
 11
-191.5262972540371
 21
1662.968239702608
 31
0.0
  0
LINE
  5
1737
330
EB1
100
AcDbEntity
  8
P-4FAA
  6
Continuous
 62
     2
370
    -2
100
AcDbLine
 10
-165.5860672474879
 20
1668.468239702602
 30
0.0
 11
-191.5262972540371
 21
1668.468239702602
 31
0.0
  0
LINE
  5
1738
330
EB1
100
AcDbEntity
  8
P-4FAA
  6
Continuous
 62
     2
370
    -2
100
AcDbLine
 10
-176.5262972540371
 20
1642.968239702607
 30
0.0
 11
-176.5262972540371
 21
1622.968239702608
 31
0.0
  0
LINE
  5
1739
330
EB1
100
AcDbEntity
  8
P-4FAA
  6
Continuous
 62
     2
370
    -2
100
AcDbLine
 10
-176.5262972540371
 20
1688.468239702602
 30
0.0
 11
-176.5262972540371
 21
1780.159201801728
 31
0.0
  0
LINE
  5
173A
330
EB1
100
AcDbEntity
  8
P-4FAA
  6
Continuous
 62
     2
370
    -2
100
AcDbLine
 10
-176.5262972540371
 20
1662.968239702608
 30
0.0
 11
-176.5262972540371
 21
1668.468239702602
 31
0.0
  0
SOLID
  5
173B
330
EB1
100
AcDbEntity
  8
P-4FAA
  6
Continuous
 62
     2
100
AcDbTrace
 10
-179.8596305873705
 20
1642.968239702607
 30
0.0
 11
-173.1929639207038
 21
1642.968239702607
 31
0.0
 12
-176.5262972540371
 22
1662.968239702608
 32
0.0
 13
-176.5262972540371
 23
1662.968239702608
 33
0.0
  0
SOLID
  5
173C
330
EB1
100
AcDbEntity
  8
P-4FAA
  6
Continuous
 62
     2
100
AcDbTrace
 10
-179.8596305873705
 20
1688.468239702602
 30
0.0
 11
-173.1929639207038
 21
1688.468239702602
 31
0.0
 12
-176.5262972540371
 22
1668.468239702602
 32
0.0
 13
-176.5262972540371
 23
1668.468239702602
 33
0.0
  0
MTEXT
  5
173D
330
EB1
100
AcDbEntity
  8
P-4FAA
  6
Continuous
 62
     1
100
AcDbMText
 10
-196.7522447759032
 20
1744.313720752165
 30
0.0
 40
20.0
 41
0.0
 71
     5
 72
     1
  1
\A1;0.55
  7
Stile_Quota
 11
0.0000000000000001
 21
1.0
 31
0.0
 73
     1
 44
1.0
1001
ACAD
1000
MTEXTBEGIN
1070
    73
1070
     1
1070
    44
1040
1.0
1070
    74
1070
     0
1000
MTEXTEND
  0
POINT
  5
173E
330
EB1
100
AcDbEntity
  8
Defpoints
  6
Continuous
 62
     0
100
AcDbPoint
 10
-156.386067247487
 20
1662.968239702608
 30
0.0
  0
POINT
  5
173F
330
EB1
100
AcDbEntity
  8
Defpoints
  6
Continuous
 62
     0
100
AcDbPoint
 10
-155.5860672474879
 20
1668.468239702602
 30
0.0
  0
POINT
  5
1740
330
EB1
100
AcDbEntity
  8
Defpoints
  6
Continuous
 62
     0
100
AcDbPoint
 10
-176.5262972540371
 20
1668.468239702602
 30
0.0
  0
ENDBLK
  5
EB3
330
EB1
100
AcDbEntity
  8
0
 62
     3
100
AcDbBlockEnd
  0
BLOCK
  5
F14
330
F13
100
AcDbEntity
  8
0
 62
     7
100
AcDbBlockBegin
  2
*D26
 70
     1
 10
0.0
 20
0.0
 30
0.0
  3
*D26
  1

  0
LINE
  5
1741
330
F13
100
AcDbEntity
  8
P-4FAA
  6
Continuous
 62
     2
370
    -2
100
AcDbLine
 10
-167.386067247487
 20
1652.968239702618
 30
0.0
 11
-191.5262972540369
 21
1652.968239702618
 31
0.0
  0
LINE
  5
1742
330
F13
100
AcDbEntity
  8
P-4FAA
  6
Continuous
 62
     2
370
    -2
100
AcDbLine
 10
-166.386067247487
 20
1657.968239702613
 30
0.0
 11
-191.5262972540369
 21
1657.968239702613
 31
0.0
  0
LINE
  5
1743
330
F13
100
AcDbEntity
  8
P-4FAA
  6
Continuous
 62
     2
370
    -2
100
AcDbLine
 10
-176.5262972540369
 20
1632.968239702618
 30
0.0
 11
-176.5262972540369
 21
1612.968239702618
 31
0.0
  0
LINE
  5
1744
330
F13
100
AcDbEntity
  8
P-4FAA
  6
Continuous
 62
     2
370
    -2
100
AcDbLine
 10
-176.5262972540369
 20
1677.968239702613
 30
0.0
 11
-176.5262972540369
 21
1697.968239702612
 31
0.0
  0
LINE
  5
1745
330
F13
100
AcDbEntity
  8
P-4FAA
  6
Continuous
 62
     2
370
    -2
100
AcDbLine
 10
-176.5262972540369
 20
1652.968239702618
 30
0.0
 11
-176.5262972540369
 21
1657.968239702613
 31
0.0
  0
SOLID
  5
1746
330
F13
100
AcDbEntity
  8
P-4FAA
  6
Continuous
 62
     2
100
AcDbTrace
 10
-179.8596305873702
 20
1632.968239702618
 30
0.0
 11
-173.1929639207035
 21
1632.968239702618
 31
0.0
 12
-176.5262972540369
 22
1652.968239702618
 32
0.0
 13
-176.5262972540369
 23
1652.968239702618
 33
0.0
  0
SOLID
  5
1747
330
F13
100
AcDbEntity
  8
P-4FAA
  6
Continuous
 62
     2
100
AcDbTrace
 10
-179.8596305873702
 20
1677.968239702613
 30
0.0
 11
-173.1929639207035
 21
1677.968239702613
 31
0.0
 12
-176.5262972540369
 22
1657.968239702613
 32
0.0
 13
-176.5262972540369
 23
1657.968239702613
 33
0.0
  0
MTEXT
  5
1748
330
F13
100
AcDbEntity
  8
P-4FAA
  6
Continuous
 62
     1
100
AcDbMText
 10
-196.752244775903
 20
1655.468239702615
 30
0.0
 40
20.0
 41
0.0
 71
     5
 72
     1
  1
\A1;0.5
  7
Stile_Quota
 11
0.0000000000000001
 21
1.0
 31
0.0
 73
     1
 44
1.0
1001
ACAD
1000
MTEXTBEGIN
1070
    73
1070
     1
1070
    44
1040
1.0
1070
    74
1070
     0
1000
MTEXTEND
  0
POINT
  5
1749
330
F13
100
AcDbEntity
  8
Defpoints
  6
Continuous
 62
     0
100
AcDbPoint
 10
-157.386067247487
 20
1652.968239702618
 30
0.0
  0
POINT
  5
174A
330
F13
100
AcDbEntity
  8
Defpoints
  6
Continuous
 62
     0
100
AcDbPoint
 10
-156.386067247487
 20
1657.968239702613
 30
0.0
  0
POINT
  5
174B
330
F13
100
AcDbEntity
  8
Defpoints
  6
Continuous
 62
     0
100
AcDbPoint
 10
-176.5262972540369
 20
1657.968239702613
 30
0.0
  0
ENDBLK
  5
F15
330
F13
100
AcDbEntity
  8
0
 62
     7
100
AcDbBlockEnd
  0
BLOCK
  5
F25
330
F24
100
AcDbEntity
  8
0
 62
     7
100
AcDbBlockBegin
  2
*D27
 70
     1
 10
0.0
 20
0.0
 30
0.0
  3
*D27
  1

  0
LINE
  5
174C
330
F24
100
AcDbEntity
  8
P-4FAA
  6
Continuous
 62
     2
370
    -2
100
AcDbLine
 10
-167.386067247487
 20
1657.968239702613
 30
0.0
 11
-191.5262972540369
 21
1657.968239702613
 31
0.0
  0
LINE
  5
174D
330
F24
100
AcDbEntity
  8
P-4FAA
  6
Continuous
 62
     2
370
    -2
100
AcDbLine
 10
-166.386067247487
 20
1662.968239702608
 30
0.0
 11
-191.5262972540369
 21
1662.968239702608
 31
0.0
  0
LINE
  5
174E
330
F24
100
AcDbEntity
  8
P-4FAA
  6
Continuous
 62
     2
370
    -2
100
AcDbLine
 10
-176.5262972540369
 20
1637.968239702613
 30
0.0
 11
-176.5262972540369
 21
1617.968239702613
 31
0.0
  0
LINE
  5
174F
330
F24
100
AcDbEntity
  8
P-4FAA
  6
Continuous
 62
     2
370
    -2
100
AcDbLine
 10
-176.5262972540369
 20
1682.968239702608
 30
0.0
 11
-176.5262972540369
 21
1702.968239702608
 31
0.0
  0
LINE
  5
1750
330
F24
100
AcDbEntity
  8
P-4FAA
  6
Continuous
 62
     2
370
    -2
100
AcDbLine
 10
-176.5262972540369
 20
1657.968239702613
 30
0.0
 11
-176.5262972540369
 21
1662.968239702608
 31
0.0
  0
SOLID
  5
1751
330
F24
100
AcDbEntity
  8
P-4FAA
  6
Continuous
 62
     2
100
AcDbTrace
 10
-179.8596305873702
 20
1637.968239702613
 30
0.0
 11
-173.1929639207035
 21
1637.968239702613
 31
0.0
 12
-176.5262972540369
 22
1657.968239702613
 32
0.0
 13
-176.5262972540369
 23
1657.968239702613
 33
0.0
  0
SOLID
  5
1752
330
F24
100
AcDbEntity
  8
P-4FAA
  6
Continuous
 62
     2
100
AcDbTrace
 10
-179.8596305873702
 20
1682.968239702608
 30
0.0
 11
-173.1929639207035
 21
1682.968239702608
 31
0.0
 12
-176.5262972540369
 22
1662.968239702608
 32
0.0
 13
-176.5262972540369
 23
1662.968239702608
 33
0.0
  0
MTEXT
  5
1753
330
F24
100
AcDbEntity
  8
P-4FAA
  6
Continuous
 62
     1
100
AcDbMText
 10
-196.752244775903
 20
1660.46823970261
 30
0.0
 40
20.0
 41
0.0
 71
     5
 72
     1
  1
\A1;0.5
  7
Stile_Quota
 11
0.0000000000000001
 21
1.0
 31
0.0
 73
     1
 44
1.0
1001
ACAD
1000
MTEXTBEGIN
1070
    73
1070
     1
1070
    44
1040
1.0
1070
    74
1070
     0
1000
MTEXTEND
  0
POINT
  5
1754
330
F24
100
AcDbEntity
  8
Defpoints
  6
Continuous
 62
     0
100
AcDbPoint
 10
-157.386067247487
 20
1657.968239702613
 30
0.0
  0
POINT
  5
1755
330
F24
100
AcDbEntity
  8
Defpoints
  6
Continuous
 62
     0
100
AcDbPoint
 10
-156.386067247487
 20
1662.968239702608
 30
0.0
  0
POINT
  5
1756
330
F24
100
AcDbEntity
  8
Defpoints
  6
Continuous
 62
     0
100
AcDbPoint
 10
-176.5262972540369
 20
1662.968239702608
 30
0.0
  0
ENDBLK
  5
F26
330
F24
100
AcDbEntity
  8
0
 62
     7
100
AcDbBlockEnd
  0
BLOCK
  5
F34
330
F33
100
AcDbEntity
  8
0
 62
     3
100
AcDbBlockBegin
  2
*D28
 70
     1
 10
0.0
 20
0.0
 30
0.0
  3
*D28
  1

  0
LINE
  5
1757
330
F33
100
AcDbEntity
  8
P-4FAA
  6
Continuous
 62
     2
370
    -2
100
AcDbLine
 10
-165.5860672474878
 20
1640.46823970263
 30
0.0
 11
-203.3321833669151
 21
1640.46823970263
 31
0.0
  0
LINE
  5
1758
330
F33
100
AcDbEntity
  8
P-4FAA
  6
Continuous
 62
     2
370
    -2
100
AcDbLine
 10
-151.4963715715059
 20
1687.4682397026
 30
0.0
 11
-203.3321833669151
 21
1687.4682397026
 31
0.0
  0
LINE
  5
1759
330
F33
100
AcDbEntity
  8
P-4FAA
  6
Continuous
 62
     2
370
    -2
100
AcDbLine
 10
-188.3321833669151
 20
1620.46823970263
 30
0.0
 11
-188.3321833669151
 21
1600.46823970263
 31
0.0
  0
LINE
  5
175A
330
F33
100
AcDbEntity
  8
P-4FAA
  6
Continuous
 62
     2
370
    -2
100
AcDbLine
 10
-188.3321833669151
 20
1707.4682397026
 30
0.0
 11
-188.3321833669151
 21
1786.316636204058
 31
0.0
  0
LINE
  5
175B
330
F33
100
AcDbEntity
  8
P-4FAA
  6
Continuous
 62
     2
370
    -2
100
AcDbLine
 10
-188.3321833669151
 20
1640.46823970263
 30
0.0
 11
-188.3321833669151
 21
1687.4682397026
 31
0.0
  0
SOLID
  5
175C
330
F33
100
AcDbEntity
  8
P-4FAA
  6
Continuous
 62
     2
100
AcDbTrace
 10
-191.6655167002485
 20
1620.46823970263
 30
0.0
 11
-184.9988500335818
 21
1620.46823970263
 31
0.0
 12
-188.3321833669151
 22
1640.46823970263
 32
0.0
 13
-188.3321833669151
 23
1640.46823970263
 33
0.0
  0
SOLID
  5
175D
330
F33
100
AcDbEntity
  8
P-4FAA
  6
Continuous
 62
     2
100
AcDbTrace
 10
-191.6655167002485
 20
1707.4682397026
 30
0.0
 11
-184.9988500335818
 21
1707.4682397026
 31
0.0
 12
-188.3321833669151
 22
1687.4682397026
 32
0.0
 13
-188.3321833669151
 23
1687.4682397026
 33
0.0
  0
MTEXT
  5
175E
330
F33
100
AcDbEntity
  8
P-4FAA
  6
Continuous
 62
     1
100
AcDbMText
 10
-208.6310171861574
 20
1756.892437953329
 30
0.0
 40
20.0
 41
0.0
 71
     5
 72
     1
  1
\A1;4.7
  7
Stile_Quota
 11
0.0000000000000001
 21
1.0
 31
0.0
 73
     1
 44
1.0
1001
ACAD
1000
MTEXTBEGIN
1070
    73
1070
     1
1070
    44
1040
1.0
1070
    74
1070
     0
1000
MTEXTEND
  0
POINT
  5
175F
330
F33
100
AcDbEntity
  8
Defpoints
  6
Continuous
 62
     0
100
AcDbPoint
 10
-155.5860672474878
 20
1640.46823970263
 30
0.0
  0
POINT
  5
1760
330
F33
100
AcDbEntity
  8
Defpoints
  6
Continuous
 62
     0
100
AcDbPoint
 10
-141.4963715715059
 20
1687.4682397026
 30
0.0
  0
POINT
  5
1761
330
F33
100
AcDbEntity
  8
Defpoints
  6
Continuous
 62
     0
100
AcDbPoint
 10
-188.3321833669151
 20
1687.4682397026
 30
0.0
  0
ENDBLK
  5
F35
330
F33
100
AcDbEntity
  8
0
 62
     3
100
AcDbBlockEnd
  0
BLOCK
  5
FDD
330
FDC
100
AcDbEntity
  8
0
 62
     3
100
AcDbBlockBegin
  2
*D29
 70
     1
 10
0.0
 20
0.0
 30
0.0
  3
*D29
  1

  0
LINE
  5
16D5
330
FDC
100
AcDbEntity
  8
P-4FAA
  6
Continuous
 62
     2
370
    -2
100
AcDbLine
 10
-475.9133229936354
 20
1500.587977192933
 30
0.0
 11
-544.1827756266693
 21
1429.707639641049
 31
0.0
  0
LINE
  5
16D6
330
FDC
100
AcDbEntity
  8
P-4FAA
  6
Continuous
 62
     2
370
    -2
100
AcDbLine
 10
-444.6960514371157
 20
1532.999116583031
 30
0.0
 11
-462.0389800796194
 21
1514.992928032985
 31
0.0
  0
SOLID
  5
16D7
330
FDC
100
AcDbEntity
  8
P-4FAA
  6
Continuous
 62
     2
100
AcDbTrace
 10
-478.3141481336439
 20
1502.900367678603
 30
0.0
 11
-473.5124978536269
 21
1498.275586707264
 31
0.0
 12
-462.0389800796194
 22
1514.992928032985
 32
0.0
 13
-462.0389800796194
 23
1514.992928032985
 33
0.0
  0
MTEXT
  5
16D8
330
FDC
100
AcDbEntity
  8
P-4FAA
  6
Continuous
 62
     1
100
AcDbMText
 10
-531.5529097544571
 20
1471.976419580929
 30
0.0
 40
20.0
 41
0.0
 71
     5
 72
     1
  1
\A1;R2.5
  7
Stile_Quota
 11
0.6937171457008052
 21
0.720247542002559
 31
0.0
 73
     1
 44
1.0
1001
ACAD
1000
MTEXTBEGIN
1070
    73
1070
     1
1070
    44
1040
1.0
1070
    74
1070
     0
1000
MTEXTEND
  0
POINT
  5
16D9
330
FDC
100
AcDbEntity
  8
Defpoints
  6
Continuous
 62
     0
100
AcDbPoint
 10
-462.0389800796194
 20
1514.992928032985
 30
0.0
  0
POINT
  5
16DA
330
FDC
100
AcDbEntity
  8
Defpoints
  6
Continuous
 62
     0
100
AcDbPoint
 10
-444.6960514371157
 20
1532.999116583031
 30
0.0
  0
ENDBLK
  5
FDE
330
FDC
100
AcDbEntity
  8
0
 62
     3
100
AcDbBlockEnd
  0
BLOCK
  5
FEF
330
FEE
100
AcDbEntity
  8
0
 62
     3
100
AcDbBlockBegin
  2
*D30
 70
     1
 10
0.0
 20
0.0
 30
0.0
  3
*D30
  1

  0
LINE
  5
16CF
330
FEE
100
AcDbEntity
  8
P-4FAA
  6
Continuous
 62
     2
370
    -2
100
AcDbLine
 10
-162.9264690072873
 20
1501.129167850466
 30
0.0
 11
-93.44916062193908
 21
1431.43236710746
 31
0.0
  0
LINE
  5
16D0
330
FEE
100
AcDbEntity
  8
P-4FAA
  6
Continuous
 62
     2
370
    -2
100
AcDbLine
 10
-194.6960514373649
 20
1532.999116583031
 30
0.0
 11
-177.0462834206627
 21
1515.293589509392
 31
0.0
  0
SOLID
  5
16D1
330
FEE
100
AcDbEntity
  8
P-4FAA
  6
Continuous
 62
     2
100
AcDbTrace
 10
-160.565732064133
 20
1503.482470252696
 30
0.0
 11
-165.2872059504416
 21
1498.775865448237
 31
0.0
 12
-177.0462834206627
 22
1515.293589509392
 32
0.0
 13
-177.0462834206627
 23
1515.293589509392
 33
0.0
  0
MTEXT
  5
16D2
330
FEE
100
AcDbEntity
  8
P-4FAA
  6
Continuous
 62
     1
100
AcDbMText
 10
-106.8034651503751
 20
1473.477887916671
 30
0.0
 40
20.0
 41
0.0
 71
     5
 72
     1
  1
\A1;R2.5
  7
Stile_Quota
 11
0.7059907206687719
 21
-0.7082210829462705
 31
0.0
 73
     1
 44
1.0
1001
ACAD
1000
MTEXTBEGIN
1070
    73
1070
     1
1070
    44
1040
1.0
1070
    74
1070
     0
1000
MTEXTEND
  0
POINT
  5
16D3
330
FEE
100
AcDbEntity
  8
Defpoints
  6
Continuous
 62
     0
100
AcDbPoint
 10
-177.0462834206627
 20
1515.293589509392
 30
0.0
  0
POINT
  5
16D4
330
FEE
100
AcDbEntity
  8
Defpoints
  6
Continuous
 62
     0
100
AcDbPoint
 10
-194.6960514373649
 20
1532.999116583031
 30
0.0
  0
ENDBLK
  5
FF0
330
FEE
100
AcDbEntity
  8
0
 62
     3
100
AcDbBlockEnd
  0
BLOCK
  5
1001
330
1000
100
AcDbEntity
  8
0
 62
     3
100
AcDbBlockBegin
  2
*D31
 70
     1
 10
0.0
 20
0.0
 30
0.0
  3
*D31
  1

  0
LINE
  5
16B7
330
1000
100
AcDbEntity
  8
P-4FAA
  6
Continuous
 62
     2
370
    -2
100
AcDbLine
 10
-330.2571159338184
 20
1978.258796997918
 30
0.0
 11
-344.8616457792115
 21
2065.809987310742
 31
0.0
  0
LINE
  5
16B8
330
1000
100
AcDbEntity
  8
P-4FAA
  6
Continuous
 62
     2
370
    -2
100
AcDbLine
 10
-302.2856876111109
 20
1810.575765066879
 30
0.0
 11
-326.9663596605587
 21
1958.531381476619
 31
0.0
  0
SOLID
  5
16B9
330
1000
100
AcDbEntity
  8
P-4FAA
  6
Continuous
 62
     2
100
AcDbTrace
 10
-326.9692133469352
 20
1978.807256376795
 30
0.0
 11
-333.5450185207017
 21
1977.710337619042
 31
0.0
 12
-326.9663596605587
 22
1958.531381476619
 32
0.0
 13
-326.9663596605587
 23
1958.531381476619
 33
0.0
  0
MTEXT
  5
16BA
330
1000
100
AcDbEntity
  8
P-4FAA
  6
Continuous
 62
     1
100
AcDbMText
 10
-319.2544754393529
 20
2035.22603309949
 30
0.0
 40
20.0
 41
0.0
 71
     5
 72
     1
  1
\A1;R15
  7
Stile_Quota
 11
0.1645378136629906
 21
-0.9863707760649658
 31
0.0
 73
     1
 44
1.0
1001
ACAD
1000
MTEXTBEGIN
1070
    73
1070
     1
1070
    44
1040
1.0
1070
    74
1070
     0
1000
MTEXTEND
  0
POINT
  5
16BB
330
1000
100
AcDbEntity
  8
Defpoints
  6
Continuous
 62
     0
100
AcDbPoint
 10
-326.9663596605587
 20
1958.531381476619
 30
0.0
  0
POINT
  5
16BC
330
1000
100
AcDbEntity
  8
Defpoints
  6
Continuous
 62
     0
100
AcDbPoint
 10
-302.2856876111109
 20
1810.575765066879
 30
0.0
  0
ENDBLK
  5
1002
330
1000
100
AcDbEntity
  8
0
 62
     3
100
AcDbBlockEnd
  0
BLOCK
  5
1011
330
1010
100
AcDbEntity
  8
0
 62
     3
100
AcDbBlockBegin
  2
*D32
 70
     1
 10
0.0
 20
0.0
 30
0.0
  3
*D32
  1

  0
LINE
  5
177F
330
1010
100
AcDbEntity
  8
P-4FAA
  6
Continuous
 62
     2
370
    -2
100
AcDbLine
 10
-173.5944290752122
 20
1688.333453259036
 30
0.0
 11
-260.942348112975
 21
1736.023730422392
 31
0.0
  0
LINE
  5
1780
330
1010
100
AcDbEntity
  8
P-4FAA
  6
Continuous
 62
     2
370
    -2
100
AcDbLine
 10
-141.3450308648873
 20
1670.725904551012
 30
0.0
 11
-156.0404016957177
 21
1678.749293266634
 31
0.0
  0
SOLID
  5
1781
330
1010
100
AcDbEntity
  8
P-4FAA
  6
Continuous
 62
     2
100
AcDbTrace
 10
-171.9970690764788
 20
1691.259124488951
 30
0.0
 11
-175.191789073946
 21
1685.40778202912
 31
0.0
 12
-156.0404016957177
 22
1678.749293266634
 32
0.0
 13
-156.0404016957177
 23
1678.749293266634
 33
0.0
  0
MTEXT
  5
1782
330
1010
100
AcDbEntity
  8
P-4FAA
  6
Continuous
 62
     1
100
AcDbMText
 10
-216.3180387347016
 20
1734.786986068654
 30
0.0
 40
20.0
 41
0.0
 71
     5
 72
     1
  1
\A1;R1.7
  7
Stile_Quota
 11
0.8777013689747358
 21
-0.4792079996200759
 31
0.0
 73
     1
 44
1.0
1001
ACAD
1000
MTEXTBEGIN
1070
    73
1070
     1
1070
    44
1040
1.0
1070
    74
1070
     0
1000
MTEXTEND
  0
POINT
  5
1783
330
1010
100
AcDbEntity
  8
Defpoints
  6
Continuous
 62
     0
100
AcDbPoint
 10
-156.0404016957177
 20
1678.749293266634
 30
0.0
  0
POINT
  5
1784
330
1010
100
AcDbEntity
  8
Defpoints
  6
Continuous
 62
     0
100
AcDbPoint
 10
-141.3450308648873
 20
1670.725904551012
 30
0.0
  0
ENDBLK
  5
1012
330
1010
100
AcDbEntity
  8
0
 62
     3
100
AcDbBlockEnd
  0
BLOCK
  5
1069
330
1068
100
AcDbEntity
  8
0
 62
     3
100
AcDbBlockBegin
  2
*D33
 70
     1
 10
0.0
 20
0.0
 30
0.0
  3
*D33
  1

  0
LINE
  5
1779
330
1068
100
AcDbEntity
  8
P-4FAA
  6
Continuous
 62
     2
370
    -2
100
AcDbLine
 10
-174.5993898313518
 20
1667.319260552313
 30
0.0
 11
-268.4596197202346
 21
1638.03119910389
 31
0.0
  0
LINE
  5
177A
330
1068
100
AcDbEntity
  8
P-4FAA
  6
Continuous
 62
     2
370
    -2
100
AcDbLine
 10
-151.6888661116992
 20
1674.4682397026
 30
0.0
 11
-155.5072867316413
 21
1673.276743177552
 31
0.0
  0
SOLID
  5
177B
330
1068
100
AcDbEntity
  8
P-4FAA
  6
Continuous
 62
     2
100
AcDbTrace
 10
-175.5923036022249
 20
1670.501277735598
 30
0.0
 11
-173.6064760604786
 21
1664.137243369028
 31
0.0
 12
-155.5072867316413
 22
1673.276743177552
 32
0.0
 13
-155.5072867316413
 23
1673.276743177552
 33
0.0
  0
MTEXT
  5
177C
330
1068
100
AcDbEntity
  8
P-4FAA
  6
Continuous
 62
     1
100
AcDbMText
 10
-237.1003428726741
 20
1669.004282284322
 30
0.0
 40
20.0
 41
0.0
 71
     5
 72
     1
  1
\A1;R0.4
  7
Stile_Quota
 11
0.9546051549855246
 21
0.2978741312619517
 31
0.0
 73
     1
 44
1.0
1001
ACAD
1000
MTEXTBEGIN
1070
    73
1070
     1
1070
    44
1040
1.0
1070
    74
1070
     0
1000
MTEXTEND
  0
POINT
  5
177D
330
1068
100
AcDbEntity
  8
Defpoints
  6
Continuous
 62
     0
100
AcDbPoint
 10
-155.5072867316413
 20
1673.276743177552
 30
0.0
  0
POINT
  5
177E
330
1068
100
AcDbEntity
  8
Defpoints
  6
Continuous
 62
     0
100
AcDbPoint
 10
-151.6888661116992
 20
1674.4682397026
 30
0.0
  0
ENDBLK
  5
106A
330
1068
100
AcDbEntity
  8
0
 62
     3
100
AcDbBlockEnd
  0
BLOCK
  5
1085
330
1084
100
AcDbEntity
  8
0
 62
     3
100
AcDbBlockBegin
  2
*D34
 70
     1
 10
0.0
 20
0.0
 30
0.0
  3
*D34
  1

  0
LINE
  5
10E5
330
1084
100
AcDbEntity
  8
P-4FAA
  6
Continuous
 62
     2
370
    -2
100
AcDbLine
 10
-288.3953413728459
 20
1810.575765066878
 30
0.0
 11
-48.75431886469595
 21
1810.575765066878
 31
0.0
  0
LINE
  5
10E6
330
1084
100
AcDbEntity
  8
P-4FAA
  6
Continuous
 62
     2
370
    -2
100
AcDbLine
 10
-184.696051437365
 20
1807.999116582757
 30
0.0
 11
-48.75431886469596
 21
1807.999116582757
 31
0.0
  0
LINE
  5
10E7
330
1084
100
AcDbEntity
  8
P-4FAA
  6
Continuous
 62
     2
370
    -2
100
AcDbLine
 10
-63.75431886469595
 20
1830.575765066878
 30
0.0
 11
-63.75431886469595
 21
1850.575765066878
 31
0.0
  0
LINE
  5
10E8
330
1084
100
AcDbEntity
  8
P-4FAA
  6
Continuous
 62
     2
370
    -2
100
AcDbLine
 10
-63.75431886469596
 20
1787.999116582757
 30
0.0
 11
-63.75431886469598
 21
1711.351886262058
 31
0.0
  0
LINE
  5
10E9
330
1084
100
AcDbEntity
  8
P-4FAA
  6
Continuous
 62
     2
370
    -2
100
AcDbLine
 10
-63.75431886469595
 20
1810.575765066878
 30
0.0
 11
-63.75431886469596
 21
1807.999116582757
 31
0.0
  0
SOLID
  5
10EA
330
1084
100
AcDbEntity
  8
P-4FAA
  6
Continuous
 62
     2
100
AcDbTrace
 10
-67.08765219802927
 20
1830.575765066878
 30
0.0
 11
-60.42098553136262
 21
1830.575765066878
 31
0.0
 12
-63.75431886469595
 22
1810.575765066878
 32
0.0
 13
-63.75431886469595
 23
1810.575765066878
 33
0.0
  0
SOLID
  5
10EB
330
1084
100
AcDbEntity
  8
P-4FAA
  6
Continuous
 62
     2
100
AcDbTrace
 10
-67.08765219802929
 20
1787.999116582757
 30
0.0
 11
-60.42098553136263
 21
1787.999116582757
 31
0.0
 12
-63.75431886469596
 22
1807.999116582757
 32
0.0
 13
-63.75431886469596
 23
1807.999116582757
 33
0.0
  0
MTEXT
  5
10EC
330
1084
100
AcDbEntity
  8
P-4FAA
  6
Continuous
 62
     1
100
AcDbMText
 10
-83.98026638656215
 20
1739.675501422407
 30
0.0
 40
20.0
 41
0.0
 71
     5
 72
     1
  1
\A1;0.3
  7
Stile_Quota
 11
0.0000000000000001
 21
1.0
 31
0.0
 73
     1
 44
1.0
1001
ACAD
1000
MTEXTBEGIN
1070
    73
1070
     1
1070
    44
1040
1.0
1070
    74
1070
     0
1000
MTEXTEND
  0
POINT
  5
10ED
330
1084
100
AcDbEntity
  8
Defpoints
  6
Continuous
 62
     0
100
AcDbPoint
 10
-298.3953413728459
 20
1810.575765066878
 30
0.0
  0
POINT
  5
10EE
330
1084
100
AcDbEntity
  8
Defpoints
  6
Continuous
 62
     0
100
AcDbPoint
 10
-194.696051437365
 20
1807.999116582757
 30
0.0
  0
POINT
  5
10EF
330
1084
100
AcDbEntity
  8
Defpoints
  6
Continuous
 62
     0
100
AcDbPoint
 10
-63.75431886469596
 20
1807.999116582757
 30
0.0
  0
ENDBLK
  5
1086
330
1084
100
AcDbEntity
  8
0
 62
     3
100
AcDbBlockEnd
  0
BLOCK
  5
10F2
330
10F1
100
AcDbEntity
  8
0
 62
     3
100
AcDbBlockBegin
  2
*D35
 70
     1
 10
0.0
 20
0.0
 30
0.0
  3
*D35
  1

  0
LINE
  5
111E
330
10F1
100
AcDbEntity
  8
P-4FAA
  6
Continuous
 62
     2
370
    -2
100
AcDbLine
 10
-302.2856876111093
 20
1794.890075689419
 30
0.0
 11
-302.2856876111093
 21
1643.389796848424
 31
0.0
  0
LINE
  5
111F
330
10F1
100
AcDbEntity
  8
P-4FAA
  6
Continuous
 62
     2
370
    -2
100
AcDbLine
 10
-469.6960514370912
 20
1722.999116582832
 30
0.0
 11
-469.6960514370912
 21
1643.389796848424
 31
0.0
  0
LINE
  5
1120
330
10F1
100
AcDbEntity
  8
P-4FAA
  6
Continuous
 62
     2
370
    -2
100
AcDbLine
 10
-322.2856876111093
 20
1658.389796848424
 30
0.0
 11
-449.6960514370912
 21
1658.389796848424
 31
0.0
  0
SOLID
  5
1121
330
10F1
100
AcDbEntity
  8
P-4FAA
  6
Continuous
 62
     2
100
AcDbTrace
 10
-322.2856876111093
 20
1661.723130181757
 30
0.0
 11
-322.2856876111093
 21
1655.056463515091
 31
0.0
 12
-302.2856876111093
 22
1658.389796848424
 32
0.0
 13
-302.2856876111093
 23
1658.389796848424
 33
0.0
  0
SOLID
  5
1122
330
10F1
100
AcDbEntity
  8
P-4FAA
  6
Continuous
 62
     2
100
AcDbTrace
 10
-449.6960514370912
 20
1661.723130181757
 30
0.0
 11
-449.6960514370912
 21
1655.056463515091
 31
0.0
 12
-469.6960514370912
 22
1658.389796848424
 32
0.0
 13
-469.6960514370912
 23
1658.389796848424
 33
0.0
  0
MTEXT
  5
1123
330
10F1
100
AcDbEntity
  8
P-4FAA
  6
Continuous
 62
     1
100
AcDbMText
 10
-385.9908695241003
 20
1678.688630667666
 30
0.0
 40
20.0
 41
0.0
 71
     5
 72
     1
  1
\A1;16.7
  7
Stile_Quota
 73
     1
 44
1.0
1001
ACAD
1000
MTEXTBEGIN
1070
    73
1070
     1
1070
    44
1040
1.0
1070
    74
1070
     0
1000
MTEXTEND
  0
POINT
  5
1124
330
10F1
100
AcDbEntity
  8
Defpoints
  6
Continuous
 62
     0
100
AcDbPoint
 10
-302.2856876111093
 20
1804.89007568942
 30
0.0
  0
POINT
  5
1125
330
10F1
100
AcDbEntity
  8
Defpoints
  6
Continuous
 62
     0
100
AcDbPoint
 10
-469.6960514370912
 20
1732.999116582831
 30
0.0
  0
POINT
  5
1126
330
10F1
100
AcDbEntity
  8
Defpoints
  6
Continuous
 62
     0
100
AcDbPoint
 10
-469.6960514370912
 20
1658.389796848424
 30
0.0
  0
ENDBLK
  5
10F3
330
10F1
100
AcDbEntity
  8
0
 62
     3
100
AcDbBlockEnd
  0
BLOCK
  5
1113
330
1112
100
AcDbEntity
  8
0
 62
     3
100
AcDbBlockBegin
  2
*D36
 70
     1
 10
0.0
 20
0.0
 30
0.0
  3
*D36
  1

  0
LINE
  5
1115
330
1112
100
AcDbEntity
  8
P-4FAA
  6
Continuous
 62
     2
370
    -2
100
AcDbLine
 10
-405.7240400792299
 20
1837.999116582755
 30
0.0
 11
-405.7240400792299
 21
1702.803174243893
 31
0.0
  0
LINE
  5
1116
330
1112
100
AcDbEntity
  8
P-4FAA
  6
Continuous
 62
     2
370
    -2
100
AcDbLine
 10
-469.6960514370912
 20
1722.999116582832
 30
0.0
 11
-469.6960514370912
 21
1702.803174243893
 31
0.0
  0
LINE
  5
1117
330
1112
100
AcDbEntity
  8
P-4FAA
  6
Continuous
 62
     2
370
    -2
100
AcDbLine
 10
-425.72404007923
 20
1717.803174243893
 30
0.0
 11
-449.6960514370912
 21
1717.803174243893
 31
0.0
  0
SOLID
  5
1118
330
1112
100
AcDbEntity
  8
P-4FAA
  6
Continuous
 62
     2
100
AcDbTrace
 10
-425.72404007923
 20
1721.136507577227
 30
0.0
 11
-425.72404007923
 21
1714.46984091056
 31
0.0
 12
-405.7240400792299
 22
1717.803174243893
 32
0.0
 13
-405.7240400792299
 23
1717.803174243893
 33
0.0
  0
SOLID
  5
1119
330
1112
100
AcDbEntity
  8
P-4FAA
  6
Continuous
 62
     2
100
AcDbTrace
 10
-449.6960514370912
 20
1721.136507577227
 30
0.0
 11
-449.6960514370912
 21
1714.46984091056
 31
0.0
 12
-469.6960514370912
 22
1717.803174243893
 32
0.0
 13
-469.6960514370912
 23
1717.803174243893
 33
0.0
  0
MTEXT
  5
111A
330
1112
100
AcDbEntity
  8
P-4FAA
  6
Continuous
 62
     1
100
AcDbMText
 10
-437.7100457581605
 20
1738.029121765759
 30
0.0
 40
20.0
 41
0.0
 71
     5
 72
     1
  1
\A1;6.4
  7
Stile_Quota
 73
     1
 44
1.0
1001
ACAD
1000
MTEXTBEGIN
1070
    73
1070
     1
1070
    44
1040
1.0
1070
    74
1070
     0
1000
MTEXTEND
  0
POINT
  5
111B
330
1112
100
AcDbEntity
  8
Defpoints
  6
Continuous
 62
     0
100
AcDbPoint
 10
-405.7240400792299
 20
1847.999116582755
 30
0.0
  0
POINT
  5
111C
330
1112
100
AcDbEntity
  8
Defpoints
  6
Continuous
 62
     0
100
AcDbPoint
 10
-469.6960514370912
 20
1732.999116582831
 30
0.0
  0
POINT
  5
111D
330
1112
100
AcDbEntity
  8
Defpoints
  6
Continuous
 62
     0
100
AcDbPoint
 10
-469.6960514370912
 20
1717.803174243893
 30
0.0
  0
ENDBLK
  5
1114
330
1112
100
AcDbEntity
  8
0
 62
     3
100
AcDbBlockEnd
  0
BLOCK
  5
11BA
330
11B9
100
AcDbEntity
  8
0
 62
     3
100
AcDbBlockBegin
  2
*D37
 70
     1
 10
0.0
 20
0.0
 30
0.0
  3
*D37
  1

  0
LINE
  5
16C3
330
11B9
100
AcDbEntity
  8
P-4FAA
  6
Continuous
 62
     2
370
    -2
100
AcDbLine
 10
-155.4796687196237
 20
1805.068899693027
 30
0.0
 11
-69.71685701647266
 21
1853.333592202697
 31
0.0
  0
LINE
  5
16C4
330
11B9
100
AcDbEntity
  8
P-4FAA
  6
Continuous
 62
     2
370
    -2
100
AcDbLine
 10
-194.6960514373651
 20
1782.999116582782
 30
0.0
 11
-172.9091721497411
 21
1795.260107199579
 31
0.0
  0
SOLID
  5
16C5
330
11B9
100
AcDbEntity
  8
P-4FAA
  6
Continuous
 62
     2
100
AcDbTrace
 10
-157.1144674685316
 20
1807.97381693138
 30
0.0
 11
-153.8448699707156
 21
1802.163982454674
 31
0.0
 12
-172.9091721497411
 22
1795.260107199579
 32
0.0
 13
-172.9091721497411
 23
1795.260107199579
 33
0.0
  0
MTEXT
  5
16C6
330
11B9
100
AcDbEntity
  8
P-4FAA
  6
Continuous
 62
     1
100
AcDbMText
 10
-113.8031172642568
 20
1851.732053280073
 30
0.0
 40
20.0
 41
0.0
 71
     5
 72
     1
  1
\A1;R2.5
  7
Stile_Quota
 11
0.871475171505876
 21
0.4904396246723996
 31
0.0
 73
     1
 44
1.0
1001
ACAD
1000
MTEXTBEGIN
1070
    73
1070
     1
1070
    44
1040
1.0
1070
    74
1070
     0
1000
MTEXTEND
  0
POINT
  5
16C7
330
11B9
100
AcDbEntity
  8
Defpoints
  6
Continuous
 62
     0
100
AcDbPoint
 10
-172.9091721497411
 20
1795.260107199579
 30
0.0
  0
POINT
  5
16C8
330
11B9
100
AcDbEntity
  8
Defpoints
  6
Continuous
 62
     0
100
AcDbPoint
 10
-194.6960514373651
 20
1782.999116582782
 30
0.0
  0
ENDBLK
  5
11BB
330
11B9
100
AcDbEntity
  8
0
 62
     3
100
AcDbBlockEnd
  0
BLOCK
  5
11CC
330
11CB
100
AcDbEntity
  8
0
 62
     3
100
AcDbBlockBegin
  2
*D38
 70
     1
 10
0.0
 20
0.0
 30
0.0
  3
*D38
  1

  0
LINE
  5
16BD
330
11CB
100
AcDbEntity
  8
P-4FAA
  6
Continuous
 62
     2
370
    -2
100
AcDbLine
 10
-255.8032172859682
 20
1958.650672787614
 30
0.0
 11
-119.9885435261915
 21
1996.607868401733
 31
0.0
  0
LINE
  5
16BE
330
11CB
100
AcDbEntity
  8
P-4FAA
  6
Continuous
 62
     2
370
    -2
100
AcDbLine
 10
-284.6960514373914
 20
1950.575765066879
 30
0.0
 11
-275.06510672025
 21
1953.267400973791
 31
0.0
  0
SOLID
  5
16BF
330
11CB
100
AcDbEntity
  8
P-4FAA
  6
Continuous
 62
     2
100
AcDbTrace
 10
-256.7004292549386
 20
1961.860987693327
 30
0.0
 11
-254.9060053169977
 21
1955.4403578819
 31
0.0
 12
-275.06510672025
 22
1953.267400973791
 32
0.0
 13
-275.06510672025
 23
1953.267400973791
 33
0.0
  0
MTEXT
  5
16C0
330
11CB
100
AcDbEntity
  8
P-4FAA
  6
Continuous
 62
     1
100
AcDbMText
 10
-150.1614714565356
 20
2009.062684418959
 30
0.0
 40
20.0
 41
0.0
 71
     5
 72
     1
  1
\A1;R1
  7
Stile_Quota
 11
0.9630944717140918
 21
0.2691635906911524
 31
0.0
 73
     1
 44
1.0
1001
ACAD
1000
MTEXTBEGIN
1070
    73
1070
     1
1070
    44
1040
1.0
1070
    74
1070
     0
1000
MTEXTEND
  0
POINT
  5
16C1
330
11CB
100
AcDbEntity
  8
Defpoints
  6
Continuous
 62
     0
100
AcDbPoint
 10
-275.06510672025
 20
1953.267400973791
 30
0.0
  0
POINT
  5
16C2
330
11CB
100
AcDbEntity
  8
Defpoints
  6
Continuous
 62
     0
100
AcDbPoint
 10
-284.6960514373914
 20
1950.575765066879
 30
0.0
  0
ENDBLK
  5
11CD
330
11CB
100
AcDbEntity
  8
0
 62
     3
100
AcDbBlockEnd
  0
BLOCK
  5
135D
330
135C
100
AcDbEntity
  8
0
100
AcDbBlockBegin
  2
_NONE
 70
     0
 10
0.0
 20
0.0
 30
0.0
  3
_NONE
  1

  0
CIRCLE
  5
135E
330
135C
100
AcDbEntity
  8
0
  6
ByBlock
 62
     0
100
AcDbCircle
 10
0.0
 20
0.0
 30
0.0
 40
0.25
  0
ENDBLK
  5
135F
330
135C
100
AcDbEntity
  8
0
100
AcDbBlockEnd
  0
BLOCK
  5
1361
330
1360
100
AcDbEntity
  8
0
100
AcDbBlockBegin
  2
A$C002022D9
 70
     0
 10
0.0
 20
0.0
 30
0.0
  3
A$C002022D9
  1

  0
CIRCLE
  5
1362
330
1360
100
AcDbEntity
  8
2
100
AcDbCircle
 10
10.48566487356584
 20
10.48566859561924
 30
0.0
 40
8.5
  0
LINE
  5
1363
330
1360
100
AcDbEntity
  8
2
100
AcDbLine
 10
6.625201661480787
 20
11.23566859561924
 30
0.0
 11
8.735664873564928
 21
11.23566859561924
 31
0.0
  0
CIRCLE
  5
1364
330
1360
100
AcDbEntity
  8
2
100
AcDbCircle
 10
10.48566487356584
 20
10.48566859561924
 30
0.0
 40
5.5
  0
CIRCLE
  5
1365
330
1360
100
AcDbEntity
  8
2
100
AcDbCircle
 10
10.48566487356584
 20
10.48566859561924
 30
0.0
 40
5.0
  0
LINE
  5
1366
330
1360
100
AcDbEntity
  8
2
100
AcDbLine
 10
9.735664873566747
 20
14.34613180770429
 30
0.0
 11
9.735664873564928
 21
12.23566859561924
 31
0.0
  0
LINE
  5
1367
330
1360
100
AcDbEntity
  8
2
100
AcDbLine
 10
11.23566487356584
 20
14.34613180770429
 30
0.0
 11
11.23566487356584
 21
12.23566859561924
 31
0.0
  0
LINE
  5
1368
330
1360
100
AcDbEntity
  8
2
100
AcDbLine
 10
6.625201661480787
 20
9.735668595619245
 30
0.0
 11
8.735664873565838
 21
9.735668595619245
 31
0.0
  0
LINE
  5
1369
330
1360
100
AcDbEntity
  8
2
100
AcDbLine
 10
12.23566487356584
 20
11.23566859561924
 30
0.0
 11
14.34612808565089
 21
11.23566859561924
 31
0.0
  0
LINE
  5
136A
330
1360
100
AcDbEntity
  8
2
100
AcDbLine
 10
9.735664873565838
 20
8.735668595619245
 30
0.0
 11
9.735664873566747
 21
6.625205383534193
 31
0.0
  0
LINE
  5
136B
330
1360
100
AcDbEntity
  8
2
100
AcDbLine
 10
12.23566487356675
 20
9.735668595619245
 30
0.0
 11
14.34612808565089
 21
9.735668595618335
 31
0.0
  0
LINE
  5
136C
330
1360
100
AcDbEntity
  8
2
100
AcDbLine
 10
11.23566487356675
 20
8.735668595619245
 30
0.0
 11
11.23566487356765
 21
6.625205383534193
 31
0.0
  0
ARC
  5
136D
330
1360
100
AcDbEntity
  8
2
100
AcDbCircle
 10
12.23566487356584
 20
12.23566859561924
 30
0.0
 40
1.0
100
AcDbArc
 50
180.0000000000124
 51
270.0
  0
ARC
  5
136E
330
1360
100
AcDbEntity
  8
2
100
AcDbCircle
 10
12.23566487356675
 20
8.735668595619245
 30
0.0
 40
1.0
100
AcDbArc
 50
89.99999999998756
 51
180.0
  0
ARC
  5
136F
330
1360
100
AcDbEntity
  8
2
100
AcDbCircle
 10
8.735664873565838
 20
8.735668595619245
 30
0.0
 40
1.0
100
AcDbArc
 50
0.0000000000124169
 51
90.0
  0
ARC
  5
1370
330
1360
100
AcDbEntity
  8
2
100
AcDbCircle
 10
8.735664873564928
 20
12.23566859561924
 30
0.0
 40
1.0
100
AcDbArc
 50
270.0
 51
359.9999999999876
  0
ARC
  5
1371
330
1360
100
AcDbEntity
  8
2
100
AcDbCircle
 10
10.48566487356584
 20
10.48566859561924
 30
0.0
 40
3.932642395624498
100
AcDbArc
 50
349.0056925043656
 51
10.99430749562142
  0
ARC
  5
1372
330
1360
100
AcDbEntity
  8
2
100
AcDbCircle
 10
10.48566487356584
 20
10.48566859561924
 30
0.0
 40
3.932642395624498
100
AcDbArc
 50
79.00569250439158
 51
100.9943074956084
  0
ARC
  5
1373
330
1360
100
AcDbEntity
  8
2
100
AcDbCircle
 10
10.48566487356584
 20
10.48566859561924
 30
0.0
 40
3.932642395624498
100
AcDbArc
 50
169.0056925043916
 51
190.9943074956084
  0
ARC
  5
1374
330
1360
100
AcDbEntity
  8
2
100
AcDbCircle
 10
10.48566487356584
 20
10.48566859561924
 30
0.0
 40
3.932642395624498
100
AcDbArc
 50
259.0056925044046
 51
280.9943074956344
  0
LINE
  5
1375
330
1360
100
AcDbEntity
  8
SOTTILI
  6
DASHDOTX2
100
AcDbLine
 10
10.48566487356584
 20
20.97134054013259
 30
0.0
 11
10.48566487356584
 21
-0.0000033488931876
 31
0.0
  0
LINE
  5
1376
330
1360
100
AcDbEntity
  8
SOTTILI
  6
DASHDOTX2
100
AcDbLine
 10
-0.000007070947504
 20
10.48566859561924
 30
0.0
 11
20.97133681807827
 21
10.48566859561924
 31
0.0
  0
ENDBLK
  5
1377
330
1360
100
AcDbEntity
  8
0
100
AcDbBlockEnd
  0
BLOCK
  5
16AB
330
16AA
100
AcDbEntity
  8
0
 62
     7
100
AcDbBlockBegin
  2
*D42
 70
     1
 10
0.0
 20
0.0
 30
0.0
  3
*D42
  1

  0
MTEXT
  5
16AD
330
16AA
100
AcDbEntity
  8
P-536E
  6
Continuous
 62
    30
100
AcDbMText
 10
1665.060169897414
 20
1729.015498311182
 30
0.0
 40
20.0
 41
0.0
 71
     5
 72
     1
  1
\A1;1000
  7
Stile_Quota_FISSO
 73
     1
 44
1.0
1001
ACAD
1000
MTEXTBEGIN
1070
    73
1070
     1
1070
    44
1040
1.0
1070
    74
1070
     0
1000
MTEXTEND
  0
POINT
  5
16AE
330
16AA
100
AcDbEntity
  8
Defpoints
  6
Continuous
 62
     0
100
AcDbPoint
 10
1165.060169897413
 20
1742.451612161317
 30
0.0
  0
POINT
  5
16AF
330
16AA
100
AcDbEntity
  8
Defpoints
  6
Continuous
 62
     0
100
AcDbPoint
 10
2165.060169897413
 20
1712.451612161317
 30
0.0
  0
POINT
  5
16B0
330
16AA
100
AcDbEntity
  8
Defpoints
  6
Continuous
 62
     0
100
AcDbPoint
 10
2165.060169897413
 20
1729.015498311182
 30
0.0
  0
ENDBLK
  5
16AC
330
16AA
100
AcDbEntity
  8
0
 62
     7
100
AcDbBlockEnd
  0
BLOCK
  5
16FF
330
16FE
100
AcDbEntity
  8
0
 62
     7
100
AcDbBlockBegin
  2
*D43
 70
     1
 10
0.0
 20
0.0
 30
0.0
  3
*D43
  1

  0
LINE
  5
176E
330
16FE
100
AcDbEntity
  8
P-0000
  6
Continuous
 62
     2
370
    -2
100
AcDbLine
 10
-152.4963715715059
 20
1687.4682397026
 30
0.0
 11
-207.363524496088
 21
1687.4682397026
 31
0.0
  0
LINE
  5
176F
330
16FE
100
AcDbEntity
  8
P-0000
  6
Continuous
 62
     2
370
    -2
100
AcDbLine
 10
-152.4963715715059
 20
1640.46823970263
 30
0.0
 11
-207.363524496088
 21
1640.46823970263
 31
0.0
  0
LINE
  5
1770
330
16FE
100
AcDbEntity
  8
P-0000
  6
Continuous
 62
     2
370
    -2
100
AcDbLine
 10
-192.363524496088
 20
1707.4682397026
 30
0.0
 11
-192.363524496088
 21
1727.4682397026
 31
0.0
  0
LINE
  5
1771
330
16FE
100
AcDbEntity
  8
P-0000
  6
Continuous
 62
     2
370
    -2
100
AcDbLine
 10
-192.363524496088
 20
1620.46823970263
 30
0.0
 11
-192.363524496088
 21
1551.269988973767
 31
0.0
  0
LINE
  5
1772
330
16FE
100
AcDbEntity
  8
P-0000
  6
Continuous
 62
     2
370
    -2
100
AcDbLine
 10
-192.363524496088
 20
1687.4682397026
 30
0.0
 11
-192.363524496088
 21
1640.46823970263
 31
0.0
  0
SOLID
  5
1773
330
16FE
100
AcDbEntity
  8
P-0000
  6
Continuous
 62
     2
100
AcDbTrace
 10
-195.6968578294213
 20
1707.4682397026
 30
0.0
 11
-189.0301911627546
 21
1707.4682397026
 31
0.0
 12
-192.363524496088
 22
1687.4682397026
 32
0.0
 13
-192.363524496088
 23
1687.4682397026
 33
0.0
  0
SOLID
  5
1774
330
16FE
100
AcDbEntity
  8
P-0000
  6
Continuous
 62
     2
100
AcDbTrace
 10
-195.6968578294213
 20
1620.46823970263
 30
0.0
 11
-189.0301911627546
 21
1620.46823970263
 31
0.0
 12
-192.363524496088
 22
1640.46823970263
 32
0.0
 13
-192.363524496088
 23
1640.46823970263
 33
0.0
  0
MTEXT
  5
1775
330
16FE
100
AcDbEntity
  8
P-0000
  6
Continuous
 62
     1
100
AcDbMText
 10
-212.6623583153303
 20
1575.869114338199
 30
0.0
 40
20.0
 41
0.0
 71
     5
 72
     1
  1
\A1;47
  7
Stile_Quota
 11
0.0000000000000001
 21
1.0
 31
0.0
 73
     1
 44
1.0
1001
ACAD
1000
MTEXTBEGIN
1070
    73
1070
     1
1070
    44
1040
1.0
1070
    74
1070
     0
1000
MTEXTEND
  0
POINT
  5
1776
330
16FE
100
AcDbEntity
  8
Defpoints
  6
Continuous
 62
     0
100
AcDbPoint
 10
-142.4963715715059
 20
1687.4682397026
 30
0.0
  0
POINT
  5
1777
330
16FE
100
AcDbEntity
  8
Defpoints
  6
Continuous
 62
     0
100
AcDbPoint
 10
-142.4963715715059
 20
1640.46823970263
 30
0.0
  0
POINT
  5
1778
330
16FE
100
AcDbEntity
  8
Defpoints
  6
Continuous
 62
     0
100
AcDbPoint
 10
-192.363524496088
 20
1640.46823970263
 30
0.0
  0
ENDBLK
  5
1700
330
16FE
100
AcDbEntity
  8
0
 62
     7
100
AcDbBlockEnd
  0
ENDSEC
  0
SECTION
  2
ENTITIES
  0
LINE
  5
B45
330
2
100
AcDbEntity
  8
P-4FAA
  6
Continuous
 62
   144
100
AcDbLine
 10
19.99999999998007
 20
25.79999999997426
 30
0.0
 11
19.99999999998007
 21
25.49999999997476
 31
0.0
1001
OrigLayer
1000
P-0000
1001
TOP
1070
     7
  0
LINE
  5
B47
330
2
100
AcDbEntity
  8
P-4FAA
  6
Continuous
 62
   144
100
AcDbLine
 10
14.99999999998499
 20
25.49999999997476
 30
0.0
 11
14.99999999998499
 21
25.79999999997426
 31
0.0
1001
OrigLayer
1000
P-0000
1001
TOP
1070
     7
  0
LINE
  5
B48
330
2
100
AcDbEntity
  8
P-4FAA
  6
Continuous
 62
   144
100
AcDbLine
 10
9.999999999989995
 20
25.79999999997426
 30
0.0
 11
9.999999999989995
 21
25.49999999997476
 31
0.0
1001
OrigLayer
1000
P-0000
1001
TOP
1070
     7
  0
LINE
  5
B49
330
2
100
AcDbEntity
  8
P-4FAA
  6
Continuous
 62
   144
100
AcDbLine
 10
9.999999999989995
 20
25.49999999997476
 30
0.0
 11
14.99999999998499
 21
25.49999999997476
 31
0.0
1001
OrigLayer
1000
P-0000
1001
TOP
1070
     7
  0
LINE
  5
B4A
330
2
100
AcDbEntity
  8
P-4FAA
  6
Continuous
 62
   144
100
AcDbLine
 10
14.99999999998499
 20
25.79999999997426
 30
0.0
 11
19.99999999998007
 21
25.79999999997426
 31
0.0
1001
OrigLayer
1000
P-0000
1001
TOP
1070
     7
  0
LINE
  5
B4B
330
2
100
AcDbEntity
  8
P-4FAA
  6
Continuous
 62
   144
100
AcDbLine
 10
19.99999999998007
 20
25.49999999997476
 30
0.0
 11
24.99999999997516
 21
25.49999999997476
 31
0.0
1001
OrigLayer
1000
P-0000
1001
TOP
1070
     7
  0
LINE
  5
B4C
330
2
100
AcDbEntity
  8
P-4FAA
  6
Continuous
 62
   144
100
AcDbLine
 10
4.999999999994997
 20
25.49999999997476
 30
0.0
 11
4.999999999994997
 21
25.79999999997426
 31
0.0
1001
OrigLayer
1000
P-0000
1001
TOP
1070
     7
  0
LINE
  5
B4D
330
2
100
AcDbEntity
  8
P-4FAA
  6
Continuous
 62
   144
100
AcDbLine
 10
-0.0000000000001137
 20
25.49999999997476
 30
0.0
 11
4.999999999994997
 21
25.49999999997476
 31
0.0
1001
OrigLayer
1000
P-0000
1001
TOP
1070
     7
  0
LINE
  5
B4E
330
2
100
AcDbEntity
  8
P-4FAA
  6
Continuous
 62
   144
100
AcDbLine
 10
4.999999999994997
 20
25.79999999997426
 30
0.0
 11
9.999999999989995
 21
25.79999999997426
 31
0.0
1001
OrigLayer
1000
P-0000
1001
TOP
1070
     7
  0
LINE
  5
B4F
330
2
100
AcDbEntity
  8
P-4FAA
  6
Continuous
 62
   144
100
AcDbLine
 10
-2.500228922384053
 20
27.99999999997249
 30
0.0
 11
-1.999999999997555
 21
27.49999999997249
 31
0.0
1001
OrigLayer
1000
P-0000
1001
TOP
1070
     7
  0
ARC
  5
B50
330
2
100
AcDbEntity
  8
P-4FAA
  6
Continuous
 62
   144
100
AcDbCircle
 10
24.99999999997408
 20
25.00000000000023
 30
0.0
 40
0.5
100
AcDbArc
 50
0.0
 51
90.0
1001
OrigLayer
1000
P-0000
1001
TOP
1070
     7
  0
ARC
  5
B51
330
2
100
AcDbEntity
  8
P-4FAA
  6
Continuous
 62
   144
100
AcDbCircle
 10
0.926548521370563
 20
33.49999999997249
 30
0.0
 40
0.5
100
AcDbArc
 50
90.0
 51
156.6702016571496
1001
OrigLayer
1000
P-0000
1001
TOP
1070
     7
  0
ARC
  5
B52
330
2
100
AcDbEntity
  8
P-4FAA
  6
Continuous
 62
   144
100
AcDbCircle
 10
3.89720113578852
 20
31.49999999997249
 30
0.0
 40
4.0
100
AcDbArc
 50
160.1101917652872
 51
270.0
1001
OrigLayer
1000
P-0000
1001
TOP
1070
     7
  0
ARC
  5
B53
330
2
100
AcDbEntity
  8
P-4FAA
  6
Continuous
 62
   144
100
AcDbCircle
 10
14.24103638260049
 20
27.75766484838482
 30
0.0
 40
15.0
100
AcDbArc
 50
156.6702016570346
 51
160.1101917652872
1001
OrigLayer
1000
P-0000
1001
TOP
1070
     7
  0
ARC
  5
B54
330
2
100
AcDbEntity
  8
P-4FAA
  6
Continuous
 62
   144
100
AcDbCircle
 10
6.499999999972544
 20
40.01842973981093
 30
0.0
 40
0.5
100
AcDbArc
 50
122.2669426203472
 51
180.0
1001
OrigLayer
1000
P-0000
1001
TOP
1070
     7
  0
ARC
  5
B55
330
2
100
AcDbEntity
  8
P-4FAA
  6
Continuous
 62
   144
100
AcDbCircle
 10
14.24103638260049
 20
27.75766484838482
 30
0.0
 40
15.0
100
AcDbArc
 50
90.0
 51
122.2669426203472
1001
OrigLayer
1000
P-0000
1001
TOP
1070
     7
  0
ARC
  5
B56
330
2
100
AcDbEntity
  8
P-4FAA
  6
Continuous
 62
   144
100
AcDbCircle
 10
15.99999999997243
 20
41.75766484838482
 30
0.0
 40
1.0
100
AcDbArc
 50
0.0
 51
90.0
1001
OrigLayer
1000
P-0000
1001
TOP
1070
     7
  0
LINE
  5
B57
330
2
100
AcDbEntity
  8
P-4FAA
  6
Continuous
 62
   144
100
AcDbLine
 10
14.24103638260049
 20
42.75766484838482
 30
0.0
 11
15.99999999997243
 21
42.75766484838482
 31
0.0
1001
OrigLayer
1000
P-0000
1001
TOP
1070
     7
  0
ARC
  5
B58
330
2
100
AcDbEntity
  8
P-4FAA
  6
Continuous
 62
   144
100
AcDbCircle
 10
16.74999999997217
 20
27.74999999997249
 30
0.0
 40
0.25
100
AcDbArc
 50
270.0
 51
0.0
1001
OrigLayer
1000
P-0000
1001
TOP
1070
     7
  0
LINE
  5
B59
330
2
100
AcDbEntity
  8
P-4FAA
  6
Continuous
 62
   144
100
AcDbLine
 10
25.79999999997435
 20
19.99999999997999
 30
0.0
 11
25.49999999997462
 21
19.99999999997999
 31
0.0
1001
OrigLayer
1000
P-0000
1001
TOP
1070
     7
  0
LINE
  5
B5A
330
2
100
AcDbEntity
  8
P-4FAA
  6
Continuous
 62
   144
100
AcDbLine
 10
25.49999999997462
 20
14.99999999998499
 30
0.0
 11
25.79999999997435
 21
14.99999999998499
 31
0.0
1001
OrigLayer
1000
P-0000
1001
TOP
1070
     7
  0
LINE
  5
B5B
330
2
100
AcDbEntity
  8
P-4FAA
  6
Continuous
 62
   144
100
AcDbLine
 10
25.79999999997435
 20
14.99999999998499
 30
0.0
 11
25.79999999997435
 21
19.99999999997999
 31
0.0
1001
OrigLayer
1000
P-0000
1001
TOP
1070
     7
  0
LINE
  5
B5C
330
2
100
AcDbEntity
  8
P-4FAA
  6
Continuous
 62
   144
100
AcDbLine
 10
25.49999999997471
 20
19.99999999998022
 30
0.0
 11
25.49999999997408
 21
25.00000000000046
 31
0.0
1001
OrigLayer
1000
P-0000
1001
TOP
1070
     7
  0
LINE
  5
B5D
330
2
100
AcDbEntity
  8
P-4FAA
  6
Continuous
 62
   144
100
AcDbLine
 10
25.79999999997435
 20
9.999999999989995
 30
0.0
 11
25.49999999997462
 21
9.999999999989995
 31
0.0
1001
OrigLayer
1000
P-0000
1001
TOP
1070
     7
  0
LINE
  5
B5E
330
2
100
AcDbEntity
  8
P-4FAA
  6
Continuous
 62
   144
100
AcDbLine
 10
25.49999999997462
 20
4.999999999994997
 30
0.0
 11
25.79999999997435
 21
4.999999999994997
 31
0.0
1001
OrigLayer
1000
P-0000
1001
TOP
1070
     7
  0
LINE
  5
B5F
330
2
100
AcDbEntity
  8
P-4FAA
  6
Continuous
 62
   144
100
AcDbLine
 10
25.79999999997435
 20
4.999999999994997
 30
0.0
 11
25.79999999997435
 21
9.999999999989995
 31
0.0
1001
OrigLayer
1000
P-0000
1001
TOP
1070
     7
  0
LINE
  5
B60
330
2
100
AcDbEntity
  8
P-4FAA
  6
Continuous
 62
   144
100
AcDbLine
 10
25.49999999997462
 20
9.999999999989995
 30
0.0
 11
25.49999999997462
 21
14.99999999998499
 31
0.0
1001
OrigLayer
1000
P-0000
1001
TOP
1070
     7
  0
ARC
  5
B61
330
2
100
AcDbEntity
  8
P-4FAA
  6
Continuous
 62
   144
100
AcDbCircle
 10
24.99999999997508
 20
24.99999999997499
 30
0.0
 40
2.4999999999975
100
AcDbArc
 50
0.0
 51
90.0
1001
OrigLayer
1000
P-0000
1001
TOP
1070
     7
  0
ARC
  5
B62
330
2
100
AcDbEntity
  8
P-4FAA
  6
Continuous
 62
   144
100
AcDbCircle
 10
18.49999999997254
 20
43.99999999997248
 30
0.0
 40
0.5
100
AcDbArc
 50
0.0
 51
90.0
1001
OrigLayer
1000
P-0000
1001
TOP
1070
     7
  0
LINE
  5
B63
330
2
100
AcDbEntity
  8
P-4FAA
  6
Continuous
 62
   144
100
AcDbLine
 10
18.49999999997254
 20
44.49999999997248
 30
0.0
 11
14.0896956759797
 21
44.49999999997248
 31
0.0
1001
OrigLayer
1000
P-0000
1001
TOP
1070
     7
  0
LINE
  5
B64
330
2
100
AcDbEntity
  8
P-4FAA
  6
Continuous
 62
   144
100
AcDbLine
 10
4.499999999972544
 20
37.49292351776626
 30
0.0
 11
5.999999999972544
 21
38.99292351776626
 31
0.0
1001
OrigLayer
1000
P-0000
1001
TOP
1070
     7
  0
LINE
  5
B65
330
2
100
AcDbEntity
  8
P-4FAA
  6
Continuous
 62
   144
100
AcDbLine
 10
5.999999999972544
 20
38.99292351776626
 30
0.0
 11
5.999999999972544
 21
40.01842973981093
 31
0.0
1001
OrigLayer
1000
P-0000
1001
TOP
1070
     7
  0
ARC
  5
B66
330
2
100
AcDbEntity
  8
P-4FAA
  6
Continuous
 62
   144
100
AcDbCircle
 10
19.49999999997254
 20
27.99999999997249
 30
0.0
 40
0.5
100
AcDbArc
 50
180.0
 51
270.0
1001
OrigLayer
1000
P-0000
1001
TOP
1070
     7
  0
ARC
  5
B67
330
2
100
AcDbEntity
  8
P-4FAA
  6
Continuous
 62
   144
100
AcDbCircle
 10
5.499999999972544
 20
34.49999999997249
 30
0.0
 40
0.5
100
AcDbArc
 50
270.0
 51
0.0
1001
OrigLayer
1000
P-0000
1001
TOP
1070
     7
  0
LINE
  5
B68
330
2
100
AcDbEntity
  8
P-4FAA
  6
Continuous
 62
   144
100
AcDbLine
 10
5.999999999972544
 20
34.49999999997249
 30
0.0
 11
5.999999999972544
 21
35.99292351776626
 31
0.0
1001
OrigLayer
1000
P-0000
1001
TOP
1070
     7
  0
LINE
  5
B69
330
2
100
AcDbEntity
  8
P-4FAA
  6
Continuous
 62
   144
100
AcDbLine
 10
5.499999999972544
 20
33.99999999997249
 30
0.0
 11
0.926548521370563
 21
33.99999999997249
 31
0.0
1001
OrigLayer
1000
P-0000
1001
TOP
1070
     7
  0
LINE
  5
B6A
330
2
100
AcDbEntity
  8
P-4FAA
  6
Continuous
 62
   144
100
AcDbLine
 10
16.74999999997217
 20
27.49999999997249
 30
0.0
 11
3.89720113578852
 21
27.49999999997249
 31
0.0
1001
OrigLayer
1000
P-0000
1001
TOP
1070
     7
  0
LINE
  5
B6B
330
2
100
AcDbEntity
  8
P-4FAA
  6
Continuous
 62
   144
100
AcDbLine
 10
4.499999999972544
 20
37.49292351776626
 30
0.0
 11
5.999999999972544
 21
35.99292351776626
 31
0.0
1001
OrigLayer
1000
P-0000
1001
TOP
1070
     7
  0
LINE
  5
B6C
330
2
100
AcDbEntity
  8
P-4FAA
  6
Continuous
 62
   144
100
AcDbLine
 10
18.99999999997254
 20
27.99999999997249
 30
0.0
 11
18.99999999997254
 21
43.99999999997248
 31
0.0
1001
OrigLayer
1000
P-0000
1001
TOP
1070
     7
  0
LINE
  5
B6D
330
2
100
AcDbEntity
  8
P-4FAA
  6
Continuous
 62
   144
100
AcDbLine
 10
-1.999999999997555
 20
27.49999999997249
 30
0.0
 11
-2.500228922384224
 21
27.99999999997249
 31
0.0
1001
OrigLayer
1000
P-0000
1001
TOP
1070
     7
  0
LINE
  5
B6E
330
2
100
AcDbEntity
  8
P-4FAA
  6
Continuous
 62
   144
100
AcDbLine
 10
-2.499999999997555
 20
26.99999999997249
 30
0.0
 11
-1.999999999997555
 21
27.49999999997249
 31
0.0
1001
OrigLayer
1000
P-0000
1001
TOP
1070
     7
  0
ARC
  5
B6F
330
2
100
AcDbEntity
  8
P-4FAA
  6
Continuous
 62
   144
100
AcDbCircle
 10
14.24103638260049
 20
27.75766484838482
 30
0.0
 40
16.7430191523982
100
AcDbArc
 50
90.51790550806673
 51
179.1706832487627
1001
OrigLayer
1000
P-0000
1001
TOP
1070
     7
  0
ARC
  5
B70
330
2
100
AcDbEntity
  8
P-4FAA
  6
Continuous
 62
   144
100
AcDbCircle
 10
-0.0000000000001137
 20
25.00000000000023
 30
0.0
 40
0.5
100
AcDbArc
 50
90.0
 51
180.0
1001
OrigLayer
1000
P-0000
1001
TOP
1070
     7
  0
LINE
  5
B71
330
2
100
AcDbEntity
  8
P-4FAA
  6
Continuous
 62
   144
100
AcDbLine
 10
-0.499999999999659
 20
19.99999999997999
 30
0.0
 11
-0.7999999999992724
 21
19.99999999997999
 31
0.0
1001
OrigLayer
1000
P-0000
1001
TOP
1070
     7
  0
LINE
  5
B72
330
2
100
AcDbEntity
  8
P-4FAA
  6
Continuous
 62
   144
100
AcDbLine
 10
-0.7999999999992724
 20
14.99999999998499
 30
0.0
 11
-0.499999999999659
 21
14.99999999998499
 31
0.0
1001
OrigLayer
1000
P-0000
1001
TOP
1070
     7
  0
LINE
  5
B73
330
2
100
AcDbEntity
  8
P-4FAA
  6
Continuous
 62
   144
100
AcDbLine
 10
-0.7999999999992724
 20
19.99999999997999
 30
0.0
 11
-0.7999999999992724
 21
14.99999999998499
 31
0.0
1001
OrigLayer
1000
P-0000
1001
TOP
1070
     7
  0
LINE
  5
B74
330
2
100
AcDbEntity
  8
P-4FAA
  6
Continuous
 62
   144
100
AcDbLine
 10
-0.5000000000001137
 20
25.00000000000023
 30
0.0
 11
-0.4999999999995453
 21
19.99999999997999
 31
0.0
1001
OrigLayer
1000
P-0000
1001
TOP
1070
     7
  0
LINE
  5
B75
330
2
100
AcDbEntity
  8
P-4FAA
  6
Continuous
 62
   144
100
AcDbLine
 10
-0.499999999999659
 20
9.999999999989995
 30
0.0
 11
-0.7999999999992724
 21
9.999999999989995
 31
0.0
1001
OrigLayer
1000
P-0000
1001
TOP
1070
     7
  0
LINE
  5
B76
330
2
100
AcDbEntity
  8
P-4FAA
  6
Continuous
 62
   144
100
AcDbLine
 10
-0.7999999999992724
 20
4.999999999994997
 30
0.0
 11
-0.499999999999659
 21
4.999999999994997
 31
0.0
1001
OrigLayer
1000
P-0000
1001
TOP
1070
     7
  0
LINE
  5
B77
330
2
100
AcDbEntity
  8
P-4FAA
  6
Continuous
 62
   144
100
AcDbLine
 10
-0.7999999999992724
 20
9.999999999989995
 30
0.0
 11
-0.7999999999992724
 21
4.999999999994997
 31
0.0
1001
OrigLayer
1000
P-0000
1001
TOP
1070
     7
  0
LINE
  5
B78
330
2
100
AcDbEntity
  8
P-4FAA
  6
Continuous
 62
   144
100
AcDbLine
 10
-0.499999999999659
 20
14.99999999998499
 30
0.0
 11
-0.499999999999659
 21
9.999999999989995
 31
0.0
1001
OrigLayer
1000
P-0000
1001
TOP
1070
     7
  0
LINE
  5
B79
330
2
100
AcDbEntity
  8
P-4FAA
  6
Continuous
 62
   144
100
AcDbLine
 10
16.99999999997217
 20
27.74999999997249
 30
0.0
 11
16.99999999997243
 21
41.75766484838482
 31
0.0
1001
OrigLayer
1000
P-0000
1001
TOP
1070
     7
  0
LINE
  5
B7A
330
2
100
AcDbEntity
  8
P-4FAA
  6
Continuous
 62
   144
100
AcDbLine
 10
24.99999999997508
 20
27.49999999997249
 30
0.0
 11
19.49999999997254
 21
27.49999999997249
 31
0.0
1001
OrigLayer
1000
P-0000
1001
TOP
1070
     7
  0
ARC
  5
B7B
330
2
100
AcDbEntity
  8
P-4FAA
  6
Continuous
 62
   144
100
AcDbCircle
 10
24.99999999997516
 20
0.0
 30
0.0
 40
0.4999999999995001
100
AcDbArc
 50
270.0
 51
0.0
1001
OrigLayer
1000
P-0000
1001
TOP
1070
     7
  0
LINE
  5
B7C
330
2
100
AcDbEntity
  8
P-4FAA
  6
Continuous
 62
   144
100
AcDbLine
 10
19.99999999998007
 20
-0.7999999999992724
 30
0.0
 11
19.99999999998007
 21
-0.4999999999997727
 31
0.0
1001
OrigLayer
1000
P-0000
1001
TOP
1070
     7
  0
LINE
  5
B7D
330
2
100
AcDbEntity
  8
P-4FAA
  6
Continuous
 62
   144
100
AcDbLine
 10
19.99999999998007
 20
-0.4999999999995453
 30
0.0
 11
24.99999999997516
 21
-0.4999999999997727
 31
0.0
1001
OrigLayer
1000
P-0000
1001
TOP
1070
     7
  0
ARC
  5
B7E
330
2
100
AcDbEntity
  8
P-4FAA
  6
Continuous
 62
   144
100
AcDbCircle
 10
24.99999999997508
 20
0.0
 30
0.0
 40
2.4999999999975
100
AcDbArc
 50
270.0
 51
0.0
1001
OrigLayer
1000
P-0000
1001
TOP
1070
     7
  0
LINE
  5
B7F
330
2
100
AcDbEntity
  8
P-4FAA
  6
Continuous
 62
   144
100
AcDbLine
 10
14.99999999998499
 20
-0.4999999999997727
 30
0.0
 11
14.99999999998499
 21
-0.7999999999992724
 31
0.0
1001
OrigLayer
1000
P-0000
1001
TOP
1070
     7
  0
LINE
  5
B80
330
2
100
AcDbEntity
  8
P-4FAA
  6
Continuous
 62
   144
100
AcDbLine
 10
9.999999999989995
 20
-0.7999999999992724
 30
0.0
 11
9.999999999989995
 21
-0.4999999999997727
 31
0.0
1001
OrigLayer
1000
P-0000
1001
TOP
1070
     7
  0
LINE
  5
B81
330
2
100
AcDbEntity
  8
P-4FAA
  6
Continuous
 62
   144
100
AcDbLine
 10
9.999999999989995
 20
-0.4999999999997727
 30
0.0
 11
14.99999999998499
 21
-0.4999999999997727
 31
0.0
1001
OrigLayer
1000
P-0000
1001
TOP
1070
     7
  0
LINE
  5
B82
330
2
100
AcDbEntity
  8
P-4FAA
  6
Continuous
 62
   144
100
AcDbLine
 10
4.999999999994997
 20
-0.4999999999997727
 30
0.0
 11
4.999999999994997
 21
-0.7999999999992724
 31
0.0
1001
OrigLayer
1000
P-0000
1001
TOP
1070
     7
  0
ARC
  5
B83
330
2
100
AcDbEntity
  8
P-4FAA
  6
Continuous
 62
   144
100
AcDbCircle
 10
-0.0000000000001137
 20
0.0
 30
0.0
 40
0.4999999999995001
100
AcDbArc
 50
180.0
 51
270.0
1001
OrigLayer
1000
P-0000
1001
TOP
1070
     7
  0
LINE
  5
B84
330
2
100
AcDbEntity
  8
P-4FAA
  6
Continuous
 62
   144
100
AcDbLine
 10
-0.0000000000001137
 20
-0.4999999999997727
 30
0.0
 11
4.999999999994997
 21
-0.4999999999995453
 31
0.0
1001
OrigLayer
1000
P-0000
1001
TOP
1070
     7
  0
LINE
  5
B85
330
2
100
AcDbEntity
  8
P-4FAA
  6
Continuous
 62
   144
100
AcDbLine
 10
4.999999999994997
 20
-0.7999999999992724
 30
0.0
 11
9.999999999989995
 21
-0.7999999999992724
 31
0.0
1001
OrigLayer
1000
P-0000
1001
TOP
1070
     7
  0
ARC
  5
B86
330
2
100
AcDbEntity
  8
P-4FAA
  6
Continuous
 62
   144
100
AcDbCircle
 10
0.0
 20
0.0
 30
0.0
 40
2.4999999999975
100
AcDbArc
 50
180.0
 51
270.0
1001
OrigLayer
1000
P-0000
1001
TOP
1070
     7
  0
LINE
  5
B87
330
2
100
AcDbEntity
  8
P-4FAA
  6
Continuous
 62
   144
100
AcDbLine
 10
0.0
 20
-2.499999999997498
 30
0.0
 11
24.99999999997508
 21
-2.499999999997498
 31
0.0
1001
OrigLayer
1000
P-0000
1001
TOP
1070
     7
  0
LINE
  5
B88
330
2
100
AcDbEntity
  8
P-4FAA
  6
Continuous
 62
   144
100
AcDbLine
 10
14.99999999998499
 20
-0.7999999999992724
 30
0.0
 11
19.99999999998007
 21
-0.7999999999992724
 31
0.0
1001
OrigLayer
1000
P-0000
1001
TOP
1070
     7
  0
LINE
  5
B89
330
2
100
AcDbEntity
  8
P-4FAA
  6
Continuous
 62
   144
100
AcDbLine
 10
-2.499999999997555
 20
26.99999999997249
 30
0.0
 11
-2.499999999997555
 21
0.0
 31
0.0
1001
OrigLayer
1000
P-0000
1001
TOP
1070
     7
  0
LINE
  5
B8A
330
2
100
AcDbEntity
  8
P-4FAA
  6
Continuous
 62
   144
100
AcDbLine
 10
25.49999999997471
 20
0.0
 30
0.0
 11
25.49999999997462
 21
4.999999999994997
 31
0.0
1001
OrigLayer
1000
P-0000
1001
TOP
1070
     7
  0
LINE
  5
B8B
330
2
100
AcDbEntity
  8
P-4FAA
  6
Continuous
 62
   144
100
AcDbLine
 10
27.49999999997255
 20
0.0
 30
0.0
 11
27.49999999997255
 21
24.99999999997499
 31
0.0
1001
OrigLayer
1000
P-0000
1001
TOP
1070
     7
  0
LINE
  5
B8C
330
2
100
AcDbEntity
  8
P-4FAA
  6
Continuous
 62
   144
100
AcDbLine
 10
-0.499999999999659
 20
4.999999999994997
 30
0.0
 11
-0.499999999999659
 21
0.0
 31
0.0
1001
OrigLayer
1000
P-0000
1001
TOP
1070
     7
  0
ENDSEC
  0
SECTION
  2
OBJECTS
  0
DICTIONARY
  5
1A
330
0
100
AcDbDictionary
281
     1
  3
ACAD_2007HEADERVARS_RT
350
178B
  3
ACAD_COLOR
350
2C5
  3
ACAD_GROUP
350
18
  3
ACAD_LAYOUT
350
45
  3
ACAD_MATERIAL
350
2B0
  3
ACAD_MLEADERSTYLE
350
354
  3
ACAD_MLINESTYLE
350
19
  3
ACAD_PLOTSETTINGS
350
46
  3
ACAD_PLOTSTYLENAME
350
43
  3
ACAD_SCALELIST
350
332
  3
ACAD_TABLESTYLE
350
2C6
  3
ACAD_VISUALSTYLE
350
2B4
  3
ACDB_RECOMPOSE_DATA
350
1789
  3
AcDbVariableDictionary
350
2AA
  3
AEC_PROPERTY_SET_DEFS
350
6EA
  3
DWGPROPS
350
178A
  3
qs_topprt_diz
350
50
  3
QSCATDICT
350
6D9
  3
QsPallStyleDict
350
6EB
  3
QsTop499
350
16DB
  3
TopSpotLight
350
6E0
  0
DICTIONARY
  5
300
330
12
100
AcDbDictionary
280
     1
281
     1
  0
DICTIONARY
  5
A09
330
A
100
AcDbDictionary
280
     1
281
     1
  3
ACAD_LAYERSTATES
360
A0A
  0
DICTIONARY
  5
37B
330
4
100
AcDbDictionary
280
     1
281
     1
  3
ADSK_XREC_LAYER_RECONCILED
360
1383
  0
DICTIONARY
  5
1384
330
6DB
100
AcDbDictionary
280
     1
281
     1
  3
ADSK_XREC_LAYER_RECONCILED
360
1385
  0
DICTIONARY
  5
1386
330
9F4
100
AcDbDictionary
280
     1
281
     1
  3
ADSK_XREC_LAYER_RECONCILED
360
1387
  0
DICTIONARY
  5
1388
330
B90
100
AcDbDictionary
280
     1
281
     1
  3
ADSK_XREC_LAYER_RECONCILED
360
1389
  0
DICTIONARY
  5
11EF
330
11EE
100
AcDbDictionary
280
     1
281
     1
  3
ADSK_XREC_LAYER_RECONCILED
360
138A
  0
DICTIONARY
  5
138B
330
1379
100
AcDbDictionary
280
     1
281
     1
  3
ADSK_XREC_LAYER_RECONCILED
360
138C
  0
DICTIONARY
  5
138D
330
137A
100
AcDbDictionary
280
     1
281
     1
  3
ADSK_XREC_LAYER_RECONCILED
360
138E
  0
DICTIONARY
  5
B24
330
A0B
100
AcDbDictionary
280
     1
281
     1
  3
ACAD_SORTENTS
360
B25
  0
DICTIONARY
  5
178B
102
{ACAD_REACTORS
330
1A
102
}
330
1A
100
AcDbDictionary
281
     1
  3
INTERFEREVPVS
350
178C
  0
DICTIONARY
  5
2C5
102
{ACAD_REACTORS
330
1A
102
}
330
1A
100
AcDbDictionary
281
     1
  0
DICTIONARY
  5
18
102
{ACAD_REACTORS
330
1A
102
}
330
1A
100
AcDbDictionary
281
     1
  0
DICTIONARY
  5
45
102
{ACAD_REACTORS
330
1A
102
}
330
1A
100
AcDbDictionary
281
     1
  3
Layout1
350
48
  3
Model
350
47
  0
DICTIONARY
  5
2B0
102
{ACAD_REACTORS
330
1A
102
}
330
1A
100
AcDbDictionary
281
     1
  3
ByBlock
350
2B2
  3
ByLayer
350
2B1
  3
Global
350
2B3
  0
DICTIONARY
  5
354
102
{ACAD_REACTORS
330
1A
102
}
330
1A
100
AcDbDictionary
281
     1
  3
Standard
350
355
  0
DICTIONARY
  5
19
102
{ACAD_REACTORS
330
1A
102
}
330
1A
100
AcDbDictionary
281
     1
  3
STANDARD
350
1C
  0
DICTIONARY
  5
46
102
{ACAD_REACTORS
330
1A
102
}
330
1A
100
AcDbDictionary
281
     1
  3
Kyocera_1010 OR
350
1670
  3
Kyocera_1010 VER
350
1671
  3
Olivetti_200 A3
350
1672
  3
Olivetti_200 A4
350
1673
  3
PLOTTER
350
1674
  0
ACDBDICTIONARYWDFLT
  5
43
102
{ACAD_REACTORS
330
1A
102
}
330
1A
100
AcDbDictionary
281
     1
  3
Normal
350
44
100
AcDbDictionaryWithDefault
340
44
  0
DICTIONARY
  5
332
102
{ACAD_REACTORS
330
1A
102
}
330
1A
100
AcDbDictionary
281
     1
  3
A0
350
333
  3
A1
350
334
  3
A2
350
335
  3
A3
350
336
  3
A4
350
337
  3
A5
350
338
  3
A6
350
339
  3
A7
350
33A
  3
A8
350
33B
  3
A9
350
33C
  3
B0
350
33D
  3
B1
350
33E
  3
B2
350
33F
  3
B3
350
340
  3
B4
350
341
  3
B5
350
342
  3
B6
350
343
  3
B7
350
344
  3
B8
350
345
  3
B9
350
346
  3
C0
350
347
  3
C1
350
348
  3
C2
350
349
  3
C3
350
34A
  3
C4
350
34B
  3
C5
350
34C
  3
C6
350
34D
  3
C7
350
34E
  3
C8
350
34F
  3
C9
350
350
  3
D0
350
351
  3
D1
350
352
  3
D2
350
353
  0
DICTIONARY
  5
2C6
102
{ACAD_REACTORS
330
1A
102
}
330
1A
100
AcDbDictionary
281
     1
  3
QSTABFORI
350
A05
  3
QSTABREGION
350
A07
  3
Standard
350
2C7
  0
DICTIONARY
  5
2B4
102
{ACAD_REACTORS
330
1A
102
}
330
1A
100
AcDbDictionary
281
     1
  3
2dWireframe
350
2BA
  3
3D Hidden
350
2BC
  3
3dWireframe
350
2BB
  3
Basic
350
2B9
  3
Brighten
350
2C0
  3
ColorChange
350
2C4
  3
Conceptual
350
2BD
  3
Dim
350
2BF
  3
EdgeColorOff
350
16F0
  3
Facepattern
350
2C3
  3
Flat
350
2B5
  3
FlatWithEdges
350
2B6
  3
Gouraud
350
2B7
  3
GouraudWithEdges
350
2B8
  3
Hidden
350
16E8
  3
JitterOff
350
16EE
  3
Linepattern
350
2C2
  3
OverhangOff
350
16EF
  3
Realistic
350
2BE
  3
Shaded
350
16ED
  3
Shaded with edges
350
16EC
  3
Shades of Gray
350
16E9
  3
Sketchy
350
16EA
  3
Thicken
350
2C1
  3
Wireframe
350
16E7
  3
X-Ray
350
16EB
  0
XRECORD
  5
1789
102
{ACAD_REACTORS
330
1A
102
}
330
1A
100
AcDbXrecord
280
     1
 90
        1
330
2C7
330
A05
330
A07
  0
DICTIONARY
  5
2AA
102
{ACAD_REACTORS
330
1A
102
}
330
1A
100
AcDbDictionary
281
     1
  3
CANNOSCALE
350
36B
  3
CMLEADERSTYLE
350
369
  3
CTABLESTYLE
350
312
  3
DIMASSOC
350
2AB
  3
DRAWORDERCTL
350
13B3
  3
INDEXCTL
350
314
  3
LAYEREVAL
350
13B5
  3
LAYERNOTIFY
350
13B6
  3
LIGHTINGUNITS
350
36C
  3
MLEADERSCALE
350
13B4
  3
MSLTSCALE
350
36A
  3
SORTENTS
350
313
  3
XCLIPFRAME
350
1785
  0
DICTIONARY
  5
6EA
102
{ACAD_REACTORS
330
1A
102
}
330
1A
100
AcDbDictionary
281
     1
  0
XRECORD
  5
178A
102
{ACAD_REACTORS
330
1A
102
}
330
1A
100
AcDbXrecord
280
     1
  1
DWGPROPS COOKIE
  2

  3

  4

  6

  7

  8
mpistoia
  9

300
=
301
=
302
=
303
=
304
=
305
=
306
=
307
=
308
=
309
=
 40
0.175697662037037
 41
2455048.621608252
 42
2455646.478843635
  1

 90
        0
  0
DICTIONARY
  5
50
102
{ACAD_REACTORS
330
1A
102
}
330
1A
100
AcDbDictionary
281
     1
  3
UCNT
350
51
  0
DICTIONARY
  5
6D9
102
{ACAD_REACTORS
330
1A
102
}
330
1A
100
AcDbDictionary
280
     1
281
     1
  3
DEFAULT
360
6DA
  0
DICTIONARY
  5
6EB
102
{ACAD_REACTORS
330
1A
102
}
330
1A
100
AcDbDictionary
281
     1
  3
DEFAULT
350
6EC
  0
DICTIONARY
  5
16DB
102
{ACAD_REACTORS
330
1A
102
}
330
1A
100
AcDbDictionary
281
     1
  3
TOP
350
16E2
  3
X0283
350
16DE
  3
X2267
350
16DC
  3
X2a46
350
16DD
  3
X396f
350
16DF
  3
X6834
350
16E0
  3
X69f7
350
16E1
  0
DICTIONARY
  5
6E0
102
{ACAD_REACTORS
330
1A
102
}
330
1A
100
AcDbDictionary
281
     1
  3
colors
350
6E1
  0
DICTIONARY
  5
A0A
102
{ACAD_REACTORS
330
A09
102
}
330
A09
100
AcDbDictionary
281
     1
  0
XRECORD
  5
1383
102
{ACAD_REACTORS
330
37B
102
}
330
37B
100
AcDbXrecord
280
     1
290
     1
  0
XRECORD
  5
1385
102
{ACAD_REACTORS
330
1384
102
}
330
1384
100
AcDbXrecord
280
     1
290
     1
  0
XRECORD
  5
1387
102
{ACAD_REACTORS
330
1386
102
}
330
1386
100
AcDbXrecord
280
     1
290
     1
  0
XRECORD
  5
1389
102
{ACAD_REACTORS
330
1388
102
}
330
1388
100
AcDbXrecord
280
     1
290
     1
  0
XRECORD
  5
138A
102
{ACAD_REACTORS
330
11EF
102
}
330
11EF
100
AcDbXrecord
280
     1
290
     1
  0
XRECORD
  5
138C
102
{ACAD_REACTORS
330
138B
102
}
330
138B
100
AcDbXrecord
280
     1
290
     1
  0
XRECORD
  5
138E
102
{ACAD_REACTORS
330
138D
102
}
330
138D
100
AcDbXrecord
280
     1
290
     1
  0
SORTENTSTABLE
  5
B25
102
{ACAD_REACTORS
330
B24
102
}
330
B24
100
AcDbSortentsTable
330
A0B
331
A2D
  5
A49
331
A49
  5
A1C
331
A31
  5
A4D
331
A4D
  5
A55
331
A1D
  5
A3B
331
A35
  5
A51
331
A21
  5
A24
331
A39
  5
A58
331
A51
  5
A39
331
A69
  5
A68
331
A25
  5
A41
331
A3D
  5
A5C
331
A55
  5
A31
331
A41
  5
A60
331
A59
  5
A35
331
A45
  5
A64
331
A5D
  5
A2D
331
A61
  5
A28
331
A65
  5
A21
331
A0E
  5
A12
331
A12
  5
A0E
331
A2A
  5
A46
331
A2E
  5
A4A
331
A32
  5
A4E
331
A4A
  5
A1F
331
A36
  5
A53
331
A1E
  5
A3C
331
A4E
  5
A52
331
A3A
  5
A59
331
A22
  5
A27
331
A52
  5
A2E
331
A56
  5
A32
331
A26
  5
A43
331
A3E
  5
A5D
331
A5A
  5
A36
331
A42
  5
A61
331
A5E
  5
A22
331
A46
  5
A65
331
A62
  5
A29
331
A66
  5
A20
331
A0F
  5
A13
331
A2B
  5
A48
331
A13
  5
A0F
331
A2F
  5
A4B
331
A4B
  5
A23
331
A33
  5
A4F
331
A1F
  5
A3D
331
A37
  5
A56
331
A4F
  5
A37
331
A23
  5
A40
331
A3B
  5
A5A
331
A53
  5
A2F
331
A27
  5
A42
331
A3F
  5
A5E
331
A57
  5
A33
331
A43
  5
A62
331
A5B
  5
A2B
331
A47
  5
A67
331
A5F
  5
A25
331
A63
  5
A2A
331
A67
  5
A66
331
A0C
  5
A10
331
A10
  5
A0C
331
A28
  5
A44
331
A2C
  5
A47
331
A30
  5
A4C
331
A48
  5
A69
331
A34
  5
A50
331
A1C
  5
A3A
331
A4C
  5
A54
331
A38
  5
A57
331
A20
  5
A3E
331
A50
  5
A38
331
A68
  5
A1D
331
A3C
  5
A5B
331
A24
  5
A3F
331
A54
  5
A30
331
A58
  5
A34
331
A40
  5
A5F
331
A5C
  5
A2C
331
A44
  5
A63
331
A60
  5
A26
331
A64
  5
A1E
331
A0D
  5
A11
331
A29
  5
A45
331
A11
  5
A0D
  0
XRECORD
  5
178C
102
{ACAD_REACTORS
330
178B
102
}
330
178B
100
AcDbXrecord
280
     1
340
2BB
  0
LAYOUT
  5
48
102
{ACAD_XDICTIONARY
360
178F
102
}
102
{ACAD_REACTORS
330
45
102
}
330
45
100
AcDbPlotSettings
  1

  2
RICOH Aficio 270 PCL 6 A4
  4

  6

 40
0.0
 41
0.0
 42
0.0
 43
0.0
 44
0.0
 45
0.0
 46
0.0
 47
0.0
 48
0.0
 49
0.0
140
0.0
141
0.0
142
1.0
143
1.0
 70
   688
 72
     0
 73
     0
 74
     5
  7
DIERRE BN.ctb
 75
    16
147
1.0
148
0.0
149
0.0
100
AcDbLayout
  1
Layout1
 70
     0
 71
     1
 10
0.0
 20
0.0
 11
12.0
 21
9.0
 12
0.0
 22
0.0
 32
0.0
 14
1.000000000000000E+20
 24
1.000000000000000E+20
 34
1.000000000000000E+20
 15
-1.000000000000000E+20
 25
-1.000000000000000E+20
 35
-1.000000000000000E+20
146
0.0
 13
0.0
 23
0.0
 33
0.0
 16
1.0
 26
0.0
 36
0.0
 17
0.0
 27
1.0
 37
0.0
 76
     0
330
7
  0
LAYOUT
  5
47
102
{ACAD_XDICTIONARY
360
178D
102
}
102
{ACAD_REACTORS
330
45
102
}
330
45
100
AcDbPlotSettings
  1
Olivetti_200 A4
  2
Olivetti_200.pc3
  4
A4
  6

 40
4.984749794006347
 41
5.154074668884277
 42
5.111740112304687
 43
4.9847412109375
 44
210.0156707763672
 45
297.0106506347656
 46
51.67548120477697
 47
0.0
 48
0.0
 49
0.0
140
0.0
141
0.0
142
1.0
143
0.4718508448115938
 70
 11956
 72
     1
 73
     0
 74
     1
  7
DIERRE BN.ctb
 75
     0
147
2.119313785268927
148
-222.4649060220283
149
-239.0808115236937
100
AcDbLayout
  1
Model
 70
     1
 71
     0
 10
0.0
 20
0.0
 11
12.0
 21
9.0
 12
0.0
 22
0.0
 32
0.0
 14
0.0
 24
0.0
 34
0.0
 15
0.0
 25
0.0
 35
0.0
146
0.0
 13
0.0
 23
0.0
 33
0.0
 16
1.0
 26
0.0
 36
0.0
 17
0.0
 27
1.0
 37
0.0
 76
     0
330
2
331
2AE
1001
ACAD_PSEXT
1000
Olivetti_200.pc3
1000
Olivetti d-Copia 200MF KX
1000
IP_192.168.1.151
1000

1070
     0
  0
MATERIAL
  5
2B2
102
{ACAD_XDICTIONARY
360
1793
102
}
102
{ACAD_REACTORS
330
2B0
102
}
330
2B0
100
AcDbMaterial
  1
ByBlock
 73
     1
 78
     1
172
     1
176
     1
270
     1
274
     1
  0
MATERIAL
  5
2B1
102
{ACAD_XDICTIONARY
360
1791
102
}
102
{ACAD_REACTORS
330
2B0
102
}
330
2B0
100
AcDbMaterial
  1
ByLayer
 73
     1
 78
     1
172
     1
176
     1
270
     1
274
     1
  0
MATERIAL
  5
2B3
102
{ACAD_XDICTIONARY
360
1795
102
}
102
{ACAD_REACTORS
330
2B0
102
}
330
2B0
100
AcDbMaterial
  1
Global
 73
     1
 78
     1
172
     1
176
     1
270
     1
274
     1
  0
MLEADERSTYLE
  5
355
102
{ACAD_REACTORS
330
354
102
}
330
354
100
AcDbMLeaderStyle
170
     2
171
     1
172
     0
 90
        2
 40
0.0
 41
0.0
173
     1
 91
-1056964608
340
E
 92
       -2
290
     1
 42
2.0
291
     1
 43
0.36
  3
Standard
 44
4.0
300

342
C
174
     1
178
     6
175
     1
176
     0
 93
-1056964608
 45
4.0
292
     0
297
     0
 46
4.0
 94
-1056964608
 47
1.0
 49
1.0
140
1.0
293
     1
141
0.0
294
     1
177
     0
142
1.0
295
     0
296
     0
143
0.125
1001
ACAD_MLEADERVER
1070
     2
  0
MLINESTYLE
  5
1C
102
{ACAD_REACTORS
330
19
102
}
330
19
100
AcDbMlineStyle
  2
STANDARD
 70
     0
  3

 62
     0
 51
90.0
 52
90.0
 71
     2
 49
0.5
 62
   256
  6
BYLAYER
 49
-0.5
 62
   256
  6
BYLAYER
  0
PLOTSETTINGS
  5
1670
102
{ACAD_XDICTIONARY
360
17BB
102
}
102
{ACAD_REACTORS
330
46
102
}
330
46
100
AcDbPlotSettings
  1
Kyocera_1010 OR
  2
Kyocera_1010.pc3
  4
A4
  6

 40
4.984749794006347
 41
5.154074668884277
 42
5.111740112304687
 43
4.9847412109375
 44
210.0156707763672
 45
297.0106506347656
 46
0.0
 47
109.7870247470818
 48
0.0
 49
0.0
140
0.0
141
0.0
142
1.0
143
0.6770771918566143
 70
 11956
 72
     1
 73
     1
 74
     1
  7
DIERRE BN.ctb
 75
     0
147
1.476936473458659
148
-222.4649060220283
149
-239.0808115236937
1001
ACAD_PSEXT
1000
Kyocera_1010.pc3
1000
Kyocera Mita FS-1010 KX
1000
\\PC5
1000

1070
     0
  0
PLOTSETTINGS
  5
1671
102
{ACAD_XDICTIONARY
360
17BD
102
}
102
{ACAD_REACTORS
330
46
102
}
330
46
100
AcDbPlotSettings
  1
Kyocera_1010 VER
  2
Kyocera_1010.pc3
  4
A4
  6

 40
4.984749794006347
 41
5.154074668884277
 42
5.111740112304687
 43
4.9847412109375
 44
210.0156707763672
 45
297.0106506347656
 46
51.67548120477697
 47
0.0
 48
0.0
 49
0.0
140
0.0
141
0.0
142
1.0
143
0.4718508448115938
 70
 11956
 72
     1
 73
     0
 74
     1
  7
DIERRE BN.ctb
 75
     0
147
2.119313785268927
148
-222.4649060220283
149
-239.0808115236937
1001
ACAD_PSEXT
1000
Kyocera_1010.pc3
1000
Kyocera Mita FS-1010 KX
1000
\\PC5
1000

1070
     0
  0
PLOTSETTINGS
  5
1672
102
{ACAD_XDICTIONARY
360
17BF
102
}
102
{ACAD_REACTORS
330
46
102
}
330
46
100
AcDbPlotSettings
  1
Olivetti_200 A3
  2
Olivetti_200.pc3
  4
A3
  6

 40
4.984749794006347
 41
5.111746788024902
 42
5.154083251953125
 43
4.9847412109375
 44
297.0106506347656
 45
419.9889831542968
 46
0.0
 47
156.6621412366913
 48
0.0
 49
0.0
140
0.0
141
0.0
142
1.0
143
0.4718508730467012
 70
 11956
 72
     1
 73
     1
 74
     1
  7
DIERRE BN.ctb
 75
     0
147
2.119313658451206
148
-222.4649060220283
149
-239.0808115236937
1001
ACAD_PSEXT
1000
Olivetti_200.pc3
1000
Olivetti d-Copia 200MF KX
1000
IP_192.168.1.151
1000

1070
     0
  0
PLOTSETTINGS
  5
1673
102
{ACAD_XDICTIONARY
360
17C1
102
}
102
{ACAD_REACTORS
330
46
102
}
330
46
100
AcDbPlotSettings
  1
Olivetti_200 A4
  2
Olivetti_200.pc3
  4
A4
  6

 40
4.984749794006347
 41
5.154074668884277
 42
5.111740112304687
 43
4.9847412109375
 44
210.0156707763672
 45
297.0106506347656
 46
51.67548120477697
 47
0.0
 48
0.0
 49
0.0
140
0.0
141
0.0
142
1.0
143
0.4718508448115938
 70
 11956
 72
     1
 73
     0
 74
     1
  7
DIERRE BN.ctb
 75
     0
147
2.119313785268927
148
-222.4649060220283
149
-239.0808115236937
1001
ACAD_PSEXT
1000
Olivetti_200.pc3
1000
Olivetti d-Copia 200MF KX
1000
IP_192.168.1.151
1000

1070
     0
  0
PLOTSETTINGS
  5
1674
102
{ACAD_XDICTIONARY
360
17C3
102
}
102
{ACAD_REACTORS
330
46
102
}
330
46
100
AcDbPlotSettings
  1
PLOTTER
  2
PLOTTER.pc3
  4
User622
  6

 40
0.0
 41
0.0
 42
0.0
 43
0.0
 44
841.0
 45
1189.0
 46
0.0
 47
0.0
 48
0.0
 49
0.0
140
0.0
141
0.0
142
1.0
143
1.0
 70
 11936
 72
     1
 73
     0
 74
     1
  7
DIERRE BN.ctb
 75
     0
147
2.194137304425714
148
-222.4649060220283
149
-239.0808115236937
1001
ACAD_PSEXT
1000
PLOTTER.pc3
1000
HP DesignJet 430 (E/A0) by HP
1000
\\SERVER2003
1000

1070
     0
  0
ACDBPLACEHOLDER
  5
44
102
{ACAD_REACTORS
330
43
102
}
330
43
  0
SCALE
  5
333
102
{ACAD_REACTORS
330
332
102
}
330
332
100
AcDbScale
 70
     0
300
1:1
140
1.0
141
1.0
290
     1
  0
SCALE
  5
334
102
{ACAD_REACTORS
330
332
102
}
330
332
100
AcDbScale
 70
     0
300
1:2
140
1.0
141
2.0
290
     0
  0
SCALE
  5
335
102
{ACAD_REACTORS
330
332
102
}
330
332
100
AcDbScale
 70
     0
300
1:4
140
1.0
141
4.0
290
     0
  0
SCALE
  5
336
102
{ACAD_REACTORS
330
332
102
}
330
332
100
AcDbScale
 70
     0
300
1:5
140
1.0
141
5.0
290
     0
  0
SCALE
  5
337
102
{ACAD_REACTORS
330
332
102
}
330
332
100
AcDbScale
 70
     0
300
1:8
140
1.0
141
8.0
290
     0
  0
SCALE
  5
338
102
{ACAD_REACTORS
330
332
102
}
330
332
100
AcDbScale
 70
     0
300
1:10
140
1.0
141
10.0
290
     0
  0
SCALE
  5
339
102
{ACAD_REACTORS
330
332
102
}
330
332
100
AcDbScale
 70
     0
300
1:16
140
1.0
141
16.0
290
     0
  0
SCALE
  5
33A
102
{ACAD_REACTORS
330
332
102
}
330
332
100
AcDbScale
 70
     0
300
1:20
140
1.0
141
20.0
290
     0
  0
SCALE
  5
33B
102
{ACAD_REACTORS
330
332
102
}
330
332
100
AcDbScale
 70
     0
300
1:30
140
1.0
141
30.0
290
     0
  0
SCALE
  5
33C
102
{ACAD_REACTORS
330
332
102
}
330
332
100
AcDbScale
 70
     0
300
1:40
140
1.0
141
40.0
290
     0
  0
SCALE
  5
33D
102
{ACAD_REACTORS
330
332
102
}
330
332
100
AcDbScale
 70
     0
300
1:50
140
1.0
141
50.0
290
     0
  0
SCALE
  5
33E
102
{ACAD_REACTORS
330
332
102
}
330
332
100
AcDbScale
 70
     0
300
1:100
140
1.0
141
100.0
290
     0
  0
SCALE
  5
33F
102
{ACAD_REACTORS
330
332
102
}
330
332
100
AcDbScale
 70
     0
300
2:1
140
2.0
141
1.0
290
     0
  0
SCALE
  5
340
102
{ACAD_REACTORS
330
332
102
}
330
332
100
AcDbScale
 70
     0
300
4:1
140
4.0
141
1.0
290
     0
  0
SCALE
  5
341
102
{ACAD_REACTORS
330
332
102
}
330
332
100
AcDbScale
 70
     0
300
8:1
140
8.0
141
1.0
290
     0
  0
SCALE
  5
342
102
{ACAD_REACTORS
330
332
102
}
330
332
100
AcDbScale
 70
     0
300
10:1
140
10.0
141
1.0
290
     0
  0
SCALE
  5
343
102
{ACAD_REACTORS
330
332
102
}
330
332
100
AcDbScale
 70
     0
300
100:1
140
100.0
141
1.0
290
     0
  0
SCALE
  5
344
102
{ACAD_REACTORS
330
332
102
}
330
332
100
AcDbScale
 70
     0
300
1/128" = 1'-0"
140
0.0078125
141
12.0
290
     0
  0
SCALE
  5
345
102
{ACAD_REACTORS
330
332
102
}
330
332
100
AcDbScale
 70
     0
300
1/64" = 1'-0"
140
0.015625
141
12.0
290
     0
  0
SCALE
  5
346
102
{ACAD_REACTORS
330
332
102
}
330
332
100
AcDbScale
 70
     0
300
1/32" = 1'-0"
140
0.03125
141
12.0
290
     0
  0
SCALE
  5
347
102
{ACAD_REACTORS
330
332
102
}
330
332
100
AcDbScale
 70
     0
300
1/16" = 1'-0"
140
0.0625
141
12.0
290
     0
  0
SCALE
  5
348
102
{ACAD_REACTORS
330
332
102
}
330
332
100
AcDbScale
 70
     0
300
3/32" = 1'-0"
140
0.09375
141
12.0
290
     0
  0
SCALE
  5
349
102
{ACAD_REACTORS
330
332
102
}
330
332
100
AcDbScale
 70
     0
300
1/8" = 1'-0"
140
0.125
141
12.0
290
     0
  0
SCALE
  5
34A
102
{ACAD_REACTORS
330
332
102
}
330
332
100
AcDbScale
 70
     0
300
3/16" = 1'-0"
140
0.1875
141
12.0
290
     0
  0
SCALE
  5
34B
102
{ACAD_REACTORS
330
332
102
}
330
332
100
AcDbScale
 70
     0
300
1/4" = 1'-0"
140
0.25
141
12.0
290
     0
  0
SCALE
  5
34C
102
{ACAD_REACTORS
330
332
102
}
330
332
100
AcDbScale
 70
     0
300
3/8" = 1'-0"
140
0.375
141
12.0
290
     0
  0
SCALE
  5
34D
102
{ACAD_REACTORS
330
332
102
}
330
332
100
AcDbScale
 70
     0
300
1/2" = 1'-0"
140
0.5
141
12.0
290
     0
  0
SCALE
  5
34E
102
{ACAD_REACTORS
330
332
102
}
330
332
100
AcDbScale
 70
     0
300
3/4" = 1'-0"
140
0.75
141
12.0
290
     0
  0
SCALE
  5
34F
102
{ACAD_REACTORS
330
332
102
}
330
332
100
AcDbScale
 70
     0
300
1" = 1'-0"
140
1.0
141
12.0
290
     0
  0
SCALE
  5
350
102
{ACAD_REACTORS
330
332
102
}
330
332
100
AcDbScale
 70
     0
300
1-1/2" = 1'-0"
140
1.5
141
12.0
290
     0
  0
SCALE
  5
351
102
{ACAD_REACTORS
330
332
102
}
330
332
100
AcDbScale
 70
     0
300
3" = 1'-0"
140
3.0
141
12.0
290
     0
  0
SCALE
  5
352
102
{ACAD_REACTORS
330
332
102
}
330
332
100
AcDbScale
 70
     0
300
6" = 1'-0"
140
6.0
141
12.0
290
     0
  0
SCALE
  5
353
102
{ACAD_REACTORS
330
332
102
}
330
332
100
AcDbScale
 70
     0
300
1'-0" = 1'-0"
140
12.0
141
12.0
290
     0
  0
TABLESTYLE
  5
A05
102
{ACAD_XDICTIONARY
360
A06
102
}
102
{ACAD_REACTORS
330
2C6
102
}
330
2C6
100
AcDbTableStyle
  3
Standard
 70
     1
 71
     0
 40
1.5
 41
1.5
280
     1
281
     0
  7
ROMANS
140
3.0
170
     5
 62
     7
 63
     7
283
     0
274
    -2
284
     1
 64
     0
275
    -2
285
     1
 65
     0
276
    -2
286
     1
 66
     0
277
    -2
287
     1
 67
     0
278
    -2
288
     1
 68
     0
279
    -2
289
     1
 69
     0
  7
ROMANS
140
6.0
170
     5
 62
     1
 63
     7
283
     0
274
    -2
284
     1
 64
     0
275
    -2
285
     1
 65
     0
276
    -2
286
     1
 66
     0
277
    -2
287
     1
 67
     0
278
    -2
288
     1
 68
     0
279
    -2
289
     1
 69
     0
  7
ROMANS
140
3.5
170
     5
 62
     3
 63
     7
283
     0
274
    -2
284
     1
 64
     0
275
    -2
285
     1
 65
     0
276
    -2
286
     1
 66
     0
277
    -2
287
     1
 67
     0
278
    -2
288
     1
 68
     0
279
    -2
289
     1
 69
     0
  0
TABLESTYLE
  5
A07
102
{ACAD_XDICTIONARY
360
A08
102
}
102
{ACAD_REACTORS
330
2C6
102
}
330
2C6
100
AcDbTableStyle
  3
Standard
 70
     0
 71
     0
 40
1.5
 41
1.5
280
     0
281
     0
  7
ROMANS
140
4.5
170
     5
 62
     7
 63
     7
283
     0
274
    -2
284
     1
 64
     0
275
    -2
285
     1
 65
     0
276
    -2
286
     1
 66
     0
277
    -2
287
     1
 67
     0
278
    -2
288
     1
 68
     0
279
    -2
289
     1
 69
     0
  7
ROMANS
140
6.0
170
     5
 62
     1
 63
     7
283
     0
274
    -2
284
     1
 64
     0
275
    -2
285
     1
 65
     0
276
    -2
286
     1
 66
     0
277
    -2
287
     1
 67
     0
278
    -2
288
     1
 68
     0
279
    -2
289
     1
 69
     0
  7
ROMANS
140
5.0
170
     5
 62
     3
 63
     7
283
     0
274
    -2
284
     1
 64
     0
275
    -2
285
     1
 65
     0
276
    -2
286
     1
 66
     0
277
    -2
287
     1
 67
     0
278
    -2
288
     1
 68
     0
279
    -2
289
     1
 69
     0
  0
TABLESTYLE
  5
2C7
102
{ACAD_XDICTIONARY
360
362
102
}
102
{ACAD_REACTORS
330
2C6
102
}
330
2C6
100
AcDbTableStyle
  3
Standard
 70
     0
 71
     0
 40
1.5
 41
1.5
280
     0
281
     0
  7
STANDARD
140
4.5
170
     2
 62
     0
 63
     7
283
     0
274
    -2
284
     1
 64
     0
275
    -2
285
     1
 65
     0
276
    -2
286
     1
 66
     0
277
    -2
287
     1
 67
     0
278
    -2
288
     1
 68
     0
279
    -2
289
     1
 69
     0
  7
STANDARD
140
6.0
170
     5
 62
     0
 63
     7
283
     0
274
    -2
284
     1
 64
     0
275
    -2
285
     1
 65
     0
276
    -2
286
     1
 66
     0
277
    -2
287
     1
 67
     0
278
    -2
288
     1
 68
     0
279
    -2
289
     1
 69
     0
  7
STANDARD
140
4.5
170
     5
 62
     0
 63
     7
283
     0
274
    -2
284
     1
 64
     0
275
    -2
285
     1
 65
     0
276
    -2
286
     1
 66
     0
277
    -2
287
     1
 67
     0
278
    -2
288
     1
 68
     0
279
    -2
289
     1
 69
     0
  0
VISUALSTYLE
  5
2BA
102
{ACAD_XDICTIONARY
360
17A1
102
}
102
{ACAD_REACTORS
330
2B4
102
}
330
2B4
100
AcDbVisualStyle
  2
2dWireframe
 70
     4
 71
     0
 72
     2
 73
     0
 90
        0
 40
-0.6
 41
-30.0
 62
     5
 63
     7
 74
     1
 91
        4
 64
     7
 65
   257
 75
     1
175
     1
 42
1.0
 92
        0
 66
   257
 43
1.0
 76
     1
 77
     6
 78
     2
 67
     7
 79
     5
170
     0
171
     0
290
     0
174
     0
 93
        1
 44
0.0
173
     0
291
     0
 45
0.0
1001
ACAD
1000
AcDbSavedByObjectVersion
1070
     0
  0
VISUALSTYLE
  5
2BC
102
{ACAD_XDICTIONARY
360
17A5
102
}
102
{ACAD_REACTORS
330
2B4
102
}
330
2B4
100
AcDbVisualStyle
  2
3D Hidden
 70
     6
 71
     1
 72
     2
 73
     2
 90
        0
 40
-0.6
 41
-30.0
 62
     5
 63
     7
 74
     2
 91
        2
 64
     7
 65
   257
 75
     2
175
     1
 42
40.0
 92
        0
 66
   257
 43
1.0
 76
     1
 77
     6
 78
     2
 67
     7
 79
     3
170
     0
171
     0
290
     0
174
     0
 93
        1
 44
0.0
173
     0
291
     0
 45
0.0
1001
ACAD
1000
AcDbSavedByObjectVersion
1070
     0
  0
VISUALSTYLE
  5
2BB
102
{ACAD_XDICTIONARY
360
17A3
102
}
102
{ACAD_REACTORS
330
2B4
102
}
330
2B4
100
AcDbVisualStyle
  2
3dWireframe
 70
     5
 71
     0
 72
     2
 73
     0
 90
        0
 40
-0.6
 41
-30.0
 62
     5
 63
     7
 74
     1
 91
        4
 64
     7
 65
   257
 75
     1
175
     1
 42
1.0
 92
        0
 66
   257
 43
1.0
 76
     1
 77
     6
 78
     2
 67
     7
 79
     5
170
     0
171
     0
290
     0
174
     0
 93
        1
 44
0.0
173
     0
291
     0
 45
0.0
1001
ACAD
1000
AcDbSavedByObjectVersion
1070
     0
  0
VISUALSTYLE
  5
2B9
102
{ACAD_XDICTIONARY
360
179F
102
}
102
{ACAD_REACTORS
330
2B4
102
}
330
2B4
100
AcDbVisualStyle
  2
Basic
 70
     7
 71
     1
 72
     0
 73
     1
 90
        0
 40
-0.6
 41
-30.0
 62
     5
 63
     7
 74
     0
 91
        4
 64
     7
 65
   257
 75
     1
175
     1
 42
1.0
 92
        8
 66
     7
 43
1.0
 76
     1
 77
     6
 78
     2
 67
     7
 79
     5
170
     0
171
     0
290
     0
174
     0
 93
        1
 44
0.0
173
     0
291
     1
 45
0.0
1001
ACAD
1000
AcDbSavedByObjectVersion
1070
     0
  0
VISUALSTYLE
  5
2C0
102
{ACAD_XDICTIONARY
360
17AD
102
}
102
{ACAD_REACTORS
330
2B4
102
}
330
2B4
100
AcDbVisualStyle
  2
Brighten
 70
    12
 71
     2
 72
     2
 73
     0
 90
        0
 40
-0.6
 41
-30.0
 62
     5
 63
     7
 74
     1
 91
        4
 64
     7
 65
   257
 75
     1
175
     1
 42
1.0
 92
        8
 66
     7
 43
1.0
 76
     1
 77
     6
 78
     2
 67
     7
 79
     5
170
     0
171
     0
290
     0
174
     0
 93
        1
 44
50.0
173
     0
291
     1
 45
0.0
1001
ACAD
1000
AcDbSavedByObjectVersion
1070
     0
  0
VISUALSTYLE
  5
2C4
102
{ACAD_XDICTIONARY
360
17B5
102
}
102
{ACAD_REACTORS
330
2B4
102
}
330
2B4
100
AcDbVisualStyle
  2
ColorChange
 70
    16
 71
     2
 72
     2
 73
     3
 90
        0
 40
-0.6
 41
-30.0
 62
     5
 63
     8
 74
     1
 91
        4
 64
     7
 65
   257
 75
     1
175
     1
 42
1.0
 92
        8
 66
     8
 43
1.0
 76
     1
 77
     6
 78
     2
 67
     7
 79
     5
170
     0
171
     0
290
     0
174
     0
 93
        1
 44
0.0
173
     0
291
     1
 45
0.0
1001
ACAD
1000
AcDbSavedByObjectVersion
1070
     0
  0
VISUALSTYLE
  5
2BD
102
{ACAD_XDICTIONARY
360
17A7
102
}
102
{ACAD_REACTORS
330
2B4
102
}
330
2B4
100
AcDbVisualStyle
  2
Conceptual
 70
     9
 71
     3
 72
     2
 73
     0
 90
        0
 40
-0.6
 41
-30.0
 62
     5
 63
     7
 74
     2
 91
        2
 64
     7
 65
   257
 75
     1
175
     1
 42
40.0
 92
        8
 66
     7
 43
1.0
 76
     1
 77
     6
 78
     2
 67
     7
 79
     3
170
     0
171
     0
290
     0
174
     0
 93
        1
 44
0.0
173
     0
291
     0
 45
0.0
1001
ACAD
1000
AcDbSavedByObjectVersion
1070
     0
  0
VISUALSTYLE
  5
2BF
102
{ACAD_XDICTIONARY
360
17AB
102
}
102
{ACAD_REACTORS
330
2B4
102
}
330
2B4
100
AcDbVisualStyle
  2
Dim
 70
    11
 71
     2
 72
     2
 73
     0
 90
        0
 40
-0.6
 41
-30.0
 62
     5
 63
     7
 74
     1
 91
        4
 64
     7
 65
   257
 75
     1
175
     1
 42
1.0
 92
        8
 66
     7
 43
1.0
 76
     1
 77
     6
 78
     2
 67
     7
 79
     5
170
     0
171
     0
290
     0
174
     0
 93
        1
 44
-50.0
173
     0
291
     1
 45
0.0
1001
ACAD
1000
AcDbSavedByObjectVersion
1070
     0
  0
VISUALSTYLE
  5
16F0
102
{ACAD_XDICTIONARY
360
17D7
102
}
102
{ACAD_REACTORS
330
2B4
102
}
330
2B4
100
AcDbVisualStyle
  2
EdgeColorOff
 70
    22
 71
     2
 72
     2
 73
     0
 90
        0
 40
-0.6
 41
-30.0
 62
     5
 63
     7
 74
     1
 91
        4
 64
     7
 65
   257
 75
     1
175
     1
 42
1.0
 92
        8
 66
     7
 43
1.0
 76
     1
 77
     6
 78
     2
 67
     7
 79
     5
170
     0
171
     0
290
     0
174
     0
 93
        1
 44
0.0
173
     0
291
     1
 45
0.0
1001
ACAD
1000
AcDbSavedByObjectVersion
1070
     0
  0
VISUALSTYLE
  5
2C3
102
{ACAD_XDICTIONARY
360
17B3
102
}
102
{ACAD_REACTORS
330
2B4
102
}
330
2B4
100
AcDbVisualStyle
  2
Facepattern
 70
    15
 71
     2
 72
     2
 73
     0
 90
        0
 40
-0.6
 41
-30.0
 62
     5
 63
     7
 74
     1
 91
        4
 64
     7
 65
   257
 75
     1
175
     1
 42
1.0
 92
        8
 66
     7
 43
1.0
 76
     1
 77
     6
 78
     2
 67
     7
 79
     5
170
     0
171
     0
290
     0
174
     0
 93
        1
 44
0.0
173
     0
291
     1
 45
0.0
1001
ACAD
1000
AcDbSavedByObjectVersion
1070
     0
  0
VISUALSTYLE
  5
2B5
102
{ACAD_XDICTIONARY
360
1797
102
}
102
{ACAD_REACTORS
330
2B4
102
}
330
2B4
100
AcDbVisualStyle
  2
Flat
 70
     0
 71
     2
 72
     1
 73
     1
 90
        2
 40
-0.6
 41
30.0
 62
     5
 63
     7
 74
     0
 91
        4
 64
     7
 65
   257
 75
     1
175
     1
 42
1.0
 92
        8
 66
     7
 43
1.0
 76
     1
 77
     6
 78
     2
 67
     7
 79
     5
170
     0
171
     0
290
     0
174
     0
 93
       13
 44
0.0
173
     0
291
     1
 45
0.0
1001
ACAD
1000
AcDbSavedByObjectVersion
1070
     0
  0
VISUALSTYLE
  5
2B6
102
{ACAD_XDICTIONARY
360
1799
102
}
102
{ACAD_REACTORS
330
2B4
102
}
330
2B4
100
AcDbVisualStyle
  2
FlatWithEdges
 70
     1
 71
     2
 72
     1
 73
     1
 90
        2
 40
-0.6
 41
30.0
 62
     5
 63
     7
 74
     1
 91
        4
 64
     7
 65
   257
 75
     1
175
     1
 42
1.0
 92
        0
 66
   257
 43
1.0
 76
     1
 77
     6
 78
     2
 67
     7
 79
     5
170
     0
171
     0
290
     0
174
     0
 93
       13
 44
0.0
173
     0
291
     1
 45
0.0
1001
ACAD
1000
AcDbSavedByObjectVersion
1070
     0
  0
VISUALSTYLE
  5
2B7
102
{ACAD_XDICTIONARY
360
179B
102
}
102
{ACAD_REACTORS
330
2B4
102
}
330
2B4
100
AcDbVisualStyle
  2
Gouraud
 70
     2
 71
     2
 72
     2
 73
     1
 90
        2
 40
-0.6
 41
30.0
 62
     5
 63
     7
 74
     0
 91
        4
 64
     7
 65
   257
 75
     1
175
     1
 42
1.0
 92
        0
 66
     7
 43
1.0
 76
     1
 77
     6
 78
     2
 67
     7
 79
     5
170
     0
171
     0
290
     0
174
     0
 93
       13
 44
0.0
173
     0
291
     1
 45
0.0
1001
ACAD
1000
AcDbSavedByObjectVersion
1070
     0
  0
VISUALSTYLE
  5
2B8
102
{ACAD_XDICTIONARY
360
179D
102
}
102
{ACAD_REACTORS
330
2B4
102
}
330
2B4
100
AcDbVisualStyle
  2
GouraudWithEdges
 70
     3
 71
     2
 72
     2
 73
     1
 90
        2
 40
-0.6
 41
30.0
 62
     5
 63
     7
 74
     1
 91
        4
 64
     7
 65
   257
 75
     1
175
     1
 42
1.0
 92
        0
 66
   257
 43
1.0
 76
     1
 77
     6
 78
     2
 67
     7
 79
     5
170
     0
171
     0
290
     0
174
     0
 93
       13
 44
0.0
173
     0
291
     1
 45
0.0
1001
ACAD
1000
AcDbSavedByObjectVersion
1070
     0
  0
VISUALSTYLE
  5
16E8
102
{ACAD_XDICTIONARY
360
17C7
102
}
102
{ACAD_REACTORS
330
2B4
102
}
330
2B4
100
AcDbVisualStyle
  2
Hidden
 70
     6
 71
     1
 72
     2
 73
     2
 90
        0
 40
-0.6
 41
-30.0
 62
     5
 63
     7
 74
     2
 91
        2
 64
     7
 65
   257
 75
     2
175
     1
 42
40.0
 92
        0
 66
   257
 43
1.0
 76
     1
 77
     6
 78
     2
 67
     7
 79
     3
170
     0
171
     0
290
     0
174
     0
 93
        1
 44
0.0
173
     0
291
     0
 45
0.0
1001
ACAD
1000
AcDbSavedByObjectVersion
1070
     0
  0
VISUALSTYLE
  5
16EE
102
{ACAD_XDICTIONARY
360
17D3
102
}
102
{ACAD_REACTORS
330
2B4
102
}
330
2B4
100
AcDbVisualStyle
  2
JitterOff
 70
    20
 71
     2
 72
     2
 73
     0
 90
        0
 40
-0.6
 41
-30.0
 62
     5
 63
     7
 74
     1
 91
        4
 64
     7
 65
   257
 75
     1
175
     1
 42
1.0
 92
       10
 66
     7
 43
1.0
 76
     1
 77
     6
 78
     2
 67
     7
 79
     5
170
     0
171
     0
290
     0
174
     0
 93
        1
 44
0.0
173
     0
291
     1
 45
0.0
1001
ACAD
1000
AcDbSavedByObjectVersion
1070
     0
  0
VISUALSTYLE
  5
2C2
102
{ACAD_XDICTIONARY
360
17B1
102
}
102
{ACAD_REACTORS
330
2B4
102
}
330
2B4
100
AcDbVisualStyle
  2
Linepattern
 70
    14
 71
     2
 72
     2
 73
     0
 90
        0
 40
-0.6
 41
-30.0
 62
     5
 63
     7
 74
     1
 91
        4
 64
     7
 65
   257
 75
     7
175
     7
 42
1.0
 92
        8
 66
     7
 43
1.0
 76
     1
 77
     6
 78
     2
 67
     7
 79
     5
170
     0
171
     0
290
     0
174
     0
 93
        1
 44
0.0
173
     0
291
     1
 45
0.0
1001
ACAD
1000
AcDbSavedByObjectVersion
1070
     0
  0
VISUALSTYLE
  5
16EF
102
{ACAD_XDICTIONARY
360
17D5
102
}
102
{ACAD_REACTORS
330
2B4
102
}
330
2B4
100
AcDbVisualStyle
  2
OverhangOff
 70
    21
 71
     2
 72
     2
 73
     0
 90
        0
 40
-0.6
 41
-30.0
 62
     5
 63
     7
 74
     1
 91
        4
 64
     7
 65
   257
 75
     1
175
     1
 42
1.0
 92
        9
 66
     7
 43
1.0
 76
     1
 77
     6
 78
     2
 67
     7
 79
     5
170
     0
171
     0
290
     0
174
     0
 93
        1
 44
0.0
173
     0
291
     1
 45
0.0
1001
ACAD
1000
AcDbSavedByObjectVersion
1070
     0
  0
VISUALSTYLE
  5
2BE
102
{ACAD_XDICTIONARY
360
17A9
102
}
102
{ACAD_REACTORS
330
2B4
102
}
330
2B4
100
AcDbVisualStyle
  2
Realistic
 70
     8
 71
     2
 72
     2
 73
     0
 90
        0
 40
-0.6
 41
-30.0
 62
     5
 63
     7
 74
     1
 91
        0
 64
     7
 65
   257
 75
     1
175
     1
 42
1.0
 92
        8
 66
     8
 43
1.0
 76
     1
 77
     6
 78
     2
 67
     7
 79
     5
170
     0
171
     0
290
     0
174
     0
 93
       13
 44
0.0
173
     0
291
     0
 45
0.0
1001
ACAD
1000
AcDbSavedByObjectVersion
1070
     0
  0
VISUALSTYLE
  5
16ED
102
{ACAD_XDICTIONARY
360
17D1
102
}
102
{ACAD_REACTORS
330
2B4
102
}
330
2B4
100
AcDbVisualStyle
  2
Shaded
 70
    27
 71
     2
 72
     2
 73
     1
 90
        2
 40
-0.6
 41
30.0
 62
     5
 63
     7
 74
     0
 91
        4
 64
     7
 65
   257
 75
     1
175
     1
 42
1.0
 92
        8
 66
   257
 43
1.0
 76
     1
 77
     6
 78
     2
 67
     8
 79
     3
170
     0
171
     0
290
     0
174
     0
 93
        5
 44
0.0
173
     0
291
     0
 45
0.0
1001
ACAD
1000
AcDbSavedByObjectVersion
1070
     0
  0
VISUALSTYLE
  5
16EC
102
{ACAD_XDICTIONARY
360
17CF
102
}
102
{ACAD_REACTORS
330
2B4
102
}
330
2B4
100
AcDbVisualStyle
  2
Shaded with edges
 70
    26
 71
     2
 72
     2
 73
     1
 90
        2
 40
-0.6
 41
30.0
 62
     5
 63
     7
 74
     1
 91
       10
 64
     7
 65
   257
 75
     2
175
     1
 42
1.0
 92
        8
 66
   257
 43
1.0
 76
     1
 77
     6
 78
     2
 67
     7
 79
     3
170
     0
171
     0
290
     0
174
     0
 93
        5
 44
0.0
173
     0
291
     0
 45
0.0
1001
ACAD
1000
AcDbSavedByObjectVersion
1070
     0
  0
VISUALSTYLE
  5
16E9
102
{ACAD_XDICTIONARY
360
17C9
102
}
102
{ACAD_REACTORS
330
2B4
102
}
330
2B4
100
AcDbVisualStyle
  2
Shades of Gray
 70
    23
 71
     2
 72
     2
 73
     3
 90
        0
 40
-0.6
 41
-30.0
 62
     5
 63
     7
 74
     2
 91
        2
 64
     7
 65
     7
 75
     1
175
     1
 42
40.0
 92
        8
 66
     7
 43
1.0
 76
     1
 77
     6
 78
     2
 67
     7
 79
     3
170
     0
171
     0
290
     0
174
     0
 93
        1
 44
0.0
173
     0
291
     0
 45
0.0
1001
ACAD
1000
AcDbSavedByObjectVersion
1070
     0
  0
VISUALSTYLE
  5
16EA
102
{ACAD_XDICTIONARY
360
17CB
102
}
102
{ACAD_REACTORS
330
2B4
102
}
330
2B4
100
AcDbVisualStyle
  2
Sketchy
 70
    24
 71
     1
 72
     2
 73
     2
 90
        0
 40
-0.6
 41
-30.0
 62
     5
 63
     7
 74
     2
 91
        2
 64
     7
 65
     7
 75
     1
175
     1
 42
40.0
 92
       11
 66
     7
 43
1.0
 76
     1
 77
     6
 78
     2
 67
     7
 79
     6
170
     0
171
     0
290
     0
174
     0
 93
        1
 44
0.0
173
     0
291
     0
 45
0.0
1001
ACAD
1000
AcDbSavedByObjectVersion
1070
     0
  0
VISUALSTYLE
  5
2C1
102
{ACAD_XDICTIONARY
360
17AF
102
}
102
{ACAD_REACTORS
330
2B4
102
}
330
2B4
100
AcDbVisualStyle
  2
Thicken
 70
    13
 71
     2
 72
     2
 73
     0
 90
        0
 40
-0.6
 41
-30.0
 62
     5
 63
     7
 74
     1
 91
        4
 64
     7
 65
   257
 75
     1
175
     1
 42
1.0
 92
       12
 66
     7
 43
1.0
 76
     1
 77
     6
 78
     2
 67
     7
 79
     5
170
     0
171
     0
290
     0
174
     0
 93
        1
 44
0.0
173
     0
291
     1
 45
0.0
1001
ACAD
1000
AcDbSavedByObjectVersion
1070
     0
  0
VISUALSTYLE
  5
16E7
102
{ACAD_XDICTIONARY
360
17C5
102
}
102
{ACAD_REACTORS
330
2B4
102
}
330
2B4
100
AcDbVisualStyle
  2
Wireframe
 70
     5
 71
     0
 72
     2
 73
     0
 90
        0
 40
-0.6
 41
-30.0
 62
     5
 63
     7
 74
     1
 91
        4
 64
     7
 65
   257
 75
     1
175
     1
 42
1.0
 92
        0
 66
   257
 43
1.0
 76
     1
 77
     6
 78
     2
 67
     7
 79
     3
170
     0
171
     0
290
     0
174
     0
 93
        1
 44
0.0
173
     0
291
     0
 45
0.0
1001
ACAD
1000
AcDbSavedByObjectVersion
1070
     0
  0
VISUALSTYLE
  5
16EB
102
{ACAD_XDICTIONARY
360
17CD
102
}
102
{ACAD_REACTORS
330
2B4
102
}
330
2B4
100
AcDbVisualStyle
  2
X-Ray
 70
    25
 71
     2
 72
     2
 73
     1
 90
        1
 40
0.5
 41
-30.0
 62
     5
 63
     7
 74
     1
 91
        0
 64
     7
 65
   257
 75
     1
175
     1
 42
1.0
 92
        8
 66
     7
 43
1.0
 76
     1
 77
     6
 78
     2
 67
     7
 79
     3
170
     0
171
     0
290
     0
174
     0
 93
       13
 44
0.0
173
     0
291
     0
 45
0.0
1001
ACAD
1000
AcDbSavedByObjectVersion
1070
     0
  0
DICTIONARYVAR
  5
36B
102
{ACAD_REACTORS
330
2AA
102
}
330
2AA
100
DictionaryVariables
280
     0
  1
1:1
  0
DICTIONARYVAR
  5
369
102
{ACAD_REACTORS
330
2AA
102
}
330
2AA
100
DictionaryVariables
280
     0
  1
STANDARD
  0
DICTIONARYVAR
  5
312
102
{ACAD_REACTORS
330
2AA
102
}
330
2AA
100
DictionaryVariables
280
     0
  1
STANDARD
  0
DICTIONARYVAR
  5
2AB
102
{ACAD_REACTORS
330
2AA
102
}
330
2AA
100
DictionaryVariables
280
     0
  1
2
  0
DICTIONARYVAR
  5
13B3
102
{ACAD_REACTORS
330
2AA
102
}
330
2AA
100
DictionaryVariables
280
     0
  1
0
  0
DICTIONARYVAR
  5
314
102
{ACAD_REACTORS
330
2AA
102
}
330
2AA
100
DictionaryVariables
280
     0
  1
0
  0
DICTIONARYVAR
  5
13B5
102
{ACAD_REACTORS
330
2AA
102
}
330
2AA
100
DictionaryVariables
280
     0
  1
1
  0
DICTIONARYVAR
  5
13B6
102
{ACAD_REACTORS
330
2AA
102
}
330
2AA
100
DictionaryVariables
280
     0
  1
15
  0
DICTIONARYVAR
  5
36C
102
{ACAD_REACTORS
330
2AA
102
}
330
2AA
100
DictionaryVariables
280
     0
  1
0
  0
DICTIONARYVAR
  5
13B4
102
{ACAD_REACTORS
330
2AA
102
}
330
2AA
100
DictionaryVariables
280
     0
  1
10.000000
  0
DICTIONARYVAR
  5
36A
102
{ACAD_REACTORS
330
2AA
102
}
330
2AA
100
DictionaryVariables
280
     0
  1
0
  0
DICTIONARYVAR
  5
313
102
{ACAD_REACTORS
330
2AA
102
}
330
2AA
100
DictionaryVariables
280
     0
  1
127
  0
DICTIONARYVAR
  5
1785
102
{ACAD_REACTORS
330
2AA
102
}
330
2AA
100
DictionaryVariables
280
     0
  1
0
  0
XRECORD
  5
51
102
{ACAD_REACTORS
330
50
102
}
330
50
100
AcDbXrecord
280
     1
 91
        0
  0
ACAD_PROXY_OBJECT
  5
6DA
102
{ACAD_REACTORS
330
6D9
102
}
330
6D9
100
AcDbProxyObject
 90
      499
 91
      512
 95
  3276827
 70
     0
 93
      153
310
407907440045004600410055004C0054007A00CC
 94
        0
1001
ACAD
1000
AcRTDxfName
1000
ACDBQSCATEGORY
  0
ACAD_PROXY_OBJECT
  5
6EC
102
{ACAD_REACTORS
330
6EB
102
}
330
6EB
100
AcDbProxyObject
 90
      499
 91
      513
 95
  3276827
 70
     0
 93
     2908
310
40B520280D55480A0281203520280A0280C0000000000000A200000000000000448080C00000000000019200000000000000688120280A0280A0E88008A008C008200AA009800A80082280027802980170020E88008A008C008200AA009800A80080A180202860120C86009E008800920086008A008A220024802680228027
310
00298024802780270024802F8022002480268018801680220024802680190024EA2007400B800A200A600BE00A4008A00A8008A00B80082009A00840092008A009C00A8009200B800A8009E00A000BE00880092008A00A400A4008A00B800A8008200840060005C008800AE008E0095A8801D002E00288029802F802900228
310
02A0022802E002080268021002480228027002A0024802E002A00278028002F802200248022802900290022802E002A00278028002F802800208026002600170022002B80238020C86009E008800920086008A0085A200228029802180290024802D00248027802700228050413C
 94
        0
1001
ACAD
1000
AcRTDxfName
1000
ACDBQSPALLSTYLE
  0
XRECORD
  5
16E2
102
{ACAD_REACTORS
330
16DB
102
}
330
16DB
100
AcDbXrecord
280
     1
  9
X2267
  0
XRECORD
  5
16DE
102
{ACAD_REACTORS
330
16DB
102
}
330
16DB
100
AcDbXrecord
280
     1
  2
.1
  3
P-4FAA
  6
X2267
280
     1
310
6465736372697A696F6E65002E3100444154410030342F30382F30390064697365676E61746F7265004D6172636F20412E00717461003100554D004E52005245560030005343414C4100313A310000
 10
0.0
 20
0.0
 30
0.0
  0
XRECORD
  5
16DC
102
{ACAD_REACTORS
330
16DB
102
}
330
16DB
100
AcDbXrecord
280
     1
  2
PROFIL.Q30-PANN.ASPORT./ARG.
  3
P-0000
280
     1
310
6465736372697A696F6E650050524F46494C2E5133302D50414E4E2E4153504F52542E2F4152472E00444154410030342F30382F303900554D004D4C0052455600300044495345474E41544F5245004D6172636F20412E005343414C4100313A3130005452415454414D454E544900414E4F442E415247454E544F005154410031004D4154455249414C4500414C4C554D494E494F00434F444943450058423235353333002E666D7400340000
 10
0.0
 20
0.0
 30
0.0
  0
XRECORD
  5
16DD
102
{ACAD_REACTORS
330
16DB
102
}
330
16DB
100
AcDbXrecord
280
     1
  2
.cart
  3
P-1437
  6
X2267
280
     1
310
6465736372697A696F6E65002E6361727400444154410030342F30382F30390064697365676E61746F7265004D6172636F20412E00717461003100554D004E52005245560030005343414C4100313A31300000
 10
0.0
 20
0.0
 30
0.0
  0
XRECORD
  5
16DF
102
{ACAD_REACTORS
330
16DB
102
}
330
16DB
100
AcDbXrecord
280
     1
  2
PROF.Q30 PANN.ASP. ALL.ANOD.ARG.
  3
P-536E
  6
X2267
280
     2
310
6465736372697A696F6E650050524F462E5133302050414E4E2E4153502E20414C4C2E414E4F442E4152472E00444154410030362F30382F30390064697365676E61746F7265004D6172636F20412E00717461003100554D004D4C0052455600300044494D3100313030300044494D454E53494F4E495F44494D312D44494D3200313030300024736F7572636500416E61677261666963612047657374696F6E616C6500434F444943450058423235353333005452415454414D454E544900414E4F442E415247454E544F004E4F544500414E5449434F524F44414C204C454741363036302F554E49203930303631004D4154455249414C4500414C4C554D
311
494E494F0000
 10
1165.060169897413
 20
1712.451612161317
 30
0.0
  0
XRECORD
  5
16E0
102
{ACAD_REACTORS
330
16DB
102
}
330
16DB
100
AcDbXrecord
280
     1
  2
ROND.RAGG.(XVTC CR.) M5 /R.7039
  3
P-42A1
  6
X396f
280
     1
310
6465736372697A696F6E6500524F4E442E524147472E28585654432043522E29204D35202F522E3730333900444154410030332F31322F30390064697365676E61746F7265004D6172636F20412E00717461003100554D004E52005245560030004445534352495A494F4E453200303339430024736F7572636500416E61677261666963612047657374696F6E616C6500434F44494345005846353236303547004D4154455249414C45004E594C4F4E0000
 10
0.0000000000002274
 20
-30.0
 30
0.0
  0
XRECORD
  5
16E1
102
{ACAD_REACTORS
330
16DB
102
}
330
16DB
100
AcDbXrecord
280
     1
  2
INSERTO FIL.M 5 TFL/ZIGRINATO
  3
P-386F
  6
X396f
280
     1
310
6465736372697A696F6E6500494E534552544F2046494C2E4D20352054464C2F5A494752494E41544F00444154410030332F31322F30390064697365676E61746F7265004D6172636F20412E00717461003100554D004E52005245560030004445534352495A494F4E453200303839420024736F7572636500416E61677261666963612047657374696F6E616C6500434F444943450058433135323035004D4154455249414C4500414C4C554D494E494F0000
 10
0.0000000000002274
 20
-30.0
 30
0.0
  0
XRECORD
  5
6E1
102
{ACAD_REACTORS
330
6E0
102
}
330
6E0
100
AcDbXrecord
280
     1
 90
      202
 91
      144
  0
DICTIONARY
  5
178F
330
48
100
AcDbDictionary
280
     1
281
     1
  3
ACAD_XREC_ROUNDTRIP
360
1790
  0
DICTIONARY
  5
178D
330
47
100
AcDbDictionary
280
     1
281
     1
  3
ACAD_XREC_ROUNDTRIP
360
178E
  0
DICTIONARY
  5
1793
330
2B2
100
AcDbDictionary
280
     1
281
     1
  3
ACAD_XREC_ROUNDTRIP
360
1794
  0
DICTIONARY
  5
1791
330
2B1
100
AcDbDictionary
280
     1
281
     1
  3
ACAD_XREC_ROUNDTRIP
360
1792
  0
DICTIONARY
  5
1795
330
2B3
100
AcDbDictionary
280
     1
281
     1
  3
ACAD_XREC_ROUNDTRIP
360
1796
  0
DICTIONARY
  5
17BB
330
1670
100
AcDbDictionary
280
     1
281
     1
  3
ACAD_XREC_ROUNDTRIP
360
17BC
  0
DICTIONARY
  5
17BD
330
1671
100
AcDbDictionary
280
     1
281
     1
  3
ACAD_XREC_ROUNDTRIP
360
17BE
  0
DICTIONARY
  5
17BF
330
1672
100
AcDbDictionary
280
     1
281
     1
  3
ACAD_XREC_ROUNDTRIP
360
17C0
  0
DICTIONARY
  5
17C1
330
1673
100
AcDbDictionary
280
     1
281
     1
  3
ACAD_XREC_ROUNDTRIP
360
17C2
  0
DICTIONARY
  5
17C3
330
1674
100
AcDbDictionary
280
     1
281
     1
  3
ACAD_XREC_ROUNDTRIP
360
17C4
  0
DICTIONARY
  5
A06
330
A05
100
AcDbDictionary
280
     1
281
     1
  3
ACAD_ROUNDTRIP_2008_TABLESTYLE_CELLSTYLEMAP
360
1787
  3
ACAD_XREC_ROUNDTRIP
360
17B9
  0
DICTIONARY
  5
A08
330
A07
100
AcDbDictionary
280
     1
281
     1
  3
ACAD_ROUNDTRIP_2008_TABLESTYLE_CELLSTYLEMAP
360
1788
  3
ACAD_XREC_ROUNDTRIP
360
17BA
  0
DICTIONARY
  5
362
330
2C7
100
AcDbDictionary
280
     1
281
     1
  3
ACAD_ROUNDTRIP_2008_TABLESTYLE_CELLSTYLEMAP
360
1786
  3
ACAD_XREC_ROUNDTRIP
360
17B7
  0
DICTIONARY
  5
17A1
330
2BA
100
AcDbDictionary
280
     1
281
     1
  3
ACAD_XREC_ROUNDTRIP
360
17A2
  0
DICTIONARY
  5
17A5
330
2BC
100
AcDbDictionary
280
     1
281
     1
  3
ACAD_XREC_ROUNDTRIP
360
17A6
  0
DICTIONARY
  5
17A3
330
2BB
100
AcDbDictionary
280
     1
281
     1
  3
ACAD_XREC_ROUNDTRIP
360
17A4
  0
DICTIONARY
  5
179F
330
2B9
100
AcDbDictionary
280
     1
281
     1
  3
ACAD_XREC_ROUNDTRIP
360
17A0
  0
DICTIONARY
  5
17AD
330
2C0
100
AcDbDictionary
280
     1
281
     1
  3
ACAD_XREC_ROUNDTRIP
360
17AE
  0
DICTIONARY
  5
17B5
330
2C4
100
AcDbDictionary
280
     1
281
     1
  3
ACAD_XREC_ROUNDTRIP
360
17B6
  0
DICTIONARY
  5
17A7
330
2BD
100
AcDbDictionary
280
     1
281
     1
  3
ACAD_XREC_ROUNDTRIP
360
17A8
  0
DICTIONARY
  5
17AB
330
2BF
100
AcDbDictionary
280
     1
281
     1
  3
ACAD_XREC_ROUNDTRIP
360
17AC
  0
DICTIONARY
  5
17D7
330
16F0
100
AcDbDictionary
280
     1
281
     1
  3
ACAD_XREC_ROUNDTRIP
360
17D8
  0
DICTIONARY
  5
17B3
330
2C3
100
AcDbDictionary
280
     1
281
     1
  3
ACAD_XREC_ROUNDTRIP
360
17B4
  0
DICTIONARY
  5
1797
330
2B5
100
AcDbDictionary
280
     1
281
     1
  3
ACAD_XREC_ROUNDTRIP
360
1798
  0
DICTIONARY
  5
1799
330
2B6
100
AcDbDictionary
280
     1
281
     1
  3
ACAD_XREC_ROUNDTRIP
360
179A
  0
DICTIONARY
  5
179B
330
2B7
100
AcDbDictionary
280
     1
281
     1
  3
ACAD_XREC_ROUNDTRIP
360
179C
  0
DICTIONARY
  5
179D
330
2B8
100
AcDbDictionary
280
     1
281
     1
  3
ACAD_XREC_ROUNDTRIP
360
179E
  0
DICTIONARY
  5
17C7
330
16E8
100
AcDbDictionary
280
     1
281
     1
  3
ACAD_XREC_ROUNDTRIP
360
17C8
  0
DICTIONARY
  5
17D3
330
16EE
100
AcDbDictionary
280
     1
281
     1
  3
ACAD_XREC_ROUNDTRIP
360
17D4
  0
DICTIONARY
  5
17B1
330
2C2
100
AcDbDictionary
280
     1
281
     1
  3
ACAD_XREC_ROUNDTRIP
360
17B2
  0
DICTIONARY
  5
17D5
330
16EF
100
AcDbDictionary
280
     1
281
     1
  3
ACAD_XREC_ROUNDTRIP
360
17D6
  0
DICTIONARY
  5
17A9
330
2BE
100
AcDbDictionary
280
     1
281
     1
  3
ACAD_XREC_ROUNDTRIP
360
17AA
  0
DICTIONARY
  5
17D1
330
16ED
100
AcDbDictionary
280
     1
281
     1
  3
ACAD_XREC_ROUNDTRIP
360
17D2
  0
DICTIONARY
  5
17CF
330
16EC
100
AcDbDictionary
280
     1
281
     1
  3
ACAD_XREC_ROUNDTRIP
360
17D0
  0
DICTIONARY
  5
17C9
330
16E9
100
AcDbDictionary
280
     1
281
     1
  3
ACAD_XREC_ROUNDTRIP
360
17CA
  0
DICTIONARY
  5
17CB
330
16EA
100
AcDbDictionary
280
     1
281
     1
  3
ACAD_XREC_ROUNDTRIP
360
17CC
  0
DICTIONARY
  5
17AF
330
2C1
100
AcDbDictionary
280
     1
281
     1
  3
ACAD_XREC_ROUNDTRIP
360
17B0
  0
DICTIONARY
  5
17C5
330
16E7
100
AcDbDictionary
280
     1
281
     1
  3
ACAD_XREC_ROUNDTRIP
360
17C6
  0
DICTIONARY
  5
17CD
330
16EB
100
AcDbDictionary
280
     1
281
     1
  3
ACAD_XREC_ROUNDTRIP
360
17CE
  0
XRECORD
  5
1790
102
{ACAD_REACTORS
330
178F
102
}
330
178F
100
AcDbXrecord
280
     1
102
SHADEPLOT
 70
     0
102
SHADEPLOTRESLEVEL
 70
     2
102
SHADEPLOTCUSTOMDPI
 70
   300
  0
XRECORD
  5
178E
102
{ACAD_REACTORS
330
178D
102
}
330
178D
100
AcDbXrecord
280
     1
102
SHADEPLOT
 70
     0
102
SHADEPLOTRESLEVEL
 70
     2
102
SHADEPLOTCUSTOMDPI
 70
   300
  0
XRECORD
  5
1794
102
{ACAD_REACTORS
330
1793
102
}
330
1793
100
AcDbXrecord
280
     1
102
MATERIAL
148
0.0
149
0.0
149
0.0
 93
        0
 94
       63
282
     0
 72
     1
 77
     1
171
     1
175
     1
179
     1
273
     0
  0
XRECORD
  5
1792
102
{ACAD_REACTORS
330
1791
102
}
330
1791
100
AcDbXrecord
280
     1
102
MATERIAL
148
0.0
149
0.0
149
0.0
 93
        0
 94
       63
282
     0
 72
     1
 77
     1
171
     1
175
     1
179
     1
273
     0
  0
XRECORD
  5
1796
102
{ACAD_REACTORS
330
1795
102
}
330
1795
100
AcDbXrecord
280
     1
102
MATERIAL
148
0.0
149
0.0
149
0.0
 93
        0
 94
       63
282
     0
 72
     1
 77
     1
171
     1
175
     1
179
     1
273
     0
  0
XRECORD
  5
17BC
102
{ACAD_REACTORS
330
17BB
102
}
330
17BB
100
AcDbXrecord
280
     1
102
SHADEPLOT
 70
     0
102
SHADEPLOTRESLEVEL
 70
     2
102
SHADEPLOTCUSTOMDPI
 70
   300
  0
XRECORD
  5
17BE
102
{ACAD_REACTORS
330
17BD
102
}
330
17BD
100
AcDbXrecord
280
     1
102
SHADEPLOT
 70
     0
102
SHADEPLOTRESLEVEL
 70
     2
102
SHADEPLOTCUSTOMDPI
 70
   300
  0
XRECORD
  5
17C0
102
{ACAD_REACTORS
330
17BF
102
}
330
17BF
100
AcDbXrecord
280
     1
102
SHADEPLOT
 70
     0
102
SHADEPLOTRESLEVEL
 70
     2
102
SHADEPLOTCUSTOMDPI
 70
   300
  0
XRECORD
  5
17C2
102
{ACAD_REACTORS
330
17C1
102
}
330
17C1
100
AcDbXrecord
280
     1
102
SHADEPLOT
 70
     0
102
SHADEPLOTRESLEVEL
 70
     2
102
SHADEPLOTCUSTOMDPI
 70
   300
  0
XRECORD
  5
17C4
102
{ACAD_REACTORS
330
17C3
102
}
330
17C3
100
AcDbXrecord
280
     1
102
SHADEPLOT
 70
     0
102
SHADEPLOTRESLEVEL
 70
     2
102
SHADEPLOTCUSTOMDPI
 70
   300
  0
CELLSTYLEMAP
  5
1787
102
{ACAD_REACTORS
330
A06
102
}
330
A06
100
AcDbCellStyleMap
 90
        3
300
CELLSTYLE
  1
TABLEFORMAT_BEGIN
 90
        5
170
     1
 91
        0
 92
    32768
 62
   257
 93
        1
300
CONTENTFORMAT
  1
CONTENTFORMAT_BEGIN
 90
        0
 91
        0
 92
      512
 93
        0
300

 40
0.0
140
1.0
 94
        5
 62
     1
340
1B
144
6.0
309
CONTENTFORMAT_END
171
     1
301
MARGIN
  1
CELLMARGIN_BEGIN
 40
1.5
 40
1.5
 40
1.5
 40
1.5
 40
0.18
 40
0.18
309
CELLMARGIN_END
 94
        6
 95
        1
302
GRIDFORMAT
  1
GRIDFORMAT_BEGIN
 90
        0
 91
        1
 62
     0
 92
       -2
340
0
 93
        0
 40
0.045
309
GRIDFORMAT_END
 95
        2
302
GRIDFORMAT
  1
GRIDFORMAT_BEGIN
 90
        0
 91
        1
 62
     0
 92
       -2
340
0
 93
        0
 40
0.045
309
GRIDFORMAT_END
 95
        4
302
GRIDFORMAT
  1
GRIDFORMAT_BEGIN
 90
        0
 91
        1
 62
     0
 92
       -2
340
0
 93
        0
 40
0.045
309
GRIDFORMAT_END
 95
        8
302
GRIDFORMAT
  1
GRIDFORMAT_BEGIN
 90
        0
 91
        1
 62
     0
 92
       -2
340
0
 93
        0
 40
0.045
309
GRIDFORMAT_END
 95
       16
302
GRIDFORMAT
  1
GRIDFORMAT_BEGIN
 90
        0
 91
        1
 62
     0
 92
       -2
340
0
 93
        0
 40
0.045
309
GRIDFORMAT_END
 95
       32
302
GRIDFORMAT
  1
GRIDFORMAT_BEGIN
 90
        0
 91
        1
 62
     0
 92
       -2
340
0
 93
        0
 40
0.045
309
GRIDFORMAT_END
309
TABLEFORMAT_END
  1
CELLSTYLE_BEGIN
 90
        1
 91
        1
300
_TITLE
309
CELLSTYLE_END
300
CELLSTYLE
  1
TABLEFORMAT_BEGIN
 90
        5
170
     1
 91
        0
 92
        0
 62
   257
 93
        1
300
CONTENTFORMAT
  1
CONTENTFORMAT_BEGIN
 90
        0
 91
        0
 92
      512
 93
        0
300

 40
0.0
140
1.0
 94
        5
 62
     3
340
1B
144
3.5
309
CONTENTFORMAT_END
171
     1
301
MARGIN
  1
CELLMARGIN_BEGIN
 40
1.5
 40
1.5
 40
1.5
 40
1.5
 40
0.18
 40
0.18
309
CELLMARGIN_END
 94
        6
 95
        1
302
GRIDFORMAT
  1
GRIDFORMAT_BEGIN
 90
        0
 91
        1
 62
     0
 92
       -2
340
0
 93
        0
 40
0.045
309
GRIDFORMAT_END
 95
        2
302
GRIDFORMAT
  1
GRIDFORMAT_BEGIN
 90
        0
 91
        1
 62
     0
 92
       -2
340
0
 93
        0
 40
0.045
309
GRIDFORMAT_END
 95
        4
302
GRIDFORMAT
  1
GRIDFORMAT_BEGIN
 90
        0
 91
        1
 62
     0
 92
       -2
340
0
 93
        0
 40
0.045
309
GRIDFORMAT_END
 95
        8
302
GRIDFORMAT
  1
GRIDFORMAT_BEGIN
 90
        0
 91
        1
 62
     0
 92
       -2
340
0
 93
        0
 40
0.045
309
GRIDFORMAT_END
 95
       16
302
GRIDFORMAT
  1
GRIDFORMAT_BEGIN
 90
        0
 91
        1
 62
     0
 92
       -2
340
0
 93
        0
 40
0.045
309
GRIDFORMAT_END
 95
       32
302
GRIDFORMAT
  1
GRIDFORMAT_BEGIN
 90
        0
 91
        1
 62
     0
 92
       -2
340
0
 93
        0
 40
0.045
309
GRIDFORMAT_END
309
TABLEFORMAT_END
  1
CELLSTYLE_BEGIN
 90
        2
 91
        1
300
_HEADER
309
CELLSTYLE_END
300
CELLSTYLE
  1
TABLEFORMAT_BEGIN
 90
        5
170
     1
 91
        0
 92
        0
 62
   257
 93
        1
300
CONTENTFORMAT
  1
CONTENTFORMAT_BEGIN
 90
        0
 91
        0
 92
      512
 93
        0
300

 40
0.0
140
1.0
 94
        5
 62
     7
340
1B
144
3.0
309
CONTENTFORMAT_END
171
     1
301
MARGIN
  1
CELLMARGIN_BEGIN
 40
1.5
 40
1.5
 40
1.5
 40
1.5
 40
0.18
 40
0.18
309
CELLMARGIN_END
 94
        6
 95
        1
302
GRIDFORMAT
  1
GRIDFORMAT_BEGIN
 90
        0
 91
        1
 62
     0
 92
       -2
340
0
 93
        0
 40
0.045
309
GRIDFORMAT_END
 95
        2
302
GRIDFORMAT
  1
GRIDFORMAT_BEGIN
 90
        0
 91
        1
 62
     0
 92
       -2
340
0
 93
        0
 40
0.045
309
GRIDFORMAT_END
 95
        4
302
GRIDFORMAT
  1
GRIDFORMAT_BEGIN
 90
        0
 91
        1
 62
     0
 92
       -2
340
0
 93
        0
 40
0.045
309
GRIDFORMAT_END
 95
        8
302
GRIDFORMAT
  1
GRIDFORMAT_BEGIN
 90
        0
 91
        1
 62
     0
 92
       -2
340
0
 93
        0
 40
0.045
309
GRIDFORMAT_END
 95
       16
302
GRIDFORMAT
  1
GRIDFORMAT_BEGIN
 90
        0
 91
        1
 62
     0
 92
       -2
340
0
 93
        0
 40
0.045
309
GRIDFORMAT_END
 95
       32
302
GRIDFORMAT
  1
GRIDFORMAT_BEGIN
 90
        0
 91
        1
 62
     0
 92
       -2
340
0
 93
        0
 40
0.045
309
GRIDFORMAT_END
309
TABLEFORMAT_END
  1
CELLSTYLE_BEGIN
 90
        3
 91
        2
300
_DATA
309
CELLSTYLE_END
  0
XRECORD
  5
17B9
102
{ACAD_REACTORS
330
A06
102
}
330
A06
100
AcDbXrecord
280
     1
102
ACAD_ROUNDTRIP_PRE2007_TABLESTYLE
 90
      512
 91
        0
  1

 92
      512
 93
        0
  2

 94
      512
 95
        0
  3

  0
CELLSTYLEMAP
  5
1788
102
{ACAD_REACTORS
330
A08
102
}
330
A08
100
AcDbCellStyleMap
 90
        3
300
CELLSTYLE
  1
TABLEFORMAT_BEGIN
 90
        5
170
     1
 91
        0
 92
    32768
 62
   257
 93
        1
300
CONTENTFORMAT
  1
CONTENTFORMAT_BEGIN
 90
        0
 91
        0
 92
      512
 93
        0
300

 40
0.0
140
1.0
 94
        5
 62
     1
340
1B
144
6.0
309
CONTENTFORMAT_END
171
     1
301
MARGIN
  1
CELLMARGIN_BEGIN
 40
1.5
 40
1.5
 40
1.5
 40
1.5
 40
0.18
 40
0.18
309
CELLMARGIN_END
 94
        6
 95
        1
302
GRIDFORMAT
  1
GRIDFORMAT_BEGIN
 90
        0
 91
        1
 62
     0
 92
       -2
340
0
 93
        0
 40
0.045
309
GRIDFORMAT_END
 95
        2
302
GRIDFORMAT
  1
GRIDFORMAT_BEGIN
 90
        0
 91
        1
 62
     0
 92
       -2
340
0
 93
        0
 40
0.045
309
GRIDFORMAT_END
 95
        4
302
GRIDFORMAT
  1
GRIDFORMAT_BEGIN
 90
        0
 91
        1
 62
     0
 92
       -2
340
0
 93
        0
 40
0.045
309
GRIDFORMAT_END
 95
        8
302
GRIDFORMAT
  1
GRIDFORMAT_BEGIN
 90
        0
 91
        1
 62
     0
 92
       -2
340
0
 93
        0
 40
0.045
309
GRIDFORMAT_END
 95
       16
302
GRIDFORMAT
  1
GRIDFORMAT_BEGIN
 90
        0
 91
        1
 62
     0
 92
       -2
340
0
 93
        0
 40
0.045
309
GRIDFORMAT_END
 95
       32
302
GRIDFORMAT
  1
GRIDFORMAT_BEGIN
 90
        0
 91
        1
 62
     0
 92
       -2
340
0
 93
        0
 40
0.045
309
GRIDFORMAT_END
309
TABLEFORMAT_END
  1
CELLSTYLE_BEGIN
 90
        1
 91
        1
300
_TITLE
309
CELLSTYLE_END
300
CELLSTYLE
  1
TABLEFORMAT_BEGIN
 90
        5
170
     1
 91
        0
 92
        0
 62
   257
 93
        1
300
CONTENTFORMAT
  1
CONTENTFORMAT_BEGIN
 90
        0
 91
        0
 92
      512
 93
        0
300

 40
0.0
140
1.0
 94
        5
 62
     3
340
1B
144
5.0
309
CONTENTFORMAT_END
171
     1
301
MARGIN
  1
CELLMARGIN_BEGIN
 40
1.5
 40
1.5
 40
1.5
 40
1.5
 40
0.18
 40
0.18
309
CELLMARGIN_END
 94
        6
 95
        1
302
GRIDFORMAT
  1
GRIDFORMAT_BEGIN
 90
        0
 91
        1
 62
     0
 92
       -2
340
0
 93
        0
 40
0.045
309
GRIDFORMAT_END
 95
        2
302
GRIDFORMAT
  1
GRIDFORMAT_BEGIN
 90
        0
 91
        1
 62
     0
 92
       -2
340
0
 93
        0
 40
0.045
309
GRIDFORMAT_END
 95
        4
302
GRIDFORMAT
  1
GRIDFORMAT_BEGIN
 90
        0
 91
        1
 62
     0
 92
       -2
340
0
 93
        0
 40
0.045
309
GRIDFORMAT_END
 95
        8
302
GRIDFORMAT
  1
GRIDFORMAT_BEGIN
 90
        0
 91
        1
 62
     0
 92
       -2
340
0
 93
        0
 40
0.045
309
GRIDFORMAT_END
 95
       16
302
GRIDFORMAT
  1
GRIDFORMAT_BEGIN
 90
        0
 91
        1
 62
     0
 92
       -2
340
0
 93
        0
 40
0.045
309
GRIDFORMAT_END
 95
       32
302
GRIDFORMAT
  1
GRIDFORMAT_BEGIN
 90
        0
 91
        1
 62
     0
 92
       -2
340
0
 93
        0
 40
0.045
309
GRIDFORMAT_END
309
TABLEFORMAT_END
  1
CELLSTYLE_BEGIN
 90
        2
 91
        1
300
_HEADER
309
CELLSTYLE_END
300
CELLSTYLE
  1
TABLEFORMAT_BEGIN
 90
        5
170
     1
 91
        0
 92
        0
 62
   257
 93
        1
300
CONTENTFORMAT
  1
CONTENTFORMAT_BEGIN
 90
        0
 91
        0
 92
      512
 93
        0
300

 40
0.0
140
1.0
 94
        5
 62
     7
340
1B
144
4.5
309
CONTENTFORMAT_END
171
     1
301
MARGIN
  1
CELLMARGIN_BEGIN
 40
1.5
 40
1.5
 40
1.5
 40
1.5
 40
0.18
 40
0.18
309
CELLMARGIN_END
 94
        6
 95
        1
302
GRIDFORMAT
  1
GRIDFORMAT_BEGIN
 90
        0
 91
        1
 62
     0
 92
       -2
340
0
 93
        0
 40
0.045
309
GRIDFORMAT_END
 95
        2
302
GRIDFORMAT
  1
GRIDFORMAT_BEGIN
 90
        0
 91
        1
 62
     0
 92
       -2
340
0
 93
        0
 40
0.045
309
GRIDFORMAT_END
 95
        4
302
GRIDFORMAT
  1
GRIDFORMAT_BEGIN
 90
        0
 91
        1
 62
     0
 92
       -2
340
0
 93
        0
 40
0.045
309
GRIDFORMAT_END
 95
        8
302
GRIDFORMAT
  1
GRIDFORMAT_BEGIN
 90
        0
 91
        1
 62
     0
 92
       -2
340
0
 93
        0
 40
0.045
309
GRIDFORMAT_END
 95
       16
302
GRIDFORMAT
  1
GRIDFORMAT_BEGIN
 90
        0
 91
        1
 62
     0
 92
       -2
340
0
 93
        0
 40
0.045
309
GRIDFORMAT_END
 95
       32
302
GRIDFORMAT
  1
GRIDFORMAT_BEGIN
 90
        0
 91
        1
 62
     0
 92
       -2
340
0
 93
        0
 40
0.045
309
GRIDFORMAT_END
309
TABLEFORMAT_END
  1
CELLSTYLE_BEGIN
 90
        3
 91
        2
300
_DATA
309
CELLSTYLE_END
  0
XRECORD
  5
17BA
102
{ACAD_REACTORS
330
A08
102
}
330
A08
100
AcDbXrecord
280
     1
102
ACAD_ROUNDTRIP_PRE2007_TABLESTYLE
 90
      512
 91
        0
  1

 92
      512
 93
        0
  2

 94
      512
 95
        0
  3

  0
CELLSTYLEMAP
  5
1786
102
{ACAD_REACTORS
330
362
102
}
330
362
100
AcDbCellStyleMap
 90
        3
300
CELLSTYLE
  1
TABLEFORMAT_BEGIN
 90
        5
170
     1
 91
        0
 92
    32768
 62
   257
 93
        1
300
CONTENTFORMAT
  1
CONTENTFORMAT_BEGIN
 90
        0
 91
        0
 92
      512
 93
        0
300

 40
0.0
140
1.0
 94
        5
 62
     0
340
C
144
6.0
309
CONTENTFORMAT_END
171
     1
301
MARGIN
  1
CELLMARGIN_BEGIN
 40
1.5
 40
1.5
 40
1.5
 40
1.5
 40
0.18
 40
0.18
309
CELLMARGIN_END
 94
        6
 95
        1
302
GRIDFORMAT
  1
GRIDFORMAT_BEGIN
 90
        0
 91
        1
 62
     0
 92
       -2
340
0
 93
        0
 40
0.045
309
GRIDFORMAT_END
 95
        2
302
GRIDFORMAT
  1
GRIDFORMAT_BEGIN
 90
        0
 91
        1
 62
     0
 92
       -2
340
0
 93
        0
 40
0.045
309
GRIDFORMAT_END
 95
        4
302
GRIDFORMAT
  1
GRIDFORMAT_BEGIN
 90
        0
 91
        1
 62
     0
 92
       -2
340
0
 93
        0
 40
0.045
309
GRIDFORMAT_END
 95
        8
302
GRIDFORMAT
  1
GRIDFORMAT_BEGIN
 90
        0
 91
        1
 62
     0
 92
       -2
340
0
 93
        0
 40
0.045
309
GRIDFORMAT_END
 95
       16
302
GRIDFORMAT
  1
GRIDFORMAT_BEGIN
 90
        0
 91
        1
 62
     0
 92
       -2
340
0
 93
        0
 40
0.045
309
GRIDFORMAT_END
 95
       32
302
GRIDFORMAT
  1
GRIDFORMAT_BEGIN
 90
        0
 91
        1
 62
     0
 92
       -2
340
0
 93
        0
 40
0.045
309
GRIDFORMAT_END
309
TABLEFORMAT_END
  1
CELLSTYLE_BEGIN
 90
        1
 91
        1
300
_TITLE
309
CELLSTYLE_END
300
CELLSTYLE
  1
TABLEFORMAT_BEGIN
 90
        5
170
     1
 91
        0
 92
        0
 62
   257
 93
        1
300
CONTENTFORMAT
  1
CONTENTFORMAT_BEGIN
 90
        0
 91
        0
 92
      512
 93
        0
300

 40
0.0
140
1.0
 94
        5
 62
     0
340
C
144
4.5
309
CONTENTFORMAT_END
171
     1
301
MARGIN
  1
CELLMARGIN_BEGIN
 40
1.5
 40
1.5
 40
1.5
 40
1.5
 40
0.18
 40
0.18
309
CELLMARGIN_END
 94
        6
 95
        1
302
GRIDFORMAT
  1
GRIDFORMAT_BEGIN
 90
        0
 91
        1
 62
     0
 92
       -2
340
0
 93
        0
 40
0.045
309
GRIDFORMAT_END
 95
        2
302
GRIDFORMAT
  1
GRIDFORMAT_BEGIN
 90
        0
 91
        1
 62
     0
 92
       -2
340
0
 93
        0
 40
0.045
309
GRIDFORMAT_END
 95
        4
302
GRIDFORMAT
  1
GRIDFORMAT_BEGIN
 90
        0
 91
        1
 62
     0
 92
       -2
340
0
 93
        0
 40
0.045
309
GRIDFORMAT_END
 95
        8
302
GRIDFORMAT
  1
GRIDFORMAT_BEGIN
 90
        0
 91
        1
 62
     0
 92
       -2
340
0
 93
        0
 40
0.045
309
GRIDFORMAT_END
 95
       16
302
GRIDFORMAT
  1
GRIDFORMAT_BEGIN
 90
        0
 91
        1
 62
     0
 92
       -2
340
0
 93
        0
 40
0.045
309
GRIDFORMAT_END
 95
       32
302
GRIDFORMAT
  1
GRIDFORMAT_BEGIN
 90
        0
 91
        1
 62
     0
 92
       -2
340
0
 93
        0
 40
0.045
309
GRIDFORMAT_END
309
TABLEFORMAT_END
  1
CELLSTYLE_BEGIN
 90
        2
 91
        1
300
_HEADER
309
CELLSTYLE_END
300
CELLSTYLE
  1
TABLEFORMAT_BEGIN
 90
        5
170
     1
 91
        0
 92
        0
 62
   257
 93
        1
300
CONTENTFORMAT
  1
CONTENTFORMAT_BEGIN
 90
        0
 91
        0
 92
      512
 93
        0
300

 40
0.0
140
1.0
 94
        2
 62
     0
340
C
144
4.5
309
CONTENTFORMAT_END
171
     1
301
MARGIN
  1
CELLMARGIN_BEGIN
 40
1.5
 40
1.5
 40
1.5
 40
1.5
 40
0.18
 40
0.18
309
CELLMARGIN_END
 94
        6
 95
        1
302
GRIDFORMAT
  1
GRIDFORMAT_BEGIN
 90
        0
 91
        1
 62
     0
 92
       -2
340
0
 93
        0
 40
0.045
309
GRIDFORMAT_END
 95
        2
302
GRIDFORMAT
  1
GRIDFORMAT_BEGIN
 90
        0
 91
        1
 62
     0
 92
       -2
340
0
 93
        0
 40
0.045
309
GRIDFORMAT_END
 95
        4
302
GRIDFORMAT
  1
GRIDFORMAT_BEGIN
 90
        0
 91
        1
 62
     0
 92
       -2
340
0
 93
        0
 40
0.045
309
GRIDFORMAT_END
 95
        8
302
GRIDFORMAT
  1
GRIDFORMAT_BEGIN
 90
        0
 91
        1
 62
     0
 92
       -2
340
0
 93
        0
 40
0.045
309
GRIDFORMAT_END
 95
       16
302
GRIDFORMAT
  1
GRIDFORMAT_BEGIN
 90
        0
 91
        1
 62
     0
 92
       -2
340
0
 93
        0
 40
0.045
309
GRIDFORMAT_END
 95
       32
302
GRIDFORMAT
  1
GRIDFORMAT_BEGIN
 90
        0
 91
        1
 62
     0
 92
       -2
340
0
 93
        0
 40
0.045
309
GRIDFORMAT_END
309
TABLEFORMAT_END
  1
CELLSTYLE_BEGIN
 90
        3
 91
        2
300
_DATA
309
CELLSTYLE_END
  0
XRECORD
  5
17B7
102
{ACAD_REACTORS
330
362
102
}
330
362
100
AcDbXrecord
280
     1
102
ACAD_ROUNDTRIP_PRE2007_TABLESTYLE
 90
      512
 91
        0
  1

 92
      512
 93
        0
  2

 94
      512
 95
        0
  3

  0
XRECORD
  5
17A2
102
{ACAD_REACTORS
330
17A1
102
}
330
17A1
100
AcDbXrecord
280
     1
102
RTVSPropertyOp0
 70
     1
102
RTVSPropertyOp1
 70
     1
102
RTVSPropertyOp2
 70
     1
102
RTVSPropertyOp3
 70
     1
102
RTVSPropertyOp4
 70
     1
102
RTVSPropertyOp5
 70
     1
102
RTVSPropertyOp6
 70
     1
102
RTVSPropertyOp7
 70
     1
102
RTVSPropertyOp8
 70
     1
102
RTVSPropertyOp9
 70
     1
102
RTVSPropertyOp10
 70
     1
102
RTVSPropertyOp11
 70
     1
102
RTVSPropertyOp12
 70
     1
102
RTVSPropertyOp13
 70
     1
102
RTVSPropertyOp14
 70
     1
102
RTVSPropertyOp15
 70
     1
102
RTVSPropertyOp16
 70
     1
102
RTVSPropertyOp17
 70
     1
102
RTVSPropertyOp18
 70
     1
102
RTVSPropertyOp19
 70
     1
102
RTVSPropertyOp20
 70
     1
102
RTVSPropertyOp21
 70
     1
102
RTVSPropertyOp22
 70
     1
102
RTVSPropertyOp23
 70
     1
102
RTVSPropertyOp24
 70
     1
102
RTVSPropertyOp25
 70
     1
102
RTVSPropertyOp26
 70
     1
102
RTVSPropertyOp27
 70
     1
102
RTVSPropertyOp28
 70
     1
102
RTVSPropertyOp29
 70
     1
102
RTVSPropertyOp30
 70
     1
102
RTVSPropertyOp31
 70
     1
102
RTVSPropertyOp32
 70
     1
  0
XRECORD
  5
17A6
102
{ACAD_REACTORS
330
17A5
102
}
330
17A5
100
AcDbXrecord
280
     1
102
RTVSPropertyOp0
 70
     1
102
RTVSPropertyOp1
 70
     1
102
RTVSPropertyOp2
 70
     1
102
RTVSPropertyOp3
 70
     1
102
RTVSPropertyOp4
 70
     1
102
RTVSPropertyOp5
 70
     1
102
RTVSPropertyOp6
 70
     1
102
RTVSPropertyOp7
 70
     1
102
RTVSPropertyOp8
 70
     1
102
RTVSPropertyOp9
 70
     1
102
RTVSPropertyOp10
 70
     1
102
RTVSPropertyOp11
 70
     1
102
RTVSPropertyOp12
 70
     1
102
RTVSPropertyOp13
 70
     1
102
RTVSPropertyOp14
 70
     1
102
RTVSPropertyOp15
 70
     1
102
RTVSPropertyOp16
 70
     1
102
RTVSPropertyOp17
 70
     1
102
RTVSPropertyOp18
 70
     1
102
RTVSPropertyOp19
 70
     1
102
RTVSPropertyOp20
 70
     1
102
RTVSPropertyOp21
 70
     1
102
RTVSPropertyOp22
 70
     1
102
RTVSPropertyOp23
 70
     1
102
RTVSPropertyOp24
 70
     1
102
RTVSPropertyOp25
 70
     1
102
RTVSPropertyOp26
 70
     1
102
RTVSPropertyOp27
 70
     1
102
RTVSPropertyOp28
 70
     1
102
RTVSPropertyOp29
 70
     1
102
RTVSPropertyOp30
 70
     1
102
RTVSPropertyOp31
 70
     1
102
RTVSPropertyOp32
 70
     1
  0
XRECORD
  5
17A4
102
{ACAD_REACTORS
330
17A3
102
}
330
17A3
100
AcDbXrecord
280
     1
102
RTVSPropertyOp0
 70
     1
102
RTVSPropertyOp1
 70
     1
102
RTVSPropertyOp2
 70
     1
102
RTVSPropertyOp3
 70
     1
102
RTVSPropertyOp4
 70
     1
102
RTVSPropertyOp5
 70
     1
102
RTVSPropertyOp6
 70
     1
102
RTVSPropertyOp7
 70
     1
102
RTVSPropertyOp8
 70
     1
102
RTVSPropertyOp9
 70
     1
102
RTVSPropertyOp10
 70
     1
102
RTVSPropertyOp11
 70
     1
102
RTVSPropertyOp12
 70
     1
102
RTVSPropertyOp13
 70
     1
102
RTVSPropertyOp14
 70
     1
102
RTVSPropertyOp15
 70
     1
102
RTVSPropertyOp16
 70
     1
102
RTVSPropertyOp17
 70
     1
102
RTVSPropertyOp18
 70
     1
102
RTVSPropertyOp19
 70
     1
102
RTVSPropertyOp20
 70
     1
102
RTVSPropertyOp21
 70
     1
102
RTVSPropertyOp22
 70
     1
102
RTVSPropertyOp23
 70
     1
102
RTVSPropertyOp24
 70
     1
102
RTVSPropertyOp25
 70
     1
102
RTVSPropertyOp26
 70
     1
102
RTVSPropertyOp27
 70
     1
102
RTVSPropertyOp28
 70
     1
102
RTVSPropertyOp29
 70
     1
102
RTVSPropertyOp30
 70
     1
102
RTVSPropertyOp31
 70
     1
102
RTVSPropertyOp32
 70
     1
  0
XRECORD
  5
17A0
102
{ACAD_REACTORS
330
179F
102
}
330
179F
100
AcDbXrecord
280
     1
102
RTVSPropertyOp0
 70
     1
102
RTVSPropertyOp1
 70
     1
102
RTVSPropertyOp2
 70
     1
102
RTVSPropertyOp3
 70
     1
102
RTVSPropertyOp4
 70
     1
102
RTVSPropertyOp5
 70
     1
102
RTVSPropertyOp6
 70
     1
102
RTVSPropertyOp7
 70
     1
102
RTVSPropertyOp8
 70
     1
102
RTVSPropertyOp9
 70
     1
102
RTVSPropertyOp10
 70
     1
102
RTVSPropertyOp11
 70
     1
102
RTVSPropertyOp12
 70
     1
102
RTVSPropertyOp13
 70
     1
102
RTVSPropertyOp14
 70
     1
102
RTVSPropertyOp15
 70
     1
102
RTVSPropertyOp16
 70
     1
102
RTVSPropertyOp17
 70
     1
102
RTVSPropertyOp18
 70
     1
102
RTVSPropertyOp19
 70
     1
102
RTVSPropertyOp20
 70
     1
102
RTVSPropertyOp21
 70
     1
102
RTVSPropertyOp22
 70
     1
102
RTVSPropertyOp23
 70
     1
102
RTVSPropertyOp24
 70
     1
102
RTVSPropertyOp25
 70
     1
102
RTVSPropertyOp26
 70
     1
102
RTVSPropertyOp27
 70
     1
102
RTVSPropertyOp28
 70
     1
102
RTVSPropertyOp29
 70
     1
102
RTVSPropertyOp30
 70
     1
102
RTVSPropertyOp31
 70
     1
102
RTVSPropertyOp32
 70
     1
  0
XRECORD
  5
17AE
102
{ACAD_REACTORS
330
17AD
102
}
330
17AD
100
AcDbXrecord
280
     1
102
RTVSPropertyOp0
 70
     1
102
RTVSPropertyOp1
 70
     1
102
RTVSPropertyOp2
 70
     1
102
RTVSPropertyOp3
 70
     1
102
RTVSPropertyOp4
 70
     1
102
RTVSPropertyOp5
 70
     1
102
RTVSPropertyOp6
 70
     1
102
RTVSPropertyOp7
 70
     1
102
RTVSPropertyOp8
 70
     1
102
RTVSPropertyOp9
 70
     1
102
RTVSPropertyOp10
 70
     1
102
RTVSPropertyOp11
 70
     1
102
RTVSPropertyOp12
 70
     1
102
RTVSPropertyOp13
 70
     1
102
RTVSPropertyOp14
 70
     1
102
RTVSPropertyOp15
 70
     1
102
RTVSPropertyOp16
 70
     1
102
RTVSPropertyOp17
 70
     1
102
RTVSPropertyOp18
 70
     1
102
RTVSPropertyOp19
 70
     1
102
RTVSPropertyOp20
 70
     1
102
RTVSPropertyOp21
 70
     1
102
RTVSPropertyOp22
 70
     1
102
RTVSPropertyOp23
 70
     1
102
RTVSPropertyOp24
 70
     1
102
RTVSPropertyOp25
 70
     1
102
RTVSPropertyOp26
 70
     1
102
RTVSPropertyOp27
 70
     1
102
RTVSPropertyOp28
 70
     1
102
RTVSPropertyOp29
 70
     1
102
RTVSPropertyOp30
 70
     1
102
RTVSPropertyOp31
 70
     1
102
RTVSPropertyOp32
 70
     1
  0
XRECORD
  5
17B6
102
{ACAD_REACTORS
330
17B5
102
}
330
17B5
100
AcDbXrecord
280
     1
102
RTVSPropertyOp0
 70
     1
102
RTVSPropertyOp1
 70
     1
102
RTVSPropertyOp2
 70
     1
102
RTVSPropertyOp3
 70
     1
102
RTVSPropertyOp4
 70
     1
102
RTVSPropertyOp5
 70
     1
102
RTVSPropertyOp6
 70
     1
102
RTVSPropertyOp7
 70
     1
102
RTVSPropertyOp8
 70
     1
102
RTVSPropertyOp9
 70
     1
102
RTVSPropertyOp10
 70
     1
102
RTVSPropertyOp11
 70
     1
102
RTVSPropertyOp12
 70
     1
102
RTVSPropertyOp13
 70
     1
102
RTVSPropertyOp14
 70
     1
102
RTVSPropertyOp15
 70
     1
102
RTVSPropertyOp16
 70
     1
102
RTVSPropertyOp17
 70
     1
102
RTVSPropertyOp18
 70
     1
102
RTVSPropertyOp19
 70
     1
102
RTVSPropertyOp20
 70
     1
102
RTVSPropertyOp21
 70
     1
102
RTVSPropertyOp22
 70
     1
102
RTVSPropertyOp23
 70
     1
102
RTVSPropertyOp24
 70
     1
102
RTVSPropertyOp25
 70
     1
102
RTVSPropertyOp26
 70
     1
102
RTVSPropertyOp27
 70
     1
102
RTVSPropertyOp28
 70
     1
102
RTVSPropertyOp29
 70
     1
102
RTVSPropertyOp30
 70
     1
102
RTVSPropertyOp31
 70
     1
102
RTVSPropertyOp32
 70
     1
  0
XRECORD
  5
17A8
102
{ACAD_REACTORS
330
17A7
102
}
330
17A7
100
AcDbXrecord
280
     1
102
RTVSPropertyOp0
 70
     1
102
RTVSPropertyOp1
 70
     1
102
RTVSPropertyOp2
 70
     1
102
RTVSPropertyOp3
 70
     1
102
RTVSPropertyOp4
 70
     1
102
RTVSPropertyOp5
 70
     1
102
RTVSPropertyOp6
 70
     1
102
RTVSPropertyOp7
 70
     1
102
RTVSPropertyOp8
 70
     1
102
RTVSPropertyOp9
 70
     1
102
RTVSPropertyOp10
 70
     1
102
RTVSPropertyOp11
 70
     1
102
RTVSPropertyOp12
 70
     1
102
RTVSPropertyOp13
 70
     1
102
RTVSPropertyOp14
 70
     1
102
RTVSPropertyOp15
 70
     1
102
RTVSPropertyOp16
 70
     1
102
RTVSPropertyOp17
 70
     1
102
RTVSPropertyOp18
 70
     1
102
RTVSPropertyOp19
 70
     1
102
RTVSPropertyOp20
 70
     1
102
RTVSPropertyOp21
 70
     1
102
RTVSPropertyOp22
 70
     1
102
RTVSPropertyOp23
 70
     1
102
RTVSPropertyOp24
 70
     1
102
RTVSPropertyOp25
 70
     1
102
RTVSPropertyOp26
 70
     1
102
RTVSPropertyOp27
 70
     1
102
RTVSPropertyOp28
 70
     1
102
RTVSPropertyOp29
 70
     1
102
RTVSPropertyOp30
 70
     1
102
RTVSPropertyOp31
 70
     1
102
RTVSPropertyOp32
 70
     1
  0
XRECORD
  5
17AC
102
{ACAD_REACTORS
330
17AB
102
}
330
17AB
100
AcDbXrecord
280
     1
102
RTVSPropertyOp0
 70
     1
102
RTVSPropertyOp1
 70
     1
102
RTVSPropertyOp2
 70
     1
102
RTVSPropertyOp3
 70
     1
102
RTVSPropertyOp4
 70
     1
102
RTVSPropertyOp5
 70
     1
102
RTVSPropertyOp6
 70
     1
102
RTVSPropertyOp7
 70
     1
102
RTVSPropertyOp8
 70
     1
102
RTVSPropertyOp9
 70
     1
102
RTVSPropertyOp10
 70
     1
102
RTVSPropertyOp11
 70
     1
102
RTVSPropertyOp12
 70
     1
102
RTVSPropertyOp13
 70
     1
102
RTVSPropertyOp14
 70
     1
102
RTVSPropertyOp15
 70
     1
102
RTVSPropertyOp16
 70
     1
102
RTVSPropertyOp17
 70
     1
102
RTVSPropertyOp18
 70
     1
102
RTVSPropertyOp19
 70
     1
102
RTVSPropertyOp20
 70
     1
102
RTVSPropertyOp21
 70
     1
102
RTVSPropertyOp22
 70
     1
102
RTVSPropertyOp23
 70
     1
102
RTVSPropertyOp24
 70
     1
102
RTVSPropertyOp25
 70
     1
102
RTVSPropertyOp26
 70
     1
102
RTVSPropertyOp27
 70
     1
102
RTVSPropertyOp28
 70
     1
102
RTVSPropertyOp29
 70
     1
102
RTVSPropertyOp30
 70
     1
102
RTVSPropertyOp31
 70
     1
102
RTVSPropertyOp32
 70
     1
  0
XRECORD
  5
17D8
102
{ACAD_REACTORS
330
17D7
102
}
330
17D7
100
AcDbXrecord
280
     1
102
RTVSPropertyOp0
 70
     0
102
RTVSPropertyOp1
 70
     0
102
RTVSPropertyOp2
 70
     0
102
RTVSPropertyOp3
 70
     0
102
RTVSPropertyOp4
 70
     0
102
RTVSPropertyOp5
 70
     0
102
RTVSPropertyOp6
 70
     0
102
RTVSPropertyOp7
 70
     0
102
RTVSPropertyOp8
 70
     0
102
RTVSPropertyOp9
 70
     0
102
RTVSPropertyOp10
 70
     0
102
RTVSPropertyOp11
 70
     0
102
RTVSPropertyOp12
 70
     0
102
RTVSPropertyOp13
 70
     0
102
RTVSPropertyOp14
 70
     2
102
RTVSPropertyOp15
 70
     0
102
RTVSPropertyOp16
 70
     0
102
RTVSPropertyOp17
 70
     0
102
RTVSPropertyOp18
 70
     0
102
RTVSPropertyOp19
 70
     0
102
RTVSPropertyOp20
 70
     0
102
RTVSPropertyOp21
 70
     0
102
RTVSPropertyOp22
 70
     0
102
RTVSPropertyOp23
 70
     0
102
RTVSPropertyOp24
 70
     0
102
RTVSPropertyOp25
 70
     0
102
RTVSPropertyOp26
 70
     0
102
RTVSPropertyOp27
 70
     0
102
RTVSPropertyOp28
 70
     0
102
RTVSPropertyOp29
 70
     0
102
RTVSPropertyOp30
 70
     0
102
RTVSPropertyOp31
 70
     0
102
RTVSPropertyOp32
 70
     0
  0
XRECORD
  5
17B4
102
{ACAD_REACTORS
330
17B3
102
}
330
17B3
100
AcDbXrecord
280
     1
102
RTVSPropertyOp0
 70
     1
102
RTVSPropertyOp1
 70
     1
102
RTVSPropertyOp2
 70
     1
102
RTVSPropertyOp3
 70
     1
102
RTVSPropertyOp4
 70
     1
102
RTVSPropertyOp5
 70
     1
102
RTVSPropertyOp6
 70
     1
102
RTVSPropertyOp7
 70
     1
102
RTVSPropertyOp8
 70
     1
102
RTVSPropertyOp9
 70
     1
102
RTVSPropertyOp10
 70
     1
102
RTVSPropertyOp11
 70
     1
102
RTVSPropertyOp12
 70
     1
102
RTVSPropertyOp13
 70
     1
102
RTVSPropertyOp14
 70
     1
102
RTVSPropertyOp15
 70
     1
102
RTVSPropertyOp16
 70
     1
102
RTVSPropertyOp17
 70
     1
102
RTVSPropertyOp18
 70
     1
102
RTVSPropertyOp19
 70
     1
102
RTVSPropertyOp20
 70
     1
102
RTVSPropertyOp21
 70
     1
102
RTVSPropertyOp22
 70
     1
102
RTVSPropertyOp23
 70
     1
102
RTVSPropertyOp24
 70
     1
102
RTVSPropertyOp25
 70
     1
102
RTVSPropertyOp26
 70
     1
102
RTVSPropertyOp27
 70
     1
102
RTVSPropertyOp28
 70
     1
102
RTVSPropertyOp29
 70
     1
102
RTVSPropertyOp30
 70
     1
102
RTVSPropertyOp31
 70
     1
102
RTVSPropertyOp32
 70
     1
  0
XRECORD
  5
1798
102
{ACAD_REACTORS
330
1797
102
}
330
1797
100
AcDbXrecord
280
     1
102
RTVSPropertyOp0
 70
     1
102
RTVSPropertyOp1
 70
     1
102
RTVSPropertyOp2
 70
     1
102
RTVSPropertyOp3
 70
     1
102
RTVSPropertyOp4
 70
     1
102
RTVSPropertyOp5
 70
     1
102
RTVSPropertyOp6
 70
     1
102
RTVSPropertyOp7
 70
     1
102
RTVSPropertyOp8
 70
     1
102
RTVSPropertyOp9
 70
     1
102
RTVSPropertyOp10
 70
     1
102
RTVSPropertyOp11
 70
     1
102
RTVSPropertyOp12
 70
     1
102
RTVSPropertyOp13
 70
     1
102
RTVSPropertyOp14
 70
     1
102
RTVSPropertyOp15
 70
     1
102
RTVSPropertyOp16
 70
     1
102
RTVSPropertyOp17
 70
     1
102
RTVSPropertyOp18
 70
     1
102
RTVSPropertyOp19
 70
     1
102
RTVSPropertyOp20
 70
     1
102
RTVSPropertyOp21
 70
     1
102
RTVSPropertyOp22
 70
     1
102
RTVSPropertyOp23
 70
     1
102
RTVSPropertyOp24
 70
     1
102
RTVSPropertyOp25
 70
     1
102
RTVSPropertyOp26
 70
     1
102
RTVSPropertyOp27
 70
     1
102
RTVSPropertyOp28
 70
     1
102
RTVSPropertyOp29
 70
     1
102
RTVSPropertyOp30
 70
     1
102
RTVSPropertyOp31
 70
     1
102
RTVSPropertyOp32
 70
     1
  0
XRECORD
  5
179A
102
{ACAD_REACTORS
330
1799
102
}
330
1799
100
AcDbXrecord
280
     1
102
RTVSPropertyOp0
 70
     1
102
RTVSPropertyOp1
 70
     1
102
RTVSPropertyOp2
 70
     1
102
RTVSPropertyOp3
 70
     1
102
RTVSPropertyOp4
 70
     1
102
RTVSPropertyOp5
 70
     1
102
RTVSPropertyOp6
 70
     1
102
RTVSPropertyOp7
 70
     1
102
RTVSPropertyOp8
 70
     1
102
RTVSPropertyOp9
 70
     1
102
RTVSPropertyOp10
 70
     1
102
RTVSPropertyOp11
 70
     1
102
RTVSPropertyOp12
 70
     1
102
RTVSPropertyOp13
 70
     1
102
RTVSPropertyOp14
 70
     1
102
RTVSPropertyOp15
 70
     1
102
RTVSPropertyOp16
 70
     1
102
RTVSPropertyOp17
 70
     1
102
RTVSPropertyOp18
 70
     1
102
RTVSPropertyOp19
 70
     1
102
RTVSPropertyOp20
 70
     1
102
RTVSPropertyOp21
 70
     1
102
RTVSPropertyOp22
 70
     1
102
RTVSPropertyOp23
 70
     1
102
RTVSPropertyOp24
 70
     1
102
RTVSPropertyOp25
 70
     1
102
RTVSPropertyOp26
 70
     1
102
RTVSPropertyOp27
 70
     1
102
RTVSPropertyOp28
 70
     1
102
RTVSPropertyOp29
 70
     1
102
RTVSPropertyOp30
 70
     1
102
RTVSPropertyOp31
 70
     1
102
RTVSPropertyOp32
 70
     1
  0
XRECORD
  5
179C
102
{ACAD_REACTORS
330
179B
102
}
330
179B
100
AcDbXrecord
280
     1
102
RTVSPropertyOp0
 70
     1
102
RTVSPropertyOp1
 70
     1
102
RTVSPropertyOp2
 70
     1
102
RTVSPropertyOp3
 70
     1
102
RTVSPropertyOp4
 70
     1
102
RTVSPropertyOp5
 70
     1
102
RTVSPropertyOp6
 70
     1
102
RTVSPropertyOp7
 70
     1
102
RTVSPropertyOp8
 70
     1
102
RTVSPropertyOp9
 70
     1
102
RTVSPropertyOp10
 70
     1
102
RTVSPropertyOp11
 70
     1
102
RTVSPropertyOp12
 70
     1
102
RTVSPropertyOp13
 70
     1
102
RTVSPropertyOp14
 70
     1
102
RTVSPropertyOp15
 70
     1
102
RTVSPropertyOp16
 70
     1
102
RTVSPropertyOp17
 70
     1
102
RTVSPropertyOp18
 70
     1
102
RTVSPropertyOp19
 70
     1
102
RTVSPropertyOp20
 70
     1
102
RTVSPropertyOp21
 70
     1
102
RTVSPropertyOp22
 70
     1
102
RTVSPropertyOp23
 70
     1
102
RTVSPropertyOp24
 70
     1
102
RTVSPropertyOp25
 70
     1
102
RTVSPropertyOp26
 70
     1
102
RTVSPropertyOp27
 70
     1
102
RTVSPropertyOp28
 70
     1
102
RTVSPropertyOp29
 70
     1
102
RTVSPropertyOp30
 70
     1
102
RTVSPropertyOp31
 70
     1
102
RTVSPropertyOp32
 70
     1
  0
XRECORD
  5
179E
102
{ACAD_REACTORS
330
179D
102
}
330
179D
100
AcDbXrecord
280
     1
102
RTVSPropertyOp0
 70
     1
102
RTVSPropertyOp1
 70
     1
102
RTVSPropertyOp2
 70
     1
102
RTVSPropertyOp3
 70
     1
102
RTVSPropertyOp4
 70
     1
102
RTVSPropertyOp5
 70
     1
102
RTVSPropertyOp6
 70
     1
102
RTVSPropertyOp7
 70
     1
102
RTVSPropertyOp8
 70
     1
102
RTVSPropertyOp9
 70
     1
102
RTVSPropertyOp10
 70
     1
102
RTVSPropertyOp11
 70
     1
102
RTVSPropertyOp12
 70
     1
102
RTVSPropertyOp13
 70
     1
102
RTVSPropertyOp14
 70
     1
102
RTVSPropertyOp15
 70
     1
102
RTVSPropertyOp16
 70
     1
102
RTVSPropertyOp17
 70
     1
102
RTVSPropertyOp18
 70
     1
102
RTVSPropertyOp19
 70
     1
102
RTVSPropertyOp20
 70
     1
102
RTVSPropertyOp21
 70
     1
102
RTVSPropertyOp22
 70
     1
102
RTVSPropertyOp23
 70
     1
102
RTVSPropertyOp24
 70
     1
102
RTVSPropertyOp25
 70
     1
102
RTVSPropertyOp26
 70
     1
102
RTVSPropertyOp27
 70
     1
102
RTVSPropertyOp28
 70
     1
102
RTVSPropertyOp29
 70
     1
102
RTVSPropertyOp30
 70
     1
102
RTVSPropertyOp31
 70
     1
102
RTVSPropertyOp32
 70
     1
  0
XRECORD
  5
17C8
102
{ACAD_REACTORS
330
17C7
102
}
330
17C7
100
AcDbXrecord
280
     1
102
RTVSPropertyOp0
 70
     1
102
RTVSPropertyOp1
 70
     1
102
RTVSPropertyOp2
 70
     1
102
RTVSPropertyOp3
 70
     1
102
RTVSPropertyOp4
 70
     1
102
RTVSPropertyOp5
 70
     1
102
RTVSPropertyOp6
 70
     1
102
RTVSPropertyOp7
 70
     1
102
RTVSPropertyOp8
 70
     1
102
RTVSPropertyOp9
 70
     1
102
RTVSPropertyOp10
 70
     1
102
RTVSPropertyOp11
 70
     1
102
RTVSPropertyOp12
 70
     1
102
RTVSPropertyOp13
 70
     1
102
RTVSPropertyOp14
 70
     1
102
RTVSPropertyOp15
 70
     1
102
RTVSPropertyOp16
 70
     1
102
RTVSPropertyOp17
 70
     1
102
RTVSPropertyOp18
 70
     1
102
RTVSPropertyOp19
 70
     1
102
RTVSPropertyOp20
 70
     1
102
RTVSPropertyOp21
 70
     1
102
RTVSPropertyOp22
 70
     1
102
RTVSPropertyOp23
 70
     1
102
RTVSPropertyOp24
 70
     1
102
RTVSPropertyOp25
 70
     1
102
RTVSPropertyOp26
 70
     1
102
RTVSPropertyOp27
 70
     1
102
RTVSPropertyOp28
 70
     1
102
RTVSPropertyOp29
 70
     1
102
RTVSPropertyOp30
 70
     1
102
RTVSPropertyOp31
 70
     1
102
RTVSPropertyOp32
 70
     1
  0
XRECORD
  5
17D4
102
{ACAD_REACTORS
330
17D3
102
}
330
17D3
100
AcDbXrecord
280
     1
102
RTVSPropertyOp0
 70
     0
102
RTVSPropertyOp1
 70
     0
102
RTVSPropertyOp2
 70
     0
102
RTVSPropertyOp3
 70
     0
102
RTVSPropertyOp4
 70
     0
102
RTVSPropertyOp5
 70
     0
102
RTVSPropertyOp6
 70
     0
102
RTVSPropertyOp7
 70
     0
102
RTVSPropertyOp8
 70
     0
102
RTVSPropertyOp9
 70
     0
102
RTVSPropertyOp10
 70
     0
102
RTVSPropertyOp11
 70
     0
102
RTVSPropertyOp12
 70
     0
102
RTVSPropertyOp13
 70
     0
102
RTVSPropertyOp14
 70
     2
102
RTVSPropertyOp15
 70
     0
102
RTVSPropertyOp16
 70
     0
102
RTVSPropertyOp17
 70
     0
102
RTVSPropertyOp18
 70
     0
102
RTVSPropertyOp19
 70
     0
102
RTVSPropertyOp20
 70
     0
102
RTVSPropertyOp21
 70
     0
102
RTVSPropertyOp22
 70
     0
102
RTVSPropertyOp23
 70
     0
102
RTVSPropertyOp24
 70
     0
102
RTVSPropertyOp25
 70
     0
102
RTVSPropertyOp26
 70
     0
102
RTVSPropertyOp27
 70
     0
102
RTVSPropertyOp28
 70
     0
102
RTVSPropertyOp29
 70
     0
102
RTVSPropertyOp30
 70
     0
102
RTVSPropertyOp31
 70
     0
102
RTVSPropertyOp32
 70
     0
  0
XRECORD
  5
17B2
102
{ACAD_REACTORS
330
17B1
102
}
330
17B1
100
AcDbXrecord
280
     1
102
RTVSPropertyOp0
 70
     1
102
RTVSPropertyOp1
 70
     1
102
RTVSPropertyOp2
 70
     1
102
RTVSPropertyOp3
 70
     1
102
RTVSPropertyOp4
 70
     1
102
RTVSPropertyOp5
 70
     1
102
RTVSPropertyOp6
 70
     1
102
RTVSPropertyOp7
 70
     1
102
RTVSPropertyOp8
 70
     1
102
RTVSPropertyOp9
 70
     1
102
RTVSPropertyOp10
 70
     1
102
RTVSPropertyOp11
 70
     1
102
RTVSPropertyOp12
 70
     1
102
RTVSPropertyOp13
 70
     1
102
RTVSPropertyOp14
 70
     1
102
RTVSPropertyOp15
 70
     1
102
RTVSPropertyOp16
 70
     1
102
RTVSPropertyOp17
 70
     1
102
RTVSPropertyOp18
 70
     1
102
RTVSPropertyOp19
 70
     1
102
RTVSPropertyOp20
 70
     1
102
RTVSPropertyOp21
 70
     1
102
RTVSPropertyOp22
 70
     1
102
RTVSPropertyOp23
 70
     1
102
RTVSPropertyOp24
 70
     1
102
RTVSPropertyOp25
 70
     1
102
RTVSPropertyOp26
 70
     1
102
RTVSPropertyOp27
 70
     1
102
RTVSPropertyOp28
 70
     1
102
RTVSPropertyOp29
 70
     1
102
RTVSPropertyOp30
 70
     1
102
RTVSPropertyOp31
 70
     1
102
RTVSPropertyOp32
 70
     1
  0
XRECORD
  5
17D6
102
{ACAD_REACTORS
330
17D5
102
}
330
17D5
100
AcDbXrecord
280
     1
102
RTVSPropertyOp0
 70
     0
102
RTVSPropertyOp1
 70
     0
102
RTVSPropertyOp2
 70
     0
102
RTVSPropertyOp3
 70
     0
102
RTVSPropertyOp4
 70
     0
102
RTVSPropertyOp5
 70
     0
102
RTVSPropertyOp6
 70
     0
102
RTVSPropertyOp7
 70
     0
102
RTVSPropertyOp8
 70
     0
102
RTVSPropertyOp9
 70
     0
102
RTVSPropertyOp10
 70
     0
102
RTVSPropertyOp11
 70
     0
102
RTVSPropertyOp12
 70
     0
102
RTVSPropertyOp13
 70
     0
102
RTVSPropertyOp14
 70
     2
102
RTVSPropertyOp15
 70
     0
102
RTVSPropertyOp16
 70
     0
102
RTVSPropertyOp17
 70
     0
102
RTVSPropertyOp18
 70
     0
102
RTVSPropertyOp19
 70
     0
102
RTVSPropertyOp20
 70
     0
102
RTVSPropertyOp21
 70
     0
102
RTVSPropertyOp22
 70
     0
102
RTVSPropertyOp23
 70
     0
102
RTVSPropertyOp24
 70
     0
102
RTVSPropertyOp25
 70
     0
102
RTVSPropertyOp26
 70
     0
102
RTVSPropertyOp27
 70
     0
102
RTVSPropertyOp28
 70
     0
102
RTVSPropertyOp29
 70
     0
102
RTVSPropertyOp30
 70
     0
102
RTVSPropertyOp31
 70
     0
102
RTVSPropertyOp32
 70
     0
  0
XRECORD
  5
17AA
102
{ACAD_REACTORS
330
17A9
102
}
330
17A9
100
AcDbXrecord
280
     1
102
RTVSPropertyOp0
 70
     1
102
RTVSPropertyOp1
 70
     1
102
RTVSPropertyOp2
 70
     1
102
RTVSPropertyOp3
 70
     1
102
RTVSPropertyOp4
 70
     1
102
RTVSPropertyOp5
 70
     1
102
RTVSPropertyOp6
 70
     1
102
RTVSPropertyOp7
 70
     1
102
RTVSPropertyOp8
 70
     1
102
RTVSPropertyOp9
 70
     1
102
RTVSPropertyOp10
 70
     1
102
RTVSPropertyOp11
 70
     1
102
RTVSPropertyOp12
 70
     1
102
RTVSPropertyOp13
 70
     1
102
RTVSPropertyOp14
 70
     1
102
RTVSPropertyOp15
 70
     1
102
RTVSPropertyOp16
 70
     1
102
RTVSPropertyOp17
 70
     1
102
RTVSPropertyOp18
 70
     1
102
RTVSPropertyOp19
 70
     1
102
RTVSPropertyOp20
 70
     1
102
RTVSPropertyOp21
 70
     1
102
RTVSPropertyOp22
 70
     1
102
RTVSPropertyOp23
 70
     1
102
RTVSPropertyOp24
 70
     1
102
RTVSPropertyOp25
 70
     1
102
RTVSPropertyOp26
 70
     1
102
RTVSPropertyOp27
 70
     1
102
RTVSPropertyOp28
 70
     1
102
RTVSPropertyOp29
 70
     1
102
RTVSPropertyOp30
 70
     1
102
RTVSPropertyOp31
 70
     1
102
RTVSPropertyOp32
 70
     1
  0
XRECORD
  5
17D2
102
{ACAD_REACTORS
330
17D1
102
}
330
17D1
100
AcDbXrecord
280
     1
102
RTVSPropertyOp0
 70
     1
102
RTVSPropertyOp1
 70
     1
102
RTVSPropertyOp2
 70
     1
102
RTVSPropertyOp3
 70
     1
102
RTVSPropertyOp4
 70
     1
102
RTVSPropertyOp5
 70
     1
102
RTVSPropertyOp6
 70
     1
102
RTVSPropertyOp7
 70
     1
102
RTVSPropertyOp8
 70
     1
102
RTVSPropertyOp9
 70
     1
102
RTVSPropertyOp10
 70
     1
102
RTVSPropertyOp11
 70
     1
102
RTVSPropertyOp12
 70
     1
102
RTVSPropertyOp13
 70
     1
102
RTVSPropertyOp14
 70
     1
102
RTVSPropertyOp15
 70
     1
102
RTVSPropertyOp16
 70
     1
102
RTVSPropertyOp17
 70
     1
102
RTVSPropertyOp18
 70
     1
102
RTVSPropertyOp19
 70
     1
102
RTVSPropertyOp20
 70
     1
102
RTVSPropertyOp21
 70
     1
102
RTVSPropertyOp22
 70
     1
102
RTVSPropertyOp23
 70
     1
102
RTVSPropertyOp24
 70
     1
102
RTVSPropertyOp25
 70
     1
102
RTVSPropertyOp26
 70
     1
102
RTVSPropertyOp27
 70
     1
102
RTVSPropertyOp28
 70
     1
102
RTVSPropertyOp29
 70
     1
102
RTVSPropertyOp30
 70
     1
102
RTVSPropertyOp31
 70
     1
102
RTVSPropertyOp32
 70
     1
  0
XRECORD
  5
17D0
102
{ACAD_REACTORS
330
17CF
102
}
330
17CF
100
AcDbXrecord
280
     1
102
RTVSPropertyOp0
 70
     1
102
RTVSPropertyOp1
 70
     1
102
RTVSPropertyOp2
 70
     1
102
RTVSPropertyOp3
 70
     1
102
RTVSPropertyOp4
 70
     1
102
RTVSPropertyOp5
 70
     1
102
RTVSPropertyOp6
 70
     1
102
RTVSPropertyOp7
 70
     1
102
RTVSPropertyOp8
 70
     1
102
RTVSPropertyOp9
 70
     1
102
RTVSPropertyOp10
 70
     1
102
RTVSPropertyOp11
 70
     1
102
RTVSPropertyOp12
 70
     1
102
RTVSPropertyOp13
 70
     1
102
RTVSPropertyOp14
 70
     1
102
RTVSPropertyOp15
 70
     1
102
RTVSPropertyOp16
 70
     1
102
RTVSPropertyOp17
 70
     1
102
RTVSPropertyOp18
 70
     1
102
RTVSPropertyOp19
 70
     1
102
RTVSPropertyOp20
 70
     1
102
RTVSPropertyOp21
 70
     1
102
RTVSPropertyOp22
 70
     1
102
RTVSPropertyOp23
 70
     1
102
RTVSPropertyOp24
 70
     1
102
RTVSPropertyOp25
 70
     1
102
RTVSPropertyOp26
 70
     1
102
RTVSPropertyOp27
 70
     1
102
RTVSPropertyOp28
 70
     1
102
RTVSPropertyOp29
 70
     1
102
RTVSPropertyOp30
 70
     1
102
RTVSPropertyOp31
 70
     1
102
RTVSPropertyOp32
 70
     1
  0
XRECORD
  5
17CA
102
{ACAD_REACTORS
330
17C9
102
}
330
17C9
100
AcDbXrecord
280
     1
102
RTVSPropertyOp0
 70
     1
102
RTVSPropertyOp1
 70
     1
102
RTVSPropertyOp2
 70
     1
102
RTVSPropertyOp3
 70
     1
102
RTVSPropertyOp4
 70
     1
102
RTVSPropertyOp5
 70
     1
102
RTVSPropertyOp6
 70
     1
102
RTVSPropertyOp7
 70
     1
102
RTVSPropertyOp8
 70
     1
102
RTVSPropertyOp9
 70
     1
102
RTVSPropertyOp10
 70
     1
102
RTVSPropertyOp11
 70
     1
102
RTVSPropertyOp12
 70
     1
102
RTVSPropertyOp13
 70
     1
102
RTVSPropertyOp14
 70
     1
102
RTVSPropertyOp15
 70
     1
102
RTVSPropertyOp16
 70
     1
102
RTVSPropertyOp17
 70
     1
102
RTVSPropertyOp18
 70
     1
102
RTVSPropertyOp19
 70
     1
102
RTVSPropertyOp20
 70
     1
102
RTVSPropertyOp21
 70
     1
102
RTVSPropertyOp22
 70
     1
102
RTVSPropertyOp23
 70
     1
102
RTVSPropertyOp24
 70
     1
102
RTVSPropertyOp25
 70
     1
102
RTVSPropertyOp26
 70
     1
102
RTVSPropertyOp27
 70
     1
102
RTVSPropertyOp28
 70
     1
102
RTVSPropertyOp29
 70
     1
102
RTVSPropertyOp30
 70
     1
102
RTVSPropertyOp31
 70
     1
102
RTVSPropertyOp32
 70
     1
  0
XRECORD
  5
17CC
102
{ACAD_REACTORS
330
17CB
102
}
330
17CB
100
AcDbXrecord
280
     1
102
RTVSPropertyOp0
 70
     1
102
RTVSPropertyOp1
 70
     1
102
RTVSPropertyOp2
 70
     1
102
RTVSPropertyOp3
 70
     1
102
RTVSPropertyOp4
 70
     1
102
RTVSPropertyOp5
 70
     1
102
RTVSPropertyOp6
 70
     1
102
RTVSPropertyOp7
 70
     1
102
RTVSPropertyOp8
 70
     1
102
RTVSPropertyOp9
 70
     1
102
RTVSPropertyOp10
 70
     1
102
RTVSPropertyOp11
 70
     1
102
RTVSPropertyOp12
 70
     1
102
RTVSPropertyOp13
 70
     1
102
RTVSPropertyOp14
 70
     1
102
RTVSPropertyOp15
 70
     1
102
RTVSPropertyOp16
 70
     1
102
RTVSPropertyOp17
 70
     1
102
RTVSPropertyOp18
 70
     1
102
RTVSPropertyOp19
 70
     1
102
RTVSPropertyOp20
 70
     1
102
RTVSPropertyOp21
 70
     1
102
RTVSPropertyOp22
 70
     1
102
RTVSPropertyOp23
 70
     1
102
RTVSPropertyOp24
 70
     1
102
RTVSPropertyOp25
 70
     1
102
RTVSPropertyOp26
 70
     1
102
RTVSPropertyOp27
 70
     1
102
RTVSPropertyOp28
 70
     1
102
RTVSPropertyOp29
 70
     1
102
RTVSPropertyOp30
 70
     1
102
RTVSPropertyOp31
 70
     1
102
RTVSPropertyOp32
 70
     1
  0
XRECORD
  5
17B0
102
{ACAD_REACTORS
330
17AF
102
}
330
17AF
100
AcDbXrecord
280
     1
102
RTVSPropertyOp0
 70
     1
102
RTVSPropertyOp1
 70
     1
102
RTVSPropertyOp2
 70
     1
102
RTVSPropertyOp3
 70
     1
102
RTVSPropertyOp4
 70
     1
102
RTVSPropertyOp5
 70
     1
102
RTVSPropertyOp6
 70
     1
102
RTVSPropertyOp7
 70
     1
102
RTVSPropertyOp8
 70
     1
102
RTVSPropertyOp9
 70
     1
102
RTVSPropertyOp10
 70
     1
102
RTVSPropertyOp11
 70
     1
102
RTVSPropertyOp12
 70
     1
102
RTVSPropertyOp13
 70
     1
102
RTVSPropertyOp14
 70
     1
102
RTVSPropertyOp15
 70
     1
102
RTVSPropertyOp16
 70
     1
102
RTVSPropertyOp17
 70
     1
102
RTVSPropertyOp18
 70
     1
102
RTVSPropertyOp19
 70
     1
102
RTVSPropertyOp20
 70
     1
102
RTVSPropertyOp21
 70
     1
102
RTVSPropertyOp22
 70
     1
102
RTVSPropertyOp23
 70
     1
102
RTVSPropertyOp24
 70
     1
102
RTVSPropertyOp25
 70
     1
102
RTVSPropertyOp26
 70
     1
102
RTVSPropertyOp27
 70
     1
102
RTVSPropertyOp28
 70
     1
102
RTVSPropertyOp29
 70
     1
102
RTVSPropertyOp30
 70
     1
102
RTVSPropertyOp31
 70
     1
102
RTVSPropertyOp32
 70
     1
  0
XRECORD
  5
17C6
102
{ACAD_REACTORS
330
17C5
102
}
330
17C5
100
AcDbXrecord
280
     1
102
RTVSPropertyOp0
 70
     1
102
RTVSPropertyOp1
 70
     1
102
RTVSPropertyOp2
 70
     1
102
RTVSPropertyOp3
 70
     1
102
RTVSPropertyOp4
 70
     1
102
RTVSPropertyOp5
 70
     1
102
RTVSPropertyOp6
 70
     1
102
RTVSPropertyOp7
 70
     1
102
RTVSPropertyOp8
 70
     1
102
RTVSPropertyOp9
 70
     1
102
RTVSPropertyOp10
 70
     1
102
RTVSPropertyOp11
 70
     1
102
RTVSPropertyOp12
 70
     1
102
RTVSPropertyOp13
 70
     1
102
RTVSPropertyOp14
 70
     1
102
RTVSPropertyOp15
 70
     1
102
RTVSPropertyOp16
 70
     1
102
RTVSPropertyOp17
 70
     1
102
RTVSPropertyOp18
 70
     1
102
RTVSPropertyOp19
 70
     1
102
RTVSPropertyOp20
 70
     1
102
RTVSPropertyOp21
 70
     1
102
RTVSPropertyOp22
 70
     1
102
RTVSPropertyOp23
 70
     1
102
RTVSPropertyOp24
 70
     1
102
RTVSPropertyOp25
 70
     1
102
RTVSPropertyOp26
 70
     1
102
RTVSPropertyOp27
 70
     1
102
RTVSPropertyOp28
 70
     1
102
RTVSPropertyOp29
 70
     1
102
RTVSPropertyOp30
 70
     1
102
RTVSPropertyOp31
 70
     1
102
RTVSPropertyOp32
 70
     1
  0
XRECORD
  5
17CE
102
{ACAD_REACTORS
330
17CD
102
}
330
17CD
100
AcDbXrecord
280
     1
102
RTVSPropertyOp0
 70
     1
102
RTVSPropertyOp1
 70
     1
102
RTVSPropertyOp2
 70
     1
102
RTVSPropertyOp3
 70
     1
102
RTVSPropertyOp4
 70
     1
102
RTVSPropertyOp5
 70
     1
102
RTVSPropertyOp6
 70
     1
102
RTVSPropertyOp7
 70
     1
102
RTVSPropertyOp8
 70
     1
102
RTVSPropertyOp9
 70
     1
102
RTVSPropertyOp10
 70
     1
102
RTVSPropertyOp11
 70
     1
102
RTVSPropertyOp12
 70
     1
102
RTVSPropertyOp13
 70
     1
102
RTVSPropertyOp14
 70
     1
102
RTVSPropertyOp15
 70
     1
102
RTVSPropertyOp16
 70
     1
102
RTVSPropertyOp17
 70
     1
102
RTVSPropertyOp18
 70
     1
102
RTVSPropertyOp19
 70
     1
102
RTVSPropertyOp20
 70
     1
102
RTVSPropertyOp21
 70
     1
102
RTVSPropertyOp22
 70
     1
102
RTVSPropertyOp23
 70
     1
102
RTVSPropertyOp24
 70
     1
102
RTVSPropertyOp25
 70
     1
102
RTVSPropertyOp26
 70
     1
102
RTVSPropertyOp27
 70
     1
102
RTVSPropertyOp28
 70
     1
102
RTVSPropertyOp29
 70
     1
102
RTVSPropertyOp30
 70
     1
102
RTVSPropertyOp31
 70
     1
102
RTVSPropertyOp32
 70
     1
  0
ENDSEC
  0
EOF
