  0
SECTION
  2
HEADER
  9
$ACADVER
  1
AC1015
  9
$ACADMAINTVER
 70
    20
  9
$DWGCODEPAGE
  3
ANSI_1252
  9
$INSBASE
 10
0.0
 20
0.0
 30
0.0
  9
$EXTMIN
 10
-25.04902696376666
 20
-25.08340038533606
 30
-0.0000000232798671
  9
$EXTMAX
 10
405.0896441019358
 20
405.0488835885671
 30
0.0000000349233531
  9
$LIMMIN
 10
0.0
 20
0.0
  9
$LIMMAX
 10
420.0
 20
300.0
  9
$ORTHOMODE
 70
     0
  9
$REGENMODE
 70
     1
  9
$FILLMODE
 70
     1
  9
$QTEXTMODE
 70
     0
  9
$MIRRTEXT
 70
     0
  9
$LTSCALE
 40
10.0
  9
$ATTMODE
 70
     1
  9
$TEXTSIZE
 40
3.0
  9
$TRACEWID
 40
0.05
  9
$TEXTSTYLE
  7
ROMANS
  9
$CLAYER
  8
P-0000
  9
$CELTYPE
  6
CONTINUOUS
  9
$CECOLOR
 62
     7
  9
$CELTSCALE
 40
1.0
  9
$DISPSILH
 70
     0
  9
$DIMSCALE
 40
10.0
  9
$DIMASZ
 40
2.0
  9
$DIMEXO
 40
1.0
  9
$DIMDLI
 40
10.0
  9
$DIMRND
 40
0.0
  9
$DIMDLE
 40
0.0
  9
$DIMEXE
 40
1.5
  9
$DIMTP
 40
0.0
  9
$DIMTM
 40
0.0
  9
$DIMTXT
 40
2.0
  9
$DIMCEN
 40
2.0
  9
$DIMTSZ
 40
0.0
  9
$DIMTOL
 70
     0
  9
$DIMLIM
 70
     0
  9
$DIMTIH
 70
     0
  9
$DIMTOH
 70
     0
  9
$DIMSE1
 70
     0
  9
$DIMSE2
 70
     0
  9
$DIMTAD
 70
     1
  9
$DIMZIN
 70
     8
  9
$DIMBLK
  1

  9
$DIMASO
 70
     1
  9
$DIMSHO
 70
     1
  9
$DIMPOST
  1

  9
$DIMAPOST
  1

  9
$DIMALT
 70
     0
  9
$DIMALTD
 70
     2
  9
$DIMALTF
 40
25.4
  9
$DIMLFAC
 40
1.0
  9
$DIMTOFL
 70
     1
  9
$DIMTVP
 40
0.0
  9
$DIMTIX
 70
     0
  9
$DIMSOXD
 70
     0
  9
$DIMSAH
 70
     0
  9
$DIMBLK1
  1

  9
$DIMBLK2
  1

  9
$DIMSTYLE
  2
ACADTOP
  9
$DIMCLRD
 70
     2
  9
$DIMCLRE
 70
     2
  9
$DIMCLRT
 70
     1
  9
$DIMTFAC
 40
0.6
  9
$DIMGAP
 40
1.0
  9
$DIMJUST
 70
     0
  9
$DIMSD1
 70
     0
  9
$DIMSD2
 70
     0
  9
$DIMTOLJ
 70
     1
  9
$DIMTZIN
 70
     8
  9
$DIMALTZ
 70
     0
  9
$DIMALTTZ
 70
     0
  9
$DIMUPT
 70
     0
  9
$DIMDEC
 70
     2
  9
$DIMTDEC
 70
     2
  9
$DIMALTU
 70
     2
  9
$DIMALTTD
 70
     2
  9
$DIMTXSTY
  7
Stile_Quota
  9
$DIMAUNIT
 70
     0
  9
$DIMADEC
 70
     1
  9
$DIMALTRND
 40
0.0
  9
$DIMAZIN
 70
     2
  9
$DIMDSEP
 70
    46
  9
$DIMATFIT
 70
     0
  9
$DIMFRAC
 70
     0
  9
$DIMLDRBLK
  1

  9
$DIMLUNIT
 70
     2
  9
$DIMLWD
 70
    -2
  9
$DIMLWE
 70
    -2
  9
$DIMTMOVE
 70
     0
  9
$LUNITS
 70
     2
  9
$LUPREC
 70
     3
  9
$SKETCHINC
 40
0.1
  9
$FILLETRAD
 40
0.0
  9
$AUNITS
 70
     0
  9
$AUPREC
 70
     3
  9
$MENU
  1
.
  9
$ELEVATION
 40
0.0
  9
$PELEVATION
 40
0.0
  9
$THICKNESS
 40
0.0
  9
$LIMCHECK
 70
     0
  9
$CHAMFERA
 40
0.5
  9
$CHAMFERB
 40
0.5
  9
$CHAMFERC
 40
1.0
  9
$CHAMFERD
 40
0.0
  9
$SKPOLY
 70
     1
  9
$TDCREATE
 40
2455048.407451713
  9
$TDUCREATE
 40
2455048.365785047
  9
$TDUPDATE
 40
2455645.413628542
  9
$TDUUPDATE
 40
2455645.371961875
  9
$TDINDWG
 40
0.1393122106
  9
$TDUSRTIMER
 40
0.1393113079
  9
$USRTIMER
 70
     1
  9
$ANGBASE
 50
0.0
  9
$ANGDIR
 70
     0
  9
$PDMODE
 70
     0
  9
$PDSIZE
 40
0.0
  9
$PLINEWID
 40
0.0
  9
$SPLFRAME
 70
     0
  9
$SPLINETYPE
 70
     6
  9
$SPLINESEGS
 70
     8
  9
$HANDSEED
  5
1BD2
  9
$SURFTAB1
 70
     6
  9
$SURFTAB2
 70
     6
  9
$SURFTYPE
 70
     6
  9
$SURFU
 70
     6
  9
$SURFV
 70
     6
  9
$UCSBASE
  2

  9
$UCSNAME
  2

  9
$UCSORG
 10
0.0
 20
0.0
 30
0.0
  9
$UCSXDIR
 10
1.0
 20
0.0
 30
0.0
  9
$UCSYDIR
 10
0.0
 20
1.0
 30
0.0
  9
$UCSORTHOREF
  2

  9
$UCSORTHOVIEW
 70
     0
  9
$UCSORGTOP
 10
0.0
 20
0.0
 30
0.0
  9
$UCSORGBOTTOM
 10
0.0
 20
0.0
 30
0.0
  9
$UCSORGLEFT
 10
0.0
 20
0.0
 30
0.0
  9
$UCSORGRIGHT
 10
0.0
 20
0.0
 30
0.0
  9
$UCSORGFRONT
 10
0.0
 20
0.0
 30
0.0
  9
$UCSORGBACK
 10
0.0
 20
0.0
 30
0.0
  9
$PUCSBASE
  2

  9
$PUCSNAME
  2

  9
$PUCSORG
 10
0.0
 20
0.0
 30
0.0
  9
$PUCSXDIR
 10
1.0
 20
0.0
 30
0.0
  9
$PUCSYDIR
 10
0.0
 20
1.0
 30
0.0
  9
$PUCSORTHOREF
  2

  9
$PUCSORTHOVIEW
 70
     0
  9
$PUCSORGTOP
 10
0.0
 20
0.0
 30
0.0
  9
$PUCSORGBOTTOM
 10
0.0
 20
0.0
 30
0.0
  9
$PUCSORGLEFT
 10
0.0
 20
0.0
 30
0.0
  9
$PUCSORGRIGHT
 10
0.0
 20
0.0
 30
0.0
  9
$PUCSORGFRONT
 10
0.0
 20
0.0
 30
0.0
  9
$PUCSORGBACK
 10
0.0
 20
0.0
 30
0.0
  9
$USERI1
 70
     0
  9
$USERI2
 70
     0
  9
$USERI3
 70
     0
  9
$USERI4
 70
     0
  9
$USERI5
 70
     0
  9
$USERR1
 40
0.0
  9
$USERR2
 40
0.0
  9
$USERR3
 40
0.0
  9
$USERR4
 40
0.0
  9
$USERR5
 40
0.0
  9
$WORLDVIEW
 70
     1
  9
$SHADEDGE
 70
     3
  9
$SHADEDIF
 70
    70
  9
$TILEMODE
 70
     1
  9
$MAXACTVP
 70
    48
  9
$PINSBASE
 10
0.0
 20
0.0
 30
0.0
  9
$PLIMCHECK
 70
     0
  9
$PEXTMIN
 10
1.000000000000000E+20
 20
1.000000000000000E+20
 30
1.000000000000000E+20
  9
$PEXTMAX
 10
-1.000000000000000E+20
 20
-1.000000000000000E+20
 30
-1.000000000000000E+20
  9
$PLIMMIN
 10
0.0
 20
0.0
  9
$PLIMMAX
 10
12.0
 20
9.0
  9
$UNITMODE
 70
     0
  9
$VISRETAIN
 70
     1
  9
$PLINEGEN
 70
     0
  9
$PSLTSCALE
 70
     0
  9
$TREEDEPTH
 70
  3020
  9
$CMLSTYLE
  2
STANDARD
  9
$CMLJUST
 70
     0
  9
$CMLSCALE
 40
1.0
  9
$PROXYGRAPHICS
 70
     1
  9
$MEASUREMENT
 70
     1
  9
$CELWEIGHT
370
    -1
  9
$ENDCAPS
280
     0
  9
$JOINSTYLE
280
     0
  9
$LWDISPLAY
290
     0
  9
$INSUNITS
 70
     0
  9
$HYPERLINKBASE
  1

  9
$STYLESHEET
  1

  9
$XEDIT
290
     1
  9
$CEPSNTYPE
380
     0
  9
$PSTYLEMODE
290
     1
  9
$FINGERPRINTGUID
  2
{F53F2008-5EB1-43F6-A991-C494A34E2A67}
  9
$VERSIONGUID
  2
{684AEE26-9A56-4F37-B4A2-46FAA89F2468}
  9
$EXTNAMES
290
     1
  9
$PSVPSCALE
 40
0.0
  9
$OLESTARTUP
290
     0
  0
ENDSEC
  0
SECTION
  2
CLASSES
  0
CLASS
  1
DICTIONARYVAR
  2
AcDbDictionaryVar
  3
ObjectDBX Classes
 90
        0
280
     0
281
     0
  0
CLASS
  1
ACDBDICTIONARYWDFLT
  2
AcDbDictionaryWithDefault
  3
ObjectDBX Classes
 90
        0
280
     0
281
     0
  0
CLASS
  1
ACDBPLACEHOLDER
  2
AcDbPlaceHolder
  3
ObjectDBX Classes
 90
        0
280
     0
281
     0
  0
CLASS
  1
LAYOUT
  2
AcDbLayout
  3
ObjectDBX Classes
 90
        0
280
     0
281
     0
  0
CLASS
  1
PLOTSETTINGS
  2
AcDbPlotSettings
  3
ObjectDBX Classes
 90
        0
280
     0
281
     0
  0
CLASS
  1
MATERIAL
  2
AcDbMaterial
  3
ObjectDBX Classes
 90
     1153
280
     0
281
     0
  0
CLASS
  1
VISUALSTYLE
  2
AcDbVisualStyle
  3
ObjectDBX Classes
 90
     4095
280
     0
281
     0
  0
CLASS
  1
TABLESTYLE
  2
AcDbTableStyle
  3
ObjectDBX Classes
 90
     4095
280
     0
281
     0
  0
CLASS
  1
SCALE
  2
AcDbScale
  3
ObjectDBX Classes
 90
     1153
280
     0
281
     0
  0
CLASS
  1
MLEADERSTYLE
  2
AcDbMLeaderStyle
  3
ACDB_MLEADERSTYLE_CLASS
 90
     4095
280
     0
281
     0
  0
CLASS
  1
CELLSTYLEMAP
  2
AcDbCellStyleMap
  3
ObjectDBX Classes
 90
     1152
280
     0
281
     0
  0
CLASS
  1
DIMASSOC
  2
AcDbDimAssoc
  3
"AcDbDimAssoc|Product Desc:     AcDim ARX App For Dimension|Company:          Autodesk, Inc.|WEB Address:      www.autodesk.com"
 90
        0
280
     0
281
     0
  0
CLASS
  1
ACDBQSCATEGORY
  2
AcQsCategory
  3
categories
 90
     1024
280
     0
281
     0
  0
CLASS
  1
ACDBQSPALLSTYLE
  2
AcQsPallStyle
  3
pallcart
 90
     1024
280
     0
281
     0
  0
CLASS
  1
AEC_REFEDIT_STATUS_TRACKER
  2
AecDbRefEditStatusTracker
  3
AecArchBase60|Product Desc: Autodesk Architectural Desktop 2007 |Company: Autodesk,Inc. |WEB Address: www.autodesk.com
 90
    32897
280
     0
281
     0
  0
CLASS
  1
NPOCOLLECTION
  2
AcDbImpNonPersistentObjectsCollection
  3
ObjectDBX Classes
 90
    33921
280
     0
281
     0
  0
CLASS
  1
SORTENTSTABLE
  2
AcDbSortentsTable
  3
ObjectDBX Classes
 90
        0
280
     0
281
     0
  0
ENDSEC
  0
SECTION
  2
TABLES
  0
TABLE
  2
VPORT
  5
12
102
{ACAD_XDICTIONARY
360
300
102
}
330
0
100
AcDbSymbolTable
 70
     1
  0
VPORT
  5
2AE
330
12
100
AcDbSymbolTableRecord
100
AcDbViewportTableRecord
  2
*Active
 70
     0
 10
0.0
 20
0.0
 11
1.0
 21
1.0
 12
190.0203085690846
 22
189.9827416016155
 13
0.0
 23
0.0
 14
1.0
 24
1.0
 15
1.0
 25
1.0
 16
0.0
 26
0.0
 36
1.0
 17
0.0
 27
0.0
 37
0.0
 40
433.2911501964778
 41
2.251225490196078
 42
50.0
 43
0.0
 44
0.0
 50
0.0
 51
0.0
 71
     0
 72
   100
 73
     1
 74
     0
 75
     0
 76
     0
 77
     0
 78
     0
281
     0
 65
     1
110
0.0
120
0.0
130
0.0
111
1.0
121
0.0
131
0.0
112
0.0
122
1.0
132
0.0
 79
     0
146
0.0
  0
ENDTAB
  0
TABLE
  2
LTYPE
  5
D
330
0
100
AcDbSymbolTable
 70
     6
  0
LTYPE
  5
E
330
D
100
AcDbSymbolTableRecord
100
AcDbLinetypeTableRecord
  2
BYBLOCK
 70
     0
  3

 72
    65
 73
     0
 40
0.0
  0
LTYPE
  5
F
330
D
100
AcDbSymbolTableRecord
100
AcDbLinetypeTableRecord
  2
BYLAYER
 70
     0
  3

 72
    65
 73
     0
 40
0.0
  0
LTYPE
  5
5
330
D
100
AcDbSymbolTableRecord
100
AcDbLinetypeTableRecord
  2
CONTINUOUS
 70
     0
  3
Solid line
 72
    65
 73
     0
 40
0.0
  0
LTYPE
  5
B5F
330
D
100
AcDbSymbolTableRecord
100
AcDbLinetypeTableRecord
  2
DASHDOT2
 70
     0
  3
_._._._._._._._._._._._._._._._._._._._._._._._
 72
    65
 73
     4
 40
0.5
 49
0.25
 74
     0
 49
-0.125
 74
     0
 49
0.0
 74
     0
 49
-0.125
 74
     0
  0
LTYPE
  5
B60
330
D
100
AcDbSymbolTableRecord
100
AcDbLinetypeTableRecord
  2
ASSI
 70
     0
  3
-.-.-.-.-.-.-.-.-.-.-.-.-.-.-.-.-.-.-.-.-.-.-.-
 72
    65
 73
     4
 40
16.0
 49
10.0
 74
     0
 49
-2.0
 74
     0
 49
2.0
 74
     0
 49
-2.0
 74
     0
  0
LTYPE
  5
B61
330
D
100
AcDbSymbolTableRecord
100
AcDbLinetypeTableRecord
  2
INGOMBRI
 70
     0
  3
--..--..--..--..--..--..--..--..--..--..--..--
 72
    65
 73
     6
 40
20.0
 49
10.0
 74
     0
 49
-2.0
 74
     0
 49
2.0
 74
     0
 49
-2.0
 74
     0
 49
2.0
 74
     0
 49
-2.0
 74
     0
  0
LTYPE
  5
B62
330
D
100
AcDbSymbolTableRecord
100
AcDbLinetypeTableRecord
  2
TRATTEGGIO
 70
     0
  3
- - - - - - - - - - - - - - - - - - - - - -
 72
    65
 73
     2
 40
5.5
 49
4.0
 74
     0
 49
-1.5
 74
     0
  0
LTYPE
  5
B63
330
D
100
AcDbSymbolTableRecord
100
AcDbLinetypeTableRecord
  2
PUNTO
 70
     0
  3
Punto . . . . . . . . . . . . . . . . . . . . .
 72
    65
 73
     2
 40
6.349999999999999
 49
0.0
 74
     0
 49
-6.349999999999999
 74
     0
  0
ENDTAB
  0
TABLE
  2
LAYER
  5
A
102
{ACAD_XDICTIONARY
360
B72
102
}
330
0
100
AcDbSymbolTable
 70
     8
  0
LAYER
  5
4
102
{ACAD_XDICTIONARY
360
37B
102
}
330
A
100
AcDbSymbolTableRecord
100
AcDbLayerTableRecord
  2
0
 70
     0
 62
     7
  6
CONTINUOUS
370
    -3
390
44
  0
LAYER
  5
118
330
A
100
AcDbSymbolTableRecord
100
AcDbLayerTableRecord
  2
Defpoints
 70
     0
 62
     7
  6
CONTINUOUS
290
     0
370
    -3
390
44
  0
LAYER
  5
6DB
102
{ACAD_XDICTIONARY
360
16BA
102
}
330
A
100
AcDbSymbolTableRecord
100
AcDbLayerTableRecord
  2
P-0000
 70
     0
 62
     7
  6
CONTINUOUS
370
    -3
390
44
1001
AcAecLayerStandard
1000

1000
PROFIL.Q30-2VA TAMP./ARG.
  0
LAYER
  5
B5D
102
{ACAD_XDICTIONARY
360
16BC
102
}
330
A
100
AcDbSymbolTableRecord
100
AcDbLayerTableRecord
  2
P-7FC5
 70
     0
 62
     7
  6
CONTINUOUS
370
    -3
390
44
1001
AcAecLayerStandard
1000

1000
.cart
  0
LAYER
  5
D22
102
{ACAD_XDICTIONARY
360
16BE
102
}
330
A
100
AcDbSymbolTableRecord
100
AcDbLayerTableRecord
  2
P-0497
 70
     0
 62
     7
  6
CONTINUOUS
370
    -3
390
44
1001
AcAecLayerStandard
1000

1000
.1
  0
LAYER
  5
16A8
102
{ACAD_XDICTIONARY
360
16C0
102
}
330
A
100
AcDbSymbolTableRecord
100
AcDbLayerTableRecord
  2
TESTO
 70
     0
 62
     4
  6
CONTINUOUS
370
    -3
390
44
  0
LAYER
  5
193D
102
{ACAD_XDICTIONARY
360
193E
102
}
330
A
100
AcDbSymbolTableRecord
100
AcDbLayerTableRecord
  2
P-6B6E
 70
     0
 62
     7
  6
CONTINUOUS
370
    -3
390
44
1001
AcAecLayerStandard
1000

1000
.1
  0
LAYER
  5
1A55
330
A
100
AcDbSymbolTableRecord
100
AcDbLayerTableRecord
  2
P-487B
 70
     0
 62
     7
  6
CONTINUOUS
370
    -3
390
44
1001
AcAecLayerStandard
1000

1000
PROF.Q30 2VA TAMP. ALL.ANOD.ARG.
  0
ENDTAB
  0
TABLE
  2
STYLE
  5
B
330
0
100
AcDbSymbolTable
 70
    10
  0
STYLE
  5
C
330
B
100
AcDbSymbolTableRecord
100
AcDbTextStyleTableRecord
  2
STANDARD
 70
     0
 40
0.0
 41
0.8
 50
0.0
 71
     0
 42
0.2
  3
romans.shx
  4

  0
STYLE
  5
1B
330
B
100
AcDbSymbolTableRecord
100
AcDbTextStyleTableRecord
  2
ROMANS
 70
     0
 40
0.0
 41
0.8
 50
0.0
 71
     0
 42
3.0
  3
ROMANS.shx
  4

  0
STYLE
  5
35C
330
B
100
AcDbSymbolTableRecord
100
AcDbTextStyleTableRecord
  2
Stile_Quota
 70
     0
 40
0.0
 41
1.0
 50
0.0
 71
     0
 42
3.0
  3
BOD_I.TTF
  4

1001
ACAD
1000
Bodoni MT
1071
 16777234
  0
STYLE
  5
B64
330
B
100
AcDbSymbolTableRecord
100
AcDbTextStyleTableRecord
  2
STYLE1
 70
     0
 40
0.0
 41
1.0
 50
0.0
 71
     0
 42
3.0
  3
eurr____.ttf
  4

1001
ACAD
1000
EuroRoman
1071
      514
  0
STYLE
  5
B65
330
B
100
AcDbSymbolTableRecord
100
AcDbTextStyleTableRecord
  2
arial_ttf
 70
     0
 40
0.0
 41
1.0
 50
0.0
 71
     0
 42
0.2
  3
ARIAL.TTF
  4

1001
ACAD
1000
Arial
1071
        2
  0
STYLE
  5
B66
330
B
100
AcDbSymbolTableRecord
100
AcDbTextStyleTableRecord
  2
seansi_ttf
 70
     0
 40
0.0
 41
1.0
 50
0.0
 71
     0
 42
0.2
  3
seansi.ttf
  4

  0
STYLE
  5
B67
330
B
100
AcDbSymbolTableRecord
100
AcDbTextStyleTableRecord
  2
Stile_Cart
 70
     0
 40
0.0
 41
1.0
 50
0.0
 71
     0
 42
1.5
  3
TIMES.TTF
  4

1001
ACAD
1000
Times New Roman
1071
       18
  0
STYLE
  5
B68
330
B
100
AcDbSymbolTableRecord
100
AcDbTextStyleTableRecord
  2

 70
     1
 40
0.0
 41
1.0
 50
0.0
 71
     0
 42
0.2
  3
ltypeshp.shx
  4

  0
STYLE
  5
B69
330
B
100
AcDbSymbolTableRecord
100
AcDbTextStyleTableRecord
  2
Stile_Quota_FISSO
 70
     0
 40
20.0
 41
1.0
 50
0.0
 71
     0
 42
3.0
  3
BOD_I.TTF
  4

1001
ACAD
1000
Bodoni MT
1071
 16777234
  0
STYLE
  5
180D
330
B
100
AcDbSymbolTableRecord
100
AcDbTextStyleTableRecord
  2
SIMPLEX
 70
     0
 40
0.0
 41
1.0
 50
0.0
 71
     0
 42
0.2
  3
SIMPLEX.shx
  4

  0
ENDTAB
  0
TABLE
  2
VIEW
  5
10
330
0
100
AcDbSymbolTable
 70
     0
  0
ENDTAB
  0
TABLE
  2
UCS
  5
11
330
0
100
AcDbSymbolTable
 70
     0
  0
ENDTAB
  0
TABLE
  2
APPID
  5
14
330
0
100
AcDbSymbolTable
 70
    14
  0
APPID
  5
15
330
14
100
AcDbSymbolTableRecord
100
AcDbRegAppTableRecord
  2
ACAD
 70
     0
  0
APPID
  5
53
330
14
100
AcDbSymbolTableRecord
100
AcDbRegAppTableRecord
  2
TOP
 70
     0
  0
APPID
  5
356
330
14
100
AcDbSymbolTableRecord
100
AcDbRegAppTableRecord
  2
ACAD_MLEADERVER
 70
     0
  0
APPID
  5
35A
330
14
100
AcDbSymbolTableRecord
100
AcDbRegAppTableRecord
  2
ACAD_DSTYLE_DIMJAG
 70
     0
  0
APPID
  5
35B
330
14
100
AcDbSymbolTableRecord
100
AcDbRegAppTableRecord
  2
ACAD_DSTYLE_DIMTALN
 70
     0
  0
APPID
  5
35D
330
14
100
AcDbSymbolTableRecord
100
AcDbRegAppTableRecord
  2
AcadAnnoPO
 70
     0
  0
APPID
  5
374
330
14
100
AcDbSymbolTableRecord
100
AcDbRegAppTableRecord
  2
ACAD_EXEMPT_FROM_CAD_STANDARDS
 70
     0
  0
APPID
  5
38F
330
14
100
AcDbSymbolTableRecord
100
AcDbRegAppTableRecord
  2
ACAD_PSEXT
 70
     0
  0
APPID
  5
3BC
330
14
100
AcDbSymbolTableRecord
100
AcDbRegAppTableRecord
  2
ACAD_DSTYLE_DIMBREAK
 70
     0
  0
APPID
  5
6DC
330
14
100
AcDbSymbolTableRecord
100
AcDbRegAppTableRecord
  2
AcAecLayerStandard
 70
     0
  0
APPID
  5
CAC
330
14
100
AcDbSymbolTableRecord
100
AcDbRegAppTableRecord
  2
Bound
 70
     0
  0
APPID
  5
CAF
330
14
100
AcDbSymbolTableRecord
100
AcDbRegAppTableRecord
  2
OrigLayer
 70
     0
  0
APPID
  5
11CA
330
14
100
AcDbSymbolTableRecord
100
AcDbRegAppTableRecord
  2
ACAD_DSTYLE_DIMRADIAL_EXTENSION
 70
     0
  0
APPID
  5
1BB1
330
14
100
AcDbSymbolTableRecord
100
AcDbRegAppTableRecord
  2
ACAD_DSTYLE_DIMJOGGED_JOGANGLE_SYMBOL
 70
     0
  0
ENDTAB
  0
TABLE
  2
DIMSTYLE
  5
16
330
0
100
AcDbSymbolTable
 70
     8
100
AcDbDimStyleTable
 71
     6
340
1D
340
D24
340
B6D
340
B6C
340
B6B
340
B6A
  0
DIMSTYLE
105
1D
330
16
100
AcDbSymbolTableRecord
100
AcDbDimStyleTableRecord
  2
ACADTOP
 70
     0
 40
10.0
 41
2.0
 42
1.0
 43
10.0
 44
1.5
 73
     0
 74
     0
 77
     1
 78
     8
 79
     2
140
2.0
141
2.0
146
0.6
147
1.0
172
     1
176
     2
177
     2
178
     1
179
     1
271
     2
272
     2
284
     8
289
     0
340
35C
1001
ACAD_DSTYLE_DIMJAG
1070
   388
1040
1.5
1001
ACAD_DSTYLE_DIMTALN
1070
   392
1070
     0
  0
DIMSTYLE
105
B6A
330
16
100
AcDbSymbolTableRecord
100
AcDbDimStyleTableRecord
  2
STANDARD
 70
     0
340
C
  0
DIMSTYLE
105
B6B
330
16
100
AcDbSymbolTableRecord
100
AcDbDimStyleTableRecord
  2
DIERRE_LUNG-ALT
 70
     0
 41
3.0
 42
1.0
 43
10.0
 44
1.5
 73
     0
 74
     0
 75
     1
 76
     1
 78
     8
 79
     2
140
20.0
141
2.0
146
0.6
147
1.0
172
     1
176
     3
177
     3
178
    30
179
     1
271
     1
272
     1
281
     1
282
     1
284
     8
340
B69
1001
ACAD_DSTYLE_DIMBREAK
1070
   391
1040
3.75
1001
ACAD_DSTYLE_DIMJAG
1070
   388
1040
1.5
1001
ACAD_DSTYLE_DIMTALN
1070
   392
1070
     0
  0
DIMSTYLE
105
B6C
330
16
100
AcDbSymbolTableRecord
100
AcDbDimStyleTableRecord
  2
DIERRE_LARG
 70
     0
 41
3.0
 42
1.0
 43
10.0
 44
1.5
 73
     0
 74
     0
 75
     1
 76
     1
 78
     8
 79
     2
140
20.0
141
2.0
146
0.6
147
1.0
172
     1
176
     4
177
     4
178
     4
179
     1
271
     1
272
     1
281
     1
282
     1
284
     8
340
B69
1001
ACAD_DSTYLE_DIMBREAK
1070
   391
1040
3.75
1001
ACAD_DSTYLE_DIMJAG
1070
   388
1040
1.5
1001
ACAD_DSTYLE_DIMTALN
1070
   392
1070
     0
  0
DIMSTYLE
105
B6D
330
16
100
AcDbSymbolTableRecord
100
AcDbDimStyleTableRecord
  2
ISO-25
 70
     0
 41
2.5
 42
0.625
 43
3.75
 44
1.25
 73
     0
 74
     0
 77
     1
 78
     8
140
2.5
141
2.5
143
0.03937007874016
147
0.625
171
     3
172
     1
271
     2
272
     2
274
     3
278
    44
283
     0
284
     8
340
C
1001
ACAD_DSTYLE_DIMJOGGED_JOGANGLE_SYMBOL
1070
   384
1040
1.570796326794896
  0
DIMSTYLE
105
D24
330
16
100
AcDbSymbolTableRecord
100
AcDbDimStyleTableRecord
  2
ACADTOP10_0_0_10
 70
     0
 40
10.0
 41
2.0
 42
1.0
 43
10.0
 44
1.5
 73
     0
 74
     0
 77
     1
 78
     8
 79
     2
140
2.0
141
2.0
144
0.1
146
0.6
147
1.0
172
     1
176
     2
177
     2
178
     1
179
     1
271
     2
272
     2
284
     8
289
     0
340
35C
  0
DIMSTYLE
105
16A9
330
16
100
AcDbSymbolTableRecord
100
AcDbDimStyleTableRecord
  2
MAURO
 70
     0
 40
0.1
 41
20.0
 42
20.0
 73
     0
 74
     0
 77
     1
140
10.0
147
2.2
172
     1
271
     1
272
     1
279
     2
340
1B
  0
DIMSTYLE
105
180E
330
16
100
AcDbSymbolTableRecord
100
AcDbDimStyleTableRecord
  2
MECC
 70
     0
 40
10.0
 41
25.0
 42
30.0
 44
5.0
 73
     0
 74
     0
 77
     1
 78
     8
140
25.0
146
0.0072
147
8.0
172
     1
271
     2
272
     2
279
     2
284
     8
285
     8
286
     8
340
180D
  0
ENDTAB
  0
TABLE
  2
BLOCK_RECORD
  5
1
330
0
100
AcDbSymbolTable
 70
    47
  0
BLOCK_RECORD
  5
2
330
1
100
AcDbSymbolTableRecord
100
AcDbBlockTableRecord
  2
*MODEL_SPACE
340
47
  0
BLOCK_RECORD
  5
7
330
1
100
AcDbSymbolTableRecord
100
AcDbBlockTableRecord
  2
*PAPER_SPACE
340
48
  0
BLOCK_RECORD
  5
B74
102
{ACAD_XDICTIONARY
360
C8D
102
}
330
1
100
AcDbSymbolTableRecord
100
AcDbBlockTableRecord
  2
TAB-A4
340
0
  0
BLOCK_RECORD
  5
D26
330
1
100
AcDbSymbolTableRecord
100
AcDbBlockTableRecord
  2
*D1
340
0
  0
BLOCK_RECORD
  5
D3E
330
1
100
AcDbSymbolTableRecord
100
AcDbBlockTableRecord
  2
*D2
340
0
  0
BLOCK_RECORD
  5
D56
330
1
100
AcDbSymbolTableRecord
100
AcDbBlockTableRecord
  2
*D3
340
0
  0
BLOCK_RECORD
  5
D6E
330
1
100
AcDbSymbolTableRecord
100
AcDbBlockTableRecord
  2
*D4
340
0
  0
BLOCK_RECORD
  5
DA1
330
1
100
AcDbSymbolTableRecord
100
AcDbBlockTableRecord
  2
*D5
340
0
  0
BLOCK_RECORD
  5
DB9
330
1
100
AcDbSymbolTableRecord
100
AcDbBlockTableRecord
  2
*D6
340
0
  0
BLOCK_RECORD
  5
DD5
330
1
100
AcDbSymbolTableRecord
100
AcDbBlockTableRecord
  2
*D7
340
0
  0
BLOCK_RECORD
  5
DED
330
1
100
AcDbSymbolTableRecord
100
AcDbBlockTableRecord
  2
*D8
340
0
  0
BLOCK_RECORD
  5
E05
330
1
100
AcDbSymbolTableRecord
100
AcDbBlockTableRecord
  2
*D9
340
0
  0
BLOCK_RECORD
  5
E21
330
1
100
AcDbSymbolTableRecord
100
AcDbBlockTableRecord
  2
*D10
340
0
  0
BLOCK_RECORD
  5
E3D
330
1
100
AcDbSymbolTableRecord
100
AcDbBlockTableRecord
  2
*D11
340
0
  0
BLOCK_RECORD
  5
E59
330
1
100
AcDbSymbolTableRecord
100
AcDbBlockTableRecord
  2
*D12
340
0
  0
BLOCK_RECORD
  5
E71
330
1
100
AcDbSymbolTableRecord
100
AcDbBlockTableRecord
  2
*D13
340
0
  0
BLOCK_RECORD
  5
E8D
330
1
100
AcDbSymbolTableRecord
100
AcDbBlockTableRecord
  2
*D14
340
0
  0
BLOCK_RECORD
  5
EB4
330
1
100
AcDbSymbolTableRecord
100
AcDbBlockTableRecord
  2
*D15
340
0
  0
BLOCK_RECORD
  5
ECC
330
1
100
AcDbSymbolTableRecord
100
AcDbBlockTableRecord
  2
*D16
340
0
  0
BLOCK_RECORD
  5
EE4
330
1
100
AcDbSymbolTableRecord
100
AcDbBlockTableRecord
  2
*D17
340
0
  0
BLOCK_RECORD
  5
EFC
330
1
100
AcDbSymbolTableRecord
100
AcDbBlockTableRecord
  2
*D18
340
0
  0
BLOCK_RECORD
  5
F14
330
1
100
AcDbSymbolTableRecord
100
AcDbBlockTableRecord
  2
*D19
340
0
  0
BLOCK_RECORD
  5
F2C
330
1
100
AcDbSymbolTableRecord
100
AcDbBlockTableRecord
  2
*D20
340
0
  0
BLOCK_RECORD
  5
F48
330
1
100
AcDbSymbolTableRecord
100
AcDbBlockTableRecord
  2
*D21
340
0
  0
BLOCK_RECORD
  5
F60
330
1
100
AcDbSymbolTableRecord
100
AcDbBlockTableRecord
  2
*D22
340
0
  0
BLOCK_RECORD
  5
F7C
330
1
100
AcDbSymbolTableRecord
100
AcDbBlockTableRecord
  2
*D23
340
0
  0
BLOCK_RECORD
  5
F98
330
1
100
AcDbSymbolTableRecord
100
AcDbBlockTableRecord
  2
*D24
340
0
  0
BLOCK_RECORD
  5
FB4
330
1
100
AcDbSymbolTableRecord
100
AcDbBlockTableRecord
  2
*D25
340
0
  0
BLOCK_RECORD
  5
FE8
330
1
100
AcDbSymbolTableRecord
100
AcDbBlockTableRecord
  2
*D26
340
0
  0
BLOCK_RECORD
  5
FF9
330
1
100
AcDbSymbolTableRecord
100
AcDbBlockTableRecord
  2
*D27
340
0
  0
BLOCK_RECORD
  5
1029
330
1
100
AcDbSymbolTableRecord
100
AcDbBlockTableRecord
  2
*D28
340
0
  0
BLOCK_RECORD
  5
106B
330
1
100
AcDbSymbolTableRecord
100
AcDbBlockTableRecord
  2
*D29
340
0
  0
BLOCK_RECORD
  5
1087
330
1
100
AcDbSymbolTableRecord
100
AcDbBlockTableRecord
  2
*D30
340
0
  0
BLOCK_RECORD
  5
109F
330
1
100
AcDbSymbolTableRecord
100
AcDbBlockTableRecord
  2
*D31
340
0
  0
BLOCK_RECORD
  5
11CC
330
1
100
AcDbSymbolTableRecord
100
AcDbBlockTableRecord
  2
*D32
340
0
  0
BLOCK_RECORD
  5
1241
330
1
100
AcDbSymbolTableRecord
100
AcDbBlockTableRecord
  2
*D33
340
0
  0
BLOCK_RECORD
  5
127D
330
1
100
AcDbSymbolTableRecord
100
AcDbBlockTableRecord
  2
*D34
340
0
  0
BLOCK_RECORD
  5
128F
330
1
100
AcDbSymbolTableRecord
100
AcDbBlockTableRecord
  2
*D35
340
0
  0
BLOCK_RECORD
  5
129F
330
1
100
AcDbSymbolTableRecord
100
AcDbBlockTableRecord
  2
*D36
340
0
  0
BLOCK_RECORD
  5
131C
330
1
100
AcDbSymbolTableRecord
100
AcDbBlockTableRecord
  2
*D37
340
0
  0
BLOCK_RECORD
  5
1379
330
1
100
AcDbSymbolTableRecord
100
AcDbBlockTableRecord
  2
*D38
340
0
  0
BLOCK_RECORD
  5
13CB
330
1
100
AcDbSymbolTableRecord
100
AcDbBlockTableRecord
  2
*D39
340
0
  0
BLOCK_RECORD
  5
13E3
330
1
100
AcDbSymbolTableRecord
100
AcDbBlockTableRecord
  2
*D40
340
0
  0
BLOCK_RECORD
  5
1405
330
1
100
AcDbSymbolTableRecord
100
AcDbBlockTableRecord
  2
*D41
340
0
  0
BLOCK_RECORD
  5
142E
330
1
100
AcDbSymbolTableRecord
100
AcDbBlockTableRecord
  2
*D42
340
0
  0
BLOCK_RECORD
  5
1446
330
1
100
AcDbSymbolTableRecord
100
AcDbBlockTableRecord
  2
*D43
340
0
  0
BLOCK_RECORD
  5
145E
330
1
100
AcDbSymbolTableRecord
100
AcDbBlockTableRecord
  2
*D44
340
0
  0
BLOCK_RECORD
  5
1B39
330
1
100
AcDbSymbolTableRecord
100
AcDbBlockTableRecord
  2
*D46
340
0
  0
ENDTAB
  0
ENDSEC
  0
SECTION
  2
BLOCKS
  0
BLOCK
  5
3
330
2
100
AcDbEntity
  8
0
100
AcDbBlockBegin
  2
*MODEL_SPACE
 70
     0
 10
0.0
 20
0.0
 30
0.0
  3
*MODEL_SPACE
  1

  0
ENDBLK
  5
6
330
2
100
AcDbEntity
  8
0
100
AcDbBlockEnd
  0
BLOCK
  5
8
330
7
100
AcDbEntity
 67
     1
  8
0
100
AcDbBlockBegin
  2
*PAPER_SPACE
 70
     0
 10
0.0
 20
0.0
 30
0.0
  3
*PAPER_SPACE
  1

  0
ENDBLK
  5
9
330
7
100
AcDbEntity
 67
     1
  8
0
100
AcDbBlockEnd
  0
BLOCK
  5
C8F
330
B74
100
AcDbEntity
  8
0
 62
     7
100
AcDbBlockBegin
  2
TAB-A4
 70
     2
 10
0.0
 20
0.0
 30
0.0
  3
TAB-A4
  1

  0
LINE
  5
B75
330
B74
100
AcDbEntity
  8
0
  6
Continuous
 62
     0
100
AcDbLine
 10
100.0
 20
143.5
 30
0.0
 11
-100.0
 21
143.5
 31
0.0
1001
TOP
1070
     7
  0
LINE
  5
B76
330
B74
100
AcDbEntity
  8
0
  6
Continuous
 62
     0
100
AcDbLine
 10
-100.0
 20
143.5
 30
0.0
 11
-100.0
 21
-143.5
 31
0.0
1001
TOP
1070
     7
  0
LINE
  5
B77
330
B74
100
AcDbEntity
  8
0
  6
Continuous
 62
     0
100
AcDbLine
 10
-100.0
 20
-143.5
 30
0.0
 11
100.0
 21
-143.5
 31
0.0
1001
TOP
1070
     7
  0
LINE
  5
B78
330
B74
100
AcDbEntity
  8
0
  6
Continuous
 62
     0
100
AcDbLine
 10
100.0
 20
-143.5
 30
0.0
 11
100.0
 21
143.5
 31
0.0
1001
TOP
1070
     7
  0
LINE
  5
B79
330
B74
100
AcDbEntity
  8
0
  6
Continuous
 62
     0
100
AcDbLine
 10
105.0
 20
148.5
 30
0.0
 11
-105.0
 21
148.5
 31
0.0
1001
TOP
1070
     3
  0
LINE
  5
B7A
330
B74
100
AcDbEntity
  8
0
  6
Continuous
 62
     0
100
AcDbLine
 10
-105.0
 20
148.5
 30
0.0
 11
-105.0
 21
-148.5
 31
0.0
1001
TOP
1070
     3
  0
LINE
  5
B7B
330
B74
100
AcDbEntity
  8
0
  6
Continuous
 62
     0
100
AcDbLine
 10
-105.0
 20
-148.5
 30
0.0
 11
105.0
 21
-148.5
 31
0.0
1001
TOP
1070
     3
  0
LINE
  5
B7C
330
B74
100
AcDbEntity
  8
0
  6
Continuous
 62
     0
100
AcDbLine
 10
105.0
 20
-148.5
 30
0.0
 11
105.0
 21
148.5
 31
0.0
1001
TOP
1070
     3
  0
ATTDEF
  5
B7D
330
B74
100
AcDbEntity
  8
0
 62
     0
 48
35.0
100
AcDbText
 10
-76.25989897767704
 20
-84.74999999999999
 30
0.0
 40
2.5
  1

  7
Stile_Cart
 11
-76.25989897767704
 21
-83.49999999999999
 31
0.0
100
AcDbAttributeDefinition
  3

  2
DESCRIZIONE
 70
     4
 74
     2
1001
TOP
1070
     7
  0
LINE
  5
B7E
330
B74
100
AcDbEntity
  8
0
 62
     0
 48
35.0
100
AcDbLine
 10
100.0
 20
-138.5
 30
0.0
 11
-100.0
 21
-138.5
 31
0.0
1001
TOP
1070
     3
  0
MTEXT
  5
B7F
330
B74
100
AcDbEntity
  8
0
 62
     0
 48
35.0
100
AcDbMText
 10
0.0
 20
-141.0
 30
0.0
 40
1.499624999999999
 41
190.3973187722231
 71
     5
 72
     1
  1
{\C256;SI VIETA L'USO E LA RIPRODUZIONE O LA VISIONE A TERZI DEL PRESENTE DISEGNO SENZA ESPLICITA AUTORIZZAZIONE, \H1.333x;Dierre \H0.75x;TUTELERA' I PROPRI DIRITTI A NORMA DI LEGGE}
  7
Stile_Cart
 73
     1
 44
1.0
1001
TOP
1070
     3
1001
ACAD
1000
MTEXTBEGIN
1070
    73
1070
     1
1070
    44
1040
1.0
1070
    74
1070
     0
1000
MTEXTEND
  0
LINE
  5
B80
330
B74
100
AcDbEntity
  8
0
 62
     0
 48
35.0
100
AcDbLine
 10
-100.0
 20
-78.5
 30
0.0
 11
100.0
 21
-78.49999999999988
 31
0.0
1001
TOP
1070
     3
  0
LINE
  5
B81
330
B74
100
AcDbEntity
  8
0
 62
     0
 48
35.0
100
AcDbLine
 10
35.0
 20
-78.5
 30
0.0
 11
35.0
 21
-138.5
 31
0.0
1001
TOP
1070
     3
  0
LINE
  5
B82
330
B74
100
AcDbEntity
  8
0
 62
     0
 48
35.0
100
AcDbLine
 10
-100.0
 20
-130.5
 30
0.0
 11
35.0
 21
-130.5
 31
0.0
1001
TOP
1070
     1
  0
LINE
  5
B83
330
B74
100
AcDbEntity
  8
0
 62
     0
 48
35.0
100
AcDbLine
 10
-100.0
 20
-108.5
 30
0.0
 11
35.0
 21
-108.5
 31
0.0
1001
TOP
1070
     1
  0
LINE
  5
B84
330
B74
100
AcDbEntity
  8
0
 62
     0
 48
35.0
100
AcDbLine
 10
-66.25
 20
-130.5
 30
0.0
 11
-66.25
 21
-138.5
 31
0.0
1001
TOP
1070
     7
  0
LINE
  5
B85
330
B74
100
AcDbEntity
  8
0
 62
     0
 48
35.0
100
AcDbLine
 10
-100.0
 20
-98.50000000000001
 30
0.0
 11
35.0
 21
-98.50000000000001
 31
0.0
1001
TOP
1070
     1
  0
LINE
  5
B86
330
B74
100
AcDbEntity
  8
0
 62
     0
 48
35.0
100
AcDbLine
 10
-27.5
 20
-98.50000000000001
 30
0.0
 11
-27.5
 21
-108.5
 31
0.0
1001
TOP
1070
     1
  0
TEXT
  5
B87
330
B74
100
AcDbEntity
  8
0
 62
     0
 48
35.0
100
AcDbText
 10
-99.24333629514059
 20
-84.74999999999999
 30
0.0
 40
1.6
  1
DENOMINAZIONE:
  7
STYLE1
100
AcDbText
1001
TOP
1070
     1
  0
TEXT
  5
B88
330
B74
100
AcDbEntity
  8
0
 62
     0
 48
35.0
100
AcDbText
 10
-99.24333629514059
 20
-105.5
 30
0.0
 40
1.6
  1
CLIENTE:
  7
STYLE1
100
AcDbText
1001
TOP
1070
     1
  0
LINE
  5
B89
330
B74
100
AcDbEntity
  8
0
 62
     0
 48
35.0
100
AcDbLine
 10
-27.5
 20
-103.5
 30
0.0
 11
35.00000000000091
 21
-103.5
 31
0.0
1001
TOP
1070
     1
  0
TEXT
  5
B8A
330
B74
100
AcDbEntity
  8
0
 62
     0
 48
35.0
100
AcDbText
 10
-26.74333629514058
 20
-102.25
 30
0.0
 40
1.6
  1
COD. CLIENTE:
  7
STYLE1
100
AcDbText
1001
TOP
1070
     1
  0
TEXT
  5
B8B
330
B74
100
AcDbEntity
  8
0
 62
     0
 48
35.0
100
AcDbText
 10
-26.74333629514058
 20
-107.25
 30
0.0
 40
1.6
  1
CC CLIENTE:
  7
STYLE1
100
AcDbText
1001
TOP
1070
     1
  0
LINE
  5
B8C
330
B74
100
AcDbEntity
  8
0
 62
     0
 48
35.0
100
AcDbLine
 10
35.0
 20
-85.99999999999988
 30
0.0
 11
100.0
 21
-85.99999999999988
 31
0.0
1001
TOP
1070
     7
  0
LINE
  5
B8D
330
B74
100
AcDbEntity
  8
0
 62
     0
 48
35.0
100
AcDbLine
 10
35.0
 20
-93.49999999999988
 30
0.0
 11
100.0
 21
-93.49999999999988
 31
0.0
1001
TOP
1070
     7
  0
LINE
  5
B8E
330
B74
100
AcDbEntity
  8
0
 62
     0
 48
35.0
100
AcDbLine
 10
35.0
 20
-100.9999999999999
 30
0.0
 11
100.0
 21
-100.9999999999999
 31
0.0
1001
TOP
1070
     7
  0
TEXT
  5
B8F
330
B74
100
AcDbEntity
  8
0
 62
     0
 48
35.0
100
AcDbText
 10
35.75666370485942
 20
-83.99999999999989
 30
0.0
 40
1.6
  1
Data:
  7
STYLE1
100
AcDbText
1001
TOP
1070
     1
  0
TEXT
  5
B90
330
B74
100
AcDbEntity
  8
0
 62
     0
 48
35.0
100
AcDbText
 10
35.75666370485942
 20
-90.74999999999988
 30
0.0
 40
1.6
  1
Diseg.:        
  7
STYLE1
100
AcDbText
1001
TOP
1070
     1
  0
TEXT
  5
B91
330
B74
100
AcDbEntity
  8
0
 62
     0
 48
35.0
100
AcDbText
 10
35.75666370485942
 20
-98.49999999999988
 30
0.0
 40
1.6
  1
Rifer. ordine:
  7
STYLE1
100
AcDbText
1001
TOP
1070
     1
  0
LINE
  5
B92
330
B74
100
AcDbEntity
  8
0
 62
     0
 48
35.0
100
AcDbLine
 10
72.0
 20
-78.49999999999988
 30
0.0
 11
72.0
 21
-93.49999999999999
 31
0.0
  0
TEXT
  5
B93
330
B74
100
AcDbEntity
  8
0
 62
     0
 48
35.0
100
AcDbText
 10
72.75666370485942
 20
-83.99999999999989
 30
0.0
 40
1.6
  1
Scala:
  7
STYLE1
100
AcDbText
1001
TOP
1070
     1
  0
TEXT
  5
B94
330
B74
100
AcDbEntity
  8
0
 62
     0
 48
35.0
100
AcDbText
 10
72.75666370485942
 20
-91.49999999999989
 30
0.0
 40
1.6
  1
Q.ta:
  7
STYLE1
100
AcDbText
1001
TOP
1070
     1
  0
TEXT
  5
B95
330
B74
100
AcDbEntity
  8
0
 62
     0
 48
35.0
100
AcDbText
 10
35.85819235127565
 20
-110.1249999999999
 30
0.0
 40
1.76
  1
Codice N
  7
STYLE1
100
AcDbText
1001
TOP
1070
     1
  0
LINE
  5
B96
330
B74
100
AcDbEntity
  8
0
 62
     0
 48
35.0
100
AcDbLine
 10
35.0
 20
-114.7499999999999
 30
0.0
 11
100.0
 21
-114.7499999999999
 31
0.0
1001
TOP
1070
     7
  0
LINE
  5
B97
330
B74
100
AcDbEntity
  8
0
 62
     0
 48
35.0
100
AcDbLine
 10
35.0
 20
-124.7499999999999
 30
0.0
 11
100.0
 21
-124.7499999999999
 31
0.0
1001
TOP
1070
     7
  0
LINE
  5
B98
330
B74
100
AcDbEntity
  8
0
 62
     0
 48
35.0
100
AcDbLine
 10
35.0
 20
-130.5
 30
0.0
 11
100.0
 21
-130.5
 31
0.0
1001
TOP
1070
     7
  0
CIRCLE
  5
B99
330
B74
100
AcDbEntity
  8
0
  6
Continuous
 62
     0
100
AcDbCircle
 10
94.1449550471707
 20
-134.5409172698267
 30
0.0
 40
3.0
1001
TOP
1070
     2
  0
LINE
  5
B9A
330
B74
100
AcDbEntity
  8
0
  6
DASHDOT2
 62
     0
100
AcDbLine
 10
94.1449550471707
 20
-131.5409172698267
 30
0.0
 11
94.1449550471707
 21
-137.5409172698267
 31
0.0
1001
TOP
1070
     2
  0
CIRCLE
  5
B9B
330
B74
100
AcDbEntity
  8
0
  6
Continuous
 62
     0
100
AcDbCircle
 10
94.1449550471707
 20
-134.5409172698267
 30
0.0
 40
1.5
1001
TOP
1070
     2
  0
LINE
  5
B9C
330
B74
100
AcDbEntity
  8
0
  6
DASHDOT2
 62
     0
100
AcDbLine
 10
81.35716881113784
 20
-134.5409172698267
 30
0.0
 11
97.14495504717071
 21
-134.5409172698267
 31
0.0
1001
TOP
1070
     2
  0
LINE
  5
B9D
330
B74
100
AcDbEntity
  8
0
  6
Continuous
 62
     0
100
AcDbLine
 10
88.51173788868619
 20
-131.5409172698267
 30
0.0
 11
88.51173788868619
 21
-137.8298833532369
 31
0.0
1001
TOP
1070
     2
  0
LINE
  5
B9E
330
B74
100
AcDbEntity
  8
0
  6
Continuous
 62
     0
100
AcDbLine
 10
81.35716881113784
 20
-133.0409172698267
 30
0.0
 11
81.35716881113784
 21
-136.0409172698267
 31
0.0
1001
TOP
1070
     2
  0
LINE
  5
B9F
330
B74
100
AcDbEntity
  8
0
  6
Continuous
 62
     0
100
AcDbLine
 10
81.35716881113784
 20
-136.0409172698267
 30
0.0
 11
88.51173788868619
 21
-137.8298833532369
 31
0.0
1001
TOP
1070
     2
  0
LINE
  5
BA0
330
B74
100
AcDbEntity
  8
0
  6
Continuous
 62
     0
100
AcDbLine
 10
88.51173788868619
 20
-131.5409172698267
 30
0.0
 11
81.35716881113784
 21
-133.0409172698267
 31
0.0
1001
TOP
1070
     2
  0
LINE
  5
BA1
330
B74
100
AcDbEntity
  8
0
 62
     0
 48
35.0
100
AcDbLine
 10
78.5
 20
-138.5
 30
0.0
 11
78.5
 21
-130.5
 31
0.0
  0
MTEXT
  5
BA2
330
B74
100
AcDbEntity
  8
0
 62
     0
 48
35.0
100
AcDbMText
 10
36.70159610234714
 20
-116.147829675845
 30
0.0
 40
2.0
 41
187.0802
 71
     1
 72
     5
  1
{\C256;LE TOLLERANZE SI INTENDONO SU PEZZO\PFINITO COMPLETO DI ZINCATURA}
  7
Stile_Cart
 73
     1
 44
1.0
1001
TOP
1070
     3
1001
ACAD
1000
MTEXTBEGIN
1070
    73
1070
     1
1070
    44
1040
1.0
1070
    74
1070
     0
1000
MTEXTEND
  0
LINE
  5
BA3
330
B74
100
AcDbEntity
  8
0
 62
     0
100
AcDbLine
 10
-100.0
 20
-71.0
 30
0.0
 11
99.99999999999909
 21
-71.00000000000012
 31
0.0
1001
TOP
1070
     3
  0
LINE
  5
BA4
330
B74
100
AcDbEntity
  8
0
 62
     0
100
AcDbLine
 10
-100.0
 20
-67.0
 30
0.0
 11
99.99999999999909
 21
-67.0
 31
0.0
1001
TOP
1070
     3
  0
LINE
  5
BA5
330
B74
100
AcDbEntity
  8
0
 62
     0
100
AcDbLine
 10
-100.0
 20
-62.0
 30
0.0
 11
99.99999999999909
 21
-61.99999999999988
 31
0.0
1001
TOP
1070
     3
  0
LINE
  5
BA6
330
B74
100
AcDbEntity
  8
0
 62
     0
 48
35.0
100
AcDbLine
 10
-85.0
 20
-61.99999999999999
 30
0.0
 11
-85.0
 21
-78.5
 31
0.0
1001
TOP
1070
     1
  0
TEXT
  5
BA7
330
B74
100
AcDbEntity
  8
0
 62
     0
 48
35.0
100
AcDbText
 10
-99.24333629514149
 20
-76.0
 30
0.0
 40
1.6
  1
POS.
  7
STYLE1
100
AcDbText
1001
TOP
1070
     1
  0
TEXT
  5
BA8
330
B74
100
AcDbEntity
  8
0
 62
     0
 48
35.0
100
AcDbText
 10
-84.2433362951424
 20
-76.0
 30
0.0
 40
1.6
  1
MATERIALE:
  7
STYLE1
100
AcDbText
1001
TOP
1070
     1
  0
LINE
  5
BA9
330
B74
100
AcDbEntity
  8
0
 62
     0
 48
35.0
100
AcDbLine
 10
14.99999999999909
 20
-71.00000000000022
 30
0.0
 11
15.0
 21
-78.5
 31
0.0
1001
TOP
1070
     1
  0
TEXT
  5
BAA
330
B74
100
AcDbEntity
  8
0
 62
     0
 48
35.0
100
AcDbText
 10
15.75666370485669
 20
-76.0
 30
0.0
 40
1.6
  1
TRATTAMENTI:
  7
STYLE1
100
AcDbText
1001
TOP
1070
     1
  0
TEXT
  5
BAB
330
B74
100
AcDbEntity
  8
0
 62
     0
 48
35.0
100
AcDbText
 10
-94.94297836942587
 20
-69.79763860700177
 30
0.0
 40
1.6
  1
Rev.
  7
STYLE1
100
AcDbText
1001
TOP
1070
     1
  0
LINE
  5
BAC
330
B74
100
AcDbEntity
  8
0
 62
     0
 48
35.0
100
AcDbLine
 10
80.0
 20
-61.9999999999999
 30
0.0
 11
80.0000000000009
 21
-71.00000000000012
 31
0.0
1001
TOP
1070
     1
  0
LINE
  5
BAD
330
B74
100
AcDbEntity
  8
0
 62
     0
 48
35.0
100
AcDbLine
 10
65.00000000000032
 20
-61.99999999999991
 30
0.0
 11
65.00000000000091
 21
-71.00000000000114
 31
0.0
1001
TOP
1070
     1
  0
TEXT
  5
BAE
330
B74
100
AcDbEntity
  8
0
 62
     0
 48
35.0
100
AcDbText
 10
70.05702163057503
 20
-69.79763860700177
 30
0.0
 40
1.6
  1
Data
  7
STYLE1
100
AcDbText
1001
TOP
1070
     1
  0
TEXT
  5
BAF
330
B74
100
AcDbEntity
  8
0
 62
     0
 48
35.0
100
AcDbText
 10
87.79240430569643
 20
-69.79763860700177
 30
0.0
 40
1.6
  1
Diseg.
  7
STYLE1
100
AcDbText
1001
TOP
1070
     1
  0
LINE
  5
BB0
330
B74
100
AcDbEntity
  8
0
 62
     0
 48
35.0
100
AcDbLine
 10
-32.5
 20
-130.5
 30
0.0
 11
-32.5
 21
-138.5
 31
0.0
1001
TOP
1070
     7
  0
LINE
  5
BB1
330
B74
100
AcDbEntity
  8
0
 62
     0
 48
35.0
100
AcDbLine
 10
1.25
 20
-130.5
 30
0.0
 11
1.25
 21
-138.5
 31
0.0
1001
TOP
1070
     7
  0
LINE
  5
BB2
330
B74
100
AcDbEntity
  8
0
  6
Continuous
 62
     0
100
AcDbLine
 10
-84.625
 20
-135.2853677388285
 30
0.0
 11
-83.125
 21
-138.2853677388285
 31
0.0
1001
TOP
1070
     2
  0
LINE
  5
BB3
330
B74
100
AcDbEntity
  8
0
  6
Continuous
 62
     0
100
AcDbLine
 10
-83.125
 20
-138.2853677388285
 30
0.0
 11
-80.12500000000001
 21
-132.2853677388285
 31
0.0
1001
TOP
1070
     2
  0
CIRCLE
  5
BB4
330
B74
100
AcDbEntity
  8
0
  6
Continuous
 62
     0
100
AcDbCircle
 10
-83.125
 20
-136.1513931426129
 30
0.0
 40
0.8660254037843873
1001
TOP
1070
     2
  0
TEXT
  5
BB5
330
B74
100
AcDbEntity
  8
0
  6
Continuous
 62
     0
100
AcDbText
 10
36.65725579953532
 20
-127.6856811538551
 30
0.0
 40
1.5
  1
Le QUOTE senza tolleranze si intendono h 11 / H 11
  7
Stile_Cart
100
AcDbText
1001
TOP
1070
     7
  0
TEXT
  5
BB6
330
B74
100
AcDbEntity
  8
0
  6
Continuous
 62
     0
100
AcDbText
 10
36.56316783991022
 20
-136.7809056532263
 30
0.0
 40
1.5
  1
Smussi e raggi non quotati = 1 mm
  7
Stile_Cart
100
AcDbText
1001
TOP
1070
     7
  0
TEXT
  5
BB7
330
B74
100
AcDbEntity
  8
0
  6
Continuous
 62
     0
100
AcDbText
 10
36.70159610234714
 20
-133.4356811538553
 30
0.0
 40
1.5
  1
Negli spigoli non quotati smussi 0,5 x 45°
  7
Stile_Cart
100
AcDbText
1001
TOP
1070
     7
  0
LINE
  5
BB8
330
B74
100
AcDbEntity
  8
0
  6
Continuous
 62
     0
100
AcDbLine
 10
22.04910490551336
 20
-135.2267571184318
 30
0.0
 11
23.54910490551336
 21
-138.2267571184318
 31
0.0
1001
TOP
1070
     2
  0
LINE
  5
BB9
330
B74
100
AcDbEntity
  8
0
  6
Continuous
 62
     0
100
AcDbLine
 10
23.54910490551336
 20
-138.2267571184318
 30
0.0
 11
26.54910490551336
 21
-132.2267571184318
 31
0.0
1001
TOP
1070
     2
  0
TEXT
  5
BBA
330
B74
100
AcDbEntity
  8
0
  6
Continuous
 62
     0
100
AcDbText
 10
21.21024234627165
 20
-134.7267571184318
 30
0.0
 40
2.0
  1
0,8
  7
seansi_ttf
 11
21.21024234627165
 21
-132.7267571184318
 31
0.0
100
AcDbText
 73
     3
1001
TOP
1070
     2
  0
LINE
  5
BBB
330
B74
100
AcDbEntity
  8
0
  6
Continuous
 62
     0
100
AcDbLine
 10
14.18630267108197
 20
-135.2559419652411
 30
0.0
 11
15.68630267108197
 21
-138.2559419652411
 31
0.0
1001
TOP
1070
     2
  0
LINE
  5
BBC
330
B74
100
AcDbEntity
  8
0
  6
Continuous
 62
     0
100
AcDbLine
 10
15.68630267108197
 20
-138.2559419652411
 30
0.0
 11
17.18630267108197
 21
-135.2559419652411
 31
0.0
1001
TOP
1070
     2
  0
LINE
  5
BBD
330
B74
100
AcDbEntity
  8
0
  6
Continuous
 62
     0
100
AcDbLine
 10
17.18630267108197
 20
-135.2559419652411
 30
0.0
 11
14.18630267108197
 21
-135.2559419652411
 31
0.0
1001
TOP
1070
     2
  0
LINE
  5
BBE
330
B74
100
AcDbEntity
  8
0
  6
Continuous
 62
     0
100
AcDbLine
 10
14.18630267108197
 20
-135.2559419652411
 30
0.0
 11
12.68630267108197
 21
-138.2559419652411
 31
0.0
1001
TOP
1070
     2
  0
LINE
  5
BBF
330
B74
100
AcDbEntity
  8
0
  6
Continuous
 62
     0
100
AcDbLine
 10
12.68630267108197
 20
-138.2559419652411
 30
0.0
 11
11.18630267108197
 21
-135.2559419652411
 31
0.0
1001
TOP
1070
     2
  0
LINE
  5
BC0
330
B74
100
AcDbEntity
  8
0
  6
Continuous
 62
     0
100
AcDbLine
 10
11.18630267108197
 20
-135.2559419652411
 30
0.0
 11
14.18630267108197
 21
-135.2559419652411
 31
0.0
1001
TOP
1070
     2
  0
LINE
  5
BC1
330
B74
100
AcDbEntity
  8
0
  6
Continuous
 62
     0
100
AcDbLine
 10
11.18630267108197
 20
-135.2559419652411
 30
0.0
 11
9.686302671081968
 21
-138.2559419652411
 31
0.0
1001
TOP
1070
     2
  0
LINE
  5
BC2
330
B74
100
AcDbEntity
  8
0
  6
Continuous
 62
     0
100
AcDbLine
 10
9.686302671081968
 20
-138.2559419652411
 30
0.0
 11
8.186302671081968
 21
-135.2559419652411
 31
0.0
1001
TOP
1070
     2
  0
LINE
  5
BC3
330
B74
100
AcDbEntity
  8
0
  6
Continuous
 62
     0
100
AcDbLine
 10
8.186302671081968
 20
-135.2559419652411
 30
0.0
 11
11.18630267108197
 21
-135.2559419652411
 31
0.0
1001
TOP
1070
     2
  0
LINE
  5
BC4
330
B74
100
AcDbEntity
  8
0
  6
Continuous
 62
     0
100
AcDbLine
 10
-11.09407416882067
 20
-135.2999430320282
 30
0.0
 11
-9.594074168820668
 21
-138.2999430320282
 31
0.0
1001
TOP
1070
     2
  0
LINE
  5
BC5
330
B74
100
AcDbEntity
  8
0
  6
Continuous
 62
     0
100
AcDbLine
 10
-9.594074168820668
 20
-138.2999430320282
 30
0.0
 11
-6.594074168820668
 21
-132.2999430320282
 31
0.0
1001
TOP
1070
     2
  0
TEXT
  5
BC6
330
B74
100
AcDbEntity
  8
0
  6
Continuous
 62
     0
100
AcDbText
 10
-11.93293672806237
 20
-134.7999430320282
 30
0.0
 40
2.0
  1
1,6
  7
seansi_ttf
 11
-11.93293672806237
 21
-132.7999430320282
 31
0.0
100
AcDbText
 73
     3
1001
TOP
1070
     2
  0
LINE
  5
BC7
330
B74
100
AcDbEntity
  8
0
  6
Continuous
 62
     0
100
AcDbLine
 10
-21.65592583117933
 20
-135.2999430320282
 30
0.0
 11
-20.15592583117933
 21
-138.2999430320282
 31
0.0
1001
TOP
1070
     2
  0
LINE
  5
BC8
330
B74
100
AcDbEntity
  8
0
  6
Continuous
 62
     0
100
AcDbLine
 10
-20.15592583117933
 20
-138.2999430320282
 30
0.0
 11
-18.65592583117933
 21
-135.2999430320282
 31
0.0
1001
TOP
1070
     2
  0
LINE
  5
BC9
330
B74
100
AcDbEntity
  8
0
  6
Continuous
 62
     0
100
AcDbLine
 10
-18.65592583117933
 20
-135.2999430320282
 30
0.0
 11
-21.65592583117933
 21
-135.2999430320282
 31
0.0
1001
TOP
1070
     2
  0
LINE
  5
BCA
330
B74
100
AcDbEntity
  8
0
  6
Continuous
 62
     0
100
AcDbLine
 10
-21.65592583117933
 20
-135.2999430320282
 30
0.0
 11
-23.15592583117933
 21
-138.2999430320282
 31
0.0
1001
TOP
1070
     2
  0
LINE
  5
BCB
330
B74
100
AcDbEntity
  8
0
  6
Continuous
 62
     0
100
AcDbLine
 10
-23.15592583117933
 20
-138.2999430320282
 30
0.0
 11
-24.65592583117933
 21
-135.2999430320282
 31
0.0
1001
TOP
1070
     2
  0
LINE
  5
BCC
330
B74
100
AcDbEntity
  8
0
  6
Continuous
 62
     0
100
AcDbLine
 10
-24.65592583117933
 20
-135.2999430320282
 30
0.0
 11
-21.65592583117933
 21
-135.2999430320282
 31
0.0
1001
TOP
1070
     2
  0
LINE
  5
BCD
330
B74
100
AcDbEntity
  8
0
  6
Continuous
 62
     0
100
AcDbLine
 10
-58.06883755106941
 20
-135.3397943988076
 30
0.0
 11
-56.56883755106941
 21
-138.3397943988076
 31
0.0
1001
TOP
1070
     2
  0
LINE
  5
BCE
330
B74
100
AcDbEntity
  8
0
  6
Continuous
 62
     0
100
AcDbLine
 10
-56.56883755106941
 20
-138.3397943988076
 30
0.0
 11
-55.0688375510694
 21
-135.3397943988076
 31
0.0
1001
TOP
1070
     2
  0
LINE
  5
BCF
330
B74
100
AcDbEntity
  8
0
  6
Continuous
 62
     0
100
AcDbLine
 10
-55.0688375510694
 20
-135.3397943988076
 30
0.0
 11
-58.06883755106941
 21
-135.3397943988076
 31
0.0
1001
TOP
1070
     2
  0
LINE
  5
BD0
330
B74
100
AcDbEntity
  8
0
  6
Continuous
 62
     0
100
AcDbLine
 10
-43.68116244893059
 20
-135.3397943988076
 30
0.0
 11
-42.18116244893059
 21
-138.3397943988076
 31
0.0
1001
TOP
1070
     2
  0
LINE
  5
BD1
330
B74
100
AcDbEntity
  8
0
  6
Continuous
 62
     0
100
AcDbLine
 10
-42.18116244893059
 20
-138.3397943988076
 30
0.0
 11
-39.18116244893059
 21
-132.3397943988076
 31
0.0
1001
TOP
1070
     2
  0
TEXT
  5
BD2
330
B74
100
AcDbEntity
  8
0
  6
Continuous
 62
     0
100
AcDbText
 10
-44.52002500817229
 20
-134.8397943988076
 30
0.0
 40
2.0
  1
6,3
  7
seansi_ttf
 11
-44.52002500817229
 21
-132.8397943988076
 31
0.0
100
AcDbText
 73
     3
1001
TOP
1070
     2
  0
ATTDEF
  5
BD3
330
B74
100
AcDbEntity
  8
0
 62
     0
 48
35.0
100
AcDbText
 10
-76.25989897767704
 20
-89.74999999999999
 30
0.0
 40
2.5
  1

  7
Stile_Cart
 11
-76.25989897767704
 21
-88.49999999999999
 31
0.0
100
AcDbAttributeDefinition
  3

  2
DESCRIZIONE2
 70
     4
 74
     2
1001
TOP
1070
     7
  0
ATTDEF
  5
BD4
330
B74
100
AcDbEntity
  8
0
 62
     0
 48
35.0
100
AcDbText
 10
-76.25989897767704
 20
-94.74999999999999
 30
0.0
 40
2.5
  1

  7
Stile_Cart
 11
-76.25989897767704
 21
-93.49999999999999
 31
0.0
100
AcDbAttributeDefinition
  3

  2
DESCRIZIONE3
 70
     4
 74
     2
1001
TOP
1070
     7
  0
ATTDEF
  5
BD5
330
B74
100
AcDbEntity
  8
0
 62
     0
 48
35.0
100
AcDbText
 10
42.76829842361894
 20
-83.99999999999989
 30
0.0
 40
3.5
  1

  7
Stile_Cart
 11
42.76829842361894
 21
-82.2499999999999
 31
0.0
100
AcDbAttributeDefinition
  3

  2
DATA
 70
     4
 74
     2
1001
TOP
1070
     7
  0
ATTDEF
  5
BD6
330
B74
100
AcDbEntity
  8
0
 62
     0
 48
35.0
100
AcDbText
 10
79.15321575123653
 20
-83.99999999999989
 30
0.0
 40
3.5
  1

  7
Stile_Cart
 11
79.15321575123653
 21
-82.24999999999988
 31
0.0
100
AcDbAttributeDefinition
  3

  2
SCALA
 70
     4
 74
     2
1001
TOP
1070
     7
  0
ATTDEF
  5
BD7
330
B74
100
AcDbEntity
  8
0
 62
     0
 48
35.0
100
AcDbText
 10
79.15321575123653
 20
-91.49999999999989
 30
0.0
 40
3.5
  1

  7
Stile_Cart
 11
79.15321575123653
 21
-89.74999999999988
 31
0.0
100
AcDbAttributeDefinition
  3

  2
QTA
 70
     4
 74
     2
1001
TOP
1070
     7
  0
ATTDEF
  5
BD8
330
B74
100
AcDbEntity
  8
0
 62
     0
 48
35.0
100
AcDbText
 10
42.76829842361894
 20
-90.74999999999988
 30
0.0
 40
2.0
  1

  7
Stile_Cart
 11
42.76829842361894
 21
-89.74999999999988
 31
0.0
100
AcDbAttributeDefinition
  3

  2
DISEGNATORE
 70
     4
 74
     2
1001
TOP
1070
     7
  0
ATTDEF
  5
BD9
330
B74
100
AcDbEntity
  8
0
 62
     0
 48
35.0
100
AcDbText
 10
51.64776592404542
 20
-98.49999999999988
 30
0.0
 40
2.5
  1

  7
Stile_Cart
 11
51.64776592404542
 21
-97.24999999999988
 31
0.0
100
AcDbAttributeDefinition
  3

  2
RIF_ORDINE
 70
     4
 74
     2
1001
TOP
1070
     7
  0
ATTDEF
  5
BDA
330
B74
100
AcDbEntity
  8
0
 62
     0
 48
35.0
100
AcDbText
 10
50.29007657152305
 20
-110.1249999999999
 30
0.0
 40
4.5
  1

  7
Stile_Cart
 11
50.29007657152305
 21
-107.8749999999999
 31
0.0
100
AcDbAttributeDefinition
  3

  2
CODICE
 70
     4
 74
     2
1001
TOP
1070
     7
  0
ATTDEF
  5
BDB
330
B74
100
AcDbEntity
  8
0
 62
     0
 48
35.0
100
AcDbText
 10
-10.1983793647978
 20
-102.25
 30
0.0
 40
2.5
  1

  7
Stile_Cart
 11
-10.1983793647978
 21
-101.0
 31
0.0
100
AcDbAttributeDefinition
  3

  2
COD_CLIENTE
 70
     4
 74
     2
1001
TOP
1070
     7
  0
ATTDEF
  5
BDC
330
B74
100
AcDbEntity
  8
0
 62
     0
 48
35.0
100
AcDbText
 10
-10.18785708582345
 20
-107.25
 30
0.0
 40
2.5
  1

  7
Stile_Cart
 11
-10.18785708582345
 21
-106.0
 31
0.0
100
AcDbAttributeDefinition
  3

  2
COMMESSA
 70
     4
 74
     2
1001
TOP
1070
     7
  0
ATTDEF
  5
BDD
330
B74
100
AcDbEntity
  8
0
 62
     0
 48
35.0
100
AcDbText
 10
-87.23964845993032
 20
-105.5
 30
0.0
 40
4.0
  1

  7
Stile_Cart
 11
-87.23964845993032
 21
-103.5
 31
0.0
100
AcDbAttributeDefinition
  3

  2
CLIENTE
 70
     4
 74
     2
1001
TOP
1070
     7
  0
ATTDEF
  5
BDE
330
B74
100
AcDbEntity
  8
0
 62
     0
 48
35.0
100
AcDbText
 10
-67.95452598552799
 20
-76.0
 30
0.0
 40
2.5
  1

  7
Stile_Cart
 11
-67.95452598552799
 21
-74.75
 31
0.0
100
AcDbAttributeDefinition
  3

  2
MATERIALE
 70
     4
 74
     2
1001
TOP
1070
     7
  0
ATTDEF
  5
BDF
330
B74
100
AcDbEntity
  8
0
 62
     0
 48
35.0
100
AcDbText
 10
35.56280592835867
 20
-76.0
 30
0.0
 40
2.5
  1

  7
Stile_Cart
 11
35.56280592835867
 21
-74.75
 31
0.0
100
AcDbAttributeDefinition
  3

  2
TRATTAMENTI
 70
     4
 74
     2
1001
TOP
1070
     7
  0
ATTDEF
  5
BE0
330
B74
100
AcDbEntity
  8
0
 62
     0
 48
35.0
100
AcDbText
 10
-89.96922082042067
 20
-76.0
 30
0.0
 40
2.5
  1

  7
Stile_Cart
 72
     1
 11
-89.96922082042067
 21
-74.75
 31
0.0
100
AcDbAttributeDefinition
  3

  2
POS.
 70
     4
 74
     2
1001
TOP
1070
     7
  0
ATTDEF
  5
BE1
330
B74
100
AcDbEntity
  8
0
 62
     0
 48
35.0
100
AcDbText
 10
-92.5
 20
-65.75
 30
0.0
 40
2.5
  1

  7
Stile_Cart
 72
     1
 11
-92.5
 21
-64.5
 31
0.0
100
AcDbAttributeDefinition
  3

  2
REV
 70
     4
 74
     2
1001
TOP
1070
     7
  0
ATTDEF
  5
BE2
330
B74
100
AcDbEntity
  8
0
 62
     0
 48
35.0
100
AcDbText
 10
-83.0
 20
-65.75
 30
0.0
 40
2.5
  1

  7
Stile_Cart
 11
-83.0
 21
-64.5
 31
0.0
100
AcDbAttributeDefinition
  3

  2
MOD_REV
 70
     4
 74
     2
1001
TOP
1070
     7
  0
ATTDEF
  5
BE3
330
B74
100
AcDbEntity
  8
0
 62
     0
 48
35.0
100
AcDbText
 10
72.50000000000032
 20
-65.74999999999994
 30
0.0
 40
2.5
  1

  7
Stile_Cart
 72
     1
 11
72.50000000000032
 21
-64.49999999999994
 31
0.0
100
AcDbAttributeDefinition
  3

  2
DATA_REV
 70
     4
 74
     2
1001
TOP
1070
     7
  0
ATTDEF
  5
BE4
330
B74
100
AcDbEntity
  8
0
 62
     0
 48
35.0
100
AcDbText
 10
89.96023144605638
 20
-65.49999999999994
 30
0.0
 40
2.0
  1

 41
0.8
  7
Stile_Cart
 72
     1
 11
89.96023144605638
 21
-64.49999999999994
 31
0.0
100
AcDbAttributeDefinition
  3

  2
DISEGN_REV
 70
     4
 74
     2
1001
TOP
1070
     7
  0
TEXT
  5
BE5
330
B74
100
AcDbEntity
  8
P-0000
  6
Continuous
 62
     0
 48
35.0
100
AcDbText
 10
-46.28135167661025
 20
-113.3527525052883
 30
0.0
 40
1.846799999999999
  1
Sedi operative: Fiorano Circ.le S. Giovanni Ev.,23   41042 Spezzano (MO)
  7
STYLE1
100
AcDbText
1001
TOP
1070
     7
  0
TEXT
  5
BE6
330
B74
100
AcDbEntity
  8
P-0000
  6
Continuous
 62
     0
 48
35.0
100
AcDbText
 10
-6.340918626483258
 20
-117.0692022869476
 30
0.0
 40
1.846799999999999
  1
Tel. 0536 921322  Fax 0536 921218
  7
STYLE1
100
AcDbText
1001
TOP
1070
     7
  0
TEXT
  5
BE7
330
B74
100
AcDbEntity
  8
P-0000
  6
Continuous
 62
     0
 48
35.0
100
AcDbText
 10
-29.75490795040492
 20
-120.7856520686069
 30
0.0
 40
1.846799999999999
  1
Bologna Via Del Selciatore, 12   40127 (BO) 
  7
STYLE1
100
AcDbText
1001
TOP
1070
     7
  0
TEXT
  5
BE8
330
B74
100
AcDbEntity
  8
P-0000
  6
Continuous
 62
     0
 48
35.0
100
AcDbText
 10
-3.770224758554846
 20
-124.5021018502664
 30
0.0
 40
1.846799999999999
  1
Tel. 051 535318  Fax 051 531297
  7
STYLE1
100
AcDbText
1001
TOP
1070
     7
  0
TEXT
  5
BE9
330
B74
100
AcDbEntity
  8
P-0000
  6
Continuous
 62
     0
 48
35.0
100
AcDbText
 10
-29.75453034516
 20
-128.1147363829751
 30
0.0
 40
1.5
  1
www.dierremacap.com . tecnico@dierreprotezioni.com  
  7
STYLE1
100
AcDbText
1001
TOP
1070
     7
  0
ARC
  5
BEA
330
B74
100
AcDbEntity
  8
P-0000
  6
Continuous
 62
     0
370
     0
100
AcDbCircle
 10
-87.55587540093328
 20
-119.8343908033039
 30
0.0
 40
7.264056604142308
100
AcDbArc
 50
54.62314853322836
 51
125.3768514667716
1001
TOP
1070
    85
  0
ARC
  5
BEB
330
B74
100
AcDbEntity
  8
P-0000
  6
Continuous
 62
     0
370
     0
100
AcDbCircle
 10
-88.37772146816295
 20
-119.8661633216503
 30
0.0
 40
7.793069759999999
100
AcDbArc
 50
49.82610094250764
 51
223.428751725223
1001
TOP
1070
    85
  0
ARC
  5
BEC
330
B74
100
AcDbEntity
  8
P-0000
  6
Continuous
 62
     0
370
     0
100
AcDbCircle
 10
-87.77383862674813
 20
-119.1102130429075
 30
0.0
 40
4.056769053873
100
AcDbArc
 50
51.09712919102834
 51
223.6094645412326
1001
TOP
1070
    85
  0
ARC
  5
BED
330
B74
100
AcDbEntity
  8
P-0000
  6
Continuous
 62
     0
370
     0
100
AcDbCircle
 10
-88.42266163376624
 20
-119.4851385567151
 30
0.0
 40
4.763630338834137
100
AcDbArc
 50
47.85430720588668
 51
226.8522865263435
1001
TOP
1070
    85
  0
ARC
  5
BEE
330
B74
100
AcDbEntity
  8
P-0000
  6
Continuous
 62
     0
370
     0
100
AcDbCircle
 10
-88.82997178899747
 20
-120.0817487520743
 30
0.0
 40
4.056769053873
100
AcDbArc
 50
231.0971291910283
 51
43.60946454123257
1001
TOP
1070
    85
  0
ARC
  5
BEF
330
B74
100
AcDbEntity
  8
P-0000
  6
Continuous
 62
     0
370
     0
100
AcDbCircle
 10
-88.18114878197755
 20
-119.7068232382669
 30
0.0
 40
4.763630338834137
100
AcDbArc
 50
227.8543072058867
 51
46.85228652634355
1001
TOP
1070
    85
  0
ARC
  5
BF0
330
B74
100
AcDbEntity
  8
P-0000
  6
Continuous
 62
     0
370
     0
100
AcDbCircle
 10
-88.37772146816295
 20
-119.8661633216503
 30
0.0
 40
7.793069759999999
100
AcDbArc
 50
230.1466606584018
 51
45.36258570986113
1001
TOP
1070
    85
  0
ARC
  5
BF1
330
B74
100
AcDbEntity
  8
P-0000
  6
Continuous
 62
     0
370
     0
100
AcDbCircle
 10
-89.52593793590565
 20
-119.7374591014475
 30
0.0
 40
7.220700683144739
100
AcDbArc
 50
237.8184274609863
 51
321.1976420062348
1001
TOP
1070
    85
  0
ARC
  5
BF2
330
B74
100
AcDbEntity
  8
P-0000
  6
Continuous
 62
     0
370
     0
100
AcDbCircle
 10
-88.50216480330599
 20
-119.1656258049447
 30
0.0
 40
5.663278842528495
100
AcDbArc
 50
171.3036725542784
 51
228.0269063594487
1001
TOP
1070
    85
  0
LINE
  5
BF3
330
B74
100
AcDbEntity
  8
P-0000
  6
Continuous
 62
     0
370
     0
100
AcDbLine
 10
-92.28966119657778
 20
-123.3760412617837
 30
0.0
 11
-94.03728088778988
 21
-125.2235249353502
 31
0.0
1001
TOP
1070
    85
  0
LINE
  5
BF4
330
B74
100
AcDbEntity
  8
P-0000
  6
Continuous
 62
     0
370
     0
100
AcDbLine
 10
-90.71117445104736
 20
-121.9083255159412
 30
0.0
 11
-91.68042069830406
 21
-122.9606500129607
 31
0.0
1001
TOP
1070
    85
  0
ARC
  5
BF5
330
B74
100
AcDbEntity
  8
P-0000
  6
Continuous
 62
     0
370
     0
100
AcDbCircle
 10
-88.54309328048001
 20
-118.4440510223681
 30
0.0
 40
5.558875133404746
100
AcDbArc
 50
125.3768514667716
 51
178.611514748478
1001
TOP
1070
    85
  0
LINE
  5
BF6
330
B74
100
AcDbEntity
  8
P-0000
  6
Continuous
 62
     0
370
     0
100
AcDbLine
 10
-53.65438013237113
 20
-115.6426918998433
 30
0.0
 11
-52.51302380375555
 21
-115.6426918998433
 31
0.0
1001
TOP
1070
     7
  0
ARC
  5
BF7
330
B74
100
AcDbEntity
  8
P-0000
  6
Continuous
 62
     0
370
     0
100
AcDbCircle
 10
-54.83784997234598
 20
-114.9033114623533
 30
0.0
 40
2.439569664000001
100
AcDbArc
 50
354.0835439993975
 51
342.3574175336751
1001
TOP
1070
     7
  0
LINE
  5
BF8
330
B74
100
AcDbEntity
  8
P-0000
  6
Continuous
 62
     0
370
     0
100
AcDbLine
 10
-56.253151669302
 20
-115.1547779670433
 30
0.0
 11
-52.39829186638807
 21
-115.1547779670433
 31
0.0
1001
TOP
1070
     7
  0
ARC
  5
BF9
330
B74
100
AcDbEntity
  8
P-0000
  6
Continuous
 62
     0
370
     0
100
AcDbCircle
 10
-67.13328107890589
 20
-114.9033114623533
 30
0.0
 40
2.439569664000001
100
AcDbArc
 50
354.0835439993975
 51
342.3574175336751
1001
TOP
1070
     7
  0
LINE
  5
BFA
330
B74
100
AcDbEntity
  8
P-0000
  6
Continuous
 62
     0
370
     0
100
AcDbLine
 10
-77.50234959180421
 20
-117.3428811263534
 30
0.0
 11
-74.57486599500507
 21
-117.3428811263534
 31
0.0
1001
TOP
1070
     7
  0
LINE
  5
BFB
330
B74
100
AcDbEntity
  8
P-0000
  6
Continuous
 62
     0
370
     0
100
AcDbLine
 10
-74.57486599500507
 20
-110.9999999999532
 30
0.0
 11
-77.50234959180421
 21
-110.9999999999532
 31
0.0
1001
TOP
1070
     7
  0
LINE
  5
BFC
330
B74
100
AcDbEntity
  8
P-0000
  6
Continuous
 62
     0
370
     0
100
AcDbLine
 10
-82.90217148550416
 20
-114.320869039862
 30
0.0
 11
-84.48030571869711
 21
-115.9543842828061
 31
0.0
1001
TOP
1070
    85
  0
ARC
  5
BFD
330
B74
100
AcDbEntity
  8
P-0000
  6
Continuous
 62
     0
370
     0
100
AcDbCircle
 10
-89.02722975211579
 20
-120.4469356245718
 30
0.0
 40
6.391989965892938
100
AcDbArc
 50
323.352977406186
 51
44.65536847523573
1001
TOP
1070
    85
  0
LINE
  5
BFE
330
B74
100
AcDbEntity
  8
P-0000
  6
Continuous
 62
     0
370
     0
100
AcDbLine
 10
-85.89263596469553
 20
-117.283636279041
 30
0.0
 11
-84.92338971744155
 21
-116.2313117820216
 31
0.0
1001
TOP
1070
    85
  0
LINE
  5
BFF
330
B74
100
AcDbEntity
  8
P-0000
  6
Continuous
 62
     0
370
     0
100
AcDbLine
 10
-77.50234959180421
 20
-110.9999999999532
 30
0.0
 11
-77.50234959180421
 21
-117.3428811263534
 31
0.0
1001
TOP
1070
     7
  0
ARC
  5
C00
330
B74
100
AcDbEntity
  8
P-0000
  6
Continuous
 62
     0
370
     0
100
AcDbCircle
 10
-74.81882296140435
 20
-113.6835266303536
 30
0.0
 40
1.5857202816
100
AcDbArc
 50
0.0
 51
90.0
1001
TOP
1070
     7
  0
ARC
  5
C01
330
B74
100
AcDbEntity
  8
P-0000
  6
Continuous
 62
     0
370
     0
100
AcDbCircle
 10
-74.81882296140435
 20
-114.6593544959532
 30
0.0
 40
1.5857202816
100
AcDbArc
 50
270.0
 51
0.0
1001
TOP
1070
     7
  0
ARC
  5
C02
330
B74
100
AcDbEntity
  8
P-0000
  6
Continuous
 62
     0
370
     0
100
AcDbCircle
 10
-74.57486599500507
 20
-114.9033114623533
 30
0.0
 40
2.439569663999999
100
AcDbArc
 50
270.0
 51
0.0
1001
TOP
1070
     7
  0
ARC
  5
C03
330
B74
100
AcDbEntity
  8
P-0000
  6
Continuous
 62
     0
370
     0
100
AcDbCircle
 10
-74.57486599500507
 20
-113.4395696639535
 30
0.0
 40
2.439569663999999
100
AcDbArc
 50
0.0
 51
90.0
1001
TOP
1070
     7
  0
LINE
  5
C04
330
B74
100
AcDbEntity
  8
P-0000
  6
Continuous
 62
     0
370
     0
100
AcDbLine
 10
-76.40454324300486
 20
-112.0978063487534
 30
0.0
 11
-76.40454324300486
 21
-116.2450747775533
 31
0.0
1001
TOP
1070
     7
  0
LINE
  5
C05
330
B74
100
AcDbEntity
  8
P-0000
  6
Continuous
 62
     0
370
     0
100
AcDbLine
 10
-76.40454324300486
 20
-116.2450747775533
 30
0.0
 11
-74.81882296140435
 21
-116.2450747775533
 31
0.0
1001
TOP
1070
     7
  0
LINE
  5
C06
330
B74
100
AcDbEntity
  8
P-0000
  6
Continuous
 62
     0
370
     0
100
AcDbLine
 10
-74.81882296140435
 20
-112.0978063487534
 30
0.0
 11
-76.40454324300486
 21
-112.0978063487534
 31
0.0
1001
TOP
1070
     7
  0
LINE
  5
C07
330
B74
100
AcDbEntity
  8
P-0000
  6
Continuous
 62
     0
370
     0
100
AcDbLine
 10
-70.30472164210562
 20
-117.3428811263534
 30
0.0
 11
-70.30472164210562
 21
-112.4637417983535
 31
0.0
1001
TOP
1070
     7
  0
LINE
  5
C08
330
B74
100
AcDbEntity
  8
P-0000
  6
Continuous
 62
     0
370
     0
100
AcDbLine
 10
-71.4025279909076
 20
-112.4637417983535
 30
0.0
 11
-71.4025279909076
 21
-117.3428811263534
 31
0.0
1001
TOP
1070
     7
  0
LINE
  5
C09
330
B74
100
AcDbEntity
  8
P-0000
  6
Continuous
 62
     0
370
     0
100
AcDbLine
 10
-71.4025279909076
 20
-117.3428811263534
 30
0.0
 11
-70.30472164210562
 21
-117.3428811263534
 31
0.0
1001
TOP
1070
     7
  0
LINE
  5
C0A
330
B74
100
AcDbEntity
  8
P-0000
  6
Continuous
 62
     0
370
     0
100
AcDbLine
 10
-71.4025279909076
 20
-111.9758278655534
 30
0.0
 11
-70.30472164210562
 21
-111.9758278655534
 31
0.0
1001
TOP
1070
     7
  0
LINE
  5
C0B
330
B74
100
AcDbEntity
  8
P-0000
  6
Continuous
 62
     0
370
     0
100
AcDbLine
 10
-70.30472164210562
 20
-110.9999999999532
 30
0.0
 11
-71.4025279909076
 21
-110.9999999999532
 31
0.0
1001
TOP
1070
     7
  0
HATCH
  5
C0C
330
B74
100
AcDbEntity
  8
P-0000
  6
Continuous
 62
     0
100
AcDbHatch
 10
0.0
 20
0.0
 30
0.0
210
0.0
220
0.0
230
1.0
  2
SOLID
 70
     1
 71
     0
 91
        1
 92
        1
 93
        4
 72
     1
 10
-70.30472164210627
 20
-110.9999999999534
 11
-71.40252799090693
 21
-110.9999999999534
 72
     1
 10
-71.40252799090564
 20
-110.9999999999534
 11
-71.40252799090564
 21
-111.9758278655534
 72
     1
 10
-71.40252799090564
 20
-111.9758278655535
 11
-70.30472164210498
 21
-111.9758278655535
 72
     1
 10
-70.30472164210627
 20
-111.9758278655535
 11
-70.30472164210627
 21
-110.9999999999535
 97
        0
 75
     0
 76
     1
 98
        1
 10
-136.4839087803873
 20
-204.8924935638848
1001
TOP
1070
     3
  0
LINE
  5
C0D
330
B74
100
AcDbEntity
  8
P-0000
  6
Continuous
 62
     0
370
     0
100
AcDbLine
 10
-70.30472164210562
 20
-112.4637417983535
 30
0.0
 11
-71.4025279909076
 21
-112.4637417983535
 31
0.0
1001
TOP
1070
     7
  0
LINE
  5
C0E
330
B74
100
AcDbEntity
  8
P-0000
  6
Continuous
 62
     0
370
     0
100
AcDbLine
 10
-73.23310267980318
 20
-114.6593544959532
 30
0.0
 11
-73.23310267980318
 21
-113.6835266303536
 31
0.0
1001
TOP
1070
     7
  0
LINE
  5
C0F
330
B74
100
AcDbEntity
  8
P-0000
  6
Continuous
 62
     0
370
     0
100
AcDbLine
 10
-72.13529633100447
 20
-114.9033114623533
 30
0.0
 11
-72.13529633100447
 21
-113.4395696639535
 31
0.0
1001
TOP
1070
     7
  0
LINE
  5
C10
330
B74
100
AcDbEntity
  8
P-0000
  6
Continuous
 62
     0
370
     0
100
AcDbLine
 10
-71.4025279909076
 20
-110.9999999999532
 30
0.0
 11
-71.4025279909076
 21
-111.9758278655534
 31
0.0
1001
TOP
1070
     7
  0
LINE
  5
C11
330
B74
100
AcDbEntity
  8
P-0000
  6
Continuous
 62
     0
370
     0
100
AcDbLine
 10
-70.30472164210562
 20
-111.9758278655534
 30
0.0
 11
-70.30472164210562
 21
-110.9999999999532
 31
0.0
1001
TOP
1070
     7
  0
LINE
  5
C12
330
B74
100
AcDbEntity
  8
P-0000
  6
Continuous
 62
     0
370
     0
100
AcDbLine
 10
-61.67972155649409
 20
-112.4637417983535
 30
0.0
 11
-61.22362894667041
 21
-112.4637417983535
 31
0.0
1001
TOP
1070
     7
  0
ARC
  5
C13
330
B74
100
AcDbEntity
  8
P-0000
  6
Continuous
 62
     0
370
     0
100
AcDbCircle
 10
-61.22455238416592
 20
-115.7450893416161
 30
0.0
 40
2.30551986259622
100
AcDbArc
 50
89.97705113130741
 51
144.7782320142388
1001
TOP
1070
     7
  0
LINE
  5
C14
330
B74
100
AcDbEntity
  8
P-0000
  6
Continuous
 62
     0
370
     0
100
AcDbLine
 10
-65.94981123893105
 20
-115.6426918998433
 30
0.0
 11
-64.80845491031482
 21
-115.6426918998433
 31
0.0
1001
TOP
1070
     7
  0
LINE
  5
C15
330
B74
100
AcDbEntity
  8
P-0000
  6
Continuous
 62
     0
370
     0
100
AcDbLine
 10
-68.54858277585996
 20
-115.1547779670433
 30
0.0
 11
-64.69372297294865
 21
-115.1547779670433
 31
0.0
1001
TOP
1070
     7
  0
ARC
  5
C16
330
B74
100
AcDbEntity
  8
P-0000
  6
Continuous
 62
     0
370
     0
100
AcDbCircle
 10
-67.13328107890589
 20
-114.7813329791535
 30
0.0
 40
1.463741798400002
100
AcDbArc
 50
194.7813103722914
 51
323.9519363800095
1001
TOP
1070
     7
  0
ARC
  5
C17
330
B74
100
AcDbEntity
  8
P-0000
  6
Continuous
 62
     0
370
     0
100
AcDbCircle
 10
-67.13315394981435
 20
-114.7246775057507
 30
0.0
 40
1.309503544180366
100
AcDbArc
 50
23.46032899247153
 51
156.5396710075285
1001
TOP
1070
     7
  0
LINE
  5
C18
330
B74
100
AcDbEntity
  8
P-0000
  6
Continuous
 62
     0
370
     0
100
AcDbLine
 10
-68.33440862006644
 20
-114.2033457980831
 30
0.0
 11
-65.93189927956226
 21
-114.2033457980831
 31
0.0
1001
TOP
1070
     7
  0
LINE
  5
C19
330
B74
100
AcDbEntity
  8
P-0000
  6
Continuous
 62
     0
370
     0
100
AcDbLine
 10
-63.1079911333061
 20
-117.3428811263534
 30
0.0
 11
-63.1079911333061
 21
-114.4153975295534
 31
0.0
1001
TOP
1070
     7
  0
LINE
  5
C1A
330
B74
100
AcDbEntity
  8
P-0000
  6
Continuous
 62
     0
370
     0
100
AcDbLine
 10
-64.2057974821061
 20
-112.4637417983535
 30
0.0
 11
-64.2057974821061
 21
-117.3428811263534
 31
0.0
1001
TOP
1070
     7
  0
LINE
  5
C1B
330
B74
100
AcDbEntity
  8
P-0000
  6
Continuous
 62
     0
370
     0
100
AcDbLine
 10
-64.2057974821061
 20
-117.3428811263534
 30
0.0
 11
-63.1079911333061
 21
-117.3428811263534
 31
0.0
1001
TOP
1070
     7
  0
LINE
  5
C1C
330
B74
100
AcDbEntity
  8
P-0000
  6
Continuous
 62
     0
370
     0
100
AcDbLine
 10
-63.1079911333061
 20
-112.4637417983535
 30
0.0
 11
-64.2057974821061
 21
-112.4637417983535
 31
0.0
1001
TOP
1070
     7
  0
ARC
  5
C1D
330
B74
100
AcDbEntity
  8
P-0000
  6
Continuous
 62
     0
370
     0
100
AcDbCircle
 10
-61.5678898700862
 20
-114.1605808182826
 30
0.0
 40
1.700520210299701
100
AcDbArc
 50
93.77067625261986
 51
154.9129671807329
1001
TOP
1070
     7
  0
LINE
  5
C1E
330
B74
100
AcDbEntity
  8
P-0000
  6
Continuous
 62
     0
370
     0
100
AcDbLine
 10
-63.1079911333061
 20
-113.4395696639535
 30
0.0
 11
-63.1079911333061
 21
-112.4637417983535
 31
0.0
1001
TOP
1070
     7
  0
LINE
  5
C1F
330
B74
100
AcDbEntity
  8
P-0000
  6
Continuous
 62
     0
370
     0
100
AcDbLine
 10
-63.1079911333061
 20
-112.4637417983535
 30
0.0
 11
-63.1079911333061
 21
-113.4395696639535
 31
0.0
1001
TOP
1070
     7
  0
LINE
  5
C20
330
B74
100
AcDbEntity
  8
P-0000
  6
Continuous
 62
     0
370
     0
100
AcDbLine
 10
-59.39496610469735
 20
-117.3428811263534
 30
0.0
 11
-59.39496610469735
 21
-114.4153975295534
 31
0.0
1001
TOP
1070
     7
  0
LINE
  5
C21
330
B74
100
AcDbEntity
  8
P-0000
  6
Continuous
 62
     0
370
     0
100
AcDbLine
 10
-60.49277245349801
 20
-112.4637417983535
 30
0.0
 11
-60.49277245349801
 21
-117.3428811263534
 31
0.0
1001
TOP
1070
     7
  0
LINE
  5
C22
330
B74
100
AcDbEntity
  8
P-0000
  6
Continuous
 62
     0
370
     0
100
AcDbLine
 10
-60.49277245349801
 20
-117.3428811263534
 30
0.0
 11
-59.39496610469735
 21
-117.3428811263534
 31
0.0
1001
TOP
1070
     7
  0
ARC
  5
C23
330
B74
100
AcDbEntity
  8
P-0000
  6
Continuous
 62
     0
370
     0
100
AcDbCircle
 10
-57.8548648414781
 20
-114.1605808182826
 30
0.0
 40
1.700520210299701
100
AcDbArc
 50
93.77067625261986
 51
154.9129671807329
1001
TOP
1070
     7
  0
ARC
  5
C24
330
B74
100
AcDbEntity
  8
P-0000
  6
Continuous
 62
     0
370
     0
100
AcDbCircle
 10
-57.51152735555913
 20
-115.7450893416161
 30
0.0
 40
2.30551986259622
100
AcDbArc
 50
89.97705113130741
 51
144.7782320142388
1001
TOP
1070
     7
  0
LINE
  5
C25
330
B74
100
AcDbEntity
  8
P-0000
  6
Continuous
 62
     0
370
     0
100
AcDbLine
 10
-59.39496610469735
 20
-113.4395696639535
 30
0.0
 11
-59.39496610469735
 21
-112.4637417983535
 31
0.0
1001
TOP
1070
     7
  0
LINE
  5
C26
330
B74
100
AcDbEntity
  8
P-0000
  6
Continuous
 62
     0
370
     0
100
AcDbLine
 10
-61.22362894667041
 20
-113.4395696639535
 30
0.0
 11
-61.22362894667041
 21
-112.4637417983535
 31
0.0
1001
TOP
1070
     7
  0
LINE
  5
C27
330
B74
100
AcDbEntity
  8
P-0000
  6
Continuous
 62
     0
370
     0
100
AcDbLine
 10
-59.39496610469735
 20
-112.4637417983535
 30
0.0
 11
-59.39496610469735
 21
-113.4395696639535
 31
0.0
1001
TOP
1070
     7
  0
LINE
  5
C28
330
B74
100
AcDbEntity
  8
P-0000
  6
Continuous
 62
     0
370
     0
100
AcDbLine
 10
-59.39496610469735
 20
-112.4637417983535
 30
0.0
 11
-60.49277245349801
 21
-112.4637417983535
 31
0.0
1001
TOP
1070
     7
  0
LINE
  5
C29
330
B74
100
AcDbEntity
  8
P-0000
  6
Continuous
 62
     0
370
     0
100
AcDbLine
 10
-57.5106039180623
 20
-113.4395696639535
 30
0.0
 11
-57.5106039180623
 21
-112.4637417983535
 31
0.0
1001
TOP
1070
     7
  0
LINE
  5
C2A
330
B74
100
AcDbEntity
  8
P-0000
  6
Continuous
 62
     0
370
     0
100
AcDbLine
 10
-57.96669652788599
 20
-112.4637417983535
 30
0.0
 11
-57.5106039180623
 21
-112.4637417983535
 31
0.0
1001
TOP
1070
     7
  0
ARC
  5
C2B
330
B74
100
AcDbEntity
  8
P-0000
  6
Continuous
 62
     0
370
     0
100
AcDbCircle
 10
-54.83784997234598
 20
-114.7813329791535
 30
0.0
 40
1.463741798400002
100
AcDbArc
 50
194.7813103722914
 51
323.9519363800095
1001
TOP
1070
     7
  0
ARC
  5
C2C
330
B74
100
AcDbEntity
  8
P-0000
  6
Continuous
 62
     0
370
     0
100
AcDbCircle
 10
-54.83772284325443
 20
-114.7246775057507
 30
0.0
 40
1.309503544180366
100
AcDbArc
 50
23.46032899247153
 51
156.5396710075285
1001
TOP
1070
     7
  0
LINE
  5
C2D
330
B74
100
AcDbEntity
  8
P-0000
  6
Continuous
 62
     0
370
     0
100
AcDbLine
 10
-56.03897751350586
 20
-114.2033457980831
 30
0.0
 11
-53.63646817300168
 21
-114.2033457980831
 31
0.0
1001
TOP
1070
     7
  0
HATCH
  5
C2E
330
B74
100
AcDbEntity
  8
P-0000
  6
Continuous
 62
     0
 48
35.0
100
AcDbHatch
 10
0.0
 20
0.0
 30
0.0
210
0.0
220
0.0
230
1.0
  2
SOLID
 70
     1
 71
     0
 91
        4
 92
        7
 72
     1
 73
     1
 93
        5
 10
-94.03728088778988
 20
-125.2235249353502
 42
0.0
 10
-92.28966119657778
 20
-123.3760412617837
 42
-0.2526825286644691
 10
-94.10033621549056
 20
-118.3093524326913
 42
-0.2365496875282557
 10
-91.7614140375581
 20
-113.911556758355
 42
-0.3189181398811662
 10
-83.35033676430748
 20
-113.9115567583528
 42
0.9456749006874259
 97
        0
 92
       23
 72
     1
 73
     1
 93
        3
 10
-91.68042069830406
 20
-122.9606500129607
 42
0.0
 10
-90.71117445104736
 20
-121.9083255159412
 42
-0.9367032511192487
 10
-85.2261793413445
 20
-115.9531879682591
 42
0.991293729556146
 97
        0
 92
       23
 72
     1
 73
     1
 93
        3
 10
-91.37763107440111
 20
-123.2387738267226
 42
0.9912937295513184
 10
-84.92338971744155
 20
-116.2313117820216
 42
0.0
 10
-85.89263596469553
 20
-117.283636279041
 42
-0.9367032511219315
 97
        0
 92
        7
 72
     1
 73
     1
 93
        4
 10
-83.89875797035076
 20
-124.2622092592821
 42
-0.3807594385329842
 10
-93.37171269560638
 20
-125.8488038677993
 42
0.9590989174885454
 10
-82.90217148550416
 20
-114.320869039862
 42
0.0
 10
-84.48030571869711
 20
-115.9543842828061
 42
-0.3704192144445529
 97
        0
 75
     0
 76
     1
 47
0.0537802133905057
 98
        4
 10
-95.28899908413293
 20
-117.9121948253558
 10
-92.51811574438377
 20
-119.1148667670212
 10
-84.53359595731015
 20
-120.3175387086872
 10
-82.20022029262763
 20
-118.4953086011877
1001
TOP
1070
     3
  0
HATCH
  5
C2F
330
B74
100
AcDbEntity
  8
P-0000
  6
Continuous
 62
     0
 48
35.0
100
AcDbHatch
 10
0.0
 20
0.0
 30
0.0
210
0.0
220
0.0
230
1.0
  2
SOLID
 70
     1
 71
     0
 91
        9
 92
        7
 72
     1
 73
     1
 93
        6
 10
-74.57486599500573
 20
-110.9999999999531
 42
0.0
 10
-77.50234959180421
 20
-110.9999999999531
 42
0.0
 10
-77.50234959180485
 20
-117.3428811263533
 42
0.0
 10
-74.57486599500573
 20
-117.3428811263533
 42
0.4142135623732426
 10
-72.13529633100447
 20
-114.9033114623533
 42
0.0
 10
-72.13529633100447
 20
-113.4395696639534
 42
0.4142135623732917
 97
        0
 92
       22
 72
     1
 73
     1
 93
        6
 10
-76.40454324300486
 20
-112.0978063487534
 42
0.0
 10
-74.81882296140435
 20
-112.0978063487534
 42
-0.4142135623733217
 10
-73.23310267980318
 20
-113.6835266303533
 42
0.0
 10
-73.23310267980318
 20
-114.6593544959533
 42
-0.4142135623732008
 10
-74.81882296140369
 20
-116.2450747775532
 42
0.0
 10
-76.40454324300486
 20
-116.2450747775532
 42
0.0
 97
        0
 92
        7
 72
     0
 73
     1
 93
        4
 10
-71.40252799090825
 20
-117.3428811263533
 10
-70.30472164210562
 20
-117.3428811263534
 10
-70.30472164210562
 20
-112.4637417983535
 10
-71.4025279909076
 20
-112.4637417983534
 97
        0
 92
        7
 72
     1
 73
     1
 93
        4
 10
-68.5485827758606
 20
-115.1547779670432
 42
0.0
 10
-64.70670638553077
 20
-115.1547779670432
 42
19.52759892169242
 10
-64.80845491031548
 20
-115.6426918998433
 42
0.0
 10
-65.94981123892972
 20
-115.6426918998433
 42
-0.6319943824460191
 97
        0
 92
       22
 72
     1
 73
     1
 93
        2
 10
-68.33440862006513
 20
-114.2033457980811
 42
-0.6561238478654379
 10
-65.93189927956356
 20
-114.2033457980831
 42
0.0
 97
        0
 92
        7
 72
     1
 73
     1
 93
        9
 10
-63.1079911333061
 20
-114.4153975295551
 42
-0.2437791817823871
 10
-61.22362894667041
 20
-113.4395696639536
 42
0.0
 10
-61.22362894667041
 20
-112.4637417983535
 42
0.0
 10
-61.6797215564895
 20
-112.4637417983534
 42
0.2732984134248683
 10
-63.1079911333061
 20
-113.4395696639525
 42
0.0
 10
-63.1079911333061
 20
-112.4637417983534
 42
0.0
 10
-64.20579748210546
 20
-112.4637417983534
 42
0.0
 10
-64.2057974821061
 20
-117.3428811263532
 42
0.0
 10
-63.10799113330676
 20
-117.3428811263532
 42
0.0
 97
        0
 92
        7
 72
     1
 73
     1
 93
        9
 10
-60.49277245349736
 20
-117.3428811263533
 42
0.0
 10
-59.3949661046967
 20
-117.3428811263534
 42
0.0
 10
-59.39496610469735
 20
-114.4153975295523
 42
-0.2437791817821463
 10
-57.5106039180623
 20
-113.4395696639536
 42
0.0
 10
-57.5106039180623
 20
-112.4637417983535
 42
0.0
 10
-57.9666965278814
 20
-112.4637417983534
 42
0.2732984134246251
 10
-59.39496610469735
 20
-113.4395696639511
 42
0.0
 10
-59.39496610469735
 20
-112.4637417983534
 42
0.0
 10
-60.49277245349801
 20
-112.4637417983535
 42
0.0
 97
        0
 92
        7
 72
     1
 73
     1
 93
        4
 10
-52.41127527897084
 20
-115.1547779670432
 42
19.52759892169242
 10
-52.51302380375555
 20
-115.6426918998433
 42
0.0
 10
-53.65438013237048
 20
-115.6426918998433
 42
-0.631994382445661
 10
-56.25315166930069
 20
-115.1547779670432
 42
0.0
 97
        0
 92
       22
 72
     1
 73
     1
 93
        2
 10
-56.03897751350586
 20
-114.2033457980832
 42
-0.6561238478663365
 10
-53.63646817300299
 20
-114.2033457980831
 42
0.0
 97
        0
 75
     0
 76
     1
 47
0.1054092179442032
 98
        9
 10
-77.30509361450609
 20
-111.652214293695
 10
-77.30509361450609
 20
-111.652214293695
 10
-70.92517770860029
 20
-114.0180230722183
 10
-68.97004263540313
 20
-114.9952049659171
 10
-68.97004263540313
 20
-114.9952049659171
 10
-63.41334181494616
 20
-115.2523580455926
 10
-60.12048197631124
 20
-115.1494968773671
 10
-55.90150541812637
 20
-114.429468063343
 10
-55.90150541812637
 20
-114.429468063343
1001
TOP
1070
     5
  0
MTEXT
  5
C30
330
B74
100
AcDbEntity
  8
P-0000
  6
Continuous
 62
     0
100
AcDbMText
 10
-77.50752909622914
 20
-125.390962447158
 30
0.0
 40
1.5
 41
15.89275572328779
 71
     1
 72
     5
  1
{\f@Arial Unicode MS|b0|i0|c0|p34;\H2x;Group\H0.5x; srl}
  7
ROMANS
 73
     1
 44
1.0
1001
TOP
1070
     7
1001
ACAD
1000
MTEXTBEGIN
1070
    73
1070
     1
1070
    44
1040
1.0
1070
    74
1070
     0
1000
MTEXTEND
  0
LINE
  5
C31
330
B74
100
AcDbEntity
  8
P-0000
  6
Continuous
 62
     0
100
AcDbLine
 10
-60.31400746853627
 20
-118.6190131723036
 30
0.0
 11
-65.10163245619105
 21
-118.6190131723036
 31
0.0
1001
TOP
1070
     7
  0
LINE
  5
C32
330
B74
100
AcDbEntity
  8
P-0000
  6
Continuous
 62
     0
100
AcDbLine
 10
-65.10163245619105
 20
-118.6190131723036
 30
0.0
 11
-60.31400746853627
 21
-118.6190131723036
 31
0.0
1001
TOP
1070
     7
  0
LINE
  5
C33
330
B74
100
AcDbEntity
  8
P-0000
  6
Continuous
 62
     0
100
AcDbLine
 10
-60.60899754084211
 20
-122.4817401737899
 30
0.0
 11
-59.78513540320495
 21
-121.2719230596353
 31
0.0
1001
TOP
1070
     7
  0
LINE
  5
C34
330
B74
100
AcDbEntity
  8
P-0000
  6
Continuous
 62
     0
100
AcDbLine
 10
-60.60899754084211
 20
-122.4817401737899
 30
0.0
 11
-59.78513540320495
 21
-121.2719230596353
 31
0.0
1001
TOP
1070
     7
  0
LINE
  5
C35
330
B74
100
AcDbEntity
  8
P-0000
  6
Continuous
 62
     0
100
AcDbLine
 10
-60.60899754084211
 20
-122.4817401737899
 30
0.0
 11
-58.9612732655678
 21
-122.4817401737899
 31
0.0
1001
TOP
1070
     7
  0
LINE
  5
C36
330
B74
100
AcDbEntity
  8
P-0000
  6
Continuous
 62
     0
100
AcDbLine
 10
-58.9612732655678
 20
-122.4817401737899
 30
0.0
 11
-60.60899754084211
 21
-122.4817401737899
 31
0.0
1001
TOP
1070
     7
  0
LINE
  5
C37
330
B74
100
AcDbEntity
  8
P-0000
  6
Continuous
 62
     0
100
AcDbLine
 10
-63.4872398605242
 20
-124.055443766988
 30
0.0
 11
-56.08303094588571
 21
-124.055443766988
 31
0.0
1001
TOP
1070
     7
  0
LINE
  5
C38
330
B74
100
AcDbEntity
  8
P-0000
  6
Continuous
 62
     0
100
AcDbLine
 10
-63.4872398605242
 20
-124.055443766988
 30
0.0
 11
-56.08303094588571
 21
-124.055443766988
 31
0.0
1001
TOP
1070
     7
  0
LINE
  5
C39
330
B74
100
AcDbEntity
  8
P-0000
  6
Continuous
 62
     0
100
AcDbLine
 10
-61.88263947056615
 20
-120.9225027431548
 30
0.0
 11
-60.31400746853627
 21
-118.6190131723036
 31
0.0
1001
TOP
1070
     7
  0
LINE
  5
C3A
330
B74
100
AcDbEntity
  8
P-0000
  6
Continuous
 62
     0
100
AcDbLine
 10
-61.88263947056615
 20
-120.9225027431548
 30
0.0
 11
-60.31400746853627
 21
-118.6190131723036
 31
0.0
1001
TOP
1070
     7
  0
LINE
  5
C3B
330
B74
100
AcDbEntity
  8
P-0000
  6
Continuous
 62
     0
100
AcDbLine
 10
-63.4872398605242
 20
-124.055443766988
 30
0.0
 11
-59.78513540320495
 21
-118.6190131723036
 31
0.0
1001
TOP
1070
     7
  0
LINE
  5
C3C
330
B74
100
AcDbEntity
  8
P-0000
  6
Continuous
 62
     0
100
AcDbLine
 10
-59.78513540320495
 20
-118.6190131723036
 30
0.0
 11
-63.4872398605242
 21
-124.055443766988
 31
0.0
1001
TOP
1070
     7
  0
LINE
  5
C3D
330
B74
100
AcDbEntity
  8
P-0000
  6
Continuous
 62
     0
100
AcDbLine
 10
-72.47806497115667
 20
-118.6190131723036
 30
0.0
 11
-68.77596051383742
 21
-118.6190131723036
 31
0.0
1001
TOP
1070
     7
  0
LINE
  5
C3E
330
B74
100
AcDbEntity
  8
P-0000
  6
Continuous
 62
     0
100
AcDbLine
 10
-72.47806497115667
 20
-118.6190131723036
 30
0.0
 11
-68.77596051383742
 21
-118.6190131723036
 31
0.0
1001
TOP
1070
     7
  0
LINE
  5
C3F
330
B74
100
AcDbEntity
  8
P-0000
  6
Continuous
 62
     0
100
AcDbLine
 10
-71.94919290582532
 20
-124.055443766988
 30
0.0
 11
-68.24708844850608
 21
-118.6190131723036
 31
0.0
1001
TOP
1070
     7
  0
LINE
  5
C40
330
B74
100
AcDbEntity
  8
P-0000
  6
Continuous
 62
     0
100
AcDbLine
 10
-72.47806497115667
 20
-124.055443766988
 30
0.0
 11
-68.77596051383742
 21
-118.6190131723036
 31
0.0
1001
TOP
1070
     7
  0
LINE
  5
C41
330
B74
100
AcDbEntity
  8
P-0000
  6
Continuous
 62
     0
100
AcDbLine
 10
-71.94919290582532
 20
-124.055443766988
 30
0.0
 11
-68.24708844850608
 21
-118.6190131723036
 31
0.0
1001
TOP
1070
     7
  0
LINE
  5
C42
330
B74
100
AcDbEntity
  8
P-0000
  6
Continuous
 62
     0
100
AcDbLine
 10
-68.77596051383742
 20
-118.6190131723036
 30
0.0
 11
-72.47806497115667
 21
-124.055443766988
 31
0.0
1001
TOP
1070
     7
  0
LINE
  5
C43
330
B74
100
AcDbEntity
  8
P-0000
  6
Continuous
 62
     0
100
AcDbLine
 10
-71.94919290582532
 20
-124.055443766988
 30
0.0
 11
-64.54498399118683
 21
-124.055443766988
 31
0.0
1001
TOP
1070
     7
  0
LINE
  5
C44
330
B74
100
AcDbEntity
  8
P-0000
  6
Continuous
 62
     0
100
AcDbLine
 10
-64.54498399118683
 20
-124.055443766988
 30
0.0
 11
-71.94919290582532
 21
-124.055443766988
 31
0.0
1001
TOP
1070
     7
  0
LINE
  5
C45
330
B74
100
AcDbEntity
  8
P-0000
  6
Continuous
 62
     0
100
AcDbLine
 10
-77.50234959180421
 20
-118.6190131723036
 30
0.0
 11
-75.2546433141461
 21
-118.6190131723036
 31
0.0
1001
TOP
1070
     7
  0
LINE
  5
C46
330
B74
100
AcDbEntity
  8
P-0000
  6
Continuous
 62
     0
100
AcDbLine
 10
-77.50234959180421
 20
-124.055443766988
 30
0.0
 11
-75.2546433141461
 21
-124.055443766988
 31
0.0
1001
TOP
1070
     7
  0
LINE
  5
C47
330
B74
100
AcDbEntity
  8
P-0000
  6
Continuous
 62
     0
100
AcDbLine
 10
-75.2546433141461
 20
-124.055443766988
 30
0.0
 11
-77.50234959180421
 21
-124.055443766988
 31
0.0
1001
TOP
1070
     7
  0
LINE
  5
C48
330
B74
100
AcDbEntity
  8
P-0000
  6
Continuous
 62
     0
100
AcDbLine
 10
-77.50234959180421
 20
-118.6190131723036
 30
0.0
 11
-75.2546433141461
 21
-118.6190131723036
 31
0.0
1001
TOP
1070
     7
  0
LINE
  5
C49
330
B74
100
AcDbEntity
  8
P-0000
  6
Continuous
 62
     0
100
AcDbLine
 10
-77.50234959180421
 20
-124.055443766988
 30
0.0
 11
-77.50234959180421
 21
-118.6190131723036
 31
0.0
1001
TOP
1070
     7
  0
LINE
  5
C4A
330
B74
100
AcDbEntity
  8
P-0000
  6
Continuous
 62
     0
100
AcDbLine
 10
-77.50234959180421
 20
-124.055443766988
 30
0.0
 11
-77.50234959180421
 21
-118.6190131723036
 31
0.0
1001
TOP
1070
     7
  0
LINE
  5
C4B
330
B74
100
AcDbEntity
  8
P-0000
  6
Continuous
 62
     0
100
AcDbLine
 10
-72.47806497115667
 20
-121.7664203586998
 30
0.0
 11
-73.8663541426514
 21
-124.055443766988
 31
0.0
1001
TOP
1070
     7
  0
LINE
  5
C4C
330
B74
100
AcDbEntity
  8
P-0000
  6
Continuous
 62
     0
100
AcDbLine
 10
-72.47806497115667
 20
-121.7664203586998
 30
0.0
 11
-72.47806497115667
 21
-124.055443766988
 31
0.0
1001
TOP
1070
     7
  0
LINE
  5
C4D
330
B74
100
AcDbEntity
  8
P-0000
  6
Continuous
 62
     0
100
AcDbLine
 10
-72.47806497115667
 20
-121.7664203586998
 30
0.0
 11
-73.8663541426514
 21
-124.055443766988
 31
0.0
1001
TOP
1070
     7
  0
LINE
  5
C4E
330
B74
100
AcDbEntity
  8
P-0000
  6
Continuous
 62
     0
100
AcDbLine
 10
-72.47806497115667
 20
-124.055443766988
 30
0.0
 11
-72.47806497115667
 21
-121.7664203586998
 31
0.0
1001
TOP
1070
     7
  0
LINE
  5
C4F
330
B74
100
AcDbEntity
  8
P-0000
  6
Continuous
 62
     0
100
AcDbLine
 10
-75.2546433141461
 20
-124.055443766988
 30
0.0
 11
-75.2546433141461
 21
-121.7664203586998
 31
0.0
1001
TOP
1070
     7
  0
LINE
  5
C50
330
B74
100
AcDbEntity
  8
P-0000
  6
Continuous
 62
     0
100
AcDbLine
 10
-75.2546433141461
 20
-121.7664203586998
 30
0.0
 11
-75.2546433141461
 21
-124.055443766988
 31
0.0
1001
TOP
1070
     7
  0
LINE
  5
C51
330
B74
100
AcDbEntity
  8
P-0000
  6
Continuous
 62
     0
100
AcDbLine
 10
-75.2546433141461
 20
-121.7664203586998
 30
0.0
 11
-73.8663541426514
 21
-124.055443766988
 31
0.0
1001
TOP
1070
     7
  0
LINE
  5
C52
330
B74
100
AcDbEntity
  8
P-0000
  6
Continuous
 62
     0
100
AcDbLine
 10
-73.8663541426514
 20
-124.055443766988
 30
0.0
 11
-75.2546433141461
 21
-121.7664203586998
 31
0.0
1001
TOP
1070
     7
  0
LINE
  5
C53
330
B74
100
AcDbEntity
  8
P-0000
  6
Continuous
 62
     0
100
AcDbLine
 10
-72.47806497115667
 20
-118.6190131723036
 30
0.0
 11
-73.8663541426514
 21
-120.9080365805917
 31
0.0
1001
TOP
1070
     7
  0
LINE
  5
C54
330
B74
100
AcDbEntity
  8
P-0000
  6
Continuous
 62
     0
100
AcDbLine
 10
-73.8663541426514
 20
-120.9080365805917
 30
0.0
 11
-72.47806497115667
 21
-118.6190131723036
 31
0.0
1001
TOP
1070
     7
  0
LINE
  5
C55
330
B74
100
AcDbEntity
  8
P-0000
  6
Continuous
 62
     0
100
AcDbLine
 10
-75.2546433141461
 20
-118.6190131723036
 30
0.0
 11
-73.8663541426514
 21
-120.9080365805917
 31
0.0
1001
TOP
1070
     7
  0
LINE
  5
C56
330
B74
100
AcDbEntity
  8
P-0000
  6
Continuous
 62
     0
100
AcDbLine
 10
-75.2546433141461
 20
-118.6190131723036
 30
0.0
 11
-73.8663541426514
 21
-120.9080365805917
 31
0.0
1001
TOP
1070
     7
  0
ELLIPSE
  5
C57
330
B74
100
AcDbEntity
  8
P-0000
  6
Continuous
 62
     0
100
AcDbEllipse
 10
-65.10163245619105
 20
-120.0496528024836
 30
0.0
 11
-0.0000000000000277
 21
1.430639630180138
 31
0.0
210
0.0
220
0.0
230
-1.0
 40
0.9241881291669729
 41
4.077362244994374
 42
6.283185307179586
1001
TOP
1070
     7
  0
LINE
  5
C58
330
B74
100
AcDbEntity
  8
P-0000
  6
Continuous
 62
     0
100
AcDbLine
 10
-64.54498399118683
 20
-124.055443766988
 30
0.0
 11
-68.24708844850608
 21
-118.6190131723036
 31
0.0
1001
TOP
1070
     7
  0
LINE
  5
C59
330
B74
100
AcDbEntity
  8
P-0000
  6
Continuous
 62
     0
100
AcDbLine
 10
-68.24708844850608
 20
-118.6190131723036
 30
0.0
 11
-64.54498399118683
 21
-124.055443766988
 31
0.0
1001
TOP
1070
     7
  0
ELLIPSE
  5
C5A
330
B74
100
AcDbEntity
  8
P-0000
  6
Continuous
 62
     0
100
AcDbEllipse
 10
-65.10163245619105
 20
-120.0496528024836
 30
0.0
 11
0.0000000000000073
 21
1.430639630180138
 31
0.0
210
0.0
220
0.0
230
1.0
 40
0.9241881291669608
 41
0.0000000000000056
 42
2.205823062185215
1001
TOP
1070
     7
  0
LINE
  5
C5B
330
B74
100
AcDbEntity
  8
P-0000
  6
Continuous
 62
     0
100
AcDbLine
 10
-64.01611192585551
 20
-124.055443766988
 30
0.0
 11
-66.16606131471133
 21
-120.8983068549025
 31
0.0
1001
TOP
1070
     7
  0
LINE
  5
C5C
330
B74
100
AcDbEntity
  8
P-0000
  6
Continuous
 62
     0
100
AcDbLine
 10
-66.16606131471133
 20
-120.8983068549025
 30
0.0
 11
-64.01611192585551
 21
-124.055443766988
 31
0.0
1001
TOP
1070
     7
  0
LINE
  5
C5D
330
B74
100
AcDbEntity
  8
P-0000
  6
Continuous
 62
     0
100
AcDbLine
 10
-67.42322631086892
 20
-122.4817401737899
 30
0.0
 11
-68.24708844850608
 21
-121.2719230596353
 31
0.0
1001
TOP
1070
     7
  0
LINE
  5
C5E
330
B74
100
AcDbEntity
  8
P-0000
  6
Continuous
 62
     0
100
AcDbLine
 10
-68.24708844850608
 20
-121.2719230596353
 30
0.0
 11
-67.42322631086892
 21
-122.4817401737899
 31
0.0
1001
TOP
1070
     7
  0
LINE
  5
C5F
330
B74
100
AcDbEntity
  8
P-0000
  6
Continuous
 62
     0
100
AcDbLine
 10
-69.07095058614323
 20
-122.4817401737899
 30
0.0
 11
-68.24708844850608
 21
-121.2719230596353
 31
0.0
1001
TOP
1070
     7
  0
LINE
  5
C60
330
B74
100
AcDbEntity
  8
P-0000
  6
Continuous
 62
     0
100
AcDbLine
 10
-69.07095058614323
 20
-122.4817401737899
 30
0.0
 11
-68.24708844850608
 21
-121.2719230596353
 31
0.0
1001
TOP
1070
     7
  0
LINE
  5
C61
330
B74
100
AcDbEntity
  8
P-0000
  6
Continuous
 62
     0
100
AcDbLine
 10
-69.07095058614323
 20
-122.4817401737899
 30
0.0
 11
-67.42322631086892
 21
-122.4817401737899
 31
0.0
1001
TOP
1070
     7
  0
LINE
  5
C62
330
B74
100
AcDbEntity
  8
P-0000
  6
Continuous
 62
     0
100
AcDbLine
 10
-67.42322631086892
 20
-122.4817401737899
 30
0.0
 11
-69.07095058614323
 21
-122.4817401737899
 31
0.0
1001
TOP
1070
     7
  0
LINE
  5
C63
330
B74
100
AcDbEntity
  8
P-0000
  6
Continuous
 62
     0
100
AcDbLine
 10
-64.01611192585551
 20
-124.055443766988
 30
0.0
 11
-62.44747992382563
 21
-121.7519541961368
 31
0.0
1001
TOP
1070
     7
  0
LINE
  5
C64
330
B74
100
AcDbEntity
  8
P-0000
  6
Continuous
 62
     0
100
AcDbLine
 10
-64.01611192585551
 20
-124.055443766988
 30
0.0
 11
-62.44747992382563
 21
-121.7519541961368
 31
0.0
1001
TOP
1070
     7
  0
LINE
  5
C65
330
B74
100
AcDbEntity
  8
P-0000
  6
Continuous
 62
     0
100
AcDbLine
 10
-62.44747992382563
 20
-121.7519541961368
 30
0.0
 11
-63.46925566656012
 21
-121.7519541961368
 31
0.0
1001
TOP
1070
     7
  0
LINE
  5
C66
330
B74
100
AcDbEntity
  8
P-0000
  6
Continuous
 62
     0
100
AcDbLine
 10
-63.46925566656012
 20
-120.9225027431548
 30
0.0
 11
-61.88263947056615
 21
-120.9225027431548
 31
0.0
1001
TOP
1070
     7
  0
LINE
  5
C67
330
B74
100
AcDbEntity
  8
P-0000
  6
Continuous
 62
     0
100
AcDbLine
 10
-62.44747992382563
 20
-121.7519541961368
 30
0.0
 11
-63.46925566656012
 21
-121.7519541961368
 31
0.0
1001
TOP
1070
     7
  0
LINE
  5
C68
330
B74
100
AcDbEntity
  8
P-0000
  6
Continuous
 62
     0
100
AcDbLine
 10
-61.88263947056615
 20
-120.9225027431548
 30
0.0
 11
-63.46925566656012
 21
-120.9225027431548
 31
0.0
1001
TOP
1070
     7
  0
ELLIPSE
  5
C69
330
B74
100
AcDbEntity
  8
P-0000
  6
Continuous
 62
     0
100
AcDbEllipse
 10
-63.46925566656012
 20
-121.3372284696458
 30
0.0
 11
0.0000000000000016
 21
0.4147257264910956
 31
0.0
210
0.0
220
0.0
230
-1.0
 40
0.9241881291669779
 41
3.141592653589793
 42
6.283185307179586
1001
TOP
1070
     7
  0
ELLIPSE
  5
C6A
330
B74
100
AcDbEntity
  8
P-0000
  6
Continuous
 62
     0
100
AcDbEllipse
 10
-63.46925566656012
 20
-121.3372284696458
 30
0.0
 11
-0.0000000000000201
 21
0.4147257264910956
 31
0.0
210
0.0
220
0.0
230
1.0
 40
0.9241881291669438
 41
-0.0000000000000524
 42
3.14159265358974
1001
TOP
1070
     7
  0
ELLIPSE
  5
C6B
330
B74
100
AcDbEntity
  8
P-0000
  6
Continuous
 62
     0
100
AcDbEllipse
 10
-55.55415888055438
 20
-120.3357807285197
 30
0.0
 11
-0.0000000000001066
 21
0.6294814372792618
 31
0.0
210
0.0
220
0.0
230
1.0
 40
0.9241881291669697
 41
3.141592653589633
 42
6.283185307179426
1001
TOP
1070
     7
  0
ELLIPSE
  5
C6C
330
B74
100
AcDbEntity
  8
P-0000
  6
Continuous
 62
     0
100
AcDbEllipse
 10
-55.55415888055438
 20
-120.3357807285197
 30
0.0
 11
0.0000000000000215
 21
0.6294814372792617
 31
0.0
210
0.0
220
0.0
230
-1.0
 40
0.9241881291669697
 41
0.0
 42
3.141592653589793
1001
TOP
1070
     7
  0
ELLIPSE
  5
C6D
330
B74
100
AcDbEntity
  8
P-0000
  6
Continuous
 62
     0
100
AcDbEllipse
 10
-55.55415888055438
 20
-120.3357807285197
 30
0.0
 11
0.0000000000000215
 21
1.716767556216168
 31
0.0
210
0.0
220
0.0
230
1.0
 40
0.9241881291669681
 41
3.141592653589806
 42
6.283185307179599
1001
TOP
1070
     7
  0
ELLIPSE
  5
C6E
330
B74
100
AcDbEntity
  8
P-0000
  6
Continuous
 62
     0
100
AcDbEllipse
 10
-55.55415888055438
 20
-120.3357807285197
 30
0.0
 11
0.0000000000000018
 21
1.716767556216167
 31
0.0
210
0.0
220
0.0
230
-1.0
 40
0.9241881291669688
 41
0.0
 42
3.141592653589793
1001
TOP
1070
     7
  0
LINE
  5
C6F
330
B74
100
AcDbEntity
  8
P-0000
  6
Continuous
 62
     0
100
AcDbLine
 10
-59.78513540320495
 20
-121.2719230596353
 30
0.0
 11
-58.9612732655678
 21
-122.4817401737899
 31
0.0
1001
TOP
1070
     7
  0
LINE
  5
C70
330
B74
100
AcDbEntity
  8
P-0000
  6
Continuous
 62
     0
100
AcDbLine
 10
-58.9612732655678
 20
-122.4817401737899
 30
0.0
 11
-59.78513540320495
 21
-121.2719230596353
 31
0.0
1001
TOP
1070
     7
  0
LINE
  5
C71
330
B74
100
AcDbEntity
  8
P-0000
  6
Continuous
 62
     0
100
AcDbLine
 10
-56.08303094588571
 20
-124.055443766988
 30
0.0
 11
-59.78513540320495
 21
-118.6190131723036
 31
0.0
1001
TOP
1070
     7
  0
LINE
  5
C72
330
B74
100
AcDbEntity
  8
P-0000
  6
Continuous
 62
     0
100
AcDbLine
 10
-55.55415888055438
 20
-124.055443766988
 30
0.0
 11
-59.25626333787364
 21
-118.6190131723036
 31
0.0
1001
TOP
1070
     7
  0
LINE
  5
C73
330
B74
100
AcDbEntity
  8
P-0000
  6
Continuous
 62
     0
100
AcDbLine
 10
-55.55415888055438
 20
-124.055443766988
 30
0.0
 11
-59.25626333787364
 21
-118.6190131723036
 31
0.0
1001
TOP
1070
     7
  0
LINE
  5
C74
330
B74
100
AcDbEntity
  8
P-0000
  6
Continuous
 62
     0
100
AcDbLine
 10
-56.08303094588571
 20
-124.055443766988
 30
0.0
 11
-59.78513540320495
 21
-118.6190131723036
 31
0.0
1001
TOP
1070
     7
  0
LINE
  5
C75
330
B74
100
AcDbEntity
  8
P-0000
  6
Continuous
 62
     0
100
AcDbLine
 10
-55.55415888055438
 20
-124.055443766988
 30
0.0
 11
-55.55415888055438
 21
-122.0525482847359
 31
0.0
1001
TOP
1070
     7
  0
LINE
  5
C76
330
B74
100
AcDbEntity
  8
P-0000
  6
Continuous
 62
     0
100
AcDbLine
 10
-55.55415888055438
 20
-122.0525482847359
 30
0.0
 11
-55.55415888055438
 21
-124.055443766988
 31
0.0
1001
TOP
1070
     7
  0
LINE
  5
C77
330
B74
100
AcDbEntity
  8
P-0000
  6
Continuous
 62
     0
100
AcDbLine
 10
-59.25626333787364
 20
-118.6190131723036
 30
0.0
 11
-55.55415888055438
 21
-118.6190131723036
 31
0.0
1001
TOP
1070
     7
  0
LINE
  5
C78
330
B74
100
AcDbEntity
  8
P-0000
  6
Continuous
 62
     0
100
AcDbLine
 10
-59.25626333787364
 20
-118.6190131723036
 30
0.0
 11
-55.55415888055438
 21
-118.6190131723036
 31
0.0
1001
TOP
1070
     7
  0
LINE
  5
C79
330
B74
100
AcDbEntity
  8
P-0000
  6
Continuous
 62
     0
100
AcDbLine
 10
-55.55415888055438
 20
-119.7062992912404
 30
0.0
 11
-56.41148833382832
 21
-119.7062992912404
 31
0.0
1001
TOP
1070
     7
  0
LINE
  5
C7A
330
B74
100
AcDbEntity
  8
P-0000
  6
Continuous
 62
     0
100
AcDbLine
 10
-56.41148833382832
 20
-119.7062992912404
 30
0.0
 11
-55.55415888055438
 21
-119.7062992912404
 31
0.0
1001
TOP
1070
     7
  0
LINE
  5
C7B
330
B74
100
AcDbEntity
  8
P-0000
  6
Continuous
 62
     0
100
AcDbLine
 10
-55.55415888055438
 20
-120.9652621657989
 30
0.0
 11
-56.41148833382832
 21
-119.7062992912404
 31
0.0
1001
TOP
1070
     7
  0
LINE
  5
C7C
330
B74
100
AcDbEntity
  8
P-0000
  6
Continuous
 62
     0
100
AcDbLine
 10
-55.55415888055438
 20
-120.9652621657989
 30
0.0
 11
-56.41148833382832
 21
-119.7062992912404
 31
0.0
1001
TOP
1070
     7
  0
LINE
  5
C7D
330
B74
100
AcDbEntity
  8
0
 62
     0
 48
35.0
100
AcDbLine
 10
7.000000000000056
 20
142.5
 30
0.0
 11
98.00000000000004
 21
142.5
 31
0.0
1001
TOP
1070
     1
  0
LINE
  5
C7E
330
B74
100
AcDbEntity
  8
0
 62
     0
100
AcDbLine
 10
7.000000000000056
 20
143.5
 30
0.0
 11
100.0
 21
143.5
 31
0.0
1001
TOP
1070
   256
  0
ARC
  5
C7F
330
B74
100
AcDbEntity
  8
0
 62
     0
 48
35.0
100
AcDbCircle
 10
98.00000000000004
 20
141.5
 30
0.0
 40
1.0
100
AcDbArc
 50
0.0
 51
90.0
1001
TOP
1070
     1
  0
LINE
  5
C80
330
B74
100
AcDbEntity
  8
0
 62
     0
 48
35.0
100
AcDbLine
 10
99.00000000000003
 20
141.5
 30
0.0
 11
99.00000000000005
 21
113.5
 31
0.0
1001
TOP
1070
     1
  0
LINE
  5
C81
330
B74
100
AcDbEntity
  8
0
 62
     0
100
AcDbLine
 10
100.0
 20
143.5
 30
0.0
 11
100.0
 21
113.5
 31
0.0
1001
TOP
1070
   256
  0
ARC
  5
C82
330
B74
100
AcDbEntity
  8
0
 62
     0
 48
35.0
100
AcDbCircle
 10
98.00000000000006
 20
113.5
 30
0.0
 40
1.0
100
AcDbArc
 50
270.0
 51
0.0
1001
TOP
1070
     1
  0
ARC
  5
C83
330
B74
100
AcDbEntity
  8
0
 62
     0
100
AcDbCircle
 10
98.00000000000006
 20
113.5
 30
0.0
 40
2.0
100
AcDbArc
 50
270.0
 51
0.0
1001
TOP
1070
   256
  0
LINE
  5
C84
330
B74
100
AcDbEntity
  8
0
 62
     0
 48
35.0
100
AcDbLine
 10
98.00000000000006
 20
112.5
 30
0.0
 11
7.000000000000056
 21
112.5
 31
0.0
1001
TOP
1070
     1
  0
LINE
  5
C85
330
B74
100
AcDbEntity
  8
0
 62
     0
100
AcDbLine
 10
98.00000000000006
 20
111.4999999999999
 30
0.0
 11
7.000000000000056
 21
111.5
 31
0.0
1001
TOP
1070
   256
  0
ARC
  5
C86
330
B74
100
AcDbEntity
  8
0
 62
     0
 48
35.0
100
AcDbCircle
 10
7.000000000000056
 20
113.5
 30
0.0
 40
1.0
100
AcDbArc
 50
180.0
 51
270.0
1001
TOP
1070
     1
  0
ARC
  5
C87
330
B74
100
AcDbEntity
  8
0
 62
     0
100
AcDbCircle
 10
7.000000000000056
 20
113.5
 30
0.0
 40
2.0
100
AcDbArc
 50
180.0
 51
270.0
1001
TOP
1070
   256
  0
LINE
  5
C88
330
B74
100
AcDbEntity
  8
0
 62
     0
 48
35.0
100
AcDbLine
 10
6.000000000000056
 20
113.5
 30
0.0
 11
6.000000000000056
 21
141.5
 31
0.0
1001
TOP
1070
     1
  0
LINE
  5
C89
330
B74
100
AcDbEntity
  8
0
 62
     0
100
AcDbLine
 10
5.000000000000056
 20
113.5
 30
0.0
 11
5.000000000000056
 21
141.5
 31
0.0
1001
TOP
1070
   256
  0
ARC
  5
C8A
330
B74
100
AcDbEntity
  8
0
 62
     0
 48
35.0
100
AcDbCircle
 10
7.000000000000056
 20
141.5
 30
0.0
 40
1.0
100
AcDbArc
 50
90.0
 51
180.0
1001
TOP
1070
     1
  0
ARC
  5
C8B
330
B74
100
AcDbEntity
  8
0
 62
     0
100
AcDbCircle
 10
7.000000000000056
 20
141.5
 30
0.0
 40
2.0
100
AcDbArc
 50
90.0
 51
180.0
1001
TOP
1070
   256
  0
MTEXT
  5
C8C
330
B74
100
AcDbEntity
  8
0
 62
     0
100
AcDbMText
 10
29.58535811428735
 20
135.6251466847724
 30
0.0
 40
6.0
 41
54.93080742428151
 71
     1
 72
     5
  1
{\fVrinda|b0|i0|c0|p2;BAR CODE\PMontaggio}
 73
     1
 44
1.0
1001
TOP
1070
   256
1001
ACAD
1000
MTEXTBEGIN
1070
    73
1070
     1
1070
    44
1040
1.0
1070
    74
1070
     0
1000
MTEXTEND
  0
ENDBLK
  5
C90
330
B74
100
AcDbEntity
  8
0
 62
     7
100
AcDbBlockEnd
  0
BLOCK
  5
D27
330
D26
100
AcDbEntity
  8
0
 62
     3
100
AcDbBlockBegin
  2
*D1
 70
     1
 10
0.0
 20
0.0
 30
0.0
  3
*D1
  1

  0
LINE
  5
1479
330
D26
100
AcDbEntity
  8
P-0497
  6
Continuous
 62
     2
370
    -2
100
AcDbLine
 10
-479.6238949204616
 20
1681.884958494071
 30
0.0
 11
-780.2905473514657
 21
1681.884958494071
 31
0.0
  0
LINE
  5
147A
330
D26
100
AcDbEntity
  8
P-0497
  6
Continuous
 62
     2
370
    -2
100
AcDbLine
 10
-499.6238949184625
 20
1981.88495846407
 30
0.0
 11
-780.2905473514656
 21
1981.884958464071
 31
0.0
  0
LINE
  5
147B
330
D26
100
AcDbEntity
  8
P-0497
  6
Continuous
 62
     2
370
    -2
100
AcDbLine
 10
-765.2905473514657
 20
1701.884958494071
 30
0.0
 11
-765.2905473514656
 21
1961.884958464071
 31
0.0
  0
SOLID
  5
147C
330
D26
100
AcDbEntity
  8
P-0497
  6
Continuous
 62
     2
100
AcDbTrace
 10
-768.6238806847991
 20
1701.884958494071
 30
0.0
 11
-761.9572140181324
 21
1701.884958494071
 31
0.0
 12
-765.2905473514657
 22
1681.884958494071
 32
0.0
 13
-765.2905473514657
 23
1681.884958494071
 33
0.0
  0
SOLID
  5
147D
330
D26
100
AcDbEntity
  8
P-0497
  6
Continuous
 62
     2
100
AcDbTrace
 10
-768.623880684799
 20
1961.884958464071
 30
0.0
 11
-761.9572140181323
 21
1961.884958464071
 31
0.0
 12
-765.2905473514656
 22
1981.884958464071
 32
0.0
 13
-765.2905473514656
 23
1981.884958464071
 33
0.0
  0
MTEXT
  5
147E
330
D26
100
AcDbEntity
  8
P-0497
  6
Continuous
 62
     1
100
AcDbMText
 10
-785.5164948733318
 20
1831.884958479071
 30
0.0
 40
20.0
 41
0.0
 71
     5
 72
     1
  1
\A1;30
  7
Stile_Quota
 11
0.0000000000000001
 21
1.0
 31
0.0
 73
     1
 44
1.0
1001
ACAD
1000
MTEXTBEGIN
1070
    73
1070
     1
1070
    44
1040
1.0
1070
    74
1070
     0
1000
MTEXTEND
  0
POINT
  5
147F
330
D26
100
AcDbEntity
  8
Defpoints
  6
Continuous
 62
     0
100
AcDbPoint
 10
-469.6238949204617
 20
1681.884958494071
 30
0.0
  0
POINT
  5
1480
330
D26
100
AcDbEntity
  8
Defpoints
  6
Continuous
 62
     0
100
AcDbPoint
 10
-489.6238949184626
 20
1981.88495846407
 30
0.0
  0
POINT
  5
1481
330
D26
100
AcDbEntity
  8
Defpoints
  6
Continuous
 62
     0
100
AcDbPoint
 10
-765.2905473514656
 20
1981.884958464071
 30
0.0
  0
ENDBLK
  5
D28
330
D26
100
AcDbEntity
  8
0
 62
     3
100
AcDbBlockEnd
  0
BLOCK
  5
D3F
330
D3E
100
AcDbEntity
  8
0
 62
     3
100
AcDbBlockBegin
  2
*D2
 70
     1
 10
0.0
 20
0.0
 30
0.0
  3
*D2
  1

  0
LINE
  5
1482
330
D3E
100
AcDbEntity
  8
P-0497
  6
Continuous
 62
     2
370
    -2
100
AcDbLine
 10
-499.6238949184625
 20
1981.88495846407
 30
0.0
 11
-780.2905473514656
 21
1981.884958464071
 31
0.0
  0
LINE
  5
1483
330
D3E
100
AcDbEntity
  8
P-0497
  6
Continuous
 62
     2
370
    -2
100
AcDbLine
 10
-476.8733929106824
 20
2111.884958451071
 30
0.0
 11
-780.2905473514656
 21
2111.884958451071
 31
0.0
  0
LINE
  5
1484
330
D3E
100
AcDbEntity
  8
P-0497
  6
Continuous
 62
     2
370
    -2
100
AcDbLine
 10
-765.2905473514656
 20
2001.884958464071
 30
0.0
 11
-765.2905473514656
 21
2091.88495845107
 31
0.0
  0
SOLID
  5
1485
330
D3E
100
AcDbEntity
  8
P-0497
  6
Continuous
 62
     2
100
AcDbTrace
 10
-768.623880684799
 20
2001.884958464071
 30
0.0
 11
-761.9572140181323
 21
2001.884958464071
 31
0.0
 12
-765.2905473514656
 22
1981.884958464071
 32
0.0
 13
-765.2905473514656
 23
1981.884958464071
 33
0.0
  0
SOLID
  5
1486
330
D3E
100
AcDbEntity
  8
P-0497
  6
Continuous
 62
     2
100
AcDbTrace
 10
-768.623880684799
 20
2091.88495845107
 30
0.0
 11
-761.9572140181323
 21
2091.88495845107
 31
0.0
 12
-765.2905473514656
 22
2111.884958451071
 32
0.0
 13
-765.2905473514656
 23
2111.884958451071
 33
0.0
  0
MTEXT
  5
1487
330
D3E
100
AcDbEntity
  8
P-0497
  6
Continuous
 62
     1
100
AcDbMText
 10
-785.5019176138567
 20
2046.884958457571
 30
0.0
 40
20.0
 41
0.0
 71
     5
 72
     1
  1
\A1;13
  7
Stile_Quota
 11
0.0000000000000001
 21
1.0
 31
0.0
 73
     1
 44
1.0
1001
ACAD
1000
MTEXTBEGIN
1070
    73
1070
     1
1070
    44
1040
1.0
1070
    74
1070
     0
1000
MTEXTEND
  0
POINT
  5
1488
330
D3E
100
AcDbEntity
  8
Defpoints
  6
Continuous
 62
     0
100
AcDbPoint
 10
-489.6238949184626
 20
1981.88495846407
 30
0.0
  0
POINT
  5
1489
330
D3E
100
AcDbEntity
  8
Defpoints
  6
Continuous
 62
     0
100
AcDbPoint
 10
-466.8733929106823
 20
2111.884958451071
 30
0.0
  0
POINT
  5
148A
330
D3E
100
AcDbEntity
  8
Defpoints
  6
Continuous
 62
     0
100
AcDbPoint
 10
-765.2905473514656
 20
2111.884958451071
 30
0.0
  0
ENDBLK
  5
D40
330
D3E
100
AcDbEntity
  8
0
 62
     3
100
AcDbBlockEnd
  0
BLOCK
  5
D57
330
D56
100
AcDbEntity
  8
0
 62
     3
100
AcDbBlockBegin
  2
*D3
 70
     1
 10
0.0
 20
0.0
 30
0.0
  3
*D3
  1

  0
LINE
  5
148B
330
D56
100
AcDbEntity
  8
P-0497
  6
Continuous
 62
     2
370
    -2
100
AcDbLine
 10
-476.8733929106453
 20
2111.884958451106
 30
0.0
 11
-831.4471894522355
 21
2111.884958451106
 31
0.0
  0
LINE
  5
148C
330
D56
100
AcDbEntity
  8
P-0497
  6
Continuous
 62
     2
370
    -2
100
AcDbLine
 10
-479.6238949204616
 20
1681.88495849407
 30
0.0
 11
-831.4471894522357
 21
1681.88495849407
 31
0.0
  0
LINE
  5
148D
330
D56
100
AcDbEntity
  8
P-0497
  6
Continuous
 62
     2
370
    -2
100
AcDbLine
 10
-816.4471894522357
 20
2091.884958451106
 30
0.0
 11
-816.4471894522357
 21
1701.88495849407
 31
0.0
  0
SOLID
  5
148E
330
D56
100
AcDbEntity
  8
P-0497
  6
Continuous
 62
     2
100
AcDbTrace
 10
-819.780522785569
 20
2091.884958451106
 30
0.0
 11
-813.1138561189022
 21
2091.884958451106
 31
0.0
 12
-816.4471894522357
 22
2111.884958451106
 32
0.0
 13
-816.4471894522357
 23
2111.884958451106
 33
0.0
  0
SOLID
  5
148F
330
D56
100
AcDbEntity
  8
P-0497
  6
Continuous
 62
     2
100
AcDbTrace
 10
-819.7805227855692
 20
1701.88495849407
 30
0.0
 11
-813.1138561189024
 21
1701.88495849407
 31
0.0
 12
-816.4471894522357
 22
1681.88495849407
 32
0.0
 13
-816.4471894522357
 23
1681.88495849407
 33
0.0
  0
MTEXT
  5
1490
330
D56
100
AcDbEntity
  8
P-0497
  6
Continuous
 62
     1
100
AcDbMText
 10
-836.6585597146267
 20
1896.884958472588
 30
0.0
 40
20.0
 41
0.0
 71
     5
 72
     1
  1
\A1;43
  7
Stile_Quota
 11
0.0000000000000001
 21
1.0
 31
0.0
 73
     1
 44
1.0
1001
ACAD
1000
MTEXTBEGIN
1070
    73
1070
     1
1070
    44
1040
1.0
1070
    74
1070
     0
1000
MTEXTEND
  0
POINT
  5
1491
330
D56
100
AcDbEntity
  8
Defpoints
  6
Continuous
 62
     0
100
AcDbPoint
 10
-466.8733929106452
 20
2111.884958451106
 30
0.0
  0
POINT
  5
1492
330
D56
100
AcDbEntity
  8
Defpoints
  6
Continuous
 62
     0
100
AcDbPoint
 10
-469.6238949204617
 20
1681.88495849407
 30
0.0
  0
POINT
  5
1493
330
D56
100
AcDbEntity
  8
Defpoints
  6
Continuous
 62
     0
100
AcDbPoint
 10
-816.4471894522357
 20
1681.88495849407
 30
0.0
  0
ENDBLK
  5
D58
330
D56
100
AcDbEntity
  8
0
 62
     3
100
AcDbBlockEnd
  0
BLOCK
  5
D6F
330
D6E
100
AcDbEntity
  8
0
 62
     3
100
AcDbBlockBegin
  2
*D4
 70
     1
 10
0.0
 20
0.0
 30
0.0
  3
*D4
  1

  0
LINE
  5
1494
330
D6E
100
AcDbEntity
  8
P-0497
  6
Continuous
 62
     2
370
    -2
100
AcDbLine
 10
-499.6238949184625
 20
1981.88495846407
 30
0.0
 11
-667.36281786166
 21
1981.884958464071
 31
0.0
  0
LINE
  5
1495
330
D6E
100
AcDbEntity
  8
P-0497
  6
Continuous
 62
     2
370
    -2
100
AcDbLine
 10
-484.6238949199614
 20
1996.88495846207
 30
0.0
 11
-667.36281786166
 21
1996.88495846207
 31
0.0
  0
LINE
  5
1496
330
D6E
100
AcDbEntity
  8
P-0497
  6
Continuous
 62
     2
370
    -2
100
AcDbLine
 10
-652.36281786166
 20
1961.884958464071
 30
0.0
 11
-652.36281786166
 21
1941.884958464071
 31
0.0
  0
LINE
  5
1497
330
D6E
100
AcDbEntity
  8
P-0497
  6
Continuous
 62
     2
370
    -2
100
AcDbLine
 10
-652.36281786166
 20
2016.88495846207
 30
0.0
 11
-652.36281786166
 21
2093.765424934373
 31
0.0
  0
LINE
  5
1498
330
D6E
100
AcDbEntity
  8
P-0497
  6
Continuous
 62
     2
370
    -2
100
AcDbLine
 10
-652.36281786166
 20
1981.884958464071
 30
0.0
 11
-652.36281786166
 21
1996.88495846207
 31
0.0
  0
SOLID
  5
1499
330
D6E
100
AcDbEntity
  8
P-0497
  6
Continuous
 62
     2
100
AcDbTrace
 10
-655.6961511949934
 20
1961.884958464071
 30
0.0
 11
-649.0294845283266
 21
1961.884958464071
 31
0.0
 12
-652.36281786166
 22
1981.884958464071
 32
0.0
 13
-652.36281786166
 23
1981.884958464071
 33
0.0
  0
SOLID
  5
149A
330
D6E
100
AcDbEntity
  8
P-0497
  6
Continuous
 62
     2
100
AcDbTrace
 10
-655.6961511949934
 20
2016.88495846207
 30
0.0
 11
-649.0294845283266
 21
2016.88495846207
 31
0.0
 12
-652.36281786166
 22
1996.88495846207
 32
0.0
 13
-652.36281786166
 23
1996.88495846207
 33
0.0
  0
MTEXT
  5
149B
330
D6E
100
AcDbEntity
  8
P-0497
  6
Continuous
 62
     1
100
AcDbMText
 10
-672.5887653835262
 20
2065.325191698221
 30
0.0
 40
20.0
 41
0.0
 71
     5
 72
     1
  1
\A1;1.5
  7
Stile_Quota
 11
0.0000000000000001
 21
1.0
 31
0.0
 73
     1
 44
1.0
1001
ACAD
1000
MTEXTBEGIN
1070
    73
1070
     1
1070
    44
1040
1.0
1070
    74
1070
     0
1000
MTEXTEND
  0
POINT
  5
149C
330
D6E
100
AcDbEntity
  8
Defpoints
  6
Continuous
 62
     0
100
AcDbPoint
 10
-489.6238949184626
 20
1981.88495846407
 30
0.0
  0
POINT
  5
149D
330
D6E
100
AcDbEntity
  8
Defpoints
  6
Continuous
 62
     0
100
AcDbPoint
 10
-474.6238949199614
 20
1996.88495846207
 30
0.0
  0
POINT
  5
149E
330
D6E
100
AcDbEntity
  8
Defpoints
  6
Continuous
 62
     0
100
AcDbPoint
 10
-652.36281786166
 20
1996.88495846207
 30
0.0
  0
ENDBLK
  5
D70
330
D6E
100
AcDbEntity
  8
0
 62
     3
100
AcDbBlockEnd
  0
BLOCK
  5
DA2
330
DA1
100
AcDbEntity
  8
0
 62
     3
100
AcDbBlockBegin
  2
*D5
 70
     1
 10
0.0
 20
0.0
 30
0.0
  3
*D5
  1

  0
LINE
  5
149F
330
DA1
100
AcDbEntity
  8
P-0497
  6
Continuous
 62
     2
370
    -2
100
AcDbLine
 10
-494.6238949179623
 20
2056.884958457572
 30
0.0
 11
-494.6238949179623
 21
2417.288715574731
 31
0.0
  0
LINE
  5
14A0
330
DA1
100
AcDbEntity
  8
P-0497
  6
Continuous
 62
     2
370
    -2
100
AcDbLine
 10
-194.623894947963
 20
1940.671530061942
 30
0.0
 11
-194.6238949479629
 21
2417.288715574731
 31
0.0
  0
LINE
  5
14A1
330
DA1
100
AcDbEntity
  8
P-0497
  6
Continuous
 62
     2
370
    -2
100
AcDbLine
 10
-474.6238949179623
 20
2402.288715574731
 30
0.0
 11
-214.6238949479629
 21
2402.288715574731
 31
0.0
  0
SOLID
  5
14A2
330
DA1
100
AcDbEntity
  8
P-0497
  6
Continuous
 62
     2
100
AcDbTrace
 10
-474.6238949179623
 20
2405.622048908065
 30
0.0
 11
-474.6238949179623
 21
2398.955382241398
 31
0.0
 12
-494.6238949179623
 22
2402.288715574731
 32
0.0
 13
-494.6238949179623
 23
2402.288715574731
 33
0.0
  0
SOLID
  5
14A3
330
DA1
100
AcDbEntity
  8
P-0497
  6
Continuous
 62
     2
100
AcDbTrace
 10
-214.6238949479629
 20
2405.622048908065
 30
0.0
 11
-214.6238949479629
 21
2398.955382241398
 31
0.0
 12
-194.6238949479629
 22
2402.288715574731
 32
0.0
 13
-194.6238949479629
 23
2402.288715574731
 33
0.0
  0
MTEXT
  5
14A4
330
DA1
100
AcDbEntity
  8
P-0497
  6
Continuous
 62
     1
100
AcDbMText
 10
-344.6238949329627
 20
2422.514663096597
 30
0.0
 40
20.0
 41
0.0
 71
     5
 72
     1
  1
\A1;30
  7
Stile_Quota
 73
     1
 44
1.0
1001
ACAD
1000
MTEXTBEGIN
1070
    73
1070
     1
1070
    44
1040
1.0
1070
    74
1070
     0
1000
MTEXTEND
  0
POINT
  5
14A5
330
DA1
100
AcDbEntity
  8
Defpoints
  6
Continuous
 62
     0
100
AcDbPoint
 10
-494.6238949179623
 20
2046.884958457571
 30
0.0
  0
POINT
  5
14A6
330
DA1
100
AcDbEntity
  8
Defpoints
  6
Continuous
 62
     0
100
AcDbPoint
 10
-194.623894947963
 20
1930.671530061942
 30
0.0
  0
POINT
  5
14A7
330
DA1
100
AcDbEntity
  8
Defpoints
  6
Continuous
 62
     0
100
AcDbPoint
 10
-194.6238949479629
 20
2402.288715574731
 30
0.0
  0
ENDBLK
  5
DA3
330
DA1
100
AcDbEntity
  8
0
 62
     3
100
AcDbBlockEnd
  0
BLOCK
  5
DBA
330
DB9
100
AcDbEntity
  8
0
 62
     3
100
AcDbBlockBegin
  2
*D6
 70
     1
 10
0.0
 20
0.0
 30
0.0
  3
*D6
  1

  0
LINE
  5
14A8
330
DB9
100
AcDbEntity
  8
P-0497
  6
Continuous
 62
     2
370
    -2
100
AcDbLine
 10
-464.6238949209618
 20
2121.884958451071
 30
0.0
 11
-464.6238949209618
 21
2369.424627910849
 31
0.0
  0
LINE
  5
14A9
330
DB9
100
AcDbEntity
  8
P-0497
  6
Continuous
 62
     2
370
    -2
100
AcDbLine
 10
-494.6238949179623
 20
2056.884958457572
 30
0.0
 11
-494.6238949179623
 21
2369.424627910849
 31
0.0
  0
LINE
  5
14AA
330
DB9
100
AcDbEntity
  8
P-0497
  6
Continuous
 62
     2
370
    -2
100
AcDbLine
 10
-444.6238949209619
 20
2354.424627910849
 30
0.0
 11
-424.6238949209619
 21
2354.424627910849
 31
0.0
  0
LINE
  5
14AB
330
DB9
100
AcDbEntity
  8
P-0497
  6
Continuous
 62
     2
370
    -2
100
AcDbLine
 10
-514.6238949179624
 20
2354.424627910849
 30
0.0
 11
-567.0728745097991
 21
2354.424627910849
 31
0.0
  0
LINE
  5
14AC
330
DB9
100
AcDbEntity
  8
P-0497
  6
Continuous
 62
     2
370
    -2
100
AcDbLine
 10
-464.6238949209618
 20
2354.424627910849
 30
0.0
 11
-494.6238949179623
 21
2354.424627910849
 31
0.0
  0
SOLID
  5
14AD
330
DB9
100
AcDbEntity
  8
P-0497
  6
Continuous
 62
     2
100
AcDbTrace
 10
-444.6238949209619
 20
2357.757961244183
 30
0.0
 11
-444.6238949209619
 21
2351.091294577516
 31
0.0
 12
-464.6238949209618
 22
2354.424627910849
 32
0.0
 13
-464.6238949209618
 23
2354.424627910849
 33
0.0
  0
SOLID
  5
14AE
330
DB9
100
AcDbEntity
  8
P-0497
  6
Continuous
 62
     2
100
AcDbTrace
 10
-514.6238949179624
 20
2357.757961244183
 30
0.0
 11
-514.6238949179624
 21
2351.091294577516
 31
0.0
 12
-494.6238949179623
 22
2354.424627910849
 32
0.0
 13
-494.6238949179623
 23
2354.424627910849
 33
0.0
  0
MTEXT
  5
14AF
330
DB9
100
AcDbEntity
  8
P-0497
  6
Continuous
 62
     1
100
AcDbMText
 10
-550.8483847138807
 20
2374.63599817324
 30
0.0
 40
20.0
 41
0.0
 71
     5
 72
     1
  1
\A1;3
  7
Stile_Quota
 73
     1
 44
1.0
1001
ACAD
1000
MTEXTBEGIN
1070
    73
1070
     1
1070
    44
1040
1.0
1070
    74
1070
     0
1000
MTEXTEND
  0
POINT
  5
14B0
330
DB9
100
AcDbEntity
  8
Defpoints
  6
Continuous
 62
     0
100
AcDbPoint
 10
-464.6238949209618
 20
2111.884958451071
 30
0.0
  0
POINT
  5
14B1
330
DB9
100
AcDbEntity
  8
Defpoints
  6
Continuous
 62
     0
100
AcDbPoint
 10
-494.6238949179623
 20
2046.884958457571
 30
0.0
  0
POINT
  5
14B2
330
DB9
100
AcDbEntity
  8
Defpoints
  6
Continuous
 62
     0
100
AcDbPoint
 10
-494.6238949179623
 20
2354.424627910849
 30
0.0
  0
ENDBLK
  5
DBB
330
DB9
100
AcDbEntity
  8
0
 62
     3
100
AcDbBlockEnd
  0
BLOCK
  5
DD6
330
DD5
100
AcDbEntity
  8
0
 62
     3
100
AcDbBlockBegin
  2
*D7
 70
     1
 10
0.0
 20
0.0
 30
0.0
  3
*D7
  1

  0
LINE
  5
14B3
330
DD5
100
AcDbEntity
  8
P-0497
  6
Continuous
 62
     2
370
    -2
100
AcDbLine
 10
-464.6238949209618
 20
2121.884958451071
 30
0.0
 11
-464.6238949209618
 21
2369.424627910849
 31
0.0
  0
LINE
  5
14B4
330
DD5
100
AcDbEntity
  8
P-0497
  6
Continuous
 62
     2
370
    -2
100
AcDbLine
 10
-364.6238949309627
 20
2089.884958454272
 30
0.0
 11
-364.6238949309627
 21
2369.424627910849
 31
0.0
  0
LINE
  5
14B5
330
DD5
100
AcDbEntity
  8
P-0497
  6
Continuous
 62
     2
370
    -2
100
AcDbLine
 10
-444.6238949209619
 20
2354.424627910849
 30
0.0
 11
-384.6238949309627
 21
2354.424627910849
 31
0.0
  0
SOLID
  5
14B6
330
DD5
100
AcDbEntity
  8
P-0497
  6
Continuous
 62
     2
100
AcDbTrace
 10
-444.6238949209619
 20
2357.757961244183
 30
0.0
 11
-444.6238949209619
 21
2351.091294577516
 31
0.0
 12
-464.6238949209618
 22
2354.424627910849
 32
0.0
 13
-464.6238949209618
 23
2354.424627910849
 33
0.0
  0
SOLID
  5
14B7
330
DD5
100
AcDbEntity
  8
P-0497
  6
Continuous
 62
     2
100
AcDbTrace
 10
-384.6238949309627
 20
2357.757961244183
 30
0.0
 11
-384.6238949309627
 21
2351.091294577516
 31
0.0
 12
-364.6238949309627
 22
2354.424627910849
 32
0.0
 13
-364.6238949309627
 23
2354.424627910849
 33
0.0
  0
MTEXT
  5
14B8
330
DD5
100
AcDbEntity
  8
P-0497
  6
Continuous
 62
     1
100
AcDbMText
 10
-414.6238949259623
 20
2374.650575432715
 30
0.0
 40
20.0
 41
0.0
 71
     5
 72
     1
  1
\A1;10
  7
Stile_Quota
 73
     1
 44
1.0
1001
ACAD
1000
MTEXTBEGIN
1070
    73
1070
     1
1070
    44
1040
1.0
1070
    74
1070
     0
1000
MTEXTEND
  0
POINT
  5
14B9
330
DD5
100
AcDbEntity
  8
Defpoints
  6
Continuous
 62
     0
100
AcDbPoint
 10
-464.6238949209618
 20
2111.884958451071
 30
0.0
  0
POINT
  5
14BA
330
DD5
100
AcDbEntity
  8
Defpoints
  6
Continuous
 62
     0
100
AcDbPoint
 10
-364.6238949309627
 20
2079.884958454272
 30
0.0
  0
POINT
  5
14BB
330
DD5
100
AcDbEntity
  8
Defpoints
  6
Continuous
 62
     0
100
AcDbPoint
 10
-364.6238949309627
 20
2354.424627910849
 30
0.0
  0
ENDBLK
  5
DD7
330
DD5
100
AcDbEntity
  8
0
 62
     3
100
AcDbBlockEnd
  0
BLOCK
  5
DEE
330
DED
100
AcDbEntity
  8
0
 62
     3
100
AcDbBlockBegin
  2
*D8
 70
     1
 10
0.0
 20
0.0
 30
0.0
  3
*D8
  1

  0
LINE
  5
14BC
330
DED
100
AcDbEntity
  8
P-0497
  6
Continuous
 62
     2
370
    -2
100
AcDbLine
 10
-364.6238949309627
 20
2089.884958454272
 30
0.0
 11
-364.6238949309627
 21
2369.424627910849
 31
0.0
  0
LINE
  5
14BD
330
DED
100
AcDbEntity
  8
P-0497
  6
Continuous
 62
     2
370
    -2
100
AcDbLine
 10
-194.623894947963
 20
1940.671530061942
 30
0.0
 11
-194.6238949479629
 21
2369.424627910849
 31
0.0
  0
LINE
  5
14BE
330
DED
100
AcDbEntity
  8
P-0497
  6
Continuous
 62
     2
370
    -2
100
AcDbLine
 10
-344.6238949309627
 20
2354.424627910849
 30
0.0
 11
-214.6238949479629
 21
2354.424627910849
 31
0.0
  0
SOLID
  5
14BF
330
DED
100
AcDbEntity
  8
P-0497
  6
Continuous
 62
     2
100
AcDbTrace
 10
-344.6238949309627
 20
2357.757961244183
 30
0.0
 11
-344.6238949309627
 21
2351.091294577516
 31
0.0
 12
-364.6238949309627
 22
2354.424627910849
 32
0.0
 13
-364.6238949309627
 23
2354.424627910849
 33
0.0
  0
SOLID
  5
14C0
330
DED
100
AcDbEntity
  8
P-0497
  6
Continuous
 62
     2
100
AcDbTrace
 10
-214.6238949479629
 20
2357.757961244183
 30
0.0
 11
-214.6238949479629
 21
2351.091294577516
 31
0.0
 12
-194.6238949479629
 22
2354.424627910849
 32
0.0
 13
-194.6238949479629
 23
2354.424627910849
 33
0.0
  0
MTEXT
  5
14C1
330
DED
100
AcDbEntity
  8
P-0497
  6
Continuous
 62
     1
100
AcDbMText
 10
-279.6238949394628
 20
2374.723461730091
 30
0.0
 40
20.0
 41
0.0
 71
     5
 72
     1
  1
\A1;17
  7
Stile_Quota
 73
     1
 44
1.0
1001
ACAD
1000
MTEXTBEGIN
1070
    73
1070
     1
1070
    44
1040
1.0
1070
    74
1070
     0
1000
MTEXTEND
  0
POINT
  5
14C2
330
DED
100
AcDbEntity
  8
Defpoints
  6
Continuous
 62
     0
100
AcDbPoint
 10
-364.6238949309627
 20
2079.884958454272
 30
0.0
  0
POINT
  5
14C3
330
DED
100
AcDbEntity
  8
Defpoints
  6
Continuous
 62
     0
100
AcDbPoint
 10
-194.623894947963
 20
1930.671530061942
 30
0.0
  0
POINT
  5
14C4
330
DED
100
AcDbEntity
  8
Defpoints
  6
Continuous
 62
     0
100
AcDbPoint
 10
-194.6238949479629
 20
2354.424627910849
 30
0.0
  0
ENDBLK
  5
DEF
330
DED
100
AcDbEntity
  8
0
 62
     3
100
AcDbBlockEnd
  0
BLOCK
  5
E06
330
E05
100
AcDbEntity
  8
0
 62
     3
100
AcDbBlockBegin
  2
*D9
 70
     1
 10
0.0
 20
0.0
 30
0.0
  3
*D9
  1

  0
LINE
  5
14C5
330
E05
100
AcDbEntity
  8
P-0497
  6
Continuous
 62
     2
370
    -2
100
AcDbLine
 10
-364.6238949309627
 20
2089.884958454272
 30
0.0
 11
-364.6238949309627
 21
2318.290986302987
 31
0.0
  0
LINE
  5
14C6
330
E05
100
AcDbEntity
  8
P-0497
  6
Continuous
 62
     2
370
    -2
100
AcDbLine
 10
-344.6238949329634
 20
2071.884958456071
 30
0.0
 11
-344.6238949329634
 21
2318.290986302987
 31
0.0
  0
LINE
  5
14C7
330
E05
100
AcDbEntity
  8
P-0497
  6
Continuous
 62
     2
370
    -2
100
AcDbLine
 10
-384.6238949309627
 20
2303.290986302986
 30
0.0
 11
-404.6238949309627
 21
2303.290986302986
 31
0.0
  0
LINE
  5
14C8
330
E05
100
AcDbEntity
  8
P-0497
  6
Continuous
 62
     2
370
    -2
100
AcDbLine
 10
-324.6238949329633
 20
2303.290986302986
 30
0.0
 11
-271.2273934752374
 21
2303.290986302986
 31
0.0
  0
LINE
  5
14C9
330
E05
100
AcDbEntity
  8
P-0497
  6
Continuous
 62
     2
370
    -2
100
AcDbLine
 10
-364.6238949309627
 20
2303.290986302986
 30
0.0
 11
-344.6238949329634
 21
2303.290986302986
 31
0.0
  0
SOLID
  5
14CA
330
E05
100
AcDbEntity
  8
P-0497
  6
Continuous
 62
     2
100
AcDbTrace
 10
-384.6238949309627
 20
2306.62431963632
 30
0.0
 11
-384.6238949309627
 21
2299.957652969653
 31
0.0
 12
-364.6238949309627
 22
2303.290986302986
 32
0.0
 13
-364.6238949309627
 23
2303.290986302986
 33
0.0
  0
SOLID
  5
14CB
330
E05
100
AcDbEntity
  8
P-0497
  6
Continuous
 62
     2
100
AcDbTrace
 10
-324.6238949329633
 20
2306.62431963632
 30
0.0
 11
-324.6238949329633
 21
2299.957652969653
 31
0.0
 12
-344.6238949329634
 22
2303.290986302986
 32
0.0
 13
-344.6238949329634
 23
2303.290986302986
 33
0.0
  0
MTEXT
  5
14CC
330
E05
100
AcDbEntity
  8
P-0497
  6
Continuous
 62
     1
100
AcDbMText
 10
-287.9256442041004
 20
2323.290986302986
 30
0.0
 40
20.0
 41
0.0
 71
     5
 72
     1
  1
\A1;2
  7
Stile_Quota
 73
     1
 44
1.0
1001
ACAD
1000
MTEXTBEGIN
1070
    73
1070
     1
1070
    44
1040
1.0
1070
    74
1070
     0
1000
MTEXTEND
  0
POINT
  5
14CD
330
E05
100
AcDbEntity
  8
Defpoints
  6
Continuous
 62
     0
100
AcDbPoint
 10
-364.6238949309627
 20
2079.884958454272
 30
0.0
  0
POINT
  5
14CE
330
E05
100
AcDbEntity
  8
Defpoints
  6
Continuous
 62
     0
100
AcDbPoint
 10
-344.6238949329634
 20
2061.884958456071
 30
0.0
  0
POINT
  5
14CF
330
E05
100
AcDbEntity
  8
Defpoints
  6
Continuous
 62
     0
100
AcDbPoint
 10
-344.6238949329634
 20
2303.290986302986
 30
0.0
  0
ENDBLK
  5
E07
330
E05
100
AcDbEntity
  8
0
 62
     3
100
AcDbBlockEnd
  0
BLOCK
  5
E22
330
E21
100
AcDbEntity
  8
0
 62
     3
100
AcDbBlockBegin
  2
*D10
 70
     1
 10
0.0
 20
0.0
 30
0.0
  3
*D10
  1

  0
LINE
  5
14D0
330
E21
100
AcDbEntity
  8
P-0497
  6
Continuous
 62
     2
370
    -2
100
AcDbLine
 10
-344.6238949329636
 20
2071.884958456071
 30
0.0
 11
-344.6238949329636
 21
2213.515628040445
 31
0.0
  0
LINE
  5
14D1
330
E21
100
AcDbEntity
  8
P-0497
  6
Continuous
 62
     2
370
    -2
100
AcDbLine
 10
-329.6238949344624
 20
2071.884958456071
 30
0.0
 11
-329.6238949344624
 21
2213.515628040445
 31
0.0
  0
LINE
  5
14D2
330
E21
100
AcDbEntity
  8
P-0497
  6
Continuous
 62
     2
370
    -2
100
AcDbLine
 10
-364.6238949329636
 20
2198.515628040445
 30
0.0
 11
-384.6238949329636
 21
2198.515628040445
 31
0.0
  0
LINE
  5
14D3
330
E21
100
AcDbEntity
  8
P-0497
  6
Continuous
 62
     2
370
    -2
100
AcDbLine
 10
-309.6238949344624
 20
2198.515628040445
 30
0.0
 11
-232.7434284621592
 21
2198.515628040445
 31
0.0
  0
LINE
  5
14D4
330
E21
100
AcDbEntity
  8
P-0497
  6
Continuous
 62
     2
370
    -2
100
AcDbLine
 10
-344.6238949329636
 20
2198.515628040445
 30
0.0
 11
-329.6238949344624
 21
2198.515628040445
 31
0.0
  0
SOLID
  5
14D5
330
E21
100
AcDbEntity
  8
P-0497
  6
Continuous
 62
     2
100
AcDbTrace
 10
-364.6238949329636
 20
2201.848961373779
 30
0.0
 11
-364.6238949329636
 21
2195.182294707112
 31
0.0
 12
-344.6238949329636
 22
2198.515628040445
 32
0.0
 13
-344.6238949329636
 23
2198.515628040445
 33
0.0
  0
SOLID
  5
14D6
330
E21
100
AcDbEntity
  8
P-0497
  6
Continuous
 62
     2
100
AcDbTrace
 10
-309.6238949344624
 20
2201.848961373779
 30
0.0
 11
-309.6238949344624
 21
2195.182294707112
 31
0.0
 12
-329.6238949344624
 22
2198.515628040445
 32
0.0
 13
-329.6238949344624
 23
2198.515628040445
 33
0.0
  0
MTEXT
  5
14D7
330
E21
100
AcDbEntity
  8
P-0497
  6
Continuous
 62
     1
100
AcDbMText
 10
-261.1836616983108
 20
2218.741575562311
 30
0.0
 40
20.0
 41
0.0
 71
     5
 72
     1
  1
\A1;1.5
  7
Stile_Quota
 73
     1
 44
1.0
1001
ACAD
1000
MTEXTBEGIN
1070
    73
1070
     1
1070
    44
1040
1.0
1070
    74
1070
     0
1000
MTEXTEND
  0
POINT
  5
14D8
330
E21
100
AcDbEntity
  8
Defpoints
  6
Continuous
 62
     0
100
AcDbPoint
 10
-344.6238949329636
 20
2061.884958456071
 30
0.0
  0
POINT
  5
14D9
330
E21
100
AcDbEntity
  8
Defpoints
  6
Continuous
 62
     0
100
AcDbPoint
 10
-329.6238949344624
 20
2061.884958456071
 30
0.0
  0
POINT
  5
14DA
330
E21
100
AcDbEntity
  8
Defpoints
  6
Continuous
 62
     0
100
AcDbPoint
 10
-329.6238949344624
 20
2198.515628040445
 30
0.0
  0
ENDBLK
  5
E23
330
E21
100
AcDbEntity
  8
0
 62
     3
100
AcDbBlockEnd
  0
BLOCK
  5
E3E
330
E3D
100
AcDbEntity
  8
0
 62
     3
100
AcDbBlockBegin
  2
*D11
 70
     1
 10
0.0
 20
0.0
 30
0.0
  3
*D11
  1

  0
LINE
  5
14DB
330
E3D
100
AcDbEntity
  8
P-0497
  6
Continuous
 62
     2
370
    -2
100
AcDbLine
 10
-479.6238949194627
 20
2056.884958457572
 30
0.0
 11
-479.6238949194627
 21
2213.515628040445
 31
0.0
  0
LINE
  5
14DC
330
E3D
100
AcDbEntity
  8
P-0497
  6
Continuous
 62
     2
370
    -2
100
AcDbLine
 10
-494.6238949179623
 20
2056.884958457572
 30
0.0
 11
-494.6238949179623
 21
2213.515628040445
 31
0.0
  0
LINE
  5
14DD
330
E3D
100
AcDbEntity
  8
P-0497
  6
Continuous
 62
     2
370
    -2
100
AcDbLine
 10
-459.6238949194627
 20
2198.515628040445
 30
0.0
 11
-439.6238949194627
 21
2198.515628040445
 31
0.0
  0
LINE
  5
14DE
330
E3D
100
AcDbEntity
  8
P-0497
  6
Continuous
 62
     2
370
    -2
100
AcDbLine
 10
-514.6238949179624
 20
2198.515628040445
 30
0.0
 11
-591.5043613902655
 21
2198.515628040445
 31
0.0
  0
LINE
  5
14DF
330
E3D
100
AcDbEntity
  8
P-0497
  6
Continuous
 62
     2
370
    -2
100
AcDbLine
 10
-479.6238949194627
 20
2198.515628040445
 30
0.0
 11
-494.6238949179623
 21
2198.515628040445
 31
0.0
  0
SOLID
  5
14E0
330
E3D
100
AcDbEntity
  8
P-0497
  6
Continuous
 62
     2
100
AcDbTrace
 10
-459.6238949194627
 20
2201.848961373779
 30
0.0
 11
-459.6238949194627
 21
2195.182294707112
 31
0.0
 12
-479.6238949194627
 22
2198.515628040445
 32
0.0
 13
-479.6238949194627
 23
2198.515628040445
 33
0.0
  0
SOLID
  5
14E1
330
E3D
100
AcDbEntity
  8
P-0497
  6
Continuous
 62
     2
100
AcDbTrace
 10
-514.6238949179624
 20
2201.848961373779
 30
0.0
 11
-514.6238949179624
 21
2195.182294707112
 31
0.0
 12
-494.6238949179623
 22
2198.515628040445
 32
0.0
 13
-494.6238949179623
 23
2198.515628040445
 33
0.0
  0
MTEXT
  5
14E2
330
E3D
100
AcDbEntity
  8
P-0497
  6
Continuous
 62
     1
100
AcDbMText
 10
-563.0641281541139
 20
2218.741575562311
 30
0.0
 40
20.0
 41
0.0
 71
     5
 72
     1
  1
\A1;1.5
  7
Stile_Quota
 73
     1
 44
1.0
1001
ACAD
1000
MTEXTBEGIN
1070
    73
1070
     1
1070
    44
1040
1.0
1070
    74
1070
     0
1000
MTEXTEND
  0
POINT
  5
14E3
330
E3D
100
AcDbEntity
  8
Defpoints
  6
Continuous
 62
     0
100
AcDbPoint
 10
-479.6238949194627
 20
2046.884958457571
 30
0.0
  0
POINT
  5
14E4
330
E3D
100
AcDbEntity
  8
Defpoints
  6
Continuous
 62
     0
100
AcDbPoint
 10
-494.6238949179623
 20
2046.884958457571
 30
0.0
  0
POINT
  5
14E5
330
E3D
100
AcDbEntity
  8
Defpoints
  6
Continuous
 62
     0
100
AcDbPoint
 10
-494.6238949179623
 20
2198.515628040445
 30
0.0
  0
ENDBLK
  5
E3F
330
E3D
100
AcDbEntity
  8
0
 62
     3
100
AcDbBlockEnd
  0
BLOCK
  5
E5A
330
E59
100
AcDbEntity
  8
0
 62
     3
100
AcDbBlockBegin
  2
*D12
 70
     1
 10
0.0
 20
0.0
 30
0.0
  3
*D12
  1

  0
LINE
  5
14E6
330
E59
100
AcDbEntity
  8
P-0497
  6
Continuous
 62
     2
370
    -2
100
AcDbLine
 10
-235.8373233500915
 20
1981.88495846407
 30
0.0
 11
53.0766271727734
 21
1981.88495846407
 31
0.0
  0
LINE
  5
14E7
330
E59
100
AcDbEntity
  8
P-0497
  6
Continuous
 62
     2
370
    -2
100
AcDbLine
 10
-319.6238949344624
 20
2081.884958454072
 30
0.0
 11
53.07662717277345
 21
2081.884958454072
 31
0.0
  0
LINE
  5
14E8
330
E59
100
AcDbEntity
  8
P-0497
  6
Continuous
 62
     2
370
    -2
100
AcDbLine
 10
38.07662717277343
 20
2001.884958464071
 30
0.0
 11
38.07662717277344
 21
2061.884958454072
 31
0.0
  0
SOLID
  5
14E9
330
E59
100
AcDbEntity
  8
P-0497
  6
Continuous
 62
     2
100
AcDbTrace
 10
34.74329383944009
 20
2001.884958464071
 30
0.0
 11
41.40996050610676
 21
2001.884958464071
 31
0.0
 12
38.07662717277342
 22
1981.88495846407
 32
0.0
 13
38.07662717277342
 23
1981.88495846407
 33
0.0
  0
SOLID
  5
14EA
330
E59
100
AcDbEntity
  8
P-0497
  6
Continuous
 62
     2
100
AcDbTrace
 10
34.7432938394401
 20
2061.884958454072
 30
0.0
 11
41.40996050610676
 21
2061.884958454072
 31
0.0
 12
38.07662717277344
 22
2081.884958454072
 32
0.0
 13
38.07662717277344
 23
2081.884958454072
 33
0.0
  0
MTEXT
  5
14EB
330
E59
100
AcDbEntity
  8
P-0497
  6
Continuous
 62
     1
100
AcDbMText
 10
17.85067965090721
 20
2031.884958459071
 30
0.0
 40
20.0
 41
0.0
 71
     5
 72
     1
  1
\A1;10
  7
Stile_Quota
 11
0.0000000000000001
 21
1.0
 31
0.0
 73
     1
 44
1.0
1001
ACAD
1000
MTEXTBEGIN
1070
    73
1070
     1
1070
    44
1040
1.0
1070
    74
1070
     0
1000
MTEXTEND
  0
POINT
  5
14EC
330
E59
100
AcDbEntity
  8
Defpoints
  6
Continuous
 62
     0
100
AcDbPoint
 10
-245.8373233500915
 20
1981.88495846407
 30
0.0
  0
POINT
  5
14ED
330
E59
100
AcDbEntity
  8
Defpoints
  6
Continuous
 62
     0
100
AcDbPoint
 10
-329.6238949344624
 20
2081.884958454072
 30
0.0
  0
POINT
  5
14EE
330
E59
100
AcDbEntity
  8
Defpoints
  6
Continuous
 62
     0
100
AcDbPoint
 10
38.07662717277344
 20
2081.884958454072
 30
0.0
  0
ENDBLK
  5
E5B
330
E59
100
AcDbEntity
  8
0
 62
     3
100
AcDbBlockEnd
  0
BLOCK
  5
E72
330
E71
100
AcDbEntity
  8
0
 62
     3
100
AcDbBlockBegin
  2
*D13
 70
     1
 10
0.0
 20
0.0
 30
0.0
  3
*D13
  1

  0
LINE
  5
14EF
330
E71
100
AcDbEntity
  8
P-0497
  6
Continuous
 62
     2
370
    -2
100
AcDbLine
 10
-321.6238949342633
 20
2031.884958459068
 30
0.0
 11
-38.41891151250457
 21
2031.884958459068
 31
0.0
  0
LINE
  5
14F0
330
E71
100
AcDbEntity
  8
P-0497
  6
Continuous
 62
     2
370
    -2
100
AcDbLine
 10
-319.6238949344624
 20
2081.884958454072
 30
0.0
 11
-38.41891151250456
 21
2081.884958454072
 31
0.0
  0
LINE
  5
14F1
330
E71
100
AcDbEntity
  8
P-0497
  6
Continuous
 62
     2
370
    -2
100
AcDbLine
 10
-53.41891151250457
 20
2011.884958459068
 30
0.0
 11
-53.41891151250457
 21
1991.884958459068
 31
0.0
  0
LINE
  5
14F2
330
E71
100
AcDbEntity
  8
P-0497
  6
Continuous
 62
     2
370
    -2
100
AcDbLine
 10
-53.41891151250455
 20
2101.884958454072
 30
0.0
 11
-53.41891151250454
 21
2154.683792273314
 31
0.0
  0
LINE
  5
14F3
330
E71
100
AcDbEntity
  8
P-0497
  6
Continuous
 62
     2
370
    -2
100
AcDbLine
 10
-53.41891151250457
 20
2031.884958459068
 30
0.0
 11
-53.41891151250456
 21
2081.884958454072
 31
0.0
  0
SOLID
  5
14F4
330
E71
100
AcDbEntity
  8
P-0497
  6
Continuous
 62
     2
100
AcDbTrace
 10
-56.7522448458379
 20
2011.884958459068
 30
0.0
 11
-50.08557817917123
 21
2011.884958459068
 31
0.0
 12
-53.41891151250457
 22
2031.884958459068
 32
0.0
 13
-53.41891151250457
 23
2031.884958459068
 33
0.0
  0
SOLID
  5
14F5
330
E71
100
AcDbEntity
  8
P-0497
  6
Continuous
 62
     2
100
AcDbTrace
 10
-56.75224484583789
 20
2101.884958454072
 30
0.0
 11
-50.08557817917122
 21
2101.884958454072
 31
0.0
 12
-53.41891151250456
 22
2081.884958454072
 32
0.0
 13
-53.41891151250456
 23
2081.884958454072
 33
0.0
  0
MTEXT
  5
14F6
330
E71
100
AcDbEntity
  8
P-0497
  6
Continuous
 62
     1
100
AcDbMText
 10
-73.64485903437078
 20
2138.284375363693
 30
0.0
 40
20.0
 41
0.0
 71
     5
 72
     1
  1
\A1;5
  7
Stile_Quota
 11
0.0000000000000001
 21
1.0
 31
0.0
 73
     1
 44
1.0
1001
ACAD
1000
MTEXTBEGIN
1070
    73
1070
     1
1070
    44
1040
1.0
1070
    74
1070
     0
1000
MTEXTEND
  0
POINT
  5
14F7
330
E71
100
AcDbEntity
  8
Defpoints
  6
Continuous
 62
     0
100
AcDbPoint
 10
-331.6238949342633
 20
2031.884958459068
 30
0.0
  0
POINT
  5
14F8
330
E71
100
AcDbEntity
  8
Defpoints
  6
Continuous
 62
     0
100
AcDbPoint
 10
-329.6238949344624
 20
2081.884958454072
 30
0.0
  0
POINT
  5
14F9
330
E71
100
AcDbEntity
  8
Defpoints
  6
Continuous
 62
     0
100
AcDbPoint
 10
-53.41891151250456
 20
2081.884958454072
 30
0.0
  0
ENDBLK
  5
E73
330
E71
100
AcDbEntity
  8
0
 62
     3
100
AcDbBlockEnd
  0
BLOCK
  5
E8E
330
E8D
100
AcDbEntity
  8
0
 62
     3
100
AcDbBlockBegin
  2
*D14
 70
     1
 10
0.0
 20
0.0
 30
0.0
  3
*D14
  1

  0
LINE
  5
161C
330
E8D
100
AcDbEntity
  8
P-0497
  6
Continuous
 62
     2
370
    -2
100
AcDbLine
 10
-339.6238949324634
 20
2066.88495845557
 30
0.0
 11
-82.89332273668334
 21
2066.88495845557
 31
0.0
  0
LINE
  5
161D
330
E8D
100
AcDbEntity
  8
P-0497
  6
Continuous
 62
     2
370
    -2
100
AcDbLine
 10
-315.4305656334218
 20
2081.884958454071
 30
0.0
 11
-82.89332273668332
 21
2081.884958454071
 31
0.0
  0
LINE
  5
161E
330
E8D
100
AcDbEntity
  8
P-0497
  6
Continuous
 62
     2
370
    -2
100
AcDbLine
 10
-97.89332273668335
 20
2046.884958455571
 30
0.0
 11
-97.89332273668335
 21
2026.884958455571
 31
0.0
  0
LINE
  5
161F
330
E8D
100
AcDbEntity
  8
P-0497
  6
Continuous
 62
     2
370
    -2
100
AcDbLine
 10
-97.89332273668334
 20
2101.884958454071
 30
0.0
 11
-97.89332273668332
 21
2178.765424926375
 31
0.0
  0
LINE
  5
1620
330
E8D
100
AcDbEntity
  8
P-0497
  6
Continuous
 62
     2
370
    -2
100
AcDbLine
 10
-97.89332273668335
 20
2066.88495845557
 30
0.0
 11
-97.89332273668334
 21
2081.884958454071
 31
0.0
  0
SOLID
  5
1621
330
E8D
100
AcDbEntity
  8
P-0497
  6
Continuous
 62
     2
100
AcDbTrace
 10
-101.2266560700167
 20
2046.884958455571
 30
0.0
 11
-94.55998940335001
 21
2046.884958455571
 31
0.0
 12
-97.89332273668335
 22
2066.88495845557
 32
0.0
 13
-97.89332273668335
 23
2066.88495845557
 33
0.0
  0
SOLID
  5
1622
330
E8D
100
AcDbEntity
  8
P-0497
  6
Continuous
 62
     2
100
AcDbTrace
 10
-101.2266560700166
 20
2101.884958454071
 30
0.0
 11
-94.55998940335
 21
2101.884958454071
 31
0.0
 12
-97.89332273668334
 22
2081.884958454071
 32
0.0
 13
-97.89332273668334
 23
2081.884958454071
 33
0.0
  0
MTEXT
  5
1623
330
E8D
100
AcDbEntity
  8
P-0497
  6
Continuous
 62
     1
100
AcDbMText
 10
-118.1192702585495
 20
2150.325191690223
 30
0.0
 40
20.0
 41
0.0
 71
     5
 72
     1
  1
\A1;1.5
  7
Stile_Quota
 11
0.0000000000000001
 21
1.0
 31
0.0
 73
     1
 44
1.0
1001
ACAD
1000
MTEXTBEGIN
1070
    73
1070
     1
1070
    44
1040
1.0
1070
    74
1070
     0
1000
MTEXTEND
  0
POINT
  5
1624
330
E8D
100
AcDbEntity
  8
Defpoints
  6
Continuous
 62
     0
100
AcDbPoint
 10
-349.6238949324634
 20
2066.88495845557
 30
0.0
  0
POINT
  5
1625
330
E8D
100
AcDbEntity
  8
Defpoints
  6
Continuous
 62
     0
100
AcDbPoint
 10
-325.4305656334218
 20
2081.884958454071
 30
0.0
  0
POINT
  5
1626
330
E8D
100
AcDbEntity
  8
Defpoints
  6
Continuous
 62
     0
100
AcDbPoint
 10
-97.89332273668334
 20
2081.884958454071
 30
0.0
  0
ENDBLK
  5
E8F
330
E8D
100
AcDbEntity
  8
0
 62
     3
100
AcDbBlockEnd
  0
BLOCK
  5
EB5
330
EB4
100
AcDbEntity
  8
0
 62
     3
100
AcDbBlockBegin
  2
*D15
 70
     1
 10
0.0
 20
0.0
 30
0.0
  3
*D15
  1

  0
LINE
  5
1505
330
EB4
100
AcDbEntity
  8
P-0497
  6
Continuous
 62
     2
370
    -2
100
AcDbLine
 10
-235.8373233500915
 20
1981.88495846407
 30
0.0
 11
53.07662717277345
 21
1981.88495846407
 31
0.0
  0
LINE
  5
1506
330
EB4
100
AcDbEntity
  8
P-0497
  6
Continuous
 62
     2
370
    -2
100
AcDbLine
 10
-119.6238949544622
 20
1681.884958494071
 30
0.0
 11
53.07662717277336
 21
1681.884958494071
 31
0.0
  0
LINE
  5
1507
330
EB4
100
AcDbEntity
  8
P-0497
  6
Continuous
 62
     2
370
    -2
100
AcDbLine
 10
38.07662717277343
 20
1961.884958464071
 30
0.0
 11
38.07662717277337
 21
1701.884958494071
 31
0.0
  0
SOLID
  5
1508
330
EB4
100
AcDbEntity
  8
P-0497
  6
Continuous
 62
     2
100
AcDbTrace
 10
34.74329383944009
 20
1961.884958464071
 30
0.0
 11
41.40996050610676
 21
1961.884958464071
 31
0.0
 12
38.07662717277344
 22
1981.88495846407
 32
0.0
 13
38.07662717277344
 23
1981.88495846407
 33
0.0
  0
SOLID
  5
1509
330
EB4
100
AcDbEntity
  8
P-0497
  6
Continuous
 62
     2
100
AcDbTrace
 10
34.74329383944004
 20
1701.884958494071
 30
0.0
 11
41.4099605061067
 21
1701.884958494071
 31
0.0
 12
38.07662717277337
 22
1681.884958494071
 32
0.0
 13
38.07662717277337
 23
1681.884958494071
 33
0.0
  0
MTEXT
  5
150A
330
EB4
100
AcDbEntity
  8
P-0497
  6
Continuous
 62
     1
100
AcDbMText
 10
17.85067965090721
 20
1831.884958479071
 30
0.0
 40
20.0
 41
0.0
 71
     5
 72
     1
  1
\A1;30
  7
Stile_Quota
 11
0.0000000000000001
 21
1.0
 31
0.0
 73
     1
 44
1.0
1001
ACAD
1000
MTEXTBEGIN
1070
    73
1070
     1
1070
    44
1040
1.0
1070
    74
1070
     0
1000
MTEXTEND
  0
POINT
  5
150B
330
EB4
100
AcDbEntity
  8
Defpoints
  6
Continuous
 62
     0
100
AcDbPoint
 10
-245.8373233500915
 20
1981.88495846407
 30
0.0
  0
POINT
  5
150C
330
EB4
100
AcDbEntity
  8
Defpoints
  6
Continuous
 62
     0
100
AcDbPoint
 10
-129.6238949544622
 20
1681.884958494071
 30
0.0
  0
POINT
  5
150D
330
EB4
100
AcDbEntity
  8
Defpoints
  6
Continuous
 62
     0
100
AcDbPoint
 10
38.07662717277337
 20
1681.884958494071
 30
0.0
  0
ENDBLK
  5
EB6
330
EB4
100
AcDbEntity
  8
0
 62
     3
100
AcDbBlockEnd
  0
BLOCK
  5
ECD
330
ECC
100
AcDbEntity
  8
0
 62
     3
100
AcDbBlockBegin
  2
*D16
 70
     1
 10
0.0
 20
0.0
 30
0.0
  3
*D16
  1

  0
LINE
  5
1639
330
ECC
100
AcDbEntity
  8
P-0497
  6
Continuous
 62
     2
370
    -2
100
AcDbLine
 10
-315.4305656333918
 20
2081.884958454061
 30
0.0
 11
106.1038061037602
 21
2081.884958454061
 31
0.0
  0
LINE
  5
163A
330
ECC
100
AcDbEntity
  8
P-0497
  6
Continuous
 62
     2
370
    -2
100
AcDbLine
 10
-119.6238949544619
 20
1681.884958494071
 30
0.0
 11
106.1038061037601
 21
1681.884958494071
 31
0.0
  0
LINE
  5
163B
330
ECC
100
AcDbEntity
  8
P-0497
  6
Continuous
 62
     2
370
    -2
100
AcDbLine
 10
91.1038061037602
 20
2061.884958454061
 30
0.0
 11
91.10380610376013
 21
1701.884958494071
 31
0.0
  0
SOLID
  5
163C
330
ECC
100
AcDbEntity
  8
P-0497
  6
Continuous
 62
     2
100
AcDbTrace
 10
87.77047277042688
 20
2061.884958454061
 30
0.0
 11
94.43713943709353
 21
2061.884958454061
 31
0.0
 12
91.10380610376022
 22
2081.884958454061
 32
0.0
 13
91.10380610376022
 23
2081.884958454061
 33
0.0
  0
SOLID
  5
163D
330
ECC
100
AcDbEntity
  8
P-0497
  6
Continuous
 62
     2
100
AcDbTrace
 10
87.77047277042681
 20
1701.884958494071
 30
0.0
 11
94.43713943709346
 21
1701.884958494071
 31
0.0
 12
91.10380610376012
 22
1681.884958494071
 32
0.0
 13
91.10380610376012
 23
1681.884958494071
 33
0.0
  0
MTEXT
  5
163E
330
ECC
100
AcDbEntity
  8
P-0497
  6
Continuous
 62
     1
100
AcDbMText
 10
70.87785858189397
 20
1881.884958474066
 30
0.0
 40
20.0
 41
0.0
 71
     5
 72
     1
  1
\A1;40
  7
Stile_Quota
 11
0.0000000000000001
 21
1.0
 31
0.0
 73
     1
 44
1.0
1001
ACAD
1000
MTEXTBEGIN
1070
    73
1070
     1
1070
    44
1040
1.0
1070
    74
1070
     0
1000
MTEXTEND
  0
POINT
  5
163F
330
ECC
100
AcDbEntity
  8
Defpoints
  6
Continuous
 62
     0
100
AcDbPoint
 10
-325.4305656333918
 20
2081.884958454061
 30
0.0
  0
POINT
  5
1640
330
ECC
100
AcDbEntity
  8
Defpoints
  6
Continuous
 62
     0
100
AcDbPoint
 10
-129.6238949544619
 20
1681.884958494071
 30
0.0
  0
POINT
  5
1641
330
ECC
100
AcDbEntity
  8
Defpoints
  6
Continuous
 62
     0
100
AcDbPoint
 10
91.10380610376012
 20
1681.884958494071
 30
0.0
  0
ENDBLK
  5
ECE
330
ECC
100
AcDbEntity
  8
0
 62
     3
100
AcDbBlockEnd
  0
BLOCK
  5
EE5
330
EE4
100
AcDbEntity
  8
0
 62
     3
100
AcDbBlockBegin
  2
*D17
 70
     1
 10
0.0
 20
0.0
 30
0.0
  3
*D17
  1

  0
LINE
  5
1517
330
EE4
100
AcDbEntity
  8
P-0497
  6
Continuous
 62
     2
370
    -2
100
AcDbLine
 10
-494.6238949179623
 20
1696.88495849157
 30
0.0
 11
-494.6238949179623
 21
1300.702347788896
 31
0.0
  0
LINE
  5
1518
330
EE4
100
AcDbEntity
  8
P-0497
  6
Continuous
 62
     2
370
    -2
100
AcDbLine
 10
-64.62389496094136
 20
1699.635460501375
 30
0.0
 11
-64.62389496094139
 21
1300.702347788896
 31
0.0
  0
LINE
  5
1519
330
EE4
100
AcDbEntity
  8
P-0497
  6
Continuous
 62
     2
370
    -2
100
AcDbLine
 10
-474.6238949179623
 20
1315.702347788896
 30
0.0
 11
-84.62389496094138
 21
1315.702347788896
 31
0.0
  0
SOLID
  5
151A
330
EE4
100
AcDbEntity
  8
P-0497
  6
Continuous
 62
     2
100
AcDbTrace
 10
-474.6238949179623
 20
1319.035681122229
 30
0.0
 11
-474.6238949179623
 21
1312.369014455563
 31
0.0
 12
-494.6238949179623
 22
1315.702347788896
 32
0.0
 13
-494.6238949179623
 23
1315.702347788896
 33
0.0
  0
SOLID
  5
151B
330
EE4
100
AcDbEntity
  8
P-0497
  6
Continuous
 62
     2
100
AcDbTrace
 10
-84.62389496094138
 20
1319.035681122229
 30
0.0
 11
-84.62389496094138
 21
1312.369014455563
 31
0.0
 12
-64.62389496094139
 22
1315.702347788896
 32
0.0
 13
-64.62389496094139
 23
1315.702347788896
 33
0.0
  0
MTEXT
  5
151C
330
EE4
100
AcDbEntity
  8
P-0497
  6
Continuous
 62
     1
100
AcDbMText
 10
-279.6238949394519
 20
1335.913718051287
 30
0.0
 40
20.0
 41
0.0
 71
     5
 72
     1
  1
\A1;43
  7
Stile_Quota
 73
     1
 44
1.0
1001
ACAD
1000
MTEXTBEGIN
1070
    73
1070
     1
1070
    44
1040
1.0
1070
    74
1070
     0
1000
MTEXTEND
  0
POINT
  5
151D
330
EE4
100
AcDbEntity
  8
Defpoints
  6
Continuous
 62
     0
100
AcDbPoint
 10
-494.6238949179623
 20
1706.88495849157
 30
0.0
  0
POINT
  5
151E
330
EE4
100
AcDbEntity
  8
Defpoints
  6
Continuous
 62
     0
100
AcDbPoint
 10
-64.62389496094136
 20
1709.635460501376
 30
0.0
  0
POINT
  5
151F
330
EE4
100
AcDbEntity
  8
Defpoints
  6
Continuous
 62
     0
100
AcDbPoint
 10
-64.62389496094139
 20
1315.702347788896
 30
0.0
  0
ENDBLK
  5
EE6
330
EE4
100
AcDbEntity
  8
0
 62
     3
100
AcDbBlockEnd
  0
BLOCK
  5
EFD
330
EFC
100
AcDbEntity
  8
0
 62
     3
100
AcDbBlockBegin
  2
*D18
 70
     1
 10
0.0
 20
0.0
 30
0.0
  3
*D18
  1

  0
LINE
  5
1520
330
EFC
100
AcDbEntity
  8
P-0497
  6
Continuous
 62
     2
370
    -2
100
AcDbLine
 10
-194.6238949479621
 20
1676.884958493571
 30
0.0
 11
-194.6238949479621
 21
1366.423516266677
 31
0.0
  0
LINE
  5
1521
330
EFC
100
AcDbEntity
  8
P-0497
  6
Continuous
 62
     2
370
    -2
100
AcDbLine
 10
-494.6238949179623
 20
1696.88495849157
 30
0.0
 11
-494.6238949179623
 21
1366.423516266677
 31
0.0
  0
LINE
  5
1522
330
EFC
100
AcDbEntity
  8
P-0497
  6
Continuous
 62
     2
370
    -2
100
AcDbLine
 10
-214.6238949479621
 20
1381.423516266677
 30
0.0
 11
-474.6238949179623
 21
1381.423516266677
 31
0.0
  0
SOLID
  5
1523
330
EFC
100
AcDbEntity
  8
P-0497
  6
Continuous
 62
     2
100
AcDbTrace
 10
-214.6238949479621
 20
1384.75684960001
 30
0.0
 11
-214.6238949479621
 21
1378.090182933344
 31
0.0
 12
-194.6238949479621
 22
1381.423516266677
 32
0.0
 13
-194.6238949479621
 23
1381.423516266677
 33
0.0
  0
SOLID
  5
1524
330
EFC
100
AcDbEntity
  8
P-0497
  6
Continuous
 62
     2
100
AcDbTrace
 10
-474.6238949179623
 20
1384.75684960001
 30
0.0
 11
-474.6238949179623
 21
1378.090182933344
 31
0.0
 12
-494.6238949179623
 22
1381.423516266677
 32
0.0
 13
-494.6238949179623
 23
1381.423516266677
 33
0.0
  0
MTEXT
  5
1525
330
EFC
100
AcDbEntity
  8
P-0497
  6
Continuous
 62
     1
100
AcDbMText
 10
-344.6238949329622
 20
1401.649463788543
 30
0.0
 40
20.0
 41
0.0
 71
     5
 72
     1
  1
\A1;30
  7
Stile_Quota
 73
     1
 44
1.0
1001
ACAD
1000
MTEXTBEGIN
1070
    73
1070
     1
1070
    44
1040
1.0
1070
    74
1070
     0
1000
MTEXTEND
  0
POINT
  5
1526
330
EFC
100
AcDbEntity
  8
Defpoints
  6
Continuous
 62
     0
100
AcDbPoint
 10
-194.6238949479621
 20
1686.884958493571
 30
0.0
  0
POINT
  5
1527
330
EFC
100
AcDbEntity
  8
Defpoints
  6
Continuous
 62
     0
100
AcDbPoint
 10
-494.6238949179623
 20
1706.88495849157
 30
0.0
  0
POINT
  5
1528
330
EFC
100
AcDbEntity
  8
Defpoints
  6
Continuous
 62
     0
100
AcDbPoint
 10
-494.6238949179623
 20
1381.423516266677
 30
0.0
  0
ENDBLK
  5
EFE
330
EFC
100
AcDbEntity
  8
0
 62
     3
100
AcDbBlockEnd
  0
BLOCK
  5
F15
330
F14
100
AcDbEntity
  8
0
 62
     3
100
AcDbBlockBegin
  2
*D19
 70
     1
 10
0.0
 20
0.0
 30
0.0
  3
*D19
  1

  0
LINE
  5
1529
330
F14
100
AcDbEntity
  8
P-0497
  6
Continuous
 62
     2
370
    -2
100
AcDbLine
 10
-194.6238949479621
 20
1676.884958493571
 30
0.0
 11
-194.6238949479621
 21
1366.423516266677
 31
0.0
  0
LINE
  5
152A
330
F14
100
AcDbEntity
  8
P-0497
  6
Continuous
 62
     2
370
    -2
100
AcDbLine
 10
-64.62389496094136
 20
1699.635460501375
 30
0.0
 11
-64.62389496094137
 21
1366.423516266677
 31
0.0
  0
LINE
  5
152B
330
F14
100
AcDbEntity
  8
P-0497
  6
Continuous
 62
     2
370
    -2
100
AcDbLine
 10
-174.6238949479621
 20
1381.423516266677
 30
0.0
 11
-84.62389496094138
 21
1381.423516266677
 31
0.0
  0
SOLID
  5
152C
330
F14
100
AcDbEntity
  8
P-0497
  6
Continuous
 62
     2
100
AcDbTrace
 10
-174.6238949479621
 20
1384.75684960001
 30
0.0
 11
-174.6238949479621
 21
1378.090182933344
 31
0.0
 12
-194.6238949479621
 22
1381.423516266677
 32
0.0
 13
-194.6238949479621
 23
1381.423516266677
 33
0.0
  0
SOLID
  5
152D
330
F14
100
AcDbEntity
  8
P-0497
  6
Continuous
 62
     2
100
AcDbTrace
 10
-84.62389496094138
 20
1384.75684960001
 30
0.0
 11
-84.62389496094138
 21
1378.090182933344
 31
0.0
 12
-64.62389496094137
 22
1381.423516266677
 32
0.0
 13
-64.62389496094137
 23
1381.423516266677
 33
0.0
  0
MTEXT
  5
152E
330
F14
100
AcDbEntity
  8
P-0497
  6
Continuous
 62
     1
100
AcDbMText
 10
-129.6238949544517
 20
1401.634886529068
 30
0.0
 40
20.0
 41
0.0
 71
     5
 72
     1
  1
\A1;13
  7
Stile_Quota
 73
     1
 44
1.0
1001
ACAD
1000
MTEXTBEGIN
1070
    73
1070
     1
1070
    44
1040
1.0
1070
    74
1070
     0
1000
MTEXTEND
  0
POINT
  5
152F
330
F14
100
AcDbEntity
  8
Defpoints
  6
Continuous
 62
     0
100
AcDbPoint
 10
-194.6238949479621
 20
1686.884958493571
 30
0.0
  0
POINT
  5
1530
330
F14
100
AcDbEntity
  8
Defpoints
  6
Continuous
 62
     0
100
AcDbPoint
 10
-64.62389496094136
 20
1709.635460501376
 30
0.0
  0
POINT
  5
1531
330
F14
100
AcDbEntity
  8
Defpoints
  6
Continuous
 62
     0
100
AcDbPoint
 10
-64.62389496094137
 20
1381.423516266677
 30
0.0
  0
ENDBLK
  5
F16
330
F14
100
AcDbEntity
  8
0
 62
     3
100
AcDbBlockEnd
  0
BLOCK
  5
F2D
330
F2C
100
AcDbEntity
  8
0
 62
     3
100
AcDbBlockBegin
  2
*D20
 70
     1
 10
0.0
 20
0.0
 30
0.0
  3
*D20
  1

  0
LINE
  5
1532
330
F2C
100
AcDbEntity
  8
P-0497
  6
Continuous
 62
     2
370
    -2
100
AcDbLine
 10
-474.6238949200633
 20
1696.884958491468
 30
0.0
 11
-474.6238949200633
 21
1422.755950379296
 31
0.0
  0
LINE
  5
1533
330
F2C
100
AcDbEntity
  8
P-0497
  6
Continuous
 62
     2
370
    -2
100
AcDbLine
 10
-494.6238949179616
 20
1696.88495849157
 30
0.0
 11
-494.6238949179616
 21
1422.755950379296
 31
0.0
  0
LINE
  5
1534
330
F2C
100
AcDbEntity
  8
P-0497
  6
Continuous
 62
     2
370
    -2
100
AcDbLine
 10
-454.6238949200633
 20
1437.755950379296
 30
0.0
 11
-434.6238949200633
 21
1437.755950379296
 31
0.0
  0
LINE
  5
1535
330
F2C
100
AcDbEntity
  8
P-0497
  6
Continuous
 62
     2
370
    -2
100
AcDbLine
 10
-514.6238949179616
 20
1437.755950379296
 30
0.0
 11
-568.0203963756875
 21
1437.755950379296
 31
0.0
  0
LINE
  5
1536
330
F2C
100
AcDbEntity
  8
P-0497
  6
Continuous
 62
     2
370
    -2
100
AcDbLine
 10
-474.6238949200633
 20
1437.755950379296
 30
0.0
 11
-494.6238949179616
 21
1437.755950379296
 31
0.0
  0
SOLID
  5
1537
330
F2C
100
AcDbEntity
  8
P-0497
  6
Continuous
 62
     2
100
AcDbTrace
 10
-454.6238949200633
 20
1441.089283712629
 30
0.0
 11
-454.6238949200633
 21
1434.422617045963
 31
0.0
 12
-474.6238949200633
 22
1437.755950379296
 32
0.0
 13
-474.6238949200633
 23
1437.755950379296
 33
0.0
  0
SOLID
  5
1538
330
F2C
100
AcDbEntity
  8
P-0497
  6
Continuous
 62
     2
100
AcDbTrace
 10
-514.6238949179616
 20
1441.089283712629
 30
0.0
 11
-514.6238949179616
 21
1434.422617045963
 31
0.0
 12
-494.6238949179616
 22
1437.755950379296
 32
0.0
 13
-494.6238949179616
 23
1437.755950379296
 33
0.0
  0
MTEXT
  5
1539
330
F2C
100
AcDbEntity
  8
P-0497
  6
Continuous
 62
     1
100
AcDbMText
 10
-551.3221456468246
 20
1457.755950379296
 30
0.0
 40
20.0
 41
0.0
 71
     5
 72
     1
  1
\A1;2
  7
Stile_Quota
 73
     1
 44
1.0
1001
ACAD
1000
MTEXTBEGIN
1070
    73
1070
     1
1070
    44
1040
1.0
1070
    74
1070
     0
1000
MTEXTEND
  0
POINT
  5
153A
330
F2C
100
AcDbEntity
  8
Defpoints
  6
Continuous
 62
     0
100
AcDbPoint
 10
-474.6238949200633
 20
1706.884958491468
 30
0.0
  0
POINT
  5
153B
330
F2C
100
AcDbEntity
  8
Defpoints
  6
Continuous
 62
     0
100
AcDbPoint
 10
-494.6238949179616
 20
1706.88495849157
 30
0.0
  0
POINT
  5
153C
330
F2C
100
AcDbEntity
  8
Defpoints
  6
Continuous
 62
     0
100
AcDbPoint
 10
-494.6238949179616
 20
1437.755950379296
 30
0.0
  0
ENDBLK
  5
F2E
330
F2C
100
AcDbEntity
  8
0
 62
     3
100
AcDbBlockEnd
  0
BLOCK
  5
F49
330
F48
100
AcDbEntity
  8
0
 62
     3
100
AcDbBlockBegin
  2
*D21
 70
     1
 10
0.0
 20
0.0
 30
0.0
  3
*D21
  1

  0
LINE
  5
153D
330
F48
100
AcDbEntity
  8
P-0497
  6
Continuous
 62
     2
370
    -2
100
AcDbLine
 10
-474.6238949200633
 20
1696.884958491468
 30
0.0
 11
-474.6238949200633
 21
1422.755950379296
 31
0.0
  0
LINE
  5
153E
330
F48
100
AcDbEntity
  8
P-0497
  6
Continuous
 62
     2
370
    -2
100
AcDbLine
 10
-214.6238949458639
 20
1696.884958491468
 30
0.0
 11
-214.6238949458639
 21
1422.755950379296
 31
0.0
  0
LINE
  5
153F
330
F48
100
AcDbEntity
  8
P-0497
  6
Continuous
 62
     2
370
    -2
100
AcDbLine
 10
-454.6238949200633
 20
1437.755950379296
 30
0.0
 11
-234.6238949458639
 21
1437.755950379296
 31
0.0
  0
SOLID
  5
1540
330
F48
100
AcDbEntity
  8
P-0497
  6
Continuous
 62
     2
100
AcDbTrace
 10
-454.6238949200633
 20
1441.089283712629
 30
0.0
 11
-454.6238949200633
 21
1434.422617045963
 31
0.0
 12
-474.6238949200633
 22
1437.755950379296
 32
0.0
 13
-474.6238949200633
 23
1437.755950379296
 33
0.0
  0
SOLID
  5
1541
330
F48
100
AcDbEntity
  8
P-0497
  6
Continuous
 62
     2
100
AcDbTrace
 10
-234.6238949458639
 20
1441.089283712629
 30
0.0
 11
-234.6238949458639
 21
1434.422617045963
 31
0.0
 12
-214.6238949458639
 22
1437.755950379296
 32
0.0
 13
-214.6238949458639
 23
1437.755950379296
 33
0.0
  0
MTEXT
  5
1542
330
F48
100
AcDbEntity
  8
P-0497
  6
Continuous
 62
     1
100
AcDbMText
 10
-344.6238949329636
 20
1457.981897901162
 30
0.0
 40
20.0
 41
0.0
 71
     5
 72
     1
  1
\A1;26
  7
Stile_Quota
 73
     1
 44
1.0
1001
ACAD
1000
MTEXTBEGIN
1070
    73
1070
     1
1070
    44
1040
1.0
1070
    74
1070
     0
1000
MTEXTEND
  0
POINT
  5
1543
330
F48
100
AcDbEntity
  8
Defpoints
  6
Continuous
 62
     0
100
AcDbPoint
 10
-474.6238949200633
 20
1706.884958491468
 30
0.0
  0
POINT
  5
1544
330
F48
100
AcDbEntity
  8
Defpoints
  6
Continuous
 62
     0
100
AcDbPoint
 10
-214.6238949458639
 20
1706.884958491468
 30
0.0
  0
POINT
  5
1545
330
F48
100
AcDbEntity
  8
Defpoints
  6
Continuous
 62
     0
100
AcDbPoint
 10
-214.6238949458639
 20
1437.755950379296
 30
0.0
  0
ENDBLK
  5
F4A
330
F48
100
AcDbEntity
  8
0
 62
     3
100
AcDbBlockEnd
  0
BLOCK
  5
F61
330
F60
100
AcDbEntity
  8
0
 62
     3
100
AcDbBlockBegin
  2
*D22
 70
     1
 10
0.0
 20
0.0
 30
0.0
  3
*D22
  1

  0
LINE
  5
1546
330
F60
100
AcDbEntity
  8
P-0497
  6
Continuous
 62
     2
370
    -2
100
AcDbLine
 10
-214.6238949458636
 20
1696.884958491468
 30
0.0
 11
-214.6238949458637
 21
1422.755950379296
 31
0.0
  0
LINE
  5
1547
330
F60
100
AcDbEntity
  8
P-0497
  6
Continuous
 62
     2
370
    -2
100
AcDbLine
 10
-194.6238949479621
 20
1676.884958493571
 30
0.0
 11
-194.6238949479621
 21
1422.755950379296
 31
0.0
  0
LINE
  5
1548
330
F60
100
AcDbEntity
  8
P-0497
  6
Continuous
 62
     2
370
    -2
100
AcDbLine
 10
-234.6238949458637
 20
1437.755950379296
 30
0.0
 11
-254.6238949458637
 21
1437.755950379296
 31
0.0
  0
LINE
  5
1549
330
F60
100
AcDbEntity
  8
P-0497
  6
Continuous
 62
     2
370
    -2
100
AcDbLine
 10
-174.6238949479621
 20
1437.755950379296
 30
0.0
 11
-121.2273934902361
 21
1437.755950379296
 31
0.0
  0
LINE
  5
154A
330
F60
100
AcDbEntity
  8
P-0497
  6
Continuous
 62
     2
370
    -2
100
AcDbLine
 10
-214.6238949458637
 20
1437.755950379296
 30
0.0
 11
-194.6238949479621
 21
1437.755950379296
 31
0.0
  0
SOLID
  5
154B
330
F60
100
AcDbEntity
  8
P-0497
  6
Continuous
 62
     2
100
AcDbTrace
 10
-234.6238949458637
 20
1441.089283712629
 30
0.0
 11
-234.6238949458637
 21
1434.422617045963
 31
0.0
 12
-214.6238949458637
 22
1437.755950379296
 32
0.0
 13
-214.6238949458637
 23
1437.755950379296
 33
0.0
  0
SOLID
  5
154C
330
F60
100
AcDbEntity
  8
P-0497
  6
Continuous
 62
     2
100
AcDbTrace
 10
-174.6238949479621
 20
1441.089283712629
 30
0.0
 11
-174.6238949479621
 21
1434.422617045963
 31
0.0
 12
-194.6238949479621
 22
1437.755950379296
 32
0.0
 13
-194.6238949479621
 23
1437.755950379296
 33
0.0
  0
MTEXT
  5
154D
330
F60
100
AcDbEntity
  8
P-0497
  6
Continuous
 62
     1
100
AcDbMText
 10
-137.9256442190991
 20
1457.755950379296
 30
0.0
 40
20.0
 41
0.0
 71
     5
 72
     1
  1
\A1;2
  7
Stile_Quota
 73
     1
 44
1.0
1001
ACAD
1000
MTEXTBEGIN
1070
    73
1070
     1
1070
    44
1040
1.0
1070
    74
1070
     0
1000
MTEXTEND
  0
POINT
  5
154E
330
F60
100
AcDbEntity
  8
Defpoints
  6
Continuous
 62
     0
100
AcDbPoint
 10
-214.6238949458636
 20
1706.884958491468
 30
0.0
  0
POINT
  5
154F
330
F60
100
AcDbEntity
  8
Defpoints
  6
Continuous
 62
     0
100
AcDbPoint
 10
-194.6238949479621
 20
1686.884958493571
 30
0.0
  0
POINT
  5
1550
330
F60
100
AcDbEntity
  8
Defpoints
  6
Continuous
 62
     0
100
AcDbPoint
 10
-194.6238949479621
 20
1437.755950379296
 30
0.0
  0
ENDBLK
  5
F62
330
F60
100
AcDbEntity
  8
0
 62
     3
100
AcDbBlockEnd
  0
BLOCK
  5
F7D
330
F7C
100
AcDbEntity
  8
0
 62
     3
100
AcDbBlockBegin
  2
*D23
 70
     1
 10
0.0
 20
0.0
 30
0.0
  3
*D23
  1

  0
LINE
  5
1551
330
F7C
100
AcDbEntity
  8
P-0497
  6
Continuous
 62
     2
370
    -2
100
AcDbLine
 10
-419.623894925462
 20
1688.88495849227
 30
0.0
 11
-419.623894925462
 21
1481.770872047208
 31
0.0
  0
LINE
  5
1552
330
F7C
100
AcDbEntity
  8
P-0497
  6
Continuous
 62
     2
370
    -2
100
AcDbLine
 10
-474.6238949200633
 20
1696.884958491468
 30
0.0
 11
-474.6238949200633
 21
1481.770872047208
 31
0.0
  0
LINE
  5
1553
330
F7C
100
AcDbEntity
  8
P-0497
  6
Continuous
 62
     2
370
    -2
100
AcDbLine
 10
-399.6238949254621
 20
1496.770872047208
 30
0.0
 11
-379.6238949254621
 21
1496.770872047208
 31
0.0
  0
LINE
  5
1554
330
F7C
100
AcDbEntity
  8
P-0497
  6
Continuous
 62
     2
370
    -2
100
AcDbLine
 10
-494.6238949200632
 20
1496.770872047208
 30
0.0
 11
-571.7084430250196
 21
1496.770872047208
 31
0.0
  0
LINE
  5
1555
330
F7C
100
AcDbEntity
  8
P-0497
  6
Continuous
 62
     2
370
    -2
100
AcDbLine
 10
-419.623894925462
 20
1496.770872047208
 30
0.0
 11
-474.6238949200633
 21
1496.770872047208
 31
0.0
  0
SOLID
  5
1556
330
F7C
100
AcDbEntity
  8
P-0497
  6
Continuous
 62
     2
100
AcDbTrace
 10
-399.6238949254621
 20
1500.104205380541
 30
0.0
 11
-399.6238949254621
 21
1493.437538713875
 31
0.0
 12
-419.623894925462
 22
1496.770872047208
 32
0.0
 13
-419.623894925462
 23
1496.770872047208
 33
0.0
  0
SOLID
  5
1557
330
F7C
100
AcDbEntity
  8
P-0497
  6
Continuous
 62
     2
100
AcDbTrace
 10
-494.6238949200632
 20
1500.104205380541
 30
0.0
 11
-494.6238949200632
 21
1493.437538713875
 31
0.0
 12
-474.6238949200633
 22
1496.770872047208
 32
0.0
 13
-474.6238949200633
 23
1496.770872047208
 33
0.0
  0
MTEXT
  5
1558
330
F7C
100
AcDbEntity
  8
P-0497
  6
Continuous
 62
     1
100
AcDbMText
 10
-543.1661689725414
 20
1516.996819569074
 30
0.0
 40
20.0
 41
0.0
 71
     5
 72
     1
  1
\A1;5.5
  7
Stile_Quota
 73
     1
 44
1.0
1001
ACAD
1000
MTEXTBEGIN
1070
    73
1070
     1
1070
    44
1040
1.0
1070
    74
1070
     0
1000
MTEXTEND
  0
POINT
  5
1559
330
F7C
100
AcDbEntity
  8
Defpoints
  6
Continuous
 62
     0
100
AcDbPoint
 10
-419.623894925462
 20
1698.88495849227
 30
0.0
  0
POINT
  5
155A
330
F7C
100
AcDbEntity
  8
Defpoints
  6
Continuous
 62
     0
100
AcDbPoint
 10
-474.6238949200633
 20
1706.884958491468
 30
0.0
  0
POINT
  5
155B
330
F7C
100
AcDbEntity
  8
Defpoints
  6
Continuous
 62
     0
100
AcDbPoint
 10
-474.6238949200633
 20
1496.770872047208
 30
0.0
  0
ENDBLK
  5
F7E
330
F7C
100
AcDbEntity
  8
0
 62
     3
100
AcDbBlockEnd
  0
BLOCK
  5
F99
330
F98
100
AcDbEntity
  8
0
 62
     3
100
AcDbBlockBegin
  2
*D24
 70
     1
 10
0.0
 20
0.0
 30
0.0
  3
*D24
  1

  0
LINE
  5
155C
330
F98
100
AcDbEntity
  8
P-0497
  6
Continuous
 62
     2
370
    -2
100
AcDbLine
 10
-419.623894925462
 20
1688.88495849227
 30
0.0
 11
-419.623894925462
 21
1481.770872047208
 31
0.0
  0
LINE
  5
155D
330
F98
100
AcDbEntity
  8
P-0497
  6
Continuous
 62
     2
370
    -2
100
AcDbLine
 10
-369.6238949304625
 20
1688.88495849227
 30
0.0
 11
-369.6238949304625
 21
1481.770872047208
 31
0.0
  0
LINE
  5
155E
330
F98
100
AcDbEntity
  8
P-0497
  6
Continuous
 62
     2
370
    -2
100
AcDbLine
 10
-439.623894925462
 20
1496.770872047208
 30
0.0
 11
-459.6238949254621
 21
1496.770872047208
 31
0.0
  0
LINE
  5
155F
330
F98
100
AcDbEntity
  8
P-0497
  6
Continuous
 62
     2
370
    -2
100
AcDbLine
 10
-349.6238949304625
 20
1496.770872047208
 30
0.0
 11
-329.6238949304625
 21
1496.770872047208
 31
0.0
  0
LINE
  5
1560
330
F98
100
AcDbEntity
  8
P-0497
  6
Continuous
 62
     2
370
    -2
100
AcDbLine
 10
-419.623894925462
 20
1496.770872047208
 30
0.0
 11
-369.6238949304625
 21
1496.770872047208
 31
0.0
  0
SOLID
  5
1561
330
F98
100
AcDbEntity
  8
P-0497
  6
Continuous
 62
     2
100
AcDbTrace
 10
-439.623894925462
 20
1500.104205380541
 30
0.0
 11
-439.623894925462
 21
1493.437538713875
 31
0.0
 12
-419.623894925462
 22
1496.770872047208
 32
0.0
 13
-419.623894925462
 23
1496.770872047208
 33
0.0
  0
SOLID
  5
1562
330
F98
100
AcDbEntity
  8
P-0497
  6
Continuous
 62
     2
100
AcDbTrace
 10
-349.6238949304625
 20
1500.104205380541
 30
0.0
 11
-349.6238949304625
 21
1493.437538713875
 31
0.0
 12
-369.6238949304625
 22
1496.770872047208
 32
0.0
 13
-369.6238949304625
 23
1496.770872047208
 33
0.0
  0
MTEXT
  5
1563
330
F98
100
AcDbEntity
  8
P-0497
  6
Continuous
 62
     1
100
AcDbMText
 10
-394.6238949279623
 20
1516.996819569074
 30
0.0
 40
20.0
 41
0.0
 71
     5
 72
     1
  1
\A1;5
  7
Stile_Quota
 73
     1
 44
1.0
1001
ACAD
1000
MTEXTBEGIN
1070
    73
1070
     1
1070
    44
1040
1.0
1070
    74
1070
     0
1000
MTEXTEND
  0
POINT
  5
1564
330
F98
100
AcDbEntity
  8
Defpoints
  6
Continuous
 62
     0
100
AcDbPoint
 10
-419.623894925462
 20
1698.88495849227
 30
0.0
  0
POINT
  5
1565
330
F98
100
AcDbEntity
  8
Defpoints
  6
Continuous
 62
     0
100
AcDbPoint
 10
-369.6238949304625
 20
1698.88495849227
 30
0.0
  0
POINT
  5
1566
330
F98
100
AcDbEntity
  8
Defpoints
  6
Continuous
 62
     0
100
AcDbPoint
 10
-369.6238949304625
 20
1496.770872047208
 30
0.0
  0
ENDBLK
  5
F9A
330
F98
100
AcDbEntity
  8
0
 62
     3
100
AcDbBlockEnd
  0
BLOCK
  5
FB5
330
FB4
100
AcDbEntity
  8
0
 62
     3
100
AcDbBlockBegin
  2
*D25
 70
     1
 10
0.0
 20
0.0
 30
0.0
  3
*D25
  1

  0
LINE
  5
1567
330
FB4
100
AcDbEntity
  8
P-0497
  6
Continuous
 62
     2
370
    -2
100
AcDbLine
 10
-269.6238949404615
 20
1688.88495849227
 30
0.0
 11
-269.6238949404615
 21
1481.770872047208
 31
0.0
  0
LINE
  5
1568
330
FB4
100
AcDbEntity
  8
P-0497
  6
Continuous
 62
     2
370
    -2
100
AcDbLine
 10
-214.6238949458639
 20
1696.884958491468
 30
0.0
 11
-214.6238949458639
 21
1481.770872047208
 31
0.0
  0
LINE
  5
1569
330
FB4
100
AcDbEntity
  8
P-0497
  6
Continuous
 62
     2
370
    -2
100
AcDbLine
 10
-289.6238949404615
 20
1496.770872047208
 30
0.0
 11
-309.6238949404615
 21
1496.770872047208
 31
0.0
  0
LINE
  5
156A
330
FB4
100
AcDbEntity
  8
P-0497
  6
Continuous
 62
     2
370
    -2
100
AcDbLine
 10
-194.6238949458638
 20
1496.770872047208
 30
0.0
 11
-117.5393468409076
 21
1496.770872047208
 31
0.0
  0
LINE
  5
156B
330
FB4
100
AcDbEntity
  8
P-0497
  6
Continuous
 62
     2
370
    -2
100
AcDbLine
 10
-269.6238949404615
 20
1496.770872047208
 30
0.0
 11
-214.6238949458639
 21
1496.770872047208
 31
0.0
  0
SOLID
  5
156C
330
FB4
100
AcDbEntity
  8
P-0497
  6
Continuous
 62
     2
100
AcDbTrace
 10
-289.6238949404615
 20
1500.104205380541
 30
0.0
 11
-289.6238949404615
 21
1493.437538713875
 31
0.0
 12
-269.6238949404615
 22
1496.770872047208
 32
0.0
 13
-269.6238949404615
 23
1496.770872047208
 33
0.0
  0
SOLID
  5
156D
330
FB4
100
AcDbEntity
  8
P-0497
  6
Continuous
 62
     2
100
AcDbTrace
 10
-194.6238949458638
 20
1500.104205380541
 30
0.0
 11
-194.6238949458638
 21
1493.437538713875
 31
0.0
 12
-214.6238949458639
 22
1496.770872047208
 32
0.0
 13
-214.6238949458639
 23
1496.770872047208
 33
0.0
  0
MTEXT
  5
156E
330
FB4
100
AcDbEntity
  8
P-0497
  6
Continuous
 62
     1
100
AcDbMText
 10
-146.0816208933857
 20
1516.996819569074
 30
0.0
 40
20.0
 41
0.0
 71
     5
 72
     1
  1
\A1;5.5
  7
Stile_Quota
 73
     1
 44
1.0
1001
ACAD
1000
MTEXTBEGIN
1070
    73
1070
     1
1070
    44
1040
1.0
1070
    74
1070
     0
1000
MTEXTEND
  0
POINT
  5
156F
330
FB4
100
AcDbEntity
  8
Defpoints
  6
Continuous
 62
     0
100
AcDbPoint
 10
-269.6238949404615
 20
1698.88495849227
 30
0.0
  0
POINT
  5
1570
330
FB4
100
AcDbEntity
  8
Defpoints
  6
Continuous
 62
     0
100
AcDbPoint
 10
-214.6238949458639
 20
1706.884958491468
 30
0.0
  0
POINT
  5
1571
330
FB4
100
AcDbEntity
  8
Defpoints
  6
Continuous
 62
     0
100
AcDbPoint
 10
-214.6238949458639
 20
1496.770872047208
 30
0.0
  0
ENDBLK
  5
FB6
330
FB4
100
AcDbEntity
  8
0
 62
     3
100
AcDbBlockEnd
  0
BLOCK
  5
FE9
330
FE8
100
AcDbEntity
  8
0
 62
     7
100
AcDbBlockBegin
  2
*D26
 70
     1
 10
0.0
 20
0.0
 30
0.0
  3
*D26
  1

  0
LINE
  5
1572
330
FE8
100
AcDbEntity
  8
P-0497
  6
Continuous
 62
     2
370
    -2
100
AcDbLine
 10
-369.6238949304625
 20
1688.88495849227
 30
0.0
 11
-369.6238949304625
 21
1481.770872047208
 31
0.0
  0
LINE
  5
1573
330
FE8
100
AcDbEntity
  8
P-0497
  6
Continuous
 62
     2
370
    -2
100
AcDbLine
 10
-319.6238949354629
 20
1688.88495849227
 30
0.0
 11
-319.6238949354629
 21
1481.770872047208
 31
0.0
  0
LINE
  5
1574
330
FE8
100
AcDbEntity
  8
P-0497
  6
Continuous
 62
     2
370
    -2
100
AcDbLine
 10
-389.6238949304625
 20
1496.770872047208
 30
0.0
 11
-409.6238949304624
 21
1496.770872047208
 31
0.0
  0
LINE
  5
1575
330
FE8
100
AcDbEntity
  8
P-0497
  6
Continuous
 62
     2
370
    -2
100
AcDbLine
 10
-299.6238949354629
 20
1496.770872047208
 30
0.0
 11
-279.6238949354629
 21
1496.770872047208
 31
0.0
  0
LINE
  5
1576
330
FE8
100
AcDbEntity
  8
P-0497
  6
Continuous
 62
     2
370
    -2
100
AcDbLine
 10
-369.6238949304625
 20
1496.770872047208
 30
0.0
 11
-319.6238949354629
 21
1496.770872047208
 31
0.0
  0
SOLID
  5
1577
330
FE8
100
AcDbEntity
  8
P-0497
  6
Continuous
 62
     2
100
AcDbTrace
 10
-389.6238949304625
 20
1500.104205380541
 30
0.0
 11
-389.6238949304625
 21
1493.437538713875
 31
0.0
 12
-369.6238949304625
 22
1496.770872047208
 32
0.0
 13
-369.6238949304625
 23
1496.770872047208
 33
0.0
  0
SOLID
  5
1578
330
FE8
100
AcDbEntity
  8
P-0497
  6
Continuous
 62
     2
100
AcDbTrace
 10
-299.6238949354629
 20
1500.104205380541
 30
0.0
 11
-299.6238949354629
 21
1493.437538713875
 31
0.0
 12
-319.6238949354629
 22
1496.770872047208
 32
0.0
 13
-319.6238949354629
 23
1496.770872047208
 33
0.0
  0
MTEXT
  5
1579
330
FE8
100
AcDbEntity
  8
P-0497
  6
Continuous
 62
     1
100
AcDbMText
 10
-344.6238949329627
 20
1516.996819569074
 30
0.0
 40
20.0
 41
0.0
 71
     5
 72
     1
  1
\A1;5
  7
Stile_Quota
 73
     1
 44
1.0
1001
ACAD
1000
MTEXTBEGIN
1070
    73
1070
     1
1070
    44
1040
1.0
1070
    74
1070
     0
1000
MTEXTEND
  0
POINT
  5
157A
330
FE8
100
AcDbEntity
  8
Defpoints
  6
Continuous
 62
     0
100
AcDbPoint
 10
-369.6238949304625
 20
1698.88495849227
 30
0.0
  0
POINT
  5
157B
330
FE8
100
AcDbEntity
  8
Defpoints
  6
Continuous
 62
     0
100
AcDbPoint
 10
-319.6238949354629
 20
1698.88495849227
 30
0.0
  0
POINT
  5
157C
330
FE8
100
AcDbEntity
  8
Defpoints
  6
Continuous
 62
     0
100
AcDbPoint
 10
-319.6238949354629
 20
1496.770872047208
 30
0.0
  0
ENDBLK
  5
FEA
330
FE8
100
AcDbEntity
  8
0
 62
     7
100
AcDbBlockEnd
  0
BLOCK
  5
FFA
330
FF9
100
AcDbEntity
  8
0
 62
     7
100
AcDbBlockBegin
  2
*D27
 70
     1
 10
0.0
 20
0.0
 30
0.0
  3
*D27
  1

  0
LINE
  5
157D
330
FF9
100
AcDbEntity
  8
P-0497
  6
Continuous
 62
     2
370
    -2
100
AcDbLine
 10
-319.6238949354629
 20
1679.88495849227
 30
0.0
 11
-319.6238949354629
 21
1481.770872047208
 31
0.0
  0
LINE
  5
157E
330
FF9
100
AcDbEntity
  8
P-0497
  6
Continuous
 62
     2
370
    -2
100
AcDbLine
 10
-269.6238949404633
 20
1679.88495849227
 30
0.0
 11
-269.6238949404633
 21
1481.770872047208
 31
0.0
  0
LINE
  5
157F
330
FF9
100
AcDbEntity
  8
P-0497
  6
Continuous
 62
     2
370
    -2
100
AcDbLine
 10
-339.6238949354629
 20
1496.770872047208
 30
0.0
 11
-359.6238949354629
 21
1496.770872047208
 31
0.0
  0
LINE
  5
1580
330
FF9
100
AcDbEntity
  8
P-0497
  6
Continuous
 62
     2
370
    -2
100
AcDbLine
 10
-249.6238949404633
 20
1496.770872047208
 30
0.0
 11
-229.6238949404633
 21
1496.770872047208
 31
0.0
  0
LINE
  5
1581
330
FF9
100
AcDbEntity
  8
P-0497
  6
Continuous
 62
     2
370
    -2
100
AcDbLine
 10
-319.6238949354629
 20
1496.770872047208
 30
0.0
 11
-269.6238949404633
 21
1496.770872047208
 31
0.0
  0
SOLID
  5
1582
330
FF9
100
AcDbEntity
  8
P-0497
  6
Continuous
 62
     2
100
AcDbTrace
 10
-339.6238949354629
 20
1500.104205380541
 30
0.0
 11
-339.6238949354629
 21
1493.437538713875
 31
0.0
 12
-319.6238949354629
 22
1496.770872047208
 32
0.0
 13
-319.6238949354629
 23
1496.770872047208
 33
0.0
  0
SOLID
  5
1583
330
FF9
100
AcDbEntity
  8
P-0497
  6
Continuous
 62
     2
100
AcDbTrace
 10
-249.6238949404633
 20
1500.104205380541
 30
0.0
 11
-249.6238949404633
 21
1493.437538713875
 31
0.0
 12
-269.6238949404633
 22
1496.770872047208
 32
0.0
 13
-269.6238949404633
 23
1496.770872047208
 33
0.0
  0
MTEXT
  5
1584
330
FF9
100
AcDbEntity
  8
P-0497
  6
Continuous
 62
     1
100
AcDbMText
 10
-294.6238949379631
 20
1516.996819569074
 30
0.0
 40
20.0
 41
0.0
 71
     5
 72
     1
  1
\A1;5
  7
Stile_Quota
 73
     1
 44
1.0
1001
ACAD
1000
MTEXTBEGIN
1070
    73
1070
     1
1070
    44
1040
1.0
1070
    74
1070
     0
1000
MTEXTEND
  0
POINT
  5
1585
330
FF9
100
AcDbEntity
  8
Defpoints
  6
Continuous
 62
     0
100
AcDbPoint
 10
-319.6238949354629
 20
1689.88495849227
 30
0.0
  0
POINT
  5
1586
330
FF9
100
AcDbEntity
  8
Defpoints
  6
Continuous
 62
     0
100
AcDbPoint
 10
-269.6238949404633
 20
1689.88495849227
 30
0.0
  0
POINT
  5
1587
330
FF9
100
AcDbEntity
  8
Defpoints
  6
Continuous
 62
     0
100
AcDbPoint
 10
-269.6238949404633
 20
1496.770872047208
 30
0.0
  0
ENDBLK
  5
FFB
330
FF9
100
AcDbEntity
  8
0
 62
     7
100
AcDbBlockEnd
  0
BLOCK
  5
102A
330
1029
100
AcDbEntity
  8
0
 62
     3
100
AcDbBlockBegin
  2
*D28
 70
     1
 10
0.0
 20
0.0
 30
0.0
  3
*D28
  1

  0
LINE
  5
1588
330
1029
100
AcDbEntity
  8
P-0497
  6
Continuous
 62
     2
370
    -2
100
AcDbLine
 10
-211.6238949461631
 20
1866.884958476571
 30
0.0
 11
-211.6238949461631
 21
1895.53484824154
 31
0.0
  0
LINE
  5
1589
330
1029
100
AcDbEntity
  8
P-0497
  6
Continuous
 62
     2
370
    -2
100
AcDbLine
 10
-214.6238949458639
 20
1866.884958476571
 30
0.0
 11
-214.6238949458639
 21
1895.53484824154
 31
0.0
  0
LINE
  5
158A
330
1029
100
AcDbEntity
  8
P-0497
  6
Continuous
 62
     2
370
    -2
100
AcDbLine
 10
-191.6238949461631
 20
1880.53484824154
 30
0.0
 11
-171.6238949461631
 21
1880.53484824154
 31
0.0
  0
LINE
  5
158B
330
1029
100
AcDbEntity
  8
P-0497
  6
Continuous
 62
     2
370
    -2
100
AcDbLine
 10
-234.6238949458639
 20
1880.53484824154
 30
0.0
 11
-311.2711252665635
 21
1880.53484824154
 31
0.0
  0
LINE
  5
158C
330
1029
100
AcDbEntity
  8
P-0497
  6
Continuous
 62
     2
370
    -2
100
AcDbLine
 10
-211.6238949461631
 20
1880.53484824154
 30
0.0
 11
-214.6238949458639
 21
1880.53484824154
 31
0.0
  0
SOLID
  5
158D
330
1029
100
AcDbEntity
  8
P-0497
  6
Continuous
 62
     2
100
AcDbTrace
 10
-191.6238949461631
 20
1883.868181574873
 30
0.0
 11
-191.6238949461631
 21
1877.201514908207
 31
0.0
 12
-211.6238949461631
 22
1880.53484824154
 32
0.0
 13
-211.6238949461631
 23
1880.53484824154
 33
0.0
  0
SOLID
  5
158E
330
1029
100
AcDbEntity
  8
P-0497
  6
Continuous
 62
     2
100
AcDbTrace
 10
-234.6238949458639
 20
1883.868181574873
 30
0.0
 11
-234.6238949458639
 21
1877.201514908207
 31
0.0
 12
-214.6238949458639
 22
1880.53484824154
 32
0.0
 13
-214.6238949458639
 23
1880.53484824154
 33
0.0
  0
MTEXT
  5
158F
330
1029
100
AcDbEntity
  8
P-0497
  6
Continuous
 62
     1
100
AcDbMText
 10
-282.9475101062137
 20
1900.760795763406
 30
0.0
 40
20.0
 41
0.0
 71
     5
 72
     1
  1
\A1;0.3
  7
Stile_Quota
 73
     1
 44
1.0
1001
ACAD
1000
MTEXTBEGIN
1070
    73
1070
     1
1070
    44
1040
1.0
1070
    74
1070
     0
1000
MTEXTEND
  0
POINT
  5
1590
330
1029
100
AcDbEntity
  8
Defpoints
  6
Continuous
 62
     0
100
AcDbPoint
 10
-211.6238949461631
 20
1856.884958476571
 30
0.0
  0
POINT
  5
1591
330
1029
100
AcDbEntity
  8
Defpoints
  6
Continuous
 62
     0
100
AcDbPoint
 10
-214.6238949458639
 20
1856.884958476571
 30
0.0
  0
POINT
  5
1592
330
1029
100
AcDbEntity
  8
Defpoints
  6
Continuous
 62
     0
100
AcDbPoint
 10
-214.6238949458639
 20
1880.53484824154
 30
0.0
  0
ENDBLK
  5
102B
330
1029
100
AcDbEntity
  8
0
 62
     3
100
AcDbBlockEnd
  0
BLOCK
  5
106C
330
106B
100
AcDbEntity
  8
0
 62
     3
100
AcDbBlockBegin
  2
*D29
 70
     1
 10
0.0
 20
0.0
 30
0.0
  3
*D29
  1

  0
LINE
  5
1593
330
106B
100
AcDbEntity
  8
P-0497
  6
Continuous
 62
     2
370
    -2
100
AcDbLine
 10
-479.6238949205635
 20
1961.884958466171
 30
0.0
 11
-725.0719339030147
 21
1961.884958466171
 31
0.0
  0
LINE
  5
1594
330
106B
100
AcDbEntity
  8
P-0497
  6
Continuous
 62
     2
370
    -2
100
AcDbLine
 10
-499.6238949184625
 20
1981.88495846407
 30
0.0
 11
-725.0719339030147
 21
1981.884958464071
 31
0.0
  0
LINE
  5
1595
330
106B
100
AcDbEntity
  8
P-0497
  6
Continuous
 62
     2
370
    -2
100
AcDbLine
 10
-710.0719339030147
 20
1941.884958466172
 30
0.0
 11
-710.0719339030147
 21
1921.884958466172
 31
0.0
  0
LINE
  5
1596
330
106B
100
AcDbEntity
  8
P-0497
  6
Continuous
 62
     2
370
    -2
100
AcDbLine
 10
-710.0719339030147
 20
2001.884958464071
 30
0.0
 11
-710.0719339030147
 21
2055.281459921797
 31
0.0
  0
LINE
  5
1597
330
106B
100
AcDbEntity
  8
P-0497
  6
Continuous
 62
     2
370
    -2
100
AcDbLine
 10
-710.0719339030147
 20
1961.884958466171
 30
0.0
 11
-710.0719339030147
 21
1981.884958464071
 31
0.0
  0
SOLID
  5
1598
330
106B
100
AcDbEntity
  8
P-0497
  6
Continuous
 62
     2
100
AcDbTrace
 10
-713.405267236348
 20
1941.884958466172
 30
0.0
 11
-706.7386005696813
 21
1941.884958466172
 31
0.0
 12
-710.0719339030147
 22
1961.884958466171
 32
0.0
 13
-710.0719339030147
 23
1961.884958466171
 33
0.0
  0
SOLID
  5
1599
330
106B
100
AcDbEntity
  8
P-0497
  6
Continuous
 62
     2
100
AcDbTrace
 10
-713.405267236348
 20
2001.884958464071
 30
0.0
 11
-706.7386005696813
 21
2001.884958464071
 31
0.0
 12
-710.0719339030147
 22
1981.884958464071
 32
0.0
 13
-710.0719339030147
 23
1981.884958464071
 33
0.0
  0
MTEXT
  5
159A
330
106B
100
AcDbEntity
  8
P-0497
  6
Continuous
 62
     1
100
AcDbMText
 10
-730.071933903015
 20
2038.583209192934
 30
0.0
 40
20.0
 41
0.0
 71
     5
 72
     1
  1
\A1;2
  7
Stile_Quota
 11
0.0000000000000001
 21
1.0
 31
0.0
 73
     1
 44
1.0
1001
ACAD
1000
MTEXTBEGIN
1070
    73
1070
     1
1070
    44
1040
1.0
1070
    74
1070
     0
1000
MTEXTEND
  0
POINT
  5
159B
330
106B
100
AcDbEntity
  8
Defpoints
  6
Continuous
 62
     0
100
AcDbPoint
 10
-469.6238949205635
 20
1961.884958466171
 30
0.0
  0
POINT
  5
159C
330
106B
100
AcDbEntity
  8
Defpoints
  6
Continuous
 62
     0
100
AcDbPoint
 10
-489.6238949184626
 20
1981.88495846407
 30
0.0
  0
POINT
  5
159D
330
106B
100
AcDbEntity
  8
Defpoints
  6
Continuous
 62
     0
100
AcDbPoint
 10
-710.0719339030147
 20
1981.884958464071
 30
0.0
  0
ENDBLK
  5
106D
330
106B
100
AcDbEntity
  8
0
 62
     3
100
AcDbBlockEnd
  0
BLOCK
  5
1088
330
1087
100
AcDbEntity
  8
0
 62
     3
100
AcDbBlockBegin
  2
*D30
 70
     1
 10
0.0
 20
0.0
 30
0.0
  3
*D30
  1

  0
LINE
  5
159E
330
1087
100
AcDbEntity
  8
P-0497
  6
Continuous
 62
     2
370
    -2
100
AcDbLine
 10
-479.6238949205635
 20
1961.884958466171
 30
0.0
 11
-725.0719339030147
 21
1961.884958466171
 31
0.0
  0
LINE
  5
159F
330
1087
100
AcDbEntity
  8
P-0497
  6
Continuous
 62
     2
370
    -2
100
AcDbLine
 10
-479.6238949205635
 20
1701.88495849197
 30
0.0
 11
-725.0719339030148
 21
1701.884958491971
 31
0.0
  0
LINE
  5
15A0
330
1087
100
AcDbEntity
  8
P-0497
  6
Continuous
 62
     2
370
    -2
100
AcDbLine
 10
-710.0719339030147
 20
1941.884958466172
 30
0.0
 11
-710.0719339030148
 21
1721.88495849197
 31
0.0
  0
SOLID
  5
15A1
330
1087
100
AcDbEntity
  8
P-0497
  6
Continuous
 62
     2
100
AcDbTrace
 10
-713.405267236348
 20
1941.884958466172
 30
0.0
 11
-706.7386005696813
 21
1941.884958466172
 31
0.0
 12
-710.0719339030147
 22
1961.884958466171
 32
0.0
 13
-710.0719339030147
 23
1961.884958466171
 33
0.0
  0
SOLID
  5
15A2
330
1087
100
AcDbEntity
  8
P-0497
  6
Continuous
 62
     2
100
AcDbTrace
 10
-713.4052672363481
 20
1721.88495849197
 30
0.0
 11
-706.7386005696814
 21
1721.88495849197
 31
0.0
 12
-710.0719339030148
 22
1701.884958491971
 32
0.0
 13
-710.0719339030148
 23
1701.884958491971
 33
0.0
  0
MTEXT
  5
15A3
330
1087
100
AcDbEntity
  8
P-0497
  6
Continuous
 62
     1
100
AcDbMText
 10
-730.297881424881
 20
1831.884958479071
 30
0.0
 40
20.0
 41
0.0
 71
     5
 72
     1
  1
\A1;26
  7
Stile_Quota
 11
0.0000000000000001
 21
1.0
 31
0.0
 73
     1
 44
1.0
1001
ACAD
1000
MTEXTBEGIN
1070
    73
1070
     1
1070
    44
1040
1.0
1070
    74
1070
     0
1000
MTEXTEND
  0
POINT
  5
15A4
330
1087
100
AcDbEntity
  8
Defpoints
  6
Continuous
 62
     0
100
AcDbPoint
 10
-469.6238949205635
 20
1961.884958466171
 30
0.0
  0
POINT
  5
15A5
330
1087
100
AcDbEntity
  8
Defpoints
  6
Continuous
 62
     0
100
AcDbPoint
 10
-469.6238949205635
 20
1701.88495849197
 30
0.0
  0
POINT
  5
15A6
330
1087
100
AcDbEntity
  8
Defpoints
  6
Continuous
 62
     0
100
AcDbPoint
 10
-710.0719339030148
 20
1701.884958491971
 30
0.0
  0
ENDBLK
  5
1089
330
1087
100
AcDbEntity
  8
0
 62
     3
100
AcDbBlockEnd
  0
BLOCK
  5
10A0
330
109F
100
AcDbEntity
  8
0
 62
     3
100
AcDbBlockBegin
  2
*D31
 70
     1
 10
0.0
 20
0.0
 30
0.0
  3
*D31
  1

  0
LINE
  5
15A7
330
109F
100
AcDbEntity
  8
P-0497
  6
Continuous
 62
     2
370
    -2
100
AcDbLine
 10
-479.6238949205635
 20
1701.88495849197
 30
0.0
 11
-725.0719339030148
 21
1701.884958491971
 31
0.0
  0
LINE
  5
15A8
330
109F
100
AcDbEntity
  8
P-0497
  6
Continuous
 62
     2
370
    -2
100
AcDbLine
 10
-479.6238949204616
 20
1681.884958494071
 30
0.0
 11
-725.0719339030148
 21
1681.884958494071
 31
0.0
  0
LINE
  5
15A9
330
109F
100
AcDbEntity
  8
P-0497
  6
Continuous
 62
     2
370
    -2
100
AcDbLine
 10
-710.0719339030148
 20
1721.88495849197
 30
0.0
 11
-710.0719339030148
 21
1741.88495849197
 31
0.0
  0
LINE
  5
15AA
330
109F
100
AcDbEntity
  8
P-0497
  6
Continuous
 62
     2
370
    -2
100
AcDbLine
 10
-710.0719339030148
 20
1661.884958494071
 30
0.0
 11
-710.0719339030148
 21
1608.488457036346
 31
0.0
  0
LINE
  5
15AB
330
109F
100
AcDbEntity
  8
P-0497
  6
Continuous
 62
     2
370
    -2
100
AcDbLine
 10
-710.0719339030148
 20
1701.884958491971
 30
0.0
 11
-710.0719339030148
 21
1681.884958494071
 31
0.0
  0
SOLID
  5
15AC
330
109F
100
AcDbEntity
  8
P-0497
  6
Continuous
 62
     2
100
AcDbTrace
 10
-713.4052672363481
 20
1721.88495849197
 30
0.0
 11
-706.7386005696814
 21
1721.88495849197
 31
0.0
 12
-710.0719339030148
 22
1701.884958491971
 32
0.0
 13
-710.0719339030148
 23
1701.884958491971
 33
0.0
  0
SOLID
  5
15AD
330
109F
100
AcDbEntity
  8
P-0497
  6
Continuous
 62
     2
100
AcDbTrace
 10
-713.4052672363481
 20
1661.884958494071
 30
0.0
 11
-706.7386005696814
 21
1661.884958494071
 31
0.0
 12
-710.0719339030148
 22
1681.884958494071
 32
0.0
 13
-710.0719339030148
 23
1681.884958494071
 33
0.0
  0
MTEXT
  5
15AE
330
109F
100
AcDbEntity
  8
P-0497
  6
Continuous
 62
     1
100
AcDbMText
 10
-730.071933903015
 20
1625.186707765208
 30
0.0
 40
20.0
 41
0.0
 71
     5
 72
     1
  1
\A1;2
  7
Stile_Quota
 11
0.0000000000000001
 21
1.0
 31
0.0
 73
     1
 44
1.0
1001
ACAD
1000
MTEXTBEGIN
1070
    73
1070
     1
1070
    44
1040
1.0
1070
    74
1070
     0
1000
MTEXTEND
  0
POINT
  5
15AF
330
109F
100
AcDbEntity
  8
Defpoints
  6
Continuous
 62
     0
100
AcDbPoint
 10
-469.6238949205635
 20
1701.88495849197
 30
0.0
  0
POINT
  5
15B0
330
109F
100
AcDbEntity
  8
Defpoints
  6
Continuous
 62
     0
100
AcDbPoint
 10
-469.6238949204617
 20
1681.884958494071
 30
0.0
  0
POINT
  5
15B1
330
109F
100
AcDbEntity
  8
Defpoints
  6
Continuous
 62
     0
100
AcDbPoint
 10
-710.0719339030148
 20
1681.884958494071
 30
0.0
  0
ENDBLK
  5
10A1
330
109F
100
AcDbEntity
  8
0
 62
     3
100
AcDbBlockEnd
  0
BLOCK
  5
11CD
330
11CC
100
AcDbEntity
  8
0
 62
     3
100
AcDbBlockBegin
  2
*D32
 70
     1
 10
0.0
 20
0.0
 30
0.0
  3
*D32
  1

  0
LINE
  5
1B58
330
11CC
100
AcDbEntity
  8
P-0497
  6
Continuous
 62
     2
370
    -2
100
AcDbLine
 10
-93.32578213577745
 20
1904.519634403676
 30
0.0
 11
13.72522205581788
 21
1959.128201573622
 31
0.0
  0
LINE
  5
1B59
330
11CC
100
AcDbEntity
  8
P-0497
  6
Continuous
 62
     2
370
    -2
100
AcDbLine
 10
-294.5239766991636
 20
1801.884958482071
 30
0.0
 11
-111.1416455213755
 21
1895.431454617508
 31
0.0
  0
SOLID
  5
1B5A
330
11CC
100
AcDbEntity
  8
P-0497
  6
Continuous
 62
     2
100
AcDbTrace
 10
-94.84047876680529
 20
1907.488944967942
 30
0.0
 11
-91.81108550474949
 21
1901.550323839409
 31
0.0
 12
-111.1416455213755
 22
1895.431454617508
 32
0.0
 13
-111.1416455213755
 23
1895.431454617508
 33
0.0
  0
MTEXT
  5
1B5B
330
11CC
100
AcDbEntity
  8
P-0497
  6
Continuous
 62
     1
100
AcDbMText
 10
-36.94724517348288
 20
1955.984848891847
 30
0.0
 40
20.0
 41
0.0
 71
     5
 72
     1
  1
\A1;R20.6
  7
Stile_Quota
 11
0.8907931692798991
 21
0.4544089893083905
 31
0.0
 73
     1
 44
1.0
1001
ACAD
1000
MTEXTBEGIN
1070
    73
1070
     1
1070
    44
1040
1.0
1070
    74
1070
     0
1000
MTEXTEND
  0
POINT
  5
1B5C
330
11CC
100
AcDbEntity
  8
Defpoints
  6
Continuous
 62
     0
100
AcDbPoint
 10
-111.1416455213755
 20
1895.431454617508
 30
0.0
  0
POINT
  5
1B5D
330
11CC
100
AcDbEntity
  8
Defpoints
  6
Continuous
 62
     0
100
AcDbPoint
 10
-294.5239766991636
 20
1801.884958482071
 30
0.0
  0
ENDBLK
  5
11CE
330
11CC
100
AcDbEntity
  8
0
 62
     3
100
AcDbBlockEnd
  0
BLOCK
  5
1242
330
1241
100
AcDbEntity
  8
0
 62
     3
100
AcDbBlockBegin
  2
*D33
 70
     1
 10
0.0
 20
0.0
 30
0.0
  3
*D33
  1

  0
LINE
  5
15B8
330
1241
100
AcDbEntity
  8
P-0497
  6
Continuous
 62
     2
370
    -2
100
AcDbLine
 10
-294.5239766991644
 20
1791.884958482073
 30
0.0
 11
-294.5239766991644
 21
1715.750187314846
 31
0.0
  0
LINE
  5
15B9
330
1241
100
AcDbEntity
  8
P-0497
  6
Continuous
 62
     2
370
    -2
100
AcDbLine
 10
-194.6238949479621
 20
1696.884958493571
 30
0.0
 11
-194.6238949479621
 21
1745.750187314846
 31
0.0
  0
LINE
  5
15BA
330
1241
100
AcDbEntity
  8
P-0497
  6
Continuous
 62
     2
370
    -2
100
AcDbLine
 10
-274.5239766991644
 20
1730.750187314846
 30
0.0
 11
-214.6238949479621
 21
1730.750187314846
 31
0.0
  0
SOLID
  5
15BB
330
1241
100
AcDbEntity
  8
P-0497
  6
Continuous
 62
     2
100
AcDbTrace
 10
-274.5239766991644
 20
1734.083520648179
 30
0.0
 11
-274.5239766991644
 21
1727.416853981512
 31
0.0
 12
-294.5239766991644
 22
1730.750187314846
 32
0.0
 13
-294.5239766991644
 23
1730.750187314846
 33
0.0
  0
SOLID
  5
15BC
330
1241
100
AcDbEntity
  8
P-0497
  6
Continuous
 62
     2
100
AcDbTrace
 10
-214.6238949479621
 20
1734.083520648179
 30
0.0
 11
-214.6238949479621
 21
1727.416853981512
 31
0.0
 12
-194.6238949479621
 22
1730.750187314846
 32
0.0
 13
-194.6238949479621
 23
1730.750187314846
 33
0.0
  0
MTEXT
  5
15BD
330
1241
100
AcDbEntity
  8
P-0497
  6
Continuous
 62
     1
100
AcDbMText
 10
-244.5739358235632
 20
1750.976134836712
 30
0.0
 40
20.0
 41
0.0
 71
     5
 72
     1
  1
\A1;10
  7
Stile_Quota
 73
     1
 44
1.0
1001
ACAD
1000
MTEXTBEGIN
1070
    73
1070
     1
1070
    44
1040
1.0
1070
    74
1070
     0
1000
MTEXTEND
  0
POINT
  5
15BE
330
1241
100
AcDbEntity
  8
Defpoints
  6
Continuous
 62
     0
100
AcDbPoint
 10
-294.5239766991644
 20
1801.884958482073
 30
0.0
  0
POINT
  5
15BF
330
1241
100
AcDbEntity
  8
Defpoints
  6
Continuous
 62
     0
100
AcDbPoint
 10
-194.6238949479621
 20
1686.884958493571
 30
0.0
  0
POINT
  5
15C0
330
1241
100
AcDbEntity
  8
Defpoints
  6
Continuous
 62
     0
100
AcDbPoint
 10
-194.6238949479621
 20
1730.750187314846
 30
0.0
  0
ENDBLK
  5
1243
330
1241
100
AcDbEntity
  8
0
 62
     3
100
AcDbBlockEnd
  0
BLOCK
  5
127E
330
127D
100
AcDbEntity
  8
0
 62
     3
100
AcDbBlockBegin
  2
*D34
 70
     1
 10
0.0
 20
0.0
 30
0.0
  3
*D34
  1

  0
LINE
  5
1B52
330
127D
100
AcDbEntity
  8
P-0497
  6
Continuous
 62
     2
370
    -2
100
AcDbLine
 10
-500.6136524778192
 20
1674.256214624986
 30
0.0
 11
-568.3855518238981
 21
1602.89999504107
 31
0.0
  0
LINE
  5
1B53
330
127D
100
AcDbEntity
  8
P-0497
  6
Continuous
 62
     2
370
    -2
100
AcDbLine
 10
-469.6238949204618
 20
1706.88495849157
 30
0.0
 11
-486.8404268960061
 21
1688.757878566496
 31
0.0
  0
SOLID
  5
1B54
330
127D
100
AcDbEntity
  8
P-0497
  6
Continuous
 62
     2
100
AcDbTrace
 10
-503.0305964680708
 20
1676.551752221955
 30
0.0
 11
-498.1967084875675
 21
1671.960677028017
 31
0.0
 12
-486.8404268960061
 22
1688.757878566496
 32
0.0
 13
-486.8404268960061
 23
1688.757878566496
 33
0.0
  0
MTEXT
  5
1B55
330
127D
100
AcDbEntity
  8
P-0497
  6
Continuous
 62
     1
100
AcDbMText
 10
-556.051709634801
 20
1645.256099753501
 30
0.0
 40
20.0
 41
0.0
 71
     5
 72
     1
  1
\A1;R2.5
  7
Stile_Quota
 11
0.6886612790906556
 21
0.7250831970754958
 31
0.0
 73
     1
 44
1.0
1001
ACAD
1000
MTEXTBEGIN
1070
    73
1070
     1
1070
    44
1040
1.0
1070
    74
1070
     0
1000
MTEXTEND
  0
POINT
  5
1B56
330
127D
100
AcDbEntity
  8
Defpoints
  6
Continuous
 62
     0
100
AcDbPoint
 10
-486.8404268960061
 20
1688.757878566496
 30
0.0
  0
POINT
  5
1B57
330
127D
100
AcDbEntity
  8
Defpoints
  6
Continuous
 62
     0
100
AcDbPoint
 10
-469.6238949204618
 20
1706.88495849157
 30
0.0
  0
ENDBLK
  5
127F
330
127D
100
AcDbEntity
  8
0
 62
     3
100
AcDbBlockEnd
  0
BLOCK
  5
1290
330
128F
100
AcDbEntity
  8
0
 62
     3
100
AcDbBlockBegin
  2
*D35
 70
     1
 10
0.0
 20
0.0
 30
0.0
  3
*D35
  1

  0
LINE
  5
1B46
330
128F
100
AcDbEntity
  8
P-0497
  6
Continuous
 62
     2
370
    -2
100
AcDbLine
 10
-513.0562819263546
 20
2065.389483515895
 30
0.0
 11
-585.6654591795689
 21
2077.780600018328
 31
0.0
  0
LINE
  5
1B47
330
128F
100
AcDbEntity
  8
P-0497
  6
Continuous
 62
     2
370
    -2
100
AcDbLine
 10
-404.6238949269627
 20
2046.884958457571
 30
0.0
 11
-493.3413024703066
 21
2062.025024414106
 31
0.0
  0
SOLID
  5
1B48
330
128F
100
AcDbEntity
  8
P-0497
  6
Continuous
 62
     2
100
AcDbTrace
 10
-512.495538742723
 20
2068.675313425236
 30
0.0
 11
-513.6170251099859
 21
2062.103653606554
 31
0.0
 12
-493.3413024703066
 22
2062.025024414106
 32
0.0
 13
-493.3413024703066
 23
2062.025024414106
 33
0.0
  0
MTEXT
  5
1B49
330
128F
100
AcDbEntity
  8
P-0497
  6
Continuous
 62
     1
100
AcDbMText
 10
-555.8146655045407
 20
2093.212163070917
 30
0.0
 40
20.0
 41
0.0
 71
     5
 72
     1
  1
\A1;R9
  7
Stile_Quota
 11
0.9857489728023958
 21
-0.1682229550894326
 31
0.0
 73
     1
 44
1.0
1001
ACAD
1000
MTEXTBEGIN
1070
    73
1070
     1
1070
    44
1040
1.0
1070
    74
1070
     0
1000
MTEXTEND
  0
POINT
  5
1B4A
330
128F
100
AcDbEntity
  8
Defpoints
  6
Continuous
 62
     0
100
AcDbPoint
 10
-493.3413024703066
 20
2062.025024414106
 30
0.0
  0
POINT
  5
1B4B
330
128F
100
AcDbEntity
  8
Defpoints
  6
Continuous
 62
     0
100
AcDbPoint
 10
-404.6238949269627
 20
2046.884958457571
 30
0.0
  0
ENDBLK
  5
1291
330
128F
100
AcDbEntity
  8
0
 62
     3
100
AcDbBlockEnd
  0
BLOCK
  5
12A0
330
129F
100
AcDbEntity
  8
0
 62
     3
100
AcDbBlockBegin
  2
*D36
 70
     1
 10
0.0
 20
0.0
 30
0.0
  3
*D36
  1

  0
LINE
  5
1B4C
330
129F
100
AcDbEntity
  8
P-0497
  6
Continuous
 62
     2
370
    -2
100
AcDbLine
 10
-489.6743723048831
 20
2089.210084521922
 30
0.0
 11
-632.3603403542814
 21
2160.217347167488
 31
0.0
  0
LINE
  5
1B4D
330
129F
100
AcDbEntity
  8
P-0497
  6
Continuous
 62
     2
370
    -2
100
AcDbLine
 10
-404.6238949269628
 20
2046.884958457571
 30
0.0
 11
-471.7690086449603
 21
2080.299531665566
 31
0.0
  0
SOLID
  5
1B4E
330
129F
100
AcDbEntity
  8
P-0497
  6
Continuous
 62
     2
100
AcDbTrace
 10
-488.1892801621571
 20
2092.194311798576
 30
0.0
 11
-491.1594644476091
 21
2086.225857245269
 31
0.0
 12
-471.7690086449603
 22
2080.299531665566
 32
0.0
 13
-471.7690086449603
 23
2080.299531665566
 33
0.0
  0
MTEXT
  5
1B4F
330
129F
100
AcDbEntity
  8
P-0497
  6
Continuous
 62
     1
100
AcDbMText
 10
-588.2171767858859
 20
2160.923095701944
 30
0.0
 40
20.0
 41
0.0
 71
     5
 72
     1
  1
\A1;R7.5
  7
Stile_Quota
 11
0.8952681829961404
 21
-0.4455276428178047
 31
0.0
 73
     1
 44
1.0
1001
ACAD
1000
MTEXTBEGIN
1070
    73
1070
     1
1070
    44
1040
1.0
1070
    74
1070
     0
1000
MTEXTEND
  0
POINT
  5
1B50
330
129F
100
AcDbEntity
  8
Defpoints
  6
Continuous
 62
     0
100
AcDbPoint
 10
-471.7690086449603
 20
2080.299531665566
 30
0.0
  0
POINT
  5
1B51
330
129F
100
AcDbEntity
  8
Defpoints
  6
Continuous
 62
     0
100
AcDbPoint
 10
-404.6238949269628
 20
2046.884958457571
 30
0.0
  0
ENDBLK
  5
12A1
330
129F
100
AcDbEntity
  8
0
 62
     3
100
AcDbBlockEnd
  0
BLOCK
  5
131D
330
131C
100
AcDbEntity
  8
0
 62
     3
100
AcDbBlockBegin
  2
*D37
 70
     1
 10
0.0
 20
0.0
 30
0.0
  3
*D37
  1

  0
LINE
  5
15D3
330
131C
100
AcDbEntity
  8
P-0497
  6
Continuous
 62
     2
370
    -2
100
AcDbLine
 10
-420.6068654370354
 20
2046.884958457569
 30
0.0
 11
-619.5578709014025
 21
2046.884958457569
 31
0.0
  0
LINE
  5
15D4
330
131C
100
AcDbEntity
  8
P-0497
  6
Continuous
 62
     2
370
    -2
100
AcDbLine
 10
-476.8733929106824
 20
2111.884958451071
 30
0.0
 11
-619.5578709014025
 21
2111.884958451071
 31
0.0
  0
LINE
  5
15D5
330
131C
100
AcDbEntity
  8
P-0497
  6
Continuous
 62
     2
370
    -2
100
AcDbLine
 10
-604.5578709014026
 20
2066.884958457569
 30
0.0
 11
-604.5578709014026
 21
2091.88495845107
 31
0.0
  0
SOLID
  5
15D6
330
131C
100
AcDbEntity
  8
P-0497
  6
Continuous
 62
     2
100
AcDbTrace
 10
-607.8912042347359
 20
2066.884958457569
 30
0.0
 11
-601.2245375680691
 21
2066.884958457569
 31
0.0
 12
-604.5578709014026
 22
2046.884958457569
 32
0.0
 13
-604.5578709014026
 23
2046.884958457569
 33
0.0
  0
SOLID
  5
15D7
330
131C
100
AcDbEntity
  8
P-0497
  6
Continuous
 62
     2
100
AcDbTrace
 10
-607.8912042347359
 20
2091.88495845107
 30
0.0
 11
-601.2245375680691
 21
2091.88495845107
 31
0.0
 12
-604.5578709014026
 22
2111.884958451071
 32
0.0
 13
-604.5578709014026
 23
2111.884958451071
 33
0.0
  0
MTEXT
  5
15D8
330
131C
100
AcDbEntity
  8
P-0497
  6
Continuous
 62
     1
100
AcDbMText
 10
-624.7838184232688
 20
2079.38495845432
 30
0.0
 40
20.0
 41
0.0
 71
     5
 72
     1
  1
\A1;6.5
  7
Stile_Quota
 11
0.0000000000000001
 21
1.0
 31
0.0
 73
     1
 44
1.0
1001
ACAD
1000
MTEXTBEGIN
1070
    73
1070
     1
1070
    44
1040
1.0
1070
    74
1070
     0
1000
MTEXTEND
  0
POINT
  5
15D9
330
131C
100
AcDbEntity
  8
Defpoints
  6
Continuous
 62
     0
100
AcDbPoint
 10
-410.6068654370353
 20
2046.884958457569
 30
0.0
  0
POINT
  5
15DA
330
131C
100
AcDbEntity
  8
Defpoints
  6
Continuous
 62
     0
100
AcDbPoint
 10
-466.8733929106823
 20
2111.884958451071
 30
0.0
  0
POINT
  5
15DB
330
131C
100
AcDbEntity
  8
Defpoints
  6
Continuous
 62
     0
100
AcDbPoint
 10
-604.5578709014026
 20
2111.884958451071
 30
0.0
  0
ENDBLK
  5
131E
330
131C
100
AcDbEntity
  8
0
 62
     3
100
AcDbBlockEnd
  0
BLOCK
  5
137A
330
1379
100
AcDbEntity
  8
0
 62
     3
100
AcDbBlockBegin
  2
*D38
 70
     1
 10
0.0
 20
0.0
 30
0.0
  3
*D38
  1

  0
LINE
  5
15DC
330
1379
100
AcDbEntity
  8
P-0497
  6
Continuous
 62
     2
370
    -2
100
AcDbLine
 10
-404.6238949269616
 20
2062.540751383254
 30
0.0
 11
-404.6238949269616
 21
2268.018434033971
 31
0.0
  0
LINE
  5
15DD
330
1379
100
AcDbEntity
  8
P-0497
  6
Continuous
 62
     2
370
    -2
100
AcDbLine
 10
-494.6238949179623
 20
2056.884958457572
 30
0.0
 11
-494.6238949179623
 21
2268.018434033971
 31
0.0
  0
LINE
  5
15DE
330
1379
100
AcDbEntity
  8
P-0497
  6
Continuous
 62
     2
370
    -2
100
AcDbLine
 10
-424.6238949269615
 20
2253.01843403397
 30
0.0
 11
-474.6238949179623
 21
2253.01843403397
 31
0.0
  0
SOLID
  5
15DF
330
1379
100
AcDbEntity
  8
P-0497
  6
Continuous
 62
     2
100
AcDbTrace
 10
-424.6238949269615
 20
2256.351767367304
 30
0.0
 11
-424.6238949269615
 21
2249.685100700637
 31
0.0
 12
-404.6238949269616
 22
2253.01843403397
 32
0.0
 13
-404.6238949269616
 23
2253.01843403397
 33
0.0
  0
SOLID
  5
15E0
330
1379
100
AcDbEntity
  8
P-0497
  6
Continuous
 62
     2
100
AcDbTrace
 10
-474.6238949179623
 20
2256.351767367304
 30
0.0
 11
-474.6238949179623
 21
2249.685100700637
 31
0.0
 12
-494.6238949179623
 22
2253.01843403397
 32
0.0
 13
-494.6238949179623
 23
2253.01843403397
 33
0.0
  0
MTEXT
  5
15E1
330
1379
100
AcDbEntity
  8
P-0497
  6
Continuous
 62
     1
100
AcDbMText
 10
-449.6238949224619
 20
2273.251670185574
 30
0.0
 40
20.0
 41
0.0
 71
     5
 72
     1
  1
\A1;9
  7
Stile_Quota
 73
     1
 44
1.0
1001
ACAD
1000
MTEXTBEGIN
1070
    73
1070
     1
1070
    44
1040
1.0
1070
    74
1070
     0
1000
MTEXTEND
  0
POINT
  5
15E2
330
1379
100
AcDbEntity
  8
Defpoints
  6
Continuous
 62
     0
100
AcDbPoint
 10
-404.6238949269616
 20
2052.540751383254
 30
0.0
  0
POINT
  5
15E3
330
1379
100
AcDbEntity
  8
Defpoints
  6
Continuous
 62
     0
100
AcDbPoint
 10
-494.6238949179623
 20
2046.884958457571
 30
0.0
  0
POINT
  5
15E4
330
1379
100
AcDbEntity
  8
Defpoints
  6
Continuous
 62
     0
100
AcDbPoint
 10
-494.6238949179623
 20
2253.01843403397
 30
0.0
  0
ENDBLK
  5
137B
330
1379
100
AcDbEntity
  8
0
 62
     3
100
AcDbBlockEnd
  0
BLOCK
  5
13CC
330
13CB
100
AcDbEntity
  8
0
 62
     3
100
AcDbBlockBegin
  2
*D39
 70
     1
 10
0.0
 20
0.0
 30
0.0
  3
*D39
  1

  0
LINE
  5
15E5
330
13CB
100
AcDbEntity
  8
P-0497
  6
Continuous
 62
     2
370
    -2
100
AcDbLine
 10
-278.8644583488176
 20
1801.884958482073
 30
0.0
 11
1.005032318107625
 21
1801.884958482073
 31
0.0
  0
LINE
  5
15E6
330
13CB
100
AcDbEntity
  8
P-0497
  6
Continuous
 62
     2
370
    -2
100
AcDbLine
 10
-119.6238949544622
 20
1681.884958494071
 30
0.0
 11
1.005032318107627
 21
1681.884958494071
 31
0.0
  0
LINE
  5
15E7
330
13CB
100
AcDbEntity
  8
P-0497
  6
Continuous
 62
     2
370
    -2
100
AcDbLine
 10
-13.99496768189236
 20
1781.884958482073
 30
0.0
 11
-13.99496768189238
 21
1701.884958494071
 31
0.0
  0
SOLID
  5
15E8
330
13CB
100
AcDbEntity
  8
P-0497
  6
Continuous
 62
     2
100
AcDbTrace
 10
-17.32830101522569
 20
1781.884958482073
 30
0.0
 11
-10.66163434855903
 21
1781.884958482073
 31
0.0
 12
-13.99496768189236
 22
1801.884958482073
 32
0.0
 13
-13.99496768189236
 23
1801.884958482073
 33
0.0
  0
SOLID
  5
15E9
330
13CB
100
AcDbEntity
  8
P-0497
  6
Continuous
 62
     2
100
AcDbTrace
 10
-17.32830101522571
 20
1701.884958494071
 30
0.0
 11
-10.66163434855905
 21
1701.884958494071
 31
0.0
 12
-13.99496768189238
 22
1681.884958494071
 32
0.0
 13
-13.99496768189238
 23
1681.884958494071
 33
0.0
  0
MTEXT
  5
15EA
330
13CB
100
AcDbEntity
  8
P-0497
  6
Continuous
 62
     1
100
AcDbMText
 10
-33.99496768189266
 20
1741.884958488072
 30
0.0
 40
20.0
 41
0.0
 71
     5
 72
     1
  1
\A1;12
  7
Stile_Quota
 11
0.0000000000000001
 21
1.0
 31
0.0
 73
     1
 44
1.0
1001
ACAD
1000
MTEXTBEGIN
1070
    73
1070
     1
1070
    44
1040
1.0
1070
    74
1070
     0
1000
MTEXTEND
  0
POINT
  5
15EB
330
13CB
100
AcDbEntity
  8
Defpoints
  6
Continuous
 62
     0
100
AcDbPoint
 10
-288.8644583488176
 20
1801.884958482073
 30
0.0
  0
POINT
  5
15EC
330
13CB
100
AcDbEntity
  8
Defpoints
  6
Continuous
 62
     0
100
AcDbPoint
 10
-129.6238949544622
 20
1681.884958494071
 30
0.0
  0
POINT
  5
15ED
330
13CB
100
AcDbEntity
  8
Defpoints
  6
Continuous
 62
     0
100
AcDbPoint
 10
-13.99496768189238
 20
1681.884958494071
 30
0.0
  0
ENDBLK
  5
13CD
330
13CB
100
AcDbEntity
  8
0
 62
     3
100
AcDbBlockEnd
  0
BLOCK
  5
13E4
330
13E3
100
AcDbEntity
  8
0
 62
     3
100
AcDbBlockBegin
  2
*D40
 70
     1
 10
0.0
 20
0.0
 30
0.0
  3
*D40
  1

  0
LINE
  5
1B40
330
13E3
100
AcDbEntity
  8
P-0497
  6
Continuous
 62
     2
370
    -2
100
AcDbLine
 10
-286.357080908862
 20
2071.390649679365
 30
0.0
 11
-221.9807255101423
 21
2173.064599112961
 31
0.0
  0
LINE
  5
1B41
330
13E3
100
AcDbEntity
  8
P-0497
  6
Continuous
 62
     2
370
    -2
100
AcDbLine
 10
-374.6238949299632
 20
1931.984876707872
 30
0.0
 11
-297.0560886699356
 21
2054.49298022679
 31
0.0
  0
SOLID
  5
1B42
330
13E3
100
AcDbEntity
  8
P-0497
  6
Continuous
 62
     2
100
AcDbTrace
 10
-289.1733591509579
 20
2073.173817639544
 30
0.0
 11
-283.5408026667664
 21
2069.607481719186
 31
0.0
 12
-297.0560886699356
 22
2054.49298022679
 32
0.0
 13
-297.0560886699356
 23
2054.49298022679
 33
0.0
  0
MTEXT
  5
1B43
330
13E3
100
AcDbEntity
  8
P-0497
  6
Continuous
 62
     1
100
AcDbMText
 10
-263.9569643111005
 20
2144.577690374329
 30
0.0
 40
20.0
 41
0.0
 71
     5
 72
     1
  1
\A1;R14.5
  7
Stile_Quota
 11
0.5349503880536836
 21
0.8448834726287486
 31
0.0
 73
     1
 44
1.0
1001
ACAD
1000
MTEXTBEGIN
1070
    73
1070
     1
1070
    44
1040
1.0
1070
    74
1070
     0
1000
MTEXTEND
  0
POINT
  5
1B44
330
13E3
100
AcDbEntity
  8
Defpoints
  6
Continuous
 62
     0
100
AcDbPoint
 10
-297.0560886699356
 20
2054.49298022679
 30
0.0
  0
POINT
  5
1B45
330
13E3
100
AcDbEntity
  8
Defpoints
  6
Continuous
 62
     0
100
AcDbPoint
 10
-374.6238949299632
 20
1931.984876707872
 30
0.0
  0
ENDBLK
  5
13E5
330
13E3
100
AcDbEntity
  8
0
 62
     3
100
AcDbBlockEnd
  0
BLOCK
  5
1406
330
1405
100
AcDbEntity
  8
0
 62
     3
100
AcDbBlockBegin
  2
*D41
 70
     1
 10
0.0
 20
0.0
 30
0.0
  3
*D41
  1

  0
LINE
  5
15F4
330
1405
100
AcDbEntity
  8
P-0497
  6
Continuous
 62
     2
370
    -2
100
AcDbLine
 10
-499.6238949184625
 20
1981.88495846407
 30
0.0
 11
-609.538569766777
 21
1981.884958464071
 31
0.0
  0
LINE
  5
15F5
330
1405
100
AcDbEntity
  8
P-0497
  6
Continuous
 62
     2
370
    -2
100
AcDbLine
 10
-384.6238949299637
 20
1931.98487670787
 30
0.0
 11
-609.538569766777
 21
1931.98487670787
 31
0.0
  0
LINE
  5
15F6
330
1405
100
AcDbEntity
  8
P-0497
  6
Continuous
 62
     2
370
    -2
100
AcDbLine
 10
-594.538569766777
 20
2001.884958464071
 30
0.0
 11
-594.538569766777
 21
2021.884958464071
 31
0.0
  0
LINE
  5
15F7
330
1405
100
AcDbEntity
  8
P-0497
  6
Continuous
 62
     2
370
    -2
100
AcDbLine
 10
-594.538569766777
 20
1911.984876707871
 30
0.0
 11
-594.538569766777
 21
1859.186042888629
 31
0.0
  0
LINE
  5
15F8
330
1405
100
AcDbEntity
  8
P-0497
  6
Continuous
 62
     2
370
    -2
100
AcDbLine
 10
-594.538569766777
 20
1981.884958464071
 30
0.0
 11
-594.538569766777
 21
1931.98487670787
 31
0.0
  0
SOLID
  5
15F9
330
1405
100
AcDbEntity
  8
P-0497
  6
Continuous
 62
     2
100
AcDbTrace
 10
-597.8719031001104
 20
2001.884958464071
 30
0.0
 11
-591.2052364334437
 21
2001.884958464071
 31
0.0
 12
-594.538569766777
 22
1981.884958464071
 32
0.0
 13
-594.538569766777
 23
1981.884958464071
 33
0.0
  0
SOLID
  5
15FA
330
1405
100
AcDbEntity
  8
P-0497
  6
Continuous
 62
     2
100
AcDbTrace
 10
-597.8719031001104
 20
1911.984876707871
 30
0.0
 11
-591.2052364334437
 21
1911.984876707871
 31
0.0
 12
-594.538569766777
 22
1931.98487670787
 32
0.0
 13
-594.538569766777
 23
1931.98487670787
 33
0.0
  0
MTEXT
  5
15FB
330
1405
100
AcDbEntity
  8
P-0497
  6
Continuous
 62
     1
100
AcDbMText
 10
-614.7645172886433
 20
1875.585459798249
 30
0.0
 40
20.0
 41
0.0
 71
     5
 72
     1
  1
\A1;5
  7
Stile_Quota
 11
0.0000000000000001
 21
1.0
 31
0.0
 73
     1
 44
1.0
1001
ACAD
1000
MTEXTBEGIN
1070
    73
1070
     1
1070
    44
1040
1.0
1070
    74
1070
     0
1000
MTEXTEND
  0
POINT
  5
15FC
330
1405
100
AcDbEntity
  8
Defpoints
  6
Continuous
 62
     0
100
AcDbPoint
 10
-489.6238949184626
 20
1981.88495846407
 30
0.0
  0
POINT
  5
15FD
330
1405
100
AcDbEntity
  8
Defpoints
  6
Continuous
 62
     0
100
AcDbPoint
 10
-374.6238949299637
 20
1931.98487670787
 30
0.0
  0
POINT
  5
15FE
330
1405
100
AcDbEntity
  8
Defpoints
  6
Continuous
 62
     0
100
AcDbPoint
 10
-594.538569766777
 20
1931.98487670787
 30
0.0
  0
ENDBLK
  5
1407
330
1405
100
AcDbEntity
  8
0
 62
     3
100
AcDbBlockEnd
  0
BLOCK
  5
142F
330
142E
100
AcDbEntity
  8
0
 62
     3
100
AcDbBlockBegin
  2
*D42
 70
     1
 10
0.0
 20
0.0
 30
0.0
  3
*D42
  1

  0
LINE
  5
15FF
330
142E
100
AcDbEntity
  8
P-0497
  6
Continuous
 62
     2
370
    -2
100
AcDbLine
 10
-374.6238949299637
 20
1914.320741175246
 30
0.0
 11
-374.6238949299637
 21
1761.482541722587
 31
0.0
  0
LINE
  5
1600
330
142E
100
AcDbEntity
  8
P-0497
  6
Continuous
 62
     2
370
    -2
100
AcDbLine
 10
-494.6238949179623
 20
1784.297366452323
 30
0.0
 11
-494.6238949179623
 21
1791.482541722587
 31
0.0
  0
LINE
  5
1601
330
142E
100
AcDbEntity
  8
P-0497
  6
Continuous
 62
     2
370
    -2
100
AcDbLine
 10
-394.6238949299638
 20
1776.482541722587
 30
0.0
 11
-474.6238949179623
 21
1776.482541722587
 31
0.0
  0
SOLID
  5
1602
330
142E
100
AcDbEntity
  8
P-0497
  6
Continuous
 62
     2
100
AcDbTrace
 10
-394.6238949299638
 20
1779.815875055921
 30
0.0
 11
-394.6238949299638
 21
1773.149208389254
 31
0.0
 12
-374.6238949299637
 22
1776.482541722587
 32
0.0
 13
-374.6238949299637
 23
1776.482541722587
 33
0.0
  0
SOLID
  5
1603
330
142E
100
AcDbEntity
  8
P-0497
  6
Continuous
 62
     2
100
AcDbTrace
 10
-474.6238949179623
 20
1779.815875055921
 30
0.0
 11
-474.6238949179623
 21
1773.149208389254
 31
0.0
 12
-494.6238949179623
 22
1776.482541722587
 32
0.0
 13
-494.6238949179623
 23
1776.482541722587
 33
0.0
  0
MTEXT
  5
1604
330
142E
100
AcDbEntity
  8
P-0497
  6
Continuous
 62
     1
100
AcDbMText
 10
-434.623894923963
 20
1796.482541722587
 30
0.0
 40
20.0
 41
0.0
 71
     5
 72
     1
  1
\A1;12
  7
Stile_Quota
 73
     1
 44
1.0
1001
ACAD
1000
MTEXTBEGIN
1070
    73
1070
     1
1070
    44
1040
1.0
1070
    74
1070
     0
1000
MTEXTEND
  0
POINT
  5
1605
330
142E
100
AcDbEntity
  8
Defpoints
  6
Continuous
 62
     0
100
AcDbPoint
 10
-374.6238949299637
 20
1924.320741175246
 30
0.0
  0
POINT
  5
1606
330
142E
100
AcDbEntity
  8
Defpoints
  6
Continuous
 62
     0
100
AcDbPoint
 10
-494.6238949179623
 20
1774.297366452323
 30
0.0
  0
POINT
  5
1607
330
142E
100
AcDbEntity
  8
Defpoints
  6
Continuous
 62
     0
100
AcDbPoint
 10
-494.6238949179623
 20
1776.482541722587
 30
0.0
  0
ENDBLK
  5
1430
330
142E
100
AcDbEntity
  8
0
 62
     3
100
AcDbBlockEnd
  0
BLOCK
  5
1447
330
1446
100
AcDbEntity
  8
0
 62
     3
100
AcDbBlockBegin
  2
*D43
 70
     1
 10
0.0
 20
0.0
 30
0.0
  3
*D43
  1

  0
LINE
  5
1608
330
1446
100
AcDbEntity
  8
P-0497
  6
Continuous
 62
     2
370
    -2
100
AcDbLine
 10
-399.623894927463
 20
1966.884958464573
 30
0.0
 11
-399.623894927463
 21
1817.20437150613
 31
0.0
  0
LINE
  5
1609
330
1446
100
AcDbEntity
  8
P-0497
  6
Continuous
 62
     2
370
    -2
100
AcDbLine
 10
-494.6238949179623
 20
1825.482127431117
 30
0.0
 11
-494.6238949179623
 21
1817.20437150613
 31
0.0
  0
LINE
  5
160A
330
1446
100
AcDbEntity
  8
P-0497
  6
Continuous
 62
     2
370
    -2
100
AcDbLine
 10
-419.6238949274629
 20
1832.20437150613
 30
0.0
 11
-474.6238949179623
 21
1832.20437150613
 31
0.0
  0
SOLID
  5
160B
330
1446
100
AcDbEntity
  8
P-0497
  6
Continuous
 62
     2
100
AcDbTrace
 10
-419.6238949274629
 20
1835.537704839463
 30
0.0
 11
-419.6238949274629
 21
1828.871038172797
 31
0.0
 12
-399.623894927463
 22
1832.20437150613
 32
0.0
 13
-399.623894927463
 23
1832.20437150613
 33
0.0
  0
SOLID
  5
160C
330
1446
100
AcDbEntity
  8
P-0497
  6
Continuous
 62
     2
100
AcDbTrace
 10
-474.6238949179623
 20
1835.537704839463
 30
0.0
 11
-474.6238949179623
 21
1828.871038172797
 31
0.0
 12
-494.6238949179623
 22
1832.20437150613
 32
0.0
 13
-494.6238949179623
 23
1832.20437150613
 33
0.0
  0
MTEXT
  5
160D
330
1446
100
AcDbEntity
  8
P-0497
  6
Continuous
 62
     1
100
AcDbMText
 10
-447.1238949227126
 20
1852.437607657734
 30
0.0
 40
20.0
 41
0.0
 71
     5
 72
     1
  1
\A1;9.5
  7
Stile_Quota
 73
     1
 44
1.0
1001
ACAD
1000
MTEXTBEGIN
1070
    73
1070
     1
1070
    44
1040
1.0
1070
    74
1070
     0
1000
MTEXTEND
  0
POINT
  5
160E
330
1446
100
AcDbEntity
  8
Defpoints
  6
Continuous
 62
     0
100
AcDbPoint
 10
-399.623894927463
 20
1976.884958464573
 30
0.0
  0
POINT
  5
160F
330
1446
100
AcDbEntity
  8
Defpoints
  6
Continuous
 62
     0
100
AcDbPoint
 10
-494.6238949179623
 20
1835.482127431117
 30
0.0
  0
POINT
  5
1610
330
1446
100
AcDbEntity
  8
Defpoints
  6
Continuous
 62
     0
100
AcDbPoint
 10
-494.6238949179623
 20
1832.20437150613
 30
0.0
  0
ENDBLK
  5
1448
330
1446
100
AcDbEntity
  8
0
 62
     3
100
AcDbBlockEnd
  0
BLOCK
  5
145F
330
145E
100
AcDbEntity
  8
0
 62
     3
100
AcDbBlockBegin
  2
*D44
 70
     1
 10
0.0
 20
0.0
 30
0.0
  3
*D44
  1

  0
LINE
  5
1611
330
145E
100
AcDbEntity
  8
P-0497
  6
Continuous
 62
     2
370
    -2
100
AcDbLine
 10
-434.623894923962
 20
1981.884958462572
 30
0.0
 11
-434.623894923962
 21
1878.389125504515
 31
0.0
  0
LINE
  5
1612
330
145E
100
AcDbEntity
  8
P-0497
  6
Continuous
 62
     2
370
    -2
100
AcDbLine
 10
-494.6238949179623
 20
1986.88495846207
 30
0.0
 11
-494.6238949179623
 21
1878.389125504515
 31
0.0
  0
LINE
  5
1613
330
145E
100
AcDbEntity
  8
P-0497
  6
Continuous
 62
     2
370
    -2
100
AcDbLine
 10
-414.6238949239621
 20
1893.389125504515
 30
0.0
 11
-394.6238949239621
 21
1893.389125504515
 31
0.0
  0
LINE
  5
1614
330
145E
100
AcDbEntity
  8
P-0497
  6
Continuous
 62
     2
370
    -2
100
AcDbLine
 10
-514.6238949179624
 20
1893.389125504515
 30
0.0
 11
-567.3061106614026
 21
1893.389125504515
 31
0.0
  0
LINE
  5
1615
330
145E
100
AcDbEntity
  8
P-0497
  6
Continuous
 62
     2
370
    -2
100
AcDbLine
 10
-434.623894923962
 20
1893.389125504515
 30
0.0
 11
-494.6238949179623
 21
1893.389125504515
 31
0.0
  0
SOLID
  5
1616
330
145E
100
AcDbEntity
  8
P-0497
  6
Continuous
 62
     2
100
AcDbTrace
 10
-414.6238949239621
 20
1896.722458837849
 30
0.0
 11
-414.6238949239621
 21
1890.055792171182
 31
0.0
 12
-434.623894923962
 22
1893.389125504515
 32
0.0
 13
-434.623894923962
 23
1893.389125504515
 33
0.0
  0
SOLID
  5
1617
330
145E
100
AcDbEntity
  8
P-0497
  6
Continuous
 62
     2
100
AcDbTrace
 10
-514.6238949179624
 20
1896.722458837849
 30
0.0
 11
-514.6238949179624
 21
1890.055792171182
 31
0.0
 12
-494.6238949179623
 22
1893.389125504515
 32
0.0
 13
-494.6238949179623
 23
1893.389125504515
 33
0.0
  0
MTEXT
  5
1618
330
145E
100
AcDbEntity
  8
P-0497
  6
Continuous
 62
     1
100
AcDbMText
 10
-550.9650027896825
 20
1913.615073026381
 30
0.0
 40
20.0
 41
0.0
 71
     5
 72
     1
  1
\A1;6
  7
Stile_Quota
 73
     1
 44
1.0
1001
ACAD
1000
MTEXTBEGIN
1070
    73
1070
     1
1070
    44
1040
1.0
1070
    74
1070
     0
1000
MTEXTEND
  0
POINT
  5
1619
330
145E
100
AcDbEntity
  8
Defpoints
  6
Continuous
 62
     0
100
AcDbPoint
 10
-434.623894923962
 20
1991.884958462572
 30
0.0
  0
POINT
  5
161A
330
145E
100
AcDbEntity
  8
Defpoints
  6
Continuous
 62
     0
100
AcDbPoint
 10
-494.6238949179623
 20
1996.88495846207
 30
0.0
  0
POINT
  5
161B
330
145E
100
AcDbEntity
  8
Defpoints
  6
Continuous
 62
     0
100
AcDbPoint
 10
-494.6238949179623
 20
1893.389125504515
 30
0.0
  0
ENDBLK
  5
1460
330
145E
100
AcDbEntity
  8
0
 62
     3
100
AcDbBlockEnd
  0
BLOCK
  5
1B3A
330
1B39
100
AcDbEntity
  8
0
 62
     7
100
AcDbBlockBegin
  2
*D46
 70
     1
 10
0.0
 20
0.0
 30
0.0
  3
*D46
  1

  0
MTEXT
  5
1B3C
330
1B39
100
AcDbEntity
  8
P-487B
  6
Continuous
 62
    30
100
AcDbMText
 10
1794.93186178411
 20
1710.827455285198
 30
0.0
 40
20.0
 41
0.0
 71
     5
 72
     1
  1
\A1;1000
  7
Stile_Quota_FISSO
 73
     1
 44
1.0
1001
ACAD
1000
MTEXTBEGIN
1070
    73
1070
     1
1070
    44
1040
1.0
1070
    74
1070
     0
1000
MTEXTEND
  0
POINT
  5
1B3D
330
1B39
100
AcDbEntity
  8
Defpoints
  6
Continuous
 62
     0
100
AcDbPoint
 10
1294.931861784109
 20
1722.051966505519
 30
0.0
  0
POINT
  5
1B3E
330
1B39
100
AcDbEntity
  8
Defpoints
  6
Continuous
 62
     0
100
AcDbPoint
 10
2294.93186178411
 20
1722.051966505519
 30
0.0
  0
POINT
  5
1B3F
330
1B39
100
AcDbEntity
  8
Defpoints
  6
Continuous
 62
     0
100
AcDbPoint
 10
2294.93186178411
 20
1710.827455285198
 30
0.0
  0
ENDBLK
  5
1B3B
330
1B39
100
AcDbEntity
  8
0
 62
     7
100
AcDbBlockEnd
  0
ENDSEC
  0
SECTION
  2
ENTITIES
  0
LINE
  5
CAE
330
2
100
AcDbEntity
  8
P-0497
  6
Continuous
 62
   144
100
AcDbLine
 10
143.9897948412635
 20
374.9999999625015
 30
0.0
 11
144.1933292870399
 21
374.9999999625015
 31
0.0
1001
OrigLayer
1000
P-0000
1001
TOP
1070
     7
  0
LINE
  5
CB0
330
2
100
AcDbEntity
  8
P-0497
  6
Continuous
 62
   144
100
AcDbLine
 10
147.9150262064986
 20
359.9999999640004
 30
0.0
 11
144.999999985499
 21
359.9999999640004
 31
0.0
1001
OrigLayer
1000
P-0000
1001
TOP
1070
     7
  0
ARC
  5
CB1
330
2
100
AcDbEntity
  8
P-0497
  6
Continuous
 62
   144
100
AcDbCircle
 10
249.999999975098
 20
249.9999999751017
 30
0.0
 40
4.999999999499999
100
AcDbArc
 50
0.0
 51
90.0
1001
OrigLayer
1000
P-0000
1001
TOP
1070
     7
  0
ARC
  5
CB2
330
2
100
AcDbEntity
  8
P-0497
  6
Continuous
 62
   144
100
AcDbCircle
 10
223.7865715703701
 20
279.9999999720021
 30
0.0
 40
4.999999999499999
100
AcDbArc
 50
270.0
 51
23.08793647696934
1001
OrigLayer
1000
P-0000
1001
TOP
1070
     7
  0
LINE
  5
CB3
330
2
100
AcDbEntity
  8
P-0497
  6
Continuous
 62
   144
100
AcDbLine
 10
199.9999999800002
 20
257.9999999743013
 30
0.0
 11
199.9999999800002
 21
254.9999999746014
 31
0.0
1001
OrigLayer
1000
P-0000
1001
TOP
1070
     7
  0
LINE
  5
CB4
330
2
100
AcDbEntity
  8
P-0497
  6
Continuous
 62
   144
100
AcDbLine
 10
149.9999999849997
 20
254.9999999746014
 30
0.0
 11
149.9999999849997
 21
257.9999999743013
 31
0.0
1001
OrigLayer
1000
P-0000
1001
TOP
1070
     7
  0
LINE
  5
CB5
330
2
100
AcDbEntity
  8
P-0497
  6
Continuous
 62
   144
100
AcDbLine
 10
149.9999999849997
 20
257.9999999743013
 30
0.0
 11
199.9999999800002
 21
257.9999999743013
 31
0.0
1001
OrigLayer
1000
P-0000
1001
TOP
1070
     7
  0
LINE
  5
CB6
330
2
100
AcDbEntity
  8
P-0497
  6
Continuous
 62
   144
100
AcDbLine
 10
199.9999999800002
 20
254.9999999746014
 30
0.0
 11
249.999999975098
 21
254.9999999746014
 31
0.0
1001
OrigLayer
1000
P-0000
1001
TOP
1070
     7
  0
ARC
  5
CB7
330
2
100
AcDbEntity
  8
P-0497
  6
Continuous
 62
   144
100
AcDbCircle
 10
94.99999999049851
 20
225.0999182163014
 30
0.0
 40
144.9999999855
100
AcDbArc
 50
23.08793647696934
 51
68.66402386406601
1001
OrigLayer
1000
P-0000
1001
TOP
1070
     7
  0
ARC
  5
CB8
330
2
100
AcDbEntity
  8
P-0497
  6
Continuous
 62
   144
100
AcDbCircle
 10
106.9999999892998
 20
372.9999999627016
 30
0.0
 40
1.999999999799999
100
AcDbArc
 50
90.0
 51
180.0
1001
OrigLayer
1000
P-0000
1001
TOP
1070
     7
  0
ARC
  5
CB9
330
2
100
AcDbEntity
  8
P-0497
  6
Continuous
 62
   144
100
AcDbCircle
 10
119.9999999879983
 20
354.9999999645006
 30
0.0
 40
4.999999999499999
100
AcDbArc
 50
0.0
 51
90.0
1001
OrigLayer
1000
P-0000
1001
TOP
1070
     7
  0
ARC
  5
CBA
330
2
100
AcDbEntity
  8
P-0497
  6
Continuous
 62
   144
100
AcDbCircle
 10
137.9999999861984
 20
326.9999999673018
 30
0.0
 40
1.999999999799999
100
AcDbArc
 50
270.0
 51
0.0
1001
OrigLayer
1000
P-0000
1001
TOP
1070
     7
  0
LINE
  5
CBB
330
2
100
AcDbEntity
  8
P-0497
  6
Continuous
 62
   144
100
AcDbLine
 10
126.9999999872989
 20
324.9999999674983
 30
0.0
 11
137.9999999861984
 21
324.9999999674983
 31
0.0
1001
OrigLayer
1000
P-0000
1001
TOP
1070
     7
  0
ARC
  5
CBC
330
2
100
AcDbEntity
  8
P-0497
  6
Continuous
 62
   144
100
AcDbCircle
 10
126.9999999872989
 20
326.9999999673018
 30
0.0
 40
1.999999999799999
100
AcDbArc
 50
180.0
 51
270.0
1001
OrigLayer
1000
P-0000
1001
TOP
1070
     7
  0
LINE
  5
CBD
330
2
100
AcDbEntity
  8
P-0497
  6
Continuous
 62
   144
100
AcDbLine
 10
124.9999999874981
 20
354.9999999645006
 30
0.0
 11
124.9999999874981
 21
326.9999999673018
 31
0.0
1001
OrigLayer
1000
P-0000
1001
TOP
1070
     7
  0
LINE
  5
CBE
330
2
100
AcDbEntity
  8
P-0497
  6
Continuous
 62
   144
100
AcDbLine
 10
139.9999999859992
 20
326.9999999673018
 30
0.0
 11
139.9999999859992
 21
354.9999999645006
 31
0.0
1001
OrigLayer
1000
P-0000
1001
TOP
1070
     7
  0
ARC
  5
CBF
330
2
100
AcDbEntity
  8
P-0497
  6
Continuous
 62
   144
100
AcDbCircle
 10
106.9999999892998
 20
361.9999999638003
 30
0.0
 40
1.999999999799999
100
AcDbArc
 50
180.0
 51
270.0
1001
OrigLayer
1000
P-0000
1001
TOP
1070
     7
  0
LINE
  5
CC0
330
2
100
AcDbEntity
  8
P-0497
  6
Continuous
 62
   144
100
AcDbLine
 10
119.9999999879983
 20
359.9999999640004
 30
0.0
 11
106.9999999892998
 21
359.9999999640004
 31
0.0
1001
OrigLayer
1000
P-0000
1001
TOP
1070
     7
  0
LINE
  5
CC1
330
2
100
AcDbEntity
  8
P-0497
  6
Continuous
 62
   144
100
AcDbLine
 10
104.999999989499
 20
372.9999999627016
 30
0.0
 11
104.999999989499
 21
361.9999999638003
 31
0.0
1001
OrigLayer
1000
P-0000
1001
TOP
1070
     7
  0
LINE
  5
CC2
330
2
100
AcDbEntity
  8
P-0497
  6
Continuous
 62
   144
100
AcDbLine
 10
99.99999998999919
 20
257.9999999743013
 30
0.0
 11
99.99999998999919
 21
254.9999999746014
 31
0.0
1001
OrigLayer
1000
P-0000
1001
TOP
1070
     7
  0
LINE
  5
CC3
330
2
100
AcDbEntity
  8
P-0497
  6
Continuous
 62
   144
100
AcDbLine
 10
34.99999999649936
 20
279.9999999720021
 30
0.0
 11
34.99999999649936
 21
284.9999999710017
 31
0.0
1001
OrigLayer
1000
P-0000
1001
TOP
1070
     7
  0
ARC
  5
CC4
330
2
100
AcDbEntity
  8
P-0497
  6
Continuous
 62
   144
100
AcDbCircle
 10
29.99999999699958
 20
284.9999999710017
 30
0.0
 40
4.999999999499999
100
AcDbArc
 50
0.0
 51
90.0
1001
OrigLayer
1000
P-0000
1001
TOP
1070
     7
  0
LINE
  5
CC5
330
2
100
AcDbEntity
  8
P-0497
  6
Continuous
 62
   144
100
AcDbLine
 10
69.99999999299871
 20
269.9999999730025
 30
0.0
 11
64.98849950525801
 21
274.9999999725005
 31
0.0
1001
OrigLayer
1000
P-0000
1001
TOP
1070
     7
  0
LINE
  5
CC6
330
2
100
AcDbEntity
  8
P-0497
  6
Continuous
 62
   144
100
AcDbLine
 10
69.99999999299871
 20
269.9999999730025
 30
0.0
 11
74.95428625146178
 21
274.9999999725005
 31
0.0
1001
OrigLayer
1000
P-0000
1001
TOP
1070
     7
  0
LINE
  5
CC7
330
2
100
AcDbEntity
  8
P-0497
  6
Continuous
 62
   144
100
AcDbLine
 10
49.99999999499959
 20
254.9999999746014
 30
0.0
 11
49.99999999499959
 21
257.9999999743013
 31
0.0
1001
OrigLayer
1000
P-0000
1001
TOP
1070
     7
  0
LINE
  5
CC8
330
2
100
AcDbEntity
  8
P-0497
  6
Continuous
 62
   144
100
AcDbLine
 10
39.99999999599913
 20
274.9999999725005
 30
0.0
 11
64.98849950525801
 21
274.9999999725005
 31
0.0
1001
OrigLayer
1000
P-0000
1001
TOP
1070
     7
  0
ARC
  5
CC9
330
2
100
AcDbEntity
  8
P-0497
  6
Continuous
 62
   144
100
AcDbCircle
 10
39.99999999599913
 20
279.9999999720021
 30
0.0
 40
4.999999999499999
100
AcDbArc
 50
180.0
 51
270.0
1001
OrigLayer
1000
P-0000
1001
TOP
1070
     7
  0
LINE
  5
CCA
330
2
100
AcDbEntity
  8
P-0497
  6
Continuous
 62
   144
100
AcDbLine
 10
49.99999999499959
 20
257.9999999743013
 30
0.0
 11
99.99999998999919
 21
257.9999999743013
 31
0.0
1001
OrigLayer
1000
P-0000
1001
TOP
1070
     7
  0
LINE
  5
CCB
330
2
100
AcDbEntity
  8
P-0497
  6
Continuous
 62
   144
100
AcDbLine
 10
143.9897948412635
 20
374.9999999625015
 30
0.0
 11
106.9999999892998
 21
374.9999999625015
 31
0.0
1001
OrigLayer
1000
P-0000
1001
TOP
1070
     7
  0
LINE
  5
CCC
330
2
100
AcDbEntity
  8
P-0497
  6
Continuous
 62
   144
100
AcDbLine
 10
99.99999998999919
 20
254.9999999746014
 30
0.0
 11
149.9999999849997
 21
254.9999999746014
 31
0.0
1001
OrigLayer
1000
P-0000
1001
TOP
1070
     7
  0
LINE
  5
CCD
330
2
100
AcDbEntity
  8
P-0497
  6
Continuous
 62
   144
100
AcDbLine
 10
74.95428625146178
 20
274.9999999725005
 30
0.0
 11
223.7865715703701
 21
274.9999999725005
 31
0.0
1001
OrigLayer
1000
P-0000
1001
TOP
1070
     7
  0
ARC
  5
CCE
330
2
100
AcDbEntity
  8
P-0497
  6
Continuous
 62
   144
100
AcDbCircle
 10
144.999999985499
 20
354.9999999645006
 30
0.0
 40
4.999999999499999
100
AcDbArc
 50
90.0
 51
180.0
1001
OrigLayer
1000
P-0000
1001
TOP
1070
     7
  0
LINE
  5
CCF
330
2
100
AcDbEntity
  8
P-0497
  6
Continuous
 62
   144
100
AcDbLine
 10
2.750502009779665
 20
404.9999999595002
 30
0.0
 11
4.999999999499777
 21
404.9999999595002
 31
0.0
1001
OrigLayer
1000
P-0000
1001
TOP
1070
     7
  0
LINE
  5
CD0
330
2
100
AcDbEntity
  8
P-0497
  6
Continuous
 62
   144
100
AcDbLine
 10
4.999999999499777
 20
404.9999999595002
 30
0.0
 11
4.999999999499777
 21
384.9999999615011
 31
0.0
1001
OrigLayer
1000
P-0000
1001
TOP
1070
     7
  0
ARC
  5
CD1
330
2
100
AcDbEntity
  8
P-0497
  6
Continuous
 62
   144
100
AcDbCircle
 10
64.99999999349893
 20
339.9999999660013
 30
0.0
 40
89.99999999099999
100
AcDbArc
 50
133.7617426926473
 51
180.0
1001
OrigLayer
1000
P-0000
1001
TOP
1070
     7
  0
ARC
  5
CD2
330
2
100
AcDbEntity
  8
P-0497
  6
Continuous
 62
   144
100
AcDbCircle
 10
64.99999999349893
 20
339.9999999660013
 30
0.0
 40
74.99999999249999
100
AcDbArc
 50
143.1301023541768
 51
180.0
1001
OrigLayer
1000
P-0000
1001
TOP
1070
     7
  0
ARC
  5
CD3
330
2
100
AcDbEntity
  8
P-0497
  6
Continuous
 62
   144
100
AcDbCircle
 10
-4.999999999499777
 20
294.9999999700012
 30
0.0
 40
4.999999999499999
100
AcDbArc
 50
180.0
 51
270.0
1001
OrigLayer
1000
P-0000
1001
TOP
1070
     7
  0
ARC
  5
CD4
330
2
100
AcDbEntity
  8
P-0497
  6
Continuous
 62
   144
100
AcDbCircle
 10
-0.0000000001018634
 20
249.9999999751017
 30
0.0
 40
4.999999999499999
100
AcDbArc
 50
90.0
 51
180.0
1001
OrigLayer
1000
P-0000
1001
TOP
1070
     7
  0
LINE
  5
CD5
330
2
100
AcDbEntity
  8
P-0497
  6
Continuous
 62
   144
100
AcDbLine
 10
-19.99999999800093
 20
274.9999999725005
 30
0.0
 11
-24.99999999750071
 21
269.9947217755907
 31
0.0
1001
OrigLayer
1000
P-0000
1001
TOP
1070
     7
  0
LINE
  5
CD6
330
2
100
AcDbEntity
  8
P-0497
  6
Continuous
 62
   144
100
AcDbLine
 10
-19.99999999800093
 20
274.9999999725005
 30
0.0
 11
-24.99999999750071
 21
280.0324924648867
 31
0.0
1001
OrigLayer
1000
P-0000
1001
TOP
1070
     7
  0
LINE
  5
CD7
330
2
100
AcDbEntity
  8
P-0497
  6
Continuous
 62
   144
100
AcDbLine
 10
-9.999999999001374
 20
339.9999999660013
 30
0.0
 11
-9.999999999001317
 21
294.9999999700012
 31
0.0
1001
OrigLayer
1000
P-0000
1001
TOP
1070
     7
  0
LINE
  5
CD8
330
2
100
AcDbEntity
  8
P-0497
  6
Continuous
 62
   144
100
AcDbLine
 10
-24.99999999750071
 20
280.0324924648867
 30
0.0
 11
-24.99999999750071
 21
339.9999999660013
 31
0.0
1001
OrigLayer
1000
P-0000
1001
TOP
1070
     7
  0
LINE
  5
CD9
330
2
100
AcDbEntity
  8
P-0497
  6
Continuous
 62
   144
100
AcDbLine
 10
49.99999999499959
 20
254.9999999746014
 30
0.0
 11
-0.0000000001018634
 21
254.9999999746014
 31
0.0
1001
OrigLayer
1000
P-0000
1001
TOP
1070
     7
  0
LINE
  5
CDA
330
2
100
AcDbEntity
  8
P-0497
  6
Continuous
 62
   144
100
AcDbLine
 10
-4.999999999499777
 20
289.9999999704996
 30
0.0
 11
29.99999999699958
 21
289.9999999704996
 31
0.0
1001
OrigLayer
1000
P-0000
1001
TOP
1070
     7
  0
ARC
  5
CDB
330
2
100
AcDbEntity
  8
P-0497
  6
Continuous
 62
   144
100
AcDbCircle
 10
94.99999999049851
 20
175.0999182212981
 30
0.0
 40
205.8640967420414
100
AcDbArc
 50
29.03029457920196
 51
76.1748203175329
1001
OrigLayer
1000
P-0000
1001
TOP
1070
     7
  0
ARC
  5
CDC
330
2
100
AcDbEntity
  8
P-0497
  6
Continuous
 62
   144
100
AcDbCircle
 10
279.9999999719985
 20
223.786571570372
 30
0.0
 40
4.999999999499999
100
AcDbArc
 50
66.91206352304263
 51
180.0
1001
OrigLayer
1000
P-0000
1001
TOP
1070
     7
  0
LINE
  5
CDD
330
2
100
AcDbEntity
  8
P-0497
  6
Continuous
 62
   144
100
AcDbLine
 10
374.9999999624988
 20
143.9897948412654
 30
0.0
 11
374.9999999624988
 21
144.1933292870435
 31
0.0
1001
OrigLayer
1000
P-0000
1001
TOP
1070
     7
  0
ARC
  5
CDE
330
2
100
AcDbEntity
  8
P-0497
  6
Continuous
 62
   144
100
AcDbCircle
 10
372.999999962698
 20
106.9999999893007
 30
0.0
 40
1.999999999799999
100
AcDbArc
 50
270.0
 51
0.0
1001
OrigLayer
1000
P-0000
1001
TOP
1070
     7
  0
ARC
  5
CDF
330
2
100
AcDbEntity
  8
P-0497
  6
Continuous
 62
   144
100
AcDbCircle
 10
361.9999999638003
 20
106.9999999893007
 30
0.0
 40
1.999999999799999
100
AcDbArc
 50
180.0
 51
270.0
1001
OrigLayer
1000
P-0000
1001
TOP
1070
     7
  0
LINE
  5
CE0
330
2
100
AcDbEntity
  8
P-0497
  6
Continuous
 62
   144
100
AcDbLine
 10
359.9999999639986
 20
119.9999999879983
 30
0.0
 11
359.9999999639986
 21
106.9999999893007
 31
0.0
1001
OrigLayer
1000
P-0000
1001
TOP
1070
     7
  0
LINE
  5
CE1
330
2
100
AcDbEntity
  8
P-0497
  6
Continuous
 62
   144
100
AcDbLine
 10
372.999999962698
 20
104.9999999895008
 30
0.0
 11
361.9999999638003
 21
104.9999999895008
 31
0.0
1001
OrigLayer
1000
P-0000
1001
TOP
1070
     7
  0
LINE
  5
CE2
330
2
100
AcDbEntity
  8
P-0497
  6
Continuous
 62
   144
100
AcDbLine
 10
374.9999999624988
 20
143.9897948412654
 30
0.0
 11
374.9999999624988
 21
106.9999999893007
 31
0.0
1001
OrigLayer
1000
P-0000
1001
TOP
1070
     7
  0
LINE
  5
CE3
330
2
100
AcDbEntity
  8
P-0497
  6
Continuous
 62
   144
100
AcDbLine
 10
326.9999999672991
 20
139.999999986001
 30
0.0
 11
354.9999999644997
 21
139.999999986001
 31
0.0
1001
OrigLayer
1000
P-0000
1001
TOP
1070
     7
  0
LINE
  5
CE4
330
2
100
AcDbEntity
  8
P-0497
  6
Continuous
 62
   144
100
AcDbLine
 10
354.9999999644997
 20
124.9999999874999
 30
0.0
 11
326.9999999672991
 21
124.9999999874999
 31
0.0
1001
OrigLayer
1000
P-0000
1001
TOP
1070
     7
  0
ARC
  5
CE5
330
2
100
AcDbEntity
  8
P-0497
  6
Continuous
 62
   144
100
AcDbCircle
 10
354.9999999644997
 20
119.9999999879983
 30
0.0
 40
4.999999999499999
100
AcDbArc
 50
0.0
 51
90.0
1001
OrigLayer
1000
P-0000
1001
TOP
1070
     7
  0
ARC
  5
CE6
330
2
100
AcDbEntity
  8
P-0497
  6
Continuous
 62
   144
100
AcDbCircle
 10
354.9999999644997
 20
144.9999999855008
 30
0.0
 40
4.999999999499999
100
AcDbArc
 50
270.0
 51
0.0
1001
OrigLayer
1000
P-0000
1001
TOP
1070
     7
  0
LINE
  5
CE7
330
2
100
AcDbEntity
  8
P-0497
  6
Continuous
 62
   144
100
AcDbLine
 10
324.9999999675001
 20
126.9999999873016
 30
0.0
 11
324.9999999675001
 21
137.9999999862011
 31
0.0
1001
OrigLayer
1000
P-0000
1001
TOP
1070
     7
  0
LINE
  5
CE8
330
2
100
AcDbEntity
  8
P-0497
  6
Continuous
 62
   144
100
AcDbLine
 10
269.9999999729989
 20
69.99999999300053
 30
0.0
 11
274.9999999724996
 21
64.98849950525983
 31
0.0
1001
OrigLayer
1000
P-0000
1001
TOP
1070
     7
  0
LINE
  5
CE9
330
2
100
AcDbEntity
  8
P-0497
  6
Continuous
 62
   144
100
AcDbLine
 10
269.9999999729989
 20
69.99999999300053
 30
0.0
 11
274.9999999724987
 21
74.95428625146451
 31
0.0
1001
OrigLayer
1000
P-0000
1001
TOP
1070
     7
  0
ARC
  5
CEA
330
2
100
AcDbEntity
  8
P-0497
  6
Continuous
 62
   144
100
AcDbCircle
 10
326.9999999672991
 20
126.9999999873016
 30
0.0
 40
1.999999999799999
100
AcDbArc
 50
180.0
 51
270.0
1001
OrigLayer
1000
P-0000
1001
TOP
1070
     7
  0
ARC
  5
CEB
330
2
100
AcDbEntity
  8
P-0497
  6
Continuous
 62
   144
100
AcDbCircle
 10
326.9999999672991
 20
137.9999999862011
 30
0.0
 40
1.999999999799999
100
AcDbArc
 50
90.0
 51
180.0
1001
OrigLayer
1000
P-0000
1001
TOP
1070
     7
  0
LINE
  5
CEC
330
2
100
AcDbEntity
  8
P-0497
  6
Continuous
 62
   144
100
AcDbLine
 10
274.9999999724987
 20
74.95428625146451
 30
0.0
 11
274.9999999724987
 21
223.786571570372
 31
0.0
1001
OrigLayer
1000
P-0000
1001
TOP
1070
     7
  0
LINE
  5
CED
330
2
100
AcDbEntity
  8
P-0497
  6
Continuous
 62
   144
100
AcDbLine
 10
359.9999999639986
 20
147.9150262065013
 30
0.0
 11
359.9999999639986
 21
144.9999999855008
 31
0.0
1001
OrigLayer
1000
P-0000
1001
TOP
1070
     7
  0
LINE
  5
CEE
330
2
100
AcDbEntity
  8
P-0497
  6
Continuous
 62
   144
100
AcDbLine
 10
404.9999999595002
 20
2.750502009781484
 30
0.0
 11
404.9999999595002
 21
4.999999999499777
 31
0.0
1001
OrigLayer
1000
P-0000
1001
TOP
1070
     7
  0
ARC
  5
CEF
330
2
100
AcDbEntity
  8
P-0497
  6
Continuous
 62
   144
100
AcDbCircle
 10
339.9999999659994
 20
64.99999999350257
 30
0.0
 40
74.99999999249999
100
AcDbArc
 50
270.0
 51
306.8698976458675
1001
OrigLayer
1000
P-0000
1001
TOP
1070
     7
  0
LINE
  5
CF0
330
2
100
AcDbEntity
  8
P-0497
  6
Continuous
 62
   144
100
AcDbLine
 10
279.9999999719994
 20
34.99999999650027
 30
0.0
 11
289.999999970999
 21
34.99999999650027
 31
0.0
1001
OrigLayer
1000
P-0000
1001
TOP
1070
     7
  0
ARC
  5
CF1
330
2
100
AcDbEntity
  8
P-0497
  6
Continuous
 62
   144
100
AcDbCircle
 10
279.9999999719994
 20
39.99999999600004
 30
0.0
 40
4.999999999499999
100
AcDbArc
 50
180.0
 51
270.0
1001
OrigLayer
1000
P-0000
1001
TOP
1070
     7
  0
ARC
  5
CF2
330
2
100
AcDbEntity
  8
P-0497
  6
Continuous
 62
   144
100
AcDbCircle
 10
289.999999970999
 20
29.99999999700049
 30
0.0
 40
4.999999999499999
100
AcDbArc
 50
0.0
 51
90.0
1001
OrigLayer
1000
P-0000
1001
TOP
1070
     7
  0
LINE
  5
CF3
330
2
100
AcDbEntity
  8
P-0497
  6
Continuous
 62
   144
100
AcDbLine
 10
274.9999999724996
 20
-19.99999999799911
 30
0.0
 11
269.9947217755871
 21
-24.99999999749889
 31
0.0
1001
OrigLayer
1000
P-0000
1001
TOP
1070
     7
  0
LINE
  5
CF4
330
2
100
AcDbEntity
  8
P-0497
  6
Continuous
 62
   144
100
AcDbLine
 10
274.9999999724996
 20
-19.99999999799911
 30
0.0
 11
280.0324924648858
 21
-24.99999999749889
 31
0.0
1001
OrigLayer
1000
P-0000
1001
TOP
1070
     7
  0
ARC
  5
CF5
330
2
100
AcDbEntity
  8
P-0497
  6
Continuous
 62
   144
100
AcDbCircle
 10
299.9999999699994
 20
-4.999999999499777
 30
0.0
 40
4.999999999499999
100
AcDbArc
 50
180.0
 51
270.0
1001
OrigLayer
1000
P-0000
1001
TOP
1070
     7
  0
LINE
  5
CF6
330
2
100
AcDbEntity
  8
P-0497
  6
Continuous
 62
   144
100
AcDbLine
 10
294.9999999704996
 20
-4.999999999499777
 30
0.0
 11
294.9999999704996
 21
29.99999999700049
 31
0.0
1001
OrigLayer
1000
P-0000
1001
TOP
1070
     7
  0
LINE
  5
CF7
330
2
100
AcDbEntity
  8
P-0497
  6
Continuous
 62
   144
100
AcDbLine
 10
280.0324924648858
 20
-24.99999999749889
 30
0.0
 11
339.9999999659994
 21
-24.99999999749889
 31
0.0
1001
OrigLayer
1000
P-0000
1001
TOP
1070
     7
  0
LINE
  5
CF8
330
2
100
AcDbEntity
  8
P-0497
  6
Continuous
 62
   144
100
AcDbLine
 10
339.9999999659994
 20
-9.999999998999555
 30
0.0
 11
299.9999999699994
 21
-9.999999998999555
 31
0.0
1001
OrigLayer
1000
P-0000
1001
TOP
1070
     7
  0
ARC
  5
CF9
330
2
100
AcDbEntity
  8
P-0497
  6
Continuous
 62
   144
100
AcDbCircle
 10
339.9999999659994
 20
64.99999999350257
 30
0.0
 40
89.99999999099999
100
AcDbArc
 50
270.0
 51
316.2382573073365
1001
OrigLayer
1000
P-0000
1001
TOP
1070
     7
  0
LINE
  5
CFA
330
2
100
AcDbEntity
  8
P-0497
  6
Continuous
 62
   144
100
AcDbLine
 10
404.9999999595002
 20
4.999999999499777
 30
0.0
 11
384.9999999614993
 21
4.999999999499777
 31
0.0
1001
OrigLayer
1000
P-0000
1001
TOP
1070
     7
  0
LINE
  5
CFB
330
2
100
AcDbEntity
  8
P-0497
  6
Continuous
 62
   144
100
AcDbLine
 10
274.9999999724996
 20
39.99999999600004
 30
0.0
 11
274.9999999724996
 21
64.98849950525983
 31
0.0
1001
OrigLayer
1000
P-0000
1001
TOP
1070
     7
  0
LINE
  5
CFC
330
2
100
AcDbEntity
  8
P-0497
  6
Continuous
 62
   144
100
AcDbLine
 10
257.9999999742986
 20
199.9999999800002
 30
0.0
 11
254.9999999745978
 21
199.9999999800002
 31
0.0
1001
OrigLayer
1000
P-0000
1001
TOP
1070
     7
  0
LINE
  5
CFD
330
2
100
AcDbEntity
  8
P-0497
  6
Continuous
 62
   144
100
AcDbLine
 10
254.9999999745978
 20
149.9999999850006
 30
0.0
 11
257.9999999742986
 21
149.9999999850006
 31
0.0
1001
OrigLayer
1000
P-0000
1001
TOP
1070
     7
  0
LINE
  5
CFE
330
2
100
AcDbEntity
  8
P-0497
  6
Continuous
 62
   144
100
AcDbLine
 10
257.9999999742986
 20
149.9999999850006
 30
0.0
 11
257.9999999742986
 21
199.9999999800002
 31
0.0
1001
OrigLayer
1000
P-0000
1001
TOP
1070
     7
  0
LINE
  5
CFF
330
2
100
AcDbEntity
  8
P-0497
  6
Continuous
 62
   144
100
AcDbLine
 10
257.9999999742986
 20
99.99999998999919
 30
0.0
 11
254.9999999745978
 21
99.99999998999919
 31
0.0
1001
OrigLayer
1000
P-0000
1001
TOP
1070
     7
  0
LINE
  5
D00
330
2
100
AcDbEntity
  8
P-0497
  6
Continuous
 62
   144
100
AcDbLine
 10
254.9999999745978
 20
99.99999998999919
 30
0.0
 11
254.9999999745978
 21
149.9999999850006
 31
0.0
1001
OrigLayer
1000
P-0000
1001
TOP
1070
     7
  0
LINE
  5
D01
330
2
100
AcDbEntity
  8
P-0497
  6
Continuous
 62
   144
100
AcDbLine
 10
254.9999999745978
 20
49.99999999499959
 30
0.0
 11
257.9999999742986
 21
49.99999999499959
 31
0.0
1001
OrigLayer
1000
P-0000
1001
TOP
1070
     7
  0
ARC
  5
D02
330
2
100
AcDbEntity
  8
P-0497
  6
Continuous
 62
   144
100
AcDbCircle
 10
249.999999975098
 20
-0.0000000001018634
 30
0.0
 40
4.999999999499999
100
AcDbArc
 50
270.0
 51
0.0
1001
OrigLayer
1000
P-0000
1001
TOP
1070
     7
  0
LINE
  5
D03
330
2
100
AcDbEntity
  8
P-0497
  6
Continuous
 62
   144
100
AcDbLine
 10
254.9999999745978
 20
-0.0000000001018634
 30
0.0
 11
254.9999999745978
 21
49.99999999499959
 31
0.0
1001
OrigLayer
1000
P-0000
1001
TOP
1070
     7
  0
LINE
  5
D04
330
2
100
AcDbEntity
  8
P-0497
  6
Continuous
 62
   144
100
AcDbLine
 10
199.9999999800002
 20
-7.999999999299689
 30
0.0
 11
199.9999999800002
 21
-4.999999999599822
 31
0.0
1001
OrigLayer
1000
P-0000
1001
TOP
1070
     7
  0
LINE
  5
D05
330
2
100
AcDbEntity
  8
P-0497
  6
Continuous
 62
   144
100
AcDbLine
 10
149.9999999849997
 20
-4.999999999599822
 30
0.0
 11
149.9999999849997
 21
-7.999999999299689
 31
0.0
1001
OrigLayer
1000
P-0000
1001
TOP
1070
     7
  0
LINE
  5
D06
330
2
100
AcDbEntity
  8
P-0497
  6
Continuous
 62
   144
100
AcDbLine
 10
149.9999999849997
 20
-7.999999999299689
 30
0.0
 11
199.9999999800002
 21
-7.999999999299689
 31
0.0
1001
OrigLayer
1000
P-0000
1001
TOP
1070
     7
  0
LINE
  5
D07
330
2
100
AcDbEntity
  8
P-0497
  6
Continuous
 62
   144
100
AcDbLine
 10
199.9999999800002
 20
-4.999999999599822
 30
0.0
 11
249.999999975098
 21
-4.999999999599822
 31
0.0
1001
OrigLayer
1000
P-0000
1001
TOP
1070
     7
  0
LINE
  5
D08
330
2
100
AcDbEntity
  8
P-0497
  6
Continuous
 62
   144
100
AcDbLine
 10
99.99999998999919
 20
-7.999999999299689
 30
0.0
 11
99.99999998999919
 21
-4.999999999599822
 31
0.0
1001
OrigLayer
1000
P-0000
1001
TOP
1070
     7
  0
LINE
  5
D09
330
2
100
AcDbEntity
  8
P-0497
  6
Continuous
 62
   144
100
AcDbLine
 10
49.99999999499959
 20
-4.999999999599822
 30
0.0
 11
49.99999999499959
 21
-7.999999999299689
 31
0.0
1001
OrigLayer
1000
P-0000
1001
TOP
1070
     7
  0
LINE
  5
D0A
330
2
100
AcDbEntity
  8
P-0497
  6
Continuous
 62
   144
100
AcDbLine
 10
49.99999999499959
 20
-7.999999999299689
 30
0.0
 11
99.99999998999919
 21
-7.999999999299689
 31
0.0
1001
OrigLayer
1000
P-0000
1001
TOP
1070
     7
  0
LINE
  5
D0B
330
2
100
AcDbEntity
  8
P-0497
  6
Continuous
 62
   144
100
AcDbLine
 10
99.99999998999919
 20
-4.999999999599822
 30
0.0
 11
149.9999999849997
 21
-4.999999999599822
 31
0.0
1001
OrigLayer
1000
P-0000
1001
TOP
1070
     7
  0
LINE
  5
D0C
330
2
100
AcDbEntity
  8
P-0497
  6
Continuous
 62
   144
100
AcDbLine
 10
257.9999999742986
 20
49.99999999499959
 30
0.0
 11
257.9999999742986
 21
99.99999998999919
 31
0.0
1001
OrigLayer
1000
P-0000
1001
TOP
1070
     7
  0
LINE
  5
D0D
330
2
100
AcDbEntity
  8
P-0497
  6
Continuous
 62
   144
100
AcDbLine
 10
-4.999999999601641
 20
199.9999999800002
 30
0.0
 11
-7.999999999300598
 21
199.9999999800002
 31
0.0
1001
OrigLayer
1000
P-0000
1001
TOP
1070
     7
  0
LINE
  5
D0E
330
2
100
AcDbEntity
  8
P-0497
  6
Continuous
 62
   144
100
AcDbLine
 10
-7.999999999300598
 20
149.9999999850006
 30
0.0
 11
-4.999999999601641
 21
149.9999999850006
 31
0.0
1001
OrigLayer
1000
P-0000
1001
TOP
1070
     7
  0
LINE
  5
D0F
330
2
100
AcDbEntity
  8
P-0497
  6
Continuous
 62
   144
100
AcDbLine
 10
-7.999999999300598
 20
199.9999999800002
 30
0.0
 11
-7.999999999300598
 21
149.9999999850006
 31
0.0
1001
OrigLayer
1000
P-0000
1001
TOP
1070
     7
  0
LINE
  5
D10
330
2
100
AcDbEntity
  8
P-0497
  6
Continuous
 62
   144
100
AcDbLine
 10
-4.999999999601641
 20
99.99999998999919
 30
0.0
 11
-7.999999999300598
 21
99.99999998999919
 31
0.0
1001
OrigLayer
1000
P-0000
1001
TOP
1070
     7
  0
LINE
  5
D11
330
2
100
AcDbEntity
  8
P-0497
  6
Continuous
 62
   144
100
AcDbLine
 10
-4.999999999601641
 20
149.9999999850006
 30
0.0
 11
-4.999999999601641
 21
99.99999998999919
 31
0.0
1001
OrigLayer
1000
P-0000
1001
TOP
1070
     7
  0
LINE
  5
D12
330
2
100
AcDbEntity
  8
P-0497
  6
Continuous
 62
   144
100
AcDbLine
 10
-7.999999999300598
 20
49.99999999499959
 30
0.0
 11
-4.999999999601641
 21
49.99999999499959
 31
0.0
1001
OrigLayer
1000
P-0000
1001
TOP
1070
     7
  0
ARC
  5
D13
330
2
100
AcDbEntity
  8
P-0497
  6
Continuous
 62
   144
100
AcDbCircle
 10
-0.0000000001018634
 20
-0.0000000001018634
 30
0.0
 40
4.999999999499999
100
AcDbArc
 50
180.0
 51
270.0
1001
OrigLayer
1000
P-0000
1001
TOP
1070
     7
  0
ARC
  5
D14
330
2
100
AcDbEntity
  8
P-0497
  6
Continuous
 62
   144
100
AcDbCircle
 10
0.0
 20
0.0
 30
0.0
 40
24.9999999975
100
AcDbArc
 50
180.0
 51
270.0
1001
OrigLayer
1000
P-0000
1001
TOP
1070
     7
  0
LINE
  5
D15
330
2
100
AcDbEntity
  8
P-0497
  6
Continuous
 62
   144
100
AcDbLine
 10
-4.999999999601641
 20
49.99999999499959
 30
0.0
 11
-4.999999999601641
 21
-0.0000000001018634
 31
0.0
1001
OrigLayer
1000
P-0000
1001
TOP
1070
     7
  0
LINE
  5
D16
330
2
100
AcDbEntity
  8
P-0497
  6
Continuous
 62
   144
100
AcDbLine
 10
-7.999999999300598
 20
99.99999998999919
 30
0.0
 11
-7.999999999300598
 21
49.99999999499959
 31
0.0
1001
OrigLayer
1000
P-0000
1001
TOP
1070
     7
  0
LINE
  5
D17
330
2
100
AcDbEntity
  8
P-0497
  6
Continuous
 62
   144
100
AcDbLine
 10
0.0
 20
-24.99999999749889
 30
0.0
 11
249.9999999749998
 21
-24.99999999749889
 31
0.0
1001
OrigLayer
1000
P-0000
1001
TOP
1070
     7
  0
LINE
  5
D18
330
2
100
AcDbEntity
  8
P-0497
  6
Continuous
 62
   144
100
AcDbLine
 10
-0.0000000001018634
 20
-4.999999999599822
 30
0.0
 11
49.99999999499959
 21
-4.999999999599822
 31
0.0
1001
OrigLayer
1000
P-0000
1001
TOP
1070
     7
  0
LINE
  5
D19
330
2
100
AcDbEntity
  8
P-0497
  6
Continuous
 62
   144
100
AcDbLine
 10
269.9947217755871
 20
-24.99999999749889
 30
0.0
 11
249.9999999749998
 21
-24.99999999749889
 31
0.0
1001
OrigLayer
1000
P-0000
1001
TOP
1070
     7
  0
LINE
  5
D1A
330
2
100
AcDbEntity
  8
P-0497
  6
Continuous
 62
   144
100
AcDbLine
 10
254.9999999745978
 20
199.9999999800002
 30
0.0
 11
254.9999999745978
 21
249.9999999751017
 31
0.0
1001
OrigLayer
1000
P-0000
1001
TOP
1070
     7
  0
LINE
  5
D1B
330
2
100
AcDbEntity
  8
P-0497
  6
Continuous
 62
   144
100
AcDbLine
 10
-4.999999999601641
 20
249.9999999751017
 30
0.0
 11
-4.999999999601641
 21
199.9999999800002
 31
0.0
1001
OrigLayer
1000
P-0000
1001
TOP
1070
     7
  0
LINE
  5
D1C
330
2
100
AcDbEntity
  8
P-0497
  6
Continuous
 62
   144
100
AcDbLine
 10
-24.99999999750071
 20
269.9947217755907
 30
0.0
 11
-24.99999999750071
 21
0.0
 31
0.0
1001
OrigLayer
1000
P-0000
1001
TOP
1070
     7
  0
ARC
  5
D1D
330
2
100
AcDbEntity
  8
P-0497
  6
Continuous
 62
   144
100
AcDbCircle
 10
175.0999182212981
 20
94.99999999050123
 30
0.0
 40
205.8640967420414
100
AcDbArc
 50
13.82517968243945
 51
60.96970542082272
1001
OrigLayer
1000
P-0000
1001
TOP
1070
     7
  0
ARC
  5
D1E
330
2
100
AcDbEntity
  8
P-0497
  6
Continuous
 62
   144
100
AcDbCircle
 10
225.0999182162987
 20
94.99999999050123
 30
0.0
 40
144.9999999855
100
AcDbArc
 50
21.33597613589285
 51
66.91206352304263
1001
OrigLayer
1000
P-0000
1001
TOP
1070
     7
  0
ENDSEC
  0
SECTION
  2
OBJECTS
  0
DICTIONARY
  5
1A
330
0
100
AcDbDictionary
281
     1
  3
ACAD_2007HEADERVARS_RT
350
1B84
  3
ACAD_COLOR
350
2C5
  3
ACAD_GROUP
350
18
  3
ACAD_LAYOUT
350
45
  3
ACAD_MATERIAL
350
2B0
  3
ACAD_MLEADERSTYLE
350
354
  3
ACAD_MLINESTYLE
350
19
  3
ACAD_PLOTSETTINGS
350
46
  3
ACAD_PLOTSTYLENAME
350
43
  3
ACAD_SCALELIST
350
332
  3
ACAD_TABLESTYLE
350
2C6
  3
ACAD_VISUALSTYLE
350
2B4
  3
ACDB_RECOMPOSE_DATA
350
1B82
  3
AcDbVariableDictionary
350
2AA
  3
AEC_PROPERTY_SET_DEFS
350
9BC
  3
DWGPROPS
350
1B83
  3
qs_topprt_diz
350
50
  3
QSCATDICT
350
6D9
  3
QsPallStyleDict
350
828
  3
QsTop499
350
1B5E
  3
TopSpotLight
350
6E0
  0
DICTIONARY
  5
300
330
12
100
AcDbDictionary
280
     1
281
     1
  0
DICTIONARY
  5
B72
330
A
100
AcDbDictionary
280
     1
281
     1
  3
ACAD_LAYERSTATES
360
B73
  0
DICTIONARY
  5
37B
330
4
100
AcDbDictionary
280
     1
281
     1
  3
ADSK_XREC_LAYER_RECONCILED
360
16B9
  0
DICTIONARY
  5
16BA
330
6DB
100
AcDbDictionary
280
     1
281
     1
  3
ADSK_XREC_LAYER_RECONCILED
360
16BB
  0
DICTIONARY
  5
16BC
330
B5D
100
AcDbDictionary
280
     1
281
     1
  3
ADSK_XREC_LAYER_RECONCILED
360
16BD
  0
DICTIONARY
  5
16BE
330
D22
100
AcDbDictionary
280
     1
281
     1
  3
ADSK_XREC_LAYER_RECONCILED
360
16BF
  0
DICTIONARY
  5
16C0
330
16A8
100
AcDbDictionary
280
     1
281
     1
  3
ADSK_XREC_LAYER_RECONCILED
360
16C1
  0
DICTIONARY
  5
193E
330
193D
100
AcDbDictionary
280
     1
281
     1
  0
DICTIONARY
  5
C8D
330
B74
100
AcDbDictionary
280
     1
281
     1
  3
ACAD_SORTENTS
360
C8E
  0
DICTIONARY
  5
1B84
102
{ACAD_REACTORS
330
1A
102
}
330
1A
100
AcDbDictionary
281
     1
  3
INTERFEREVPVS
350
1B85
  0
DICTIONARY
  5
2C5
102
{ACAD_REACTORS
330
1A
102
}
330
1A
100
AcDbDictionary
281
     1
  0
DICTIONARY
  5
18
102
{ACAD_REACTORS
330
1A
102
}
330
1A
100
AcDbDictionary
281
     1
  0
DICTIONARY
  5
45
102
{ACAD_REACTORS
330
1A
102
}
330
1A
100
AcDbDictionary
281
     1
  3
Layout1
350
48
  3
Model
350
47
  0
DICTIONARY
  5
2B0
102
{ACAD_REACTORS
330
1A
102
}
330
1A
100
AcDbDictionary
281
     1
  3
ByBlock
350
2B2
  3
ByLayer
350
2B1
  3
Global
350
2B3
  0
DICTIONARY
  5
354
102
{ACAD_REACTORS
330
1A
102
}
330
1A
100
AcDbDictionary
281
     1
  3
Standard
350
355
  0
DICTIONARY
  5
19
102
{ACAD_REACTORS
330
1A
102
}
330
1A
100
AcDbDictionary
281
     1
  3
STANDARD
350
1C
  0
DICTIONARY
  5
46
102
{ACAD_REACTORS
330
1A
102
}
330
1A
100
AcDbDictionary
281
     1
  3
Kyocera_1010 OR
350
1B13
  3
Kyocera_1010 VER
350
1B14
  3
Olivetti_200 A3
350
1B15
  3
Olivetti_200 A4
350
1B16
  3
PLOTTER
350
1B17
  0
ACDBDICTIONARYWDFLT
  5
43
102
{ACAD_REACTORS
330
1A
102
}
330
1A
100
AcDbDictionary
281
     1
  3
Normal
350
44
100
AcDbDictionaryWithDefault
340
44
  0
DICTIONARY
  5
332
102
{ACAD_REACTORS
330
1A
102
}
330
1A
100
AcDbDictionary
281
     1
  3
A0
350
333
  3
A1
350
334
  3
A2
350
335
  3
A3
350
336
  3
A4
350
337
  3
A5
350
338
  3
A6
350
339
  3
A7
350
33A
  3
A8
350
33B
  3
A9
350
33C
  3
B0
350
33D
  3
B1
350
33E
  3
B2
350
33F
  3
B3
350
340
  3
B4
350
341
  3
B5
350
342
  3
B6
350
343
  3
B7
350
344
  3
B8
350
345
  3
B9
350
346
  3
C0
350
347
  3
C1
350
348
  3
C2
350
349
  3
C3
350
34A
  3
C4
350
34B
  3
C5
350
34C
  3
C6
350
34D
  3
C7
350
34E
  3
C8
350
34F
  3
C9
350
350
  3
D0
350
351
  3
D1
350
352
  3
D2
350
353
  0
DICTIONARY
  5
2C6
102
{ACAD_REACTORS
330
1A
102
}
330
1A
100
AcDbDictionary
281
     1
  3
QSTABFORI
350
B6E
  3
QSTABREGION
350
B70
  3
Standard
350
2C7
  0
DICTIONARY
  5
2B4
102
{ACAD_REACTORS
330
1A
102
}
330
1A
100
AcDbDictionary
281
     1
  3
2dWireframe
350
2BA
  3
3D Hidden
350
2BC
  3
3dWireframe
350
2BB
  3
Basic
350
2B9
  3
Brighten
350
2C0
  3
ColorChange
350
2C4
  3
Conceptual
350
2BD
  3
Dim
350
2BF
  3
EdgeColorOff
350
1B71
  3
Facepattern
350
2C3
  3
Flat
350
2B5
  3
FlatWithEdges
350
2B6
  3
Gouraud
350
2B7
  3
GouraudWithEdges
350
2B8
  3
Hidden
350
1B69
  3
JitterOff
350
1B6F
  3
Linepattern
350
2C2
  3
OverhangOff
350
1B70
  3
Realistic
350
2BE
  3
Shaded
350
1B6E
  3
Shaded with edges
350
1B6D
  3
Shades of Gray
350
1B6A
  3
Sketchy
350
1B6B
  3
Thicken
350
2C1
  3
Wireframe
350
1B68
  3
X-Ray
350
1B6C
  0
XRECORD
  5
1B82
102
{ACAD_REACTORS
330
1A
102
}
330
1A
100
AcDbXrecord
280
     1
 90
        1
330
2C7
330
B6E
330
B70
  0
DICTIONARY
  5
2AA
102
{ACAD_REACTORS
330
1A
102
}
330
1A
100
AcDbDictionary
281
     1
  3
CANNOSCALE
350
36B
  3
CMLEADERSTYLE
350
369
  3
CTABLESTYLE
350
312
  3
DIMASSOC
350
2AB
  3
DRAWORDERCTL
350
1924
  3
INDEXCTL
350
314
  3
LAYEREVAL
350
1926
  3
LAYERNOTIFY
350
1927
  3
LIGHTINGUNITS
350
36C
  3
MLEADERSCALE
350
1925
  3
MSLTSCALE
350
36A
  3
SORTENTS
350
313
  3
XCLIPFRAME
350
1B7E
  0
DICTIONARY
  5
9BC
102
{ACAD_REACTORS
330
1A
102
}
330
1A
100
AcDbDictionary
281
     1
  0
XRECORD
  5
1B83
102
{ACAD_REACTORS
330
1A
102
}
330
1A
100
AcDbXrecord
280
     1
  1
DWGPROPS COOKIE
  2

  3

  4

  6

  7

  8
mpistoia
  9

300
=
301
=
302
=
303
=
304
=
305
=
306
=
307
=
308
=
309
=
 40
0.1393114814814815
 41
2455048.407451713
 42
2455645.413628542
  1

 90
        0
  0
DICTIONARY
  5
50
102
{ACAD_REACTORS
330
1A
102
}
330
1A
100
AcDbDictionary
281
     1
  3
UCNT
350
51
  0
DICTIONARY
  5
6D9
102
{ACAD_REACTORS
330
1A
102
}
330
1A
100
AcDbDictionary
280
     1
281
     1
  3
DEFAULT
360
6DA
  0
DICTIONARY
  5
828
102
{ACAD_REACTORS
330
1A
102
}
330
1A
100
AcDbDictionary
281
     1
  3
DEFAULT
350
829
  0
DICTIONARY
  5
1B5E
102
{ACAD_REACTORS
330
1A
102
}
330
1A
100
AcDbDictionary
281
     1
  3
TOP
350
1B63
  3
X2072
350
1B61
  3
X27e2
350
1B5F
  3
X308b
350
1B62
  3
X695e
350
1B60
  0
DICTIONARY
  5
6E0
102
{ACAD_REACTORS
330
1A
102
}
330
1A
100
AcDbDictionary
281
     1
  3
colors
350
6E1
  0
DICTIONARY
  5
B73
102
{ACAD_REACTORS
330
B72
102
}
330
B72
100
AcDbDictionary
281
     1
  0
XRECORD
  5
16B9
102
{ACAD_REACTORS
330
37B
102
}
330
37B
100
AcDbXrecord
280
     1
290
     1
  0
XRECORD
  5
16BB
102
{ACAD_REACTORS
330
16BA
102
}
330
16BA
100
AcDbXrecord
280
     1
290
     1
  0
XRECORD
  5
16BD
102
{ACAD_REACTORS
330
16BC
102
}
330
16BC
100
AcDbXrecord
280
     1
290
     1
  0
XRECORD
  5
16BF
102
{ACAD_REACTORS
330
16BE
102
}
330
16BE
100
AcDbXrecord
280
     1
290
     1
  0
XRECORD
  5
16C1
102
{ACAD_REACTORS
330
16C0
102
}
330
16C0
100
AcDbXrecord
280
     1
290
     1
  0
SORTENTSTABLE
  5
C8E
102
{ACAD_REACTORS
330
C8D
102
}
330
C8D
100
AcDbSortentsTable
330
B74
331
BA5
  5
BC4
331
B75
  5
B79
331
B8D
  5
BA8
331
B79
  5
B75
331
B91
  5
BAD
331
BA9
  5
BC8
331
BC1
  5
B9D
331
BC5
  5
B95
331
B95
  5
BB0
331
BAD
  5
BCC
331
B99
  5
BB5
331
BB1
  5
BD2
331
BC9
  5
B8F
331
B9D
  5
BB9
331
BB5
  5
BBD
331
BCD
  5
B87
331
BB9
  5
BA1
331
BD1
  5
B86
331
BBD
  5
B99
331
B86
  5
BA4
331
B8A
  5
B8D
331
BA2
  5
BC1
331
B76
  5
B7A
331
B8E
  5
BAA
331
BA6
  5
BC5
331
B92
  5
BAE
331
B7A
  5
B76
331
BAA
  5
BC9
331
BC2
  5
B9E
331
B96
  5
BB2
331
BAE
  5
BCD
331
BC6
  5
B96
331
B9A
  5
BB6
331
BB2
  5
B85
331
BCA
  5
B91
331
BB6
  5
BBE
331
B9E
  5
BBA
331
BCE
  5
B8A
331
BBA
  5
BA2
331
BD2
  5
BD1
331
BBE
  5
B9A
331
B87
  5
BA5
331
BA3
  5
BC2
331
B8B
  5
B90
331
BA7
  5
BC6
331
B77
  5
B7B
331
B8F
  5
BAC
331
B7B
  5
B77
331
B93
  5
BAF
331
BAB
  5
BCA
331
BC3
  5
B9F
331
BC7
  5
B8B
331
B97
  5
BB3
331
BAF
  5
BCE
331
B9B
  5
BB7
331
BB3
  5
B88
331
BCB
  5
B92
331
B9F
  5
BBC
331
BB7
  5
BBB
331
BCF
  5
B89
331
BBB
  5
B97
331
BBF
  5
B9B
331
B88
  5
BA6
331
BA0
  5
BBF
331
B8C
  5
BA9
331
BA4
  5
BC3
331
BA8
  5
BC7
331
B78
  5
B7C
331
B90
  5
BAB
331
BC0
  5
B9C
331
BAC
  5
BCB
331
B94
  5
BB1
331
B7C
  5
B78
331
BC4
  5
B94
331
B98
  5
BB4
331
BB0
  5
BD0
331
BC8
  5
B8E
331
BCC
  5
B93
331
BB4
  5
B8C
331
B9C
  5
BB8
331
BD0
  5
BCF
331
BB8
  5
BA0
331
BBC
  5
B98
331
B85
  5
BA3
331
B89
  5
BA7
331
BA1
  5
BC0
  0
XRECORD
  5
1B85
102
{ACAD_REACTORS
330
1B84
102
}
330
1B84
100
AcDbXrecord
280
     1
340
2BB
  0
LAYOUT
  5
48
102
{ACAD_XDICTIONARY
360
1B88
102
}
102
{ACAD_REACTORS
330
45
102
}
330
45
100
AcDbPlotSettings
  1

  2
RICOH Aficio 270 PCL 6 A4
  4

  6

 40
0.0
 41
0.0
 42
0.0
 43
0.0
 44
0.0
 45
0.0
 46
0.0
 47
0.0
 48
0.0
 49
0.0
140
0.0
141
0.0
142
1.0
143
1.0
 70
   688
 72
     0
 73
     0
 74
     5
  7
DIERRE BN.ctb
 75
    16
147
1.0
148
0.0
149
0.0
100
AcDbLayout
  1
Layout1
 70
     0
 71
     1
 10
0.0
 20
0.0
 11
12.0
 21
9.0
 12
0.0
 22
0.0
 32
0.0
 14
1.000000000000000E+20
 24
1.000000000000000E+20
 34
1.000000000000000E+20
 15
-1.000000000000000E+20
 25
-1.000000000000000E+20
 35
-1.000000000000000E+20
146
0.0
 13
0.0
 23
0.0
 33
0.0
 16
1.0
 26
0.0
 36
0.0
 17
0.0
 27
1.0
 37
0.0
 76
     0
330
7
  0
LAYOUT
  5
47
102
{ACAD_XDICTIONARY
360
1B86
102
}
102
{ACAD_REACTORS
330
45
102
}
330
45
100
AcDbPlotSettings
  1
Olivetti_200 A4
  2
Olivetti_200.pc3
  4
A4
  6

 40
4.984749794006347
 41
5.154074668884277
 42
5.111740112304687
 43
4.9847412109375
 44
210.0156707763672
 45
297.0106506347656
 46
51.67548120477697
 47
0.0
 48
0.0
 49
0.0
140
0.0
141
0.0
142
1.0
143
0.4718508448115938
 70
 11956
 72
     1
 73
     0
 74
     1
  7
DIERRE BN.ctb
 75
     0
147
2.119313785268927
148
-222.4649060220283
149
-239.0808115236937
100
AcDbLayout
  1
Model
 70
     1
 71
     0
 10
0.0
 20
0.0
 11
12.0
 21
9.0
 12
0.0
 22
0.0
 32
0.0
 14
0.0
 24
0.0
 34
0.0
 15
0.0
 25
0.0
 35
0.0
146
0.0
 13
0.0
 23
0.0
 33
0.0
 16
1.0
 26
0.0
 36
0.0
 17
0.0
 27
1.0
 37
0.0
 76
     0
330
2
331
2AE
1001
ACAD_PSEXT
1000
Olivetti_200.pc3
1000
Olivetti d-Copia 200MF KX
1000
IP_192.168.1.151
1000

1070
     0
  0
MATERIAL
  5
2B2
102
{ACAD_XDICTIONARY
360
1B8C
102
}
102
{ACAD_REACTORS
330
2B0
102
}
330
2B0
100
AcDbMaterial
  1
ByBlock
 73
     1
 78
     1
172
     1
176
     1
270
     1
274
     1
  0
MATERIAL
  5
2B1
102
{ACAD_XDICTIONARY
360
1B8A
102
}
102
{ACAD_REACTORS
330
2B0
102
}
330
2B0
100
AcDbMaterial
  1
ByLayer
 73
     1
 78
     1
172
     1
176
     1
270
     1
274
     1
  0
MATERIAL
  5
2B3
102
{ACAD_XDICTIONARY
360
1B8E
102
}
102
{ACAD_REACTORS
330
2B0
102
}
330
2B0
100
AcDbMaterial
  1
Global
 73
     1
 78
     1
172
     1
176
     1
270
     1
274
     1
  0
MLEADERSTYLE
  5
355
102
{ACAD_REACTORS
330
354
102
}
330
354
100
AcDbMLeaderStyle
170
     2
171
     1
172
     0
 90
        2
 40
0.0
 41
0.0
173
     1
 91
-1056964608
340
E
 92
       -2
290
     1
 42
2.0
291
     1
 43
0.36
  3
Standard
 44
4.0
300

342
C
174
     1
178
     6
175
     1
176
     0
 93
-1056964608
 45
4.0
292
     0
297
     0
 46
4.0
 94
-1056964608
 47
1.0
 49
1.0
140
1.0
293
     1
141
0.0
294
     1
177
     0
142
1.0
295
     0
296
     0
143
0.125
1001
ACAD_MLEADERVER
1070
     2
  0
MLINESTYLE
  5
1C
102
{ACAD_REACTORS
330
19
102
}
330
19
100
AcDbMlineStyle
  2
STANDARD
 70
     0
  3

 62
     0
 51
90.0
 52
90.0
 71
     2
 49
0.5
 62
   256
  6
BYLAYER
 49
-0.5
 62
   256
  6
BYLAYER
  0
PLOTSETTINGS
  5
1B13
102
{ACAD_XDICTIONARY
360
1BB4
102
}
102
{ACAD_REACTORS
330
46
102
}
330
46
100
AcDbPlotSettings
  1
Kyocera_1010 OR
  2
Kyocera_1010.pc3
  4
A4
  6

 40
4.984749794006347
 41
5.154074668884277
 42
5.111740112304687
 43
4.9847412109375
 44
210.0156707763672
 45
297.0106506347656
 46
0.0
 47
109.7870247470818
 48
0.0
 49
0.0
140
0.0
141
0.0
142
1.0
143
0.6770771918566143
 70
 11956
 72
     1
 73
     1
 74
     1
  7
DIERRE BN.ctb
 75
     0
147
1.476936473458659
148
-222.4649060220283
149
-239.0808115236937
1001
ACAD_PSEXT
1000
Kyocera_1010.pc3
1000
Kyocera Mita FS-1010 KX
1000
\\PC5
1000

1070
     0
  0
PLOTSETTINGS
  5
1B14
102
{ACAD_XDICTIONARY
360
1BB6
102
}
102
{ACAD_REACTORS
330
46
102
}
330
46
100
AcDbPlotSettings
  1
Kyocera_1010 VER
  2
Kyocera_1010.pc3
  4
A4
  6

 40
4.984749794006347
 41
5.154074668884277
 42
5.111740112304687
 43
4.9847412109375
 44
210.0156707763672
 45
297.0106506347656
 46
51.67548120477697
 47
0.0
 48
0.0
 49
0.0
140
0.0
141
0.0
142
1.0
143
0.4718508448115938
 70
 11956
 72
     1
 73
     0
 74
     1
  7
DIERRE BN.ctb
 75
     0
147
2.119313785268927
148
-222.4649060220283
149
-239.0808115236937
1001
ACAD_PSEXT
1000
Kyocera_1010.pc3
1000
Kyocera Mita FS-1010 KX
1000
\\PC5
1000

1070
     0
  0
PLOTSETTINGS
  5
1B15
102
{ACAD_XDICTIONARY
360
1BB8
102
}
102
{ACAD_REACTORS
330
46
102
}
330
46
100
AcDbPlotSettings
  1
Olivetti_200 A3
  2
Olivetti_200.pc3
  4
A3
  6

 40
4.984749794006347
 41
5.111746788024902
 42
5.154083251953125
 43
4.9847412109375
 44
297.0106506347656
 45
419.9889831542968
 46
0.0
 47
156.6621412366913
 48
0.0
 49
0.0
140
0.0
141
0.0
142
1.0
143
0.4718508730467012
 70
 11956
 72
     1
 73
     1
 74
     1
  7
DIERRE BN.ctb
 75
     0
147
2.119313658451206
148
-222.4649060220283
149
-239.0808115236937
1001
ACAD_PSEXT
1000
Olivetti_200.pc3
1000
Olivetti d-Copia 200MF KX
1000
IP_192.168.1.151
1000

1070
     0
  0
PLOTSETTINGS
  5
1B16
102
{ACAD_XDICTIONARY
360
1BBA
102
}
102
{ACAD_REACTORS
330
46
102
}
330
46
100
AcDbPlotSettings
  1
Olivetti_200 A4
  2
Olivetti_200.pc3
  4
A4
  6

 40
4.984749794006347
 41
5.154074668884277
 42
5.111740112304687
 43
4.9847412109375
 44
210.0156707763672
 45
297.0106506347656
 46
51.67548120477697
 47
0.0
 48
0.0
 49
0.0
140
0.0
141
0.0
142
1.0
143
0.4718508448115938
 70
 11956
 72
     1
 73
     0
 74
     1
  7
DIERRE BN.ctb
 75
     0
147
2.119313785268927
148
-222.4649060220283
149
-239.0808115236937
1001
ACAD_PSEXT
1000
Olivetti_200.pc3
1000
Olivetti d-Copia 200MF KX
1000
IP_192.168.1.151
1000

1070
     0
  0
PLOTSETTINGS
  5
1B17
102
{ACAD_XDICTIONARY
360
1BBC
102
}
102
{ACAD_REACTORS
330
46
102
}
330
46
100
AcDbPlotSettings
  1
PLOTTER
  2
PLOTTER.pc3
  4
User622
  6

 40
0.0
 41
0.0
 42
0.0
 43
0.0
 44
841.0
 45
1189.0
 46
0.0
 47
0.0
 48
0.0
 49
0.0
140
0.0
141
0.0
142
1.0
143
1.0
 70
 11936
 72
     1
 73
     0
 74
     1
  7
DIERRE BN.ctb
 75
     0
147
2.194137304425714
148
-222.4649060220283
149
-239.0808115236937
1001
ACAD_PSEXT
1000
PLOTTER.pc3
1000
HP DesignJet 430 (E/A0) by HP
1000
\\SERVER2003
1000

1070
     0
  0
ACDBPLACEHOLDER
  5
44
102
{ACAD_REACTORS
330
43
102
}
330
43
  0
SCALE
  5
333
102
{ACAD_REACTORS
330
332
102
}
330
332
100
AcDbScale
 70
     0
300
1:1
140
1.0
141
1.0
290
     1
  0
SCALE
  5
334
102
{ACAD_REACTORS
330
332
102
}
330
332
100
AcDbScale
 70
     0
300
1:2
140
1.0
141
2.0
290
     0
  0
SCALE
  5
335
102
{ACAD_REACTORS
330
332
102
}
330
332
100
AcDbScale
 70
     0
300
1:4
140
1.0
141
4.0
290
     0
  0
SCALE
  5
336
102
{ACAD_REACTORS
330
332
102
}
330
332
100
AcDbScale
 70
     0
300
1:5
140
1.0
141
5.0
290
     0
  0
SCALE
  5
337
102
{ACAD_REACTORS
330
332
102
}
330
332
100
AcDbScale
 70
     0
300
1:8
140
1.0
141
8.0
290
     0
  0
SCALE
  5
338
102
{ACAD_REACTORS
330
332
102
}
330
332
100
AcDbScale
 70
     0
300
1:10
140
1.0
141
10.0
290
     0
  0
SCALE
  5
339
102
{ACAD_REACTORS
330
332
102
}
330
332
100
AcDbScale
 70
     0
300
1:16
140
1.0
141
16.0
290
     0
  0
SCALE
  5
33A
102
{ACAD_REACTORS
330
332
102
}
330
332
100
AcDbScale
 70
     0
300
1:20
140
1.0
141
20.0
290
     0
  0
SCALE
  5
33B
102
{ACAD_REACTORS
330
332
102
}
330
332
100
AcDbScale
 70
     0
300
1:30
140
1.0
141
30.0
290
     0
  0
SCALE
  5
33C
102
{ACAD_REACTORS
330
332
102
}
330
332
100
AcDbScale
 70
     0
300
1:40
140
1.0
141
40.0
290
     0
  0
SCALE
  5
33D
102
{ACAD_REACTORS
330
332
102
}
330
332
100
AcDbScale
 70
     0
300
1:50
140
1.0
141
50.0
290
     0
  0
SCALE
  5
33E
102
{ACAD_REACTORS
330
332
102
}
330
332
100
AcDbScale
 70
     0
300
1:100
140
1.0
141
100.0
290
     0
  0
SCALE
  5
33F
102
{ACAD_REACTORS
330
332
102
}
330
332
100
AcDbScale
 70
     0
300
2:1
140
2.0
141
1.0
290
     0
  0
SCALE
  5
340
102
{ACAD_REACTORS
330
332
102
}
330
332
100
AcDbScale
 70
     0
300
4:1
140
4.0
141
1.0
290
     0
  0
SCALE
  5
341
102
{ACAD_REACTORS
330
332
102
}
330
332
100
AcDbScale
 70
     0
300
8:1
140
8.0
141
1.0
290
     0
  0
SCALE
  5
342
102
{ACAD_REACTORS
330
332
102
}
330
332
100
AcDbScale
 70
     0
300
10:1
140
10.0
141
1.0
290
     0
  0
SCALE
  5
343
102
{ACAD_REACTORS
330
332
102
}
330
332
100
AcDbScale
 70
     0
300
100:1
140
100.0
141
1.0
290
     0
  0
SCALE
  5
344
102
{ACAD_REACTORS
330
332
102
}
330
332
100
AcDbScale
 70
     0
300
1/128" = 1'-0"
140
0.0078125
141
12.0
290
     0
  0
SCALE
  5
345
102
{ACAD_REACTORS
330
332
102
}
330
332
100
AcDbScale
 70
     0
300
1/64" = 1'-0"
140
0.015625
141
12.0
290
     0
  0
SCALE
  5
346
102
{ACAD_REACTORS
330
332
102
}
330
332
100
AcDbScale
 70
     0
300
1/32" = 1'-0"
140
0.03125
141
12.0
290
     0
  0
SCALE
  5
347
102
{ACAD_REACTORS
330
332
102
}
330
332
100
AcDbScale
 70
     0
300
1/16" = 1'-0"
140
0.0625
141
12.0
290
     0
  0
SCALE
  5
348
102
{ACAD_REACTORS
330
332
102
}
330
332
100
AcDbScale
 70
     0
300
3/32" = 1'-0"
140
0.09375
141
12.0
290
     0
  0
SCALE
  5
349
102
{ACAD_REACTORS
330
332
102
}
330
332
100
AcDbScale
 70
     0
300
1/8" = 1'-0"
140
0.125
141
12.0
290
     0
  0
SCALE
  5
34A
102
{ACAD_REACTORS
330
332
102
}
330
332
100
AcDbScale
 70
     0
300
3/16" = 1'-0"
140
0.1875
141
12.0
290
     0
  0
SCALE
  5
34B
102
{ACAD_REACTORS
330
332
102
}
330
332
100
AcDbScale
 70
     0
300
1/4" = 1'-0"
140
0.25
141
12.0
290
     0
  0
SCALE
  5
34C
102
{ACAD_REACTORS
330
332
102
}
330
332
100
AcDbScale
 70
     0
300
3/8" = 1'-0"
140
0.375
141
12.0
290
     0
  0
SCALE
  5
34D
102
{ACAD_REACTORS
330
332
102
}
330
332
100
AcDbScale
 70
     0
300
1/2" = 1'-0"
140
0.5
141
12.0
290
     0
  0
SCALE
  5
34E
102
{ACAD_REACTORS
330
332
102
}
330
332
100
AcDbScale
 70
     0
300
3/4" = 1'-0"
140
0.75
141
12.0
290
     0
  0
SCALE
  5
34F
102
{ACAD_REACTORS
330
332
102
}
330
332
100
AcDbScale
 70
     0
300
1" = 1'-0"
140
1.0
141
12.0
290
     0
  0
SCALE
  5
350
102
{ACAD_REACTORS
330
332
102
}
330
332
100
AcDbScale
 70
     0
300
1-1/2" = 1'-0"
140
1.5
141
12.0
290
     0
  0
SCALE
  5
351
102
{ACAD_REACTORS
330
332
102
}
330
332
100
AcDbScale
 70
     0
300
3" = 1'-0"
140
3.0
141
12.0
290
     0
  0
SCALE
  5
352
102
{ACAD_REACTORS
330
332
102
}
330
332
100
AcDbScale
 70
     0
300
6" = 1'-0"
140
6.0
141
12.0
290
     0
  0
SCALE
  5
353
102
{ACAD_REACTORS
330
332
102
}
330
332
100
AcDbScale
 70
     0
300
1'-0" = 1'-0"
140
12.0
141
12.0
290
     0
  0
TABLESTYLE
  5
B6E
102
{ACAD_XDICTIONARY
360
B6F
102
}
102
{ACAD_REACTORS
330
2C6
102
}
330
2C6
100
AcDbTableStyle
  3
Standard
 70
     1
 71
     0
 40
1.5
 41
1.5
280
     1
281
     0
  7
ROMANS
140
3.0
170
     5
 62
     7
 63
     7
283
     0
274
    -2
284
     1
 64
     0
275
    -2
285
     1
 65
     0
276
    -2
286
     1
 66
     0
277
    -2
287
     1
 67
     0
278
    -2
288
     1
 68
     0
279
    -2
289
     1
 69
     0
  7
ROMANS
140
6.0
170
     5
 62
     1
 63
     7
283
     0
274
    -2
284
     1
 64
     0
275
    -2
285
     1
 65
     0
276
    -2
286
     1
 66
     0
277
    -2
287
     1
 67
     0
278
    -2
288
     1
 68
     0
279
    -2
289
     1
 69
     0
  7
ROMANS
140
3.5
170
     5
 62
     3
 63
     7
283
     0
274
    -2
284
     1
 64
     0
275
    -2
285
     1
 65
     0
276
    -2
286
     1
 66
     0
277
    -2
287
     1
 67
     0
278
    -2
288
     1
 68
     0
279
    -2
289
     1
 69
     0
  0
TABLESTYLE
  5
B70
102
{ACAD_XDICTIONARY
360
B71
102
}
102
{ACAD_REACTORS
330
2C6
102
}
330
2C6
100
AcDbTableStyle
  3
Standard
 70
     0
 71
     0
 40
1.5
 41
1.5
280
     0
281
     0
  7
ROMANS
140
4.5
170
     5
 62
     7
 63
     7
283
     0
274
    -2
284
     1
 64
     0
275
    -2
285
     1
 65
     0
276
    -2
286
     1
 66
     0
277
    -2
287
     1
 67
     0
278
    -2
288
     1
 68
     0
279
    -2
289
     1
 69
     0
  7
ROMANS
140
6.0
170
     5
 62
     1
 63
     7
283
     0
274
    -2
284
     1
 64
     0
275
    -2
285
     1
 65
     0
276
    -2
286
     1
 66
     0
277
    -2
287
     1
 67
     0
278
    -2
288
     1
 68
     0
279
    -2
289
     1
 69
     0
  7
ROMANS
140
5.0
170
     5
 62
     3
 63
     7
283
     0
274
    -2
284
     1
 64
     0
275
    -2
285
     1
 65
     0
276
    -2
286
     1
 66
     0
277
    -2
287
     1
 67
     0
278
    -2
288
     1
 68
     0
279
    -2
289
     1
 69
     0
  0
TABLESTYLE
  5
2C7
102
{ACAD_XDICTIONARY
360
362
102
}
102
{ACAD_REACTORS
330
2C6
102
}
330
2C6
100
AcDbTableStyle
  3
Standard
 70
     0
 71
     0
 40
1.5
 41
1.5
280
     0
281
     0
  7
STANDARD
140
4.5
170
     2
 62
     0
 63
     7
283
     0
274
    -2
284
     1
 64
     0
275
    -2
285
     1
 65
     0
276
    -2
286
     1
 66
     0
277
    -2
287
     1
 67
     0
278
    -2
288
     1
 68
     0
279
    -2
289
     1
 69
     0
  7
STANDARD
140
6.0
170
     5
 62
     0
 63
     7
283
     0
274
    -2
284
     1
 64
     0
275
    -2
285
     1
 65
     0
276
    -2
286
     1
 66
     0
277
    -2
287
     1
 67
     0
278
    -2
288
     1
 68
     0
279
    -2
289
     1
 69
     0
  7
STANDARD
140
4.5
170
     5
 62
     0
 63
     7
283
     0
274
    -2
284
     1
 64
     0
275
    -2
285
     1
 65
     0
276
    -2
286
     1
 66
     0
277
    -2
287
     1
 67
     0
278
    -2
288
     1
 68
     0
279
    -2
289
     1
 69
     0
  0
VISUALSTYLE
  5
2BA
102
{ACAD_XDICTIONARY
360
1B9A
102
}
102
{ACAD_REACTORS
330
2B4
102
}
330
2B4
100
AcDbVisualStyle
  2
2dWireframe
 70
     4
 71
     0
 72
     2
 73
     0
 90
        0
 40
-0.6
 41
-30.0
 62
     5
 63
     7
 74
     1
 91
        4
 64
     7
 65
   257
 75
     1
175
     1
 42
1.0
 92
        0
 66
   257
 43
1.0
 76
     1
 77
     6
 78
     2
 67
     7
 79
     5
170
     0
171
     0
290
     0
174
     0
 93
        1
 44
0.0
173
     0
291
     0
 45
0.0
1001
ACAD
1000
AcDbSavedByObjectVersion
1070
     0
  0
VISUALSTYLE
  5
2BC
102
{ACAD_XDICTIONARY
360
1B9E
102
}
102
{ACAD_REACTORS
330
2B4
102
}
330
2B4
100
AcDbVisualStyle
  2
3D Hidden
 70
     6
 71
     1
 72
     2
 73
     2
 90
        0
 40
-0.6
 41
-30.0
 62
     5
 63
     7
 74
     2
 91
        2
 64
     7
 65
   257
 75
     2
175
     1
 42
40.0
 92
        0
 66
   257
 43
1.0
 76
     1
 77
     6
 78
     2
 67
     7
 79
     3
170
     0
171
     0
290
     0
174
     0
 93
        1
 44
0.0
173
     0
291
     0
 45
0.0
1001
ACAD
1000
AcDbSavedByObjectVersion
1070
     0
  0
VISUALSTYLE
  5
2BB
102
{ACAD_XDICTIONARY
360
1B9C
102
}
102
{ACAD_REACTORS
330
2B4
102
}
330
2B4
100
AcDbVisualStyle
  2
3dWireframe
 70
     5
 71
     0
 72
     2
 73
     0
 90
        0
 40
-0.6
 41
-30.0
 62
     5
 63
     7
 74
     1
 91
        4
 64
     7
 65
   257
 75
     1
175
     1
 42
1.0
 92
        0
 66
   257
 43
1.0
 76
     1
 77
     6
 78
     2
 67
     7
 79
     5
170
     0
171
     0
290
     0
174
     0
 93
        1
 44
0.0
173
     0
291
     0
 45
0.0
1001
ACAD
1000
AcDbSavedByObjectVersion
1070
     0
  0
VISUALSTYLE
  5
2B9
102
{ACAD_XDICTIONARY
360
1B98
102
}
102
{ACAD_REACTORS
330
2B4
102
}
330
2B4
100
AcDbVisualStyle
  2
Basic
 70
     7
 71
     1
 72
     0
 73
     1
 90
        0
 40
-0.6
 41
-30.0
 62
     5
 63
     7
 74
     0
 91
        4
 64
     7
 65
   257
 75
     1
175
     1
 42
1.0
 92
        8
 66
     7
 43
1.0
 76
     1
 77
     6
 78
     2
 67
     7
 79
     5
170
     0
171
     0
290
     0
174
     0
 93
        1
 44
0.0
173
     0
291
     1
 45
0.0
1001
ACAD
1000
AcDbSavedByObjectVersion
1070
     0
  0
VISUALSTYLE
  5
2C0
102
{ACAD_XDICTIONARY
360
1BA6
102
}
102
{ACAD_REACTORS
330
2B4
102
}
330
2B4
100
AcDbVisualStyle
  2
Brighten
 70
    12
 71
     2
 72
     2
 73
     0
 90
        0
 40
-0.6
 41
-30.0
 62
     5
 63
     7
 74
     1
 91
        4
 64
     7
 65
   257
 75
     1
175
     1
 42
1.0
 92
        8
 66
     7
 43
1.0
 76
     1
 77
     6
 78
     2
 67
     7
 79
     5
170
     0
171
     0
290
     0
174
     0
 93
        1
 44
50.0
173
     0
291
     1
 45
0.0
1001
ACAD
1000
AcDbSavedByObjectVersion
1070
     0
  0
VISUALSTYLE
  5
2C4
102
{ACAD_XDICTIONARY
360
1BAE
102
}
102
{ACAD_REACTORS
330
2B4
102
}
330
2B4
100
AcDbVisualStyle
  2
ColorChange
 70
    16
 71
     2
 72
     2
 73
     3
 90
        0
 40
-0.6
 41
-30.0
 62
     5
 63
     8
 74
     1
 91
        4
 64
     7
 65
   257
 75
     1
175
     1
 42
1.0
 92
        8
 66
     8
 43
1.0
 76
     1
 77
     6
 78
     2
 67
     7
 79
     5
170
     0
171
     0
290
     0
174
     0
 93
        1
 44
0.0
173
     0
291
     1
 45
0.0
1001
ACAD
1000
AcDbSavedByObjectVersion
1070
     0
  0
VISUALSTYLE
  5
2BD
102
{ACAD_XDICTIONARY
360
1BA0
102
}
102
{ACAD_REACTORS
330
2B4
102
}
330
2B4
100
AcDbVisualStyle
  2
Conceptual
 70
     9
 71
     3
 72
     2
 73
     0
 90
        0
 40
-0.6
 41
-30.0
 62
     5
 63
     7
 74
     2
 91
        2
 64
     7
 65
   257
 75
     1
175
     1
 42
40.0
 92
        8
 66
     7
 43
1.0
 76
     1
 77
     6
 78
     2
 67
     7
 79
     3
170
     0
171
     0
290
     0
174
     0
 93
        1
 44
0.0
173
     0
291
     0
 45
0.0
1001
ACAD
1000
AcDbSavedByObjectVersion
1070
     0
  0
VISUALSTYLE
  5
2BF
102
{ACAD_XDICTIONARY
360
1BA4
102
}
102
{ACAD_REACTORS
330
2B4
102
}
330
2B4
100
AcDbVisualStyle
  2
Dim
 70
    11
 71
     2
 72
     2
 73
     0
 90
        0
 40
-0.6
 41
-30.0
 62
     5
 63
     7
 74
     1
 91
        4
 64
     7
 65
   257
 75
     1
175
     1
 42
1.0
 92
        8
 66
     7
 43
1.0
 76
     1
 77
     6
 78
     2
 67
     7
 79
     5
170
     0
171
     0
290
     0
174
     0
 93
        1
 44
-50.0
173
     0
291
     1
 45
0.0
1001
ACAD
1000
AcDbSavedByObjectVersion
1070
     0
  0
VISUALSTYLE
  5
1B71
102
{ACAD_XDICTIONARY
360
1BD0
102
}
102
{ACAD_REACTORS
330
2B4
102
}
330
2B4
100
AcDbVisualStyle
  2
EdgeColorOff
 70
    22
 71
     2
 72
     2
 73
     0
 90
        0
 40
-0.6
 41
-30.0
 62
     5
 63
     7
 74
     1
 91
        4
 64
     7
 65
   257
 75
     1
175
     1
 42
1.0
 92
        8
 66
     7
 43
1.0
 76
     1
 77
     6
 78
     2
 67
     7
 79
     5
170
     0
171
     0
290
     0
174
     0
 93
        1
 44
0.0
173
     0
291
     1
 45
0.0
1001
ACAD
1000
AcDbSavedByObjectVersion
1070
     0
  0
VISUALSTYLE
  5
2C3
102
{ACAD_XDICTIONARY
360
1BAC
102
}
102
{ACAD_REACTORS
330
2B4
102
}
330
2B4
100
AcDbVisualStyle
  2
Facepattern
 70
    15
 71
     2
 72
     2
 73
     0
 90
        0
 40
-0.6
 41
-30.0
 62
     5
 63
     7
 74
     1
 91
        4
 64
     7
 65
   257
 75
     1
175
     1
 42
1.0
 92
        8
 66
     7
 43
1.0
 76
     1
 77
     6
 78
     2
 67
     7
 79
     5
170
     0
171
     0
290
     0
174
     0
 93
        1
 44
0.0
173
     0
291
     1
 45
0.0
1001
ACAD
1000
AcDbSavedByObjectVersion
1070
     0
  0
VISUALSTYLE
  5
2B5
102
{ACAD_XDICTIONARY
360
1B90
102
}
102
{ACAD_REACTORS
330
2B4
102
}
330
2B4
100
AcDbVisualStyle
  2
Flat
 70
     0
 71
     2
 72
     1
 73
     1
 90
        2
 40
-0.6
 41
30.0
 62
     5
 63
     7
 74
     0
 91
        4
 64
     7
 65
   257
 75
     1
175
     1
 42
1.0
 92
        8
 66
     7
 43
1.0
 76
     1
 77
     6
 78
     2
 67
     7
 79
     5
170
     0
171
     0
290
     0
174
     0
 93
       13
 44
0.0
173
     0
291
     1
 45
0.0
1001
ACAD
1000
AcDbSavedByObjectVersion
1070
     0
  0
VISUALSTYLE
  5
2B6
102
{ACAD_XDICTIONARY
360
1B92
102
}
102
{ACAD_REACTORS
330
2B4
102
}
330
2B4
100
AcDbVisualStyle
  2
FlatWithEdges
 70
     1
 71
     2
 72
     1
 73
     1
 90
        2
 40
-0.6
 41
30.0
 62
     5
 63
     7
 74
     1
 91
        4
 64
     7
 65
   257
 75
     1
175
     1
 42
1.0
 92
        0
 66
   257
 43
1.0
 76
     1
 77
     6
 78
     2
 67
     7
 79
     5
170
     0
171
     0
290
     0
174
     0
 93
       13
 44
0.0
173
     0
291
     1
 45
0.0
1001
ACAD
1000
AcDbSavedByObjectVersion
1070
     0
  0
VISUALSTYLE
  5
2B7
102
{ACAD_XDICTIONARY
360
1B94
102
}
102
{ACAD_REACTORS
330
2B4
102
}
330
2B4
100
AcDbVisualStyle
  2
Gouraud
 70
     2
 71
     2
 72
     2
 73
     1
 90
        2
 40
-0.6
 41
30.0
 62
     5
 63
     7
 74
     0
 91
        4
 64
     7
 65
   257
 75
     1
175
     1
 42
1.0
 92
        0
 66
     7
 43
1.0
 76
     1
 77
     6
 78
     2
 67
     7
 79
     5
170
     0
171
     0
290
     0
174
     0
 93
       13
 44
0.0
173
     0
291
     1
 45
0.0
1001
ACAD
1000
AcDbSavedByObjectVersion
1070
     0
  0
VISUALSTYLE
  5
2B8
102
{ACAD_XDICTIONARY
360
1B96
102
}
102
{ACAD_REACTORS
330
2B4
102
}
330
2B4
100
AcDbVisualStyle
  2
GouraudWithEdges
 70
     3
 71
     2
 72
     2
 73
     1
 90
        2
 40
-0.6
 41
30.0
 62
     5
 63
     7
 74
     1
 91
        4
 64
     7
 65
   257
 75
     1
175
     1
 42
1.0
 92
        0
 66
   257
 43
1.0
 76
     1
 77
     6
 78
     2
 67
     7
 79
     5
170
     0
171
     0
290
     0
174
     0
 93
       13
 44
0.0
173
     0
291
     1
 45
0.0
1001
ACAD
1000
AcDbSavedByObjectVersion
1070
     0
  0
VISUALSTYLE
  5
1B69
102
{ACAD_XDICTIONARY
360
1BC0
102
}
102
{ACAD_REACTORS
330
2B4
102
}
330
2B4
100
AcDbVisualStyle
  2
Hidden
 70
     6
 71
     1
 72
     2
 73
     2
 90
        0
 40
-0.6
 41
-30.0
 62
     5
 63
     7
 74
     2
 91
        2
 64
     7
 65
   257
 75
     2
175
     1
 42
40.0
 92
        0
 66
   257
 43
1.0
 76
     1
 77
     6
 78
     2
 67
     7
 79
     3
170
     0
171
     0
290
     0
174
     0
 93
        1
 44
0.0
173
     0
291
     0
 45
0.0
1001
ACAD
1000
AcDbSavedByObjectVersion
1070
     0
  0
VISUALSTYLE
  5
1B6F
102
{ACAD_XDICTIONARY
360
1BCC
102
}
102
{ACAD_REACTORS
330
2B4
102
}
330
2B4
100
AcDbVisualStyle
  2
JitterOff
 70
    20
 71
     2
 72
     2
 73
     0
 90
        0
 40
-0.6
 41
-30.0
 62
     5
 63
     7
 74
     1
 91
        4
 64
     7
 65
   257
 75
     1
175
     1
 42
1.0
 92
       10
 66
     7
 43
1.0
 76
     1
 77
     6
 78
     2
 67
     7
 79
     5
170
     0
171
     0
290
     0
174
     0
 93
        1
 44
0.0
173
     0
291
     1
 45
0.0
1001
ACAD
1000
AcDbSavedByObjectVersion
1070
     0
  0
VISUALSTYLE
  5
2C2
102
{ACAD_XDICTIONARY
360
1BAA
102
}
102
{ACAD_REACTORS
330
2B4
102
}
330
2B4
100
AcDbVisualStyle
  2
Linepattern
 70
    14
 71
     2
 72
     2
 73
     0
 90
        0
 40
-0.6
 41
-30.0
 62
     5
 63
     7
 74
     1
 91
        4
 64
     7
 65
   257
 75
     7
175
     7
 42
1.0
 92
        8
 66
     7
 43
1.0
 76
     1
 77
     6
 78
     2
 67
     7
 79
     5
170
     0
171
     0
290
     0
174
     0
 93
        1
 44
0.0
173
     0
291
     1
 45
0.0
1001
ACAD
1000
AcDbSavedByObjectVersion
1070
     0
  0
VISUALSTYLE
  5
1B70
102
{ACAD_XDICTIONARY
360
1BCE
102
}
102
{ACAD_REACTORS
330
2B4
102
}
330
2B4
100
AcDbVisualStyle
  2
OverhangOff
 70
    21
 71
     2
 72
     2
 73
     0
 90
        0
 40
-0.6
 41
-30.0
 62
     5
 63
     7
 74
     1
 91
        4
 64
     7
 65
   257
 75
     1
175
     1
 42
1.0
 92
        9
 66
     7
 43
1.0
 76
     1
 77
     6
 78
     2
 67
     7
 79
     5
170
     0
171
     0
290
     0
174
     0
 93
        1
 44
0.0
173
     0
291
     1
 45
0.0
1001
ACAD
1000
AcDbSavedByObjectVersion
1070
     0
  0
VISUALSTYLE
  5
2BE
102
{ACAD_XDICTIONARY
360
1BA2
102
}
102
{ACAD_REACTORS
330
2B4
102
}
330
2B4
100
AcDbVisualStyle
  2
Realistic
 70
     8
 71
     2
 72
     2
 73
     0
 90
        0
 40
-0.6
 41
-30.0
 62
     5
 63
     7
 74
     1
 91
        0
 64
     7
 65
   257
 75
     1
175
     1
 42
1.0
 92
        8
 66
     8
 43
1.0
 76
     1
 77
     6
 78
     2
 67
     7
 79
     5
170
     0
171
     0
290
     0
174
     0
 93
       13
 44
0.0
173
     0
291
     0
 45
0.0
1001
ACAD
1000
AcDbSavedByObjectVersion
1070
     0
  0
VISUALSTYLE
  5
1B6E
102
{ACAD_XDICTIONARY
360
1BCA
102
}
102
{ACAD_REACTORS
330
2B4
102
}
330
2B4
100
AcDbVisualStyle
  2
Shaded
 70
    27
 71
     2
 72
     2
 73
     1
 90
        2
 40
-0.6
 41
30.0
 62
     5
 63
     7
 74
     0
 91
        4
 64
     7
 65
   257
 75
     1
175
     1
 42
1.0
 92
        8
 66
   257
 43
1.0
 76
     1
 77
     6
 78
     2
 67
     8
 79
     3
170
     0
171
     0
290
     0
174
     0
 93
        5
 44
0.0
173
     0
291
     0
 45
0.0
1001
ACAD
1000
AcDbSavedByObjectVersion
1070
     0
  0
VISUALSTYLE
  5
1B6D
102
{ACAD_XDICTIONARY
360
1BC8
102
}
102
{ACAD_REACTORS
330
2B4
102
}
330
2B4
100
AcDbVisualStyle
  2
Shaded with edges
 70
    26
 71
     2
 72
     2
 73
     1
 90
        2
 40
-0.6
 41
30.0
 62
     5
 63
     7
 74
     1
 91
       10
 64
     7
 65
   257
 75
     2
175
     1
 42
1.0
 92
        8
 66
   257
 43
1.0
 76
     1
 77
     6
 78
     2
 67
     7
 79
     3
170
     0
171
     0
290
     0
174
     0
 93
        5
 44
0.0
173
     0
291
     0
 45
0.0
1001
ACAD
1000
AcDbSavedByObjectVersion
1070
     0
  0
VISUALSTYLE
  5
1B6A
102
{ACAD_XDICTIONARY
360
1BC2
102
}
102
{ACAD_REACTORS
330
2B4
102
}
330
2B4
100
AcDbVisualStyle
  2
Shades of Gray
 70
    23
 71
     2
 72
     2
 73
     3
 90
        0
 40
-0.6
 41
-30.0
 62
     5
 63
     7
 74
     2
 91
        2
 64
     7
 65
     7
 75
     1
175
     1
 42
40.0
 92
        8
 66
     7
 43
1.0
 76
     1
 77
     6
 78
     2
 67
     7
 79
     3
170
     0
171
     0
290
     0
174
     0
 93
        1
 44
0.0
173
     0
291
     0
 45
0.0
1001
ACAD
1000
AcDbSavedByObjectVersion
1070
     0
  0
VISUALSTYLE
  5
1B6B
102
{ACAD_XDICTIONARY
360
1BC4
102
}
102
{ACAD_REACTORS
330
2B4
102
}
330
2B4
100
AcDbVisualStyle
  2
Sketchy
 70
    24
 71
     1
 72
     2
 73
     2
 90
        0
 40
-0.6
 41
-30.0
 62
     5
 63
     7
 74
     2
 91
        2
 64
     7
 65
     7
 75
     1
175
     1
 42
40.0
 92
       11
 66
     7
 43
1.0
 76
     1
 77
     6
 78
     2
 67
     7
 79
     6
170
     0
171
     0
290
     0
174
     0
 93
        1
 44
0.0
173
     0
291
     0
 45
0.0
1001
ACAD
1000
AcDbSavedByObjectVersion
1070
     0
  0
VISUALSTYLE
  5
2C1
102
{ACAD_XDICTIONARY
360
1BA8
102
}
102
{ACAD_REACTORS
330
2B4
102
}
330
2B4
100
AcDbVisualStyle
  2
Thicken
 70
    13
 71
     2
 72
     2
 73
     0
 90
        0
 40
-0.6
 41
-30.0
 62
     5
 63
     7
 74
     1
 91
        4
 64
     7
 65
   257
 75
     1
175
     1
 42
1.0
 92
       12
 66
     7
 43
1.0
 76
     1
 77
     6
 78
     2
 67
     7
 79
     5
170
     0
171
     0
290
     0
174
     0
 93
        1
 44
0.0
173
     0
291
     1
 45
0.0
1001
ACAD
1000
AcDbSavedByObjectVersion
1070
     0
  0
VISUALSTYLE
  5
1B68
102
{ACAD_XDICTIONARY
360
1BBE
102
}
102
{ACAD_REACTORS
330
2B4
102
}
330
2B4
100
AcDbVisualStyle
  2
Wireframe
 70
     5
 71
     0
 72
     2
 73
     0
 90
        0
 40
-0.6
 41
-30.0
 62
     5
 63
     7
 74
     1
 91
        4
 64
     7
 65
   257
 75
     1
175
     1
 42
1.0
 92
        0
 66
   257
 43
1.0
 76
     1
 77
     6
 78
     2
 67
     7
 79
     3
170
     0
171
     0
290
     0
174
     0
 93
        1
 44
0.0
173
     0
291
     0
 45
0.0
1001
ACAD
1000
AcDbSavedByObjectVersion
1070
     0
  0
VISUALSTYLE
  5
1B6C
102
{ACAD_XDICTIONARY
360
1BC6
102
}
102
{ACAD_REACTORS
330
2B4
102
}
330
2B4
100
AcDbVisualStyle
  2
X-Ray
 70
    25
 71
     2
 72
     2
 73
     1
 90
        1
 40
0.5
 41
-30.0
 62
     5
 63
     7
 74
     1
 91
        0
 64
     7
 65
   257
 75
     1
175
     1
 42
1.0
 92
        8
 66
     7
 43
1.0
 76
     1
 77
     6
 78
     2
 67
     7
 79
     3
170
     0
171
     0
290
     0
174
     0
 93
       13
 44
0.0
173
     0
291
     0
 45
0.0
1001
ACAD
1000
AcDbSavedByObjectVersion
1070
     0
  0
DICTIONARYVAR
  5
36B
102
{ACAD_REACTORS
330
2AA
102
}
330
2AA
100
DictionaryVariables
280
     0
  1
1:1
  0
DICTIONARYVAR
  5
369
102
{ACAD_REACTORS
330
2AA
102
}
330
2AA
100
DictionaryVariables
280
     0
  1
STANDARD
  0
DICTIONARYVAR
  5
312
102
{ACAD_REACTORS
330
2AA
102
}
330
2AA
100
DictionaryVariables
280
     0
  1
STANDARD
  0
DICTIONARYVAR
  5
2AB
102
{ACAD_REACTORS
330
2AA
102
}
330
2AA
100
DictionaryVariables
280
     0
  1
2
  0
DICTIONARYVAR
  5
1924
102
{ACAD_REACTORS
330
2AA
102
}
330
2AA
100
DictionaryVariables
280
     0
  1
0
  0
DICTIONARYVAR
  5
314
102
{ACAD_REACTORS
330
2AA
102
}
330
2AA
100
DictionaryVariables
280
     0
  1
0
  0
DICTIONARYVAR
  5
1926
102
{ACAD_REACTORS
330
2AA
102
}
330
2AA
100
DictionaryVariables
280
     0
  1
1
  0
DICTIONARYVAR
  5
1927
102
{ACAD_REACTORS
330
2AA
102
}
330
2AA
100
DictionaryVariables
280
     0
  1
15
  0
DICTIONARYVAR
  5
36C
102
{ACAD_REACTORS
330
2AA
102
}
330
2AA
100
DictionaryVariables
280
     0
  1
0
  0
DICTIONARYVAR
  5
1925
102
{ACAD_REACTORS
330
2AA
102
}
330
2AA
100
DictionaryVariables
280
     0
  1
10.000000
  0
DICTIONARYVAR
  5
36A
102
{ACAD_REACTORS
330
2AA
102
}
330
2AA
100
DictionaryVariables
280
     0
  1
0
  0
DICTIONARYVAR
  5
313
102
{ACAD_REACTORS
330
2AA
102
}
330
2AA
100
DictionaryVariables
280
     0
  1
127
  0
DICTIONARYVAR
  5
1B7E
102
{ACAD_REACTORS
330
2AA
102
}
330
2AA
100
DictionaryVariables
280
     0
  1
0
  0
XRECORD
  5
51
102
{ACAD_REACTORS
330
50
102
}
330
50
100
AcDbXrecord
280
     1
 91
        0
  0
ACAD_PROXY_OBJECT
  5
6DA
102
{ACAD_REACTORS
330
6D9
102
}
330
6D9
100
AcDbProxyObject
 90
      499
 91
      512
 95
  3276827
 70
     0
 93
      153
310
407907440045004600410055004C0054007A00CC
 94
        0
1001
ACAD
1000
AcRTDxfName
1000
ACDBQSCATEGORY
  0
ACAD_PROXY_OBJECT
  5
829
102
{ACAD_REACTORS
330
828
102
}
330
828
100
AcDbProxyObject
 90
      499
 91
      513
 95
  3276827
 70
     0
 93
     2908
310
40B520280D55480A0281203520280A0280C0000000000000A200000000000000448080C00000000000019200000000000000688120280A0280A0E88008A008C008200AA009800A80082280027802980170020E88008A008C008200AA009800A80080A180202860120C86009E008800920086008A008A220024802680228027
310
00298024802780270024802F8022002480268018801680220024802680190024EA2007400B800A200A600BE00A4008A00A8008A00B80082009A00840092008A009C00A8009200B800A8009E00A000BE00880092008A00A400A4008A00B800A8008200840060005C008800AE008E0095A8801D002E00288029802F802900228
310
02A0022802E002080268021002480228027002A0024802E002A00278028002F802200248022802900290022802E002A00278028002F802800208026002600170022002B80238020C86009E008800920086008A0085A200228029802180290024802D00248027802700228050413C
 94
        0
1001
ACAD
1000
AcRTDxfName
1000
ACDBQSPALLSTYLE
  0
XRECORD
  5
1B63
102
{ACAD_REACTORS
330
1B5E
102
}
330
1B5E
100
AcDbXrecord
280
     1
  9
X27e2
  0
XRECORD
  5
1B61
102
{ACAD_REACTORS
330
1B5E
102
}
330
1B5E
100
AcDbXrecord
280
     1
  2
.1
  3
P-0497
  6
X27e2
280
     1
310
6465736372697A696F6E65002E3100444154410030342F30382F30390064697365676E61746F7265004D6172636F20412E00717461003100554D004E52005245560030005343414C4100313A310000
 10
0.0
 20
0.0
 30
0.0
  0
XRECORD
  5
1B5F
102
{ACAD_REACTORS
330
1B5E
102
}
330
1B5E
100
AcDbXrecord
280
     1
  2
PROFIL.Q30-2VA TAMP./ARG.
  3
P-0000
280
     1
310
6465736372697A696F6E650050524F46494C2E5133302D3256412054414D502E2F4152472E00444154410030342F30382F303900554D004D4C0052455600300044495345474E41544F5245004D6172636F20412E005343414C4100313A3130005452415454414D454E544900414E4F442E415247454E544F005154410031004E4F544500414E5449434F524F44414C204C45474120363036302F554E493930303631004D4154455249414C4500414C4C554D494E494F00434F444943450058423235353331002E666D7400340000
 10
0.0
 20
0.0
 30
0.0
  0
XRECORD
  5
1B62
102
{ACAD_REACTORS
330
1B5E
102
}
330
1B5E
100
AcDbXrecord
280
     1
  2
PROF.Q30 2VA TAMP. ALL.ANOD.ARG.
  3
P-487B
  6
X27e2
280
     2
310
6465736372697A696F6E650050524F462E513330203256412054414D502E20414C4C2E414E4F442E4152472E00444154410030362F30382F30390064697365676E61746F7265004D6172636F20412E00717461003100554D004D4C0052455600300024736F7572636500416E61677261666963612047657374696F6E616C6500434F4449434500584232353533310044494D3100313030300044494D454E53494F4E495F44494D312D44494D320031303030005452415454414D454E544900414E4F442E415247454E544F004E4F544500414E5449434F524F44414C204C454741363036302F554E49203930303631004D4154455249414C4500414C4C554D
311
494E494F0000
 10
1294.931861784109
 20
1722.051966505519
 30
0.0
  0
XRECORD
  5
1B60
102
{ACAD_REACTORS
330
1B5E
102
}
330
1B5E
100
AcDbXrecord
280
     1
  2
.cart
  3
P-7FC5
  6
X27e2
280
     1
310
6465736372697A696F6E65002E6361727400444154410030342F30382F30390064697365676E61746F7265004D6172636F20412E00717461003100554D004E52005245560030005343414C4100313A31300000
 10
0.0
 20
0.0
 30
0.0
  0
XRECORD
  5
6E1
102
{ACAD_REACTORS
330
6E0
102
}
330
6E0
100
AcDbXrecord
280
     1
 90
      202
 91
      144
  0
DICTIONARY
  5
1B88
330
48
100
AcDbDictionary
280
     1
281
     1
  3
ACAD_XREC_ROUNDTRIP
360
1B89
  0
DICTIONARY
  5
1B86
330
47
100
AcDbDictionary
280
     1
281
     1
  3
ACAD_XREC_ROUNDTRIP
360
1B87
  0
DICTIONARY
  5
1B8C
330
2B2
100
AcDbDictionary
280
     1
281
     1
  3
ACAD_XREC_ROUNDTRIP
360
1B8D
  0
DICTIONARY
  5
1B8A
330
2B1
100
AcDbDictionary
280
     1
281
     1
  3
ACAD_XREC_ROUNDTRIP
360
1B8B
  0
DICTIONARY
  5
1B8E
330
2B3
100
AcDbDictionary
280
     1
281
     1
  3
ACAD_XREC_ROUNDTRIP
360
1B8F
  0
DICTIONARY
  5
1BB4
330
1B13
100
AcDbDictionary
280
     1
281
     1
  3
ACAD_XREC_ROUNDTRIP
360
1BB5
  0
DICTIONARY
  5
1BB6
330
1B14
100
AcDbDictionary
280
     1
281
     1
  3
ACAD_XREC_ROUNDTRIP
360
1BB7
  0
DICTIONARY
  5
1BB8
330
1B15
100
AcDbDictionary
280
     1
281
     1
  3
ACAD_XREC_ROUNDTRIP
360
1BB9
  0
DICTIONARY
  5
1BBA
330
1B16
100
AcDbDictionary
280
     1
281
     1
  3
ACAD_XREC_ROUNDTRIP
360
1BBB
  0
DICTIONARY
  5
1BBC
330
1B17
100
AcDbDictionary
280
     1
281
     1
  3
ACAD_XREC_ROUNDTRIP
360
1BBD
  0
DICTIONARY
  5
B6F
330
B6E
100
AcDbDictionary
280
     1
281
     1
  3
ACAD_ROUNDTRIP_2008_TABLESTYLE_CELLSTYLEMAP
360
1B80
  3
ACAD_XREC_ROUNDTRIP
360
1BB2
  0
DICTIONARY
  5
B71
330
B70
100
AcDbDictionary
280
     1
281
     1
  3
ACAD_ROUNDTRIP_2008_TABLESTYLE_CELLSTYLEMAP
360
1B81
  3
ACAD_XREC_ROUNDTRIP
360
1BB3
  0
DICTIONARY
  5
362
330
2C7
100
AcDbDictionary
280
     1
281
     1
  3
ACAD_ROUNDTRIP_2008_TABLESTYLE_CELLSTYLEMAP
360
1B7F
  3
ACAD_XREC_ROUNDTRIP
360
1BB0
  0
DICTIONARY
  5
1B9A
330
2BA
100
AcDbDictionary
280
     1
281
     1
  3
ACAD_XREC_ROUNDTRIP
360
1B9B
  0
DICTIONARY
  5
1B9E
330
2BC
100
AcDbDictionary
280
     1
281
     1
  3
ACAD_XREC_ROUNDTRIP
360
1B9F
  0
DICTIONARY
  5
1B9C
330
2BB
100
AcDbDictionary
280
     1
281
     1
  3
ACAD_XREC_ROUNDTRIP
360
1B9D
  0
DICTIONARY
  5
1B98
330
2B9
100
AcDbDictionary
280
     1
281
     1
  3
ACAD_XREC_ROUNDTRIP
360
1B99
  0
DICTIONARY
  5
1BA6
330
2C0
100
AcDbDictionary
280
     1
281
     1
  3
ACAD_XREC_ROUNDTRIP
360
1BA7
  0
DICTIONARY
  5
1BAE
330
2C4
100
AcDbDictionary
280
     1
281
     1
  3
ACAD_XREC_ROUNDTRIP
360
1BAF
  0
DICTIONARY
  5
1BA0
330
2BD
100
AcDbDictionary
280
     1
281
     1
  3
ACAD_XREC_ROUNDTRIP
360
1BA1
  0
DICTIONARY
  5
1BA4
330
2BF
100
AcDbDictionary
280
     1
281
     1
  3
ACAD_XREC_ROUNDTRIP
360
1BA5
  0
DICTIONARY
  5
1BD0
330
1B71
100
AcDbDictionary
280
     1
281
     1
  3
ACAD_XREC_ROUNDTRIP
360
1BD1
  0
DICTIONARY
  5
1BAC
330
2C3
100
AcDbDictionary
280
     1
281
     1
  3
ACAD_XREC_ROUNDTRIP
360
1BAD
  0
DICTIONARY
  5
1B90
330
2B5
100
AcDbDictionary
280
     1
281
     1
  3
ACAD_XREC_ROUNDTRIP
360
1B91
  0
DICTIONARY
  5
1B92
330
2B6
100
AcDbDictionary
280
     1
281
     1
  3
ACAD_XREC_ROUNDTRIP
360
1B93
  0
DICTIONARY
  5
1B94
330
2B7
100
AcDbDictionary
280
     1
281
     1
  3
ACAD_XREC_ROUNDTRIP
360
1B95
  0
DICTIONARY
  5
1B96
330
2B8
100
AcDbDictionary
280
     1
281
     1
  3
ACAD_XREC_ROUNDTRIP
360
1B97
  0
DICTIONARY
  5
1BC0
330
1B69
100
AcDbDictionary
280
     1
281
     1
  3
ACAD_XREC_ROUNDTRIP
360
1BC1
  0
DICTIONARY
  5
1BCC
330
1B6F
100
AcDbDictionary
280
     1
281
     1
  3
ACAD_XREC_ROUNDTRIP
360
1BCD
  0
DICTIONARY
  5
1BAA
330
2C2
100
AcDbDictionary
280
     1
281
     1
  3
ACAD_XREC_ROUNDTRIP
360
1BAB
  0
DICTIONARY
  5
1BCE
330
1B70
100
AcDbDictionary
280
     1
281
     1
  3
ACAD_XREC_ROUNDTRIP
360
1BCF
  0
DICTIONARY
  5
1BA2
330
2BE
100
AcDbDictionary
280
     1
281
     1
  3
ACAD_XREC_ROUNDTRIP
360
1BA3
  0
DICTIONARY
  5
1BCA
330
1B6E
100
AcDbDictionary
280
     1
281
     1
  3
ACAD_XREC_ROUNDTRIP
360
1BCB
  0
DICTIONARY
  5
1BC8
330
1B6D
100
AcDbDictionary
280
     1
281
     1
  3
ACAD_XREC_ROUNDTRIP
360
1BC9
  0
DICTIONARY
  5
1BC2
330
1B6A
100
AcDbDictionary
280
     1
281
     1
  3
ACAD_XREC_ROUNDTRIP
360
1BC3
  0
DICTIONARY
  5
1BC4
330
1B6B
100
AcDbDictionary
280
     1
281
     1
  3
ACAD_XREC_ROUNDTRIP
360
1BC5
  0
DICTIONARY
  5
1BA8
330
2C1
100
AcDbDictionary
280
     1
281
     1
  3
ACAD_XREC_ROUNDTRIP
360
1BA9
  0
DICTIONARY
  5
1BBE
330
1B68
100
AcDbDictionary
280
     1
281
     1
  3
ACAD_XREC_ROUNDTRIP
360
1BBF
  0
DICTIONARY
  5
1BC6
330
1B6C
100
AcDbDictionary
280
     1
281
     1
  3
ACAD_XREC_ROUNDTRIP
360
1BC7
  0
XRECORD
  5
1B89
102
{ACAD_REACTORS
330
1B88
102
}
330
1B88
100
AcDbXrecord
280
     1
102
SHADEPLOT
 70
     0
102
SHADEPLOTRESLEVEL
 70
     2
102
SHADEPLOTCUSTOMDPI
 70
   300
  0
XRECORD
  5
1B87
102
{ACAD_REACTORS
330
1B86
102
}
330
1B86
100
AcDbXrecord
280
     1
102
SHADEPLOT
 70
     0
102
SHADEPLOTRESLEVEL
 70
     2
102
SHADEPLOTCUSTOMDPI
 70
   300
  0
XRECORD
  5
1B8D
102
{ACAD_REACTORS
330
1B8C
102
}
330
1B8C
100
AcDbXrecord
280
     1
102
MATERIAL
148
0.0
149
0.0
149
0.0
 93
        0
 94
       63
282
     0
 72
     1
 77
     1
171
     1
175
     1
179
     1
273
     0
  0
XRECORD
  5
1B8B
102
{ACAD_REACTORS
330
1B8A
102
}
330
1B8A
100
AcDbXrecord
280
     1
102
MATERIAL
148
0.0
149
0.0
149
0.0
 93
        0
 94
       63
282
     0
 72
     1
 77
     1
171
     1
175
     1
179
     1
273
     0
  0
XRECORD
  5
1B8F
102
{ACAD_REACTORS
330
1B8E
102
}
330
1B8E
100
AcDbXrecord
280
     1
102
MATERIAL
148
0.0
149
0.0
149
0.0
 93
        0
 94
       63
282
     0
 72
     1
 77
     1
171
     1
175
     1
179
     1
273
     0
  0
XRECORD
  5
1BB5
102
{ACAD_REACTORS
330
1BB4
102
}
330
1BB4
100
AcDbXrecord
280
     1
102
SHADEPLOT
 70
     0
102
SHADEPLOTRESLEVEL
 70
     2
102
SHADEPLOTCUSTOMDPI
 70
   300
  0
XRECORD
  5
1BB7
102
{ACAD_REACTORS
330
1BB6
102
}
330
1BB6
100
AcDbXrecord
280
     1
102
SHADEPLOT
 70
     0
102
SHADEPLOTRESLEVEL
 70
     2
102
SHADEPLOTCUSTOMDPI
 70
   300
  0
XRECORD
  5
1BB9
102
{ACAD_REACTORS
330
1BB8
102
}
330
1BB8
100
AcDbXrecord
280
     1
102
SHADEPLOT
 70
     0
102
SHADEPLOTRESLEVEL
 70
     2
102
SHADEPLOTCUSTOMDPI
 70
   300
  0
XRECORD
  5
1BBB
102
{ACAD_REACTORS
330
1BBA
102
}
330
1BBA
100
AcDbXrecord
280
     1
102
SHADEPLOT
 70
     0
102
SHADEPLOTRESLEVEL
 70
     2
102
SHADEPLOTCUSTOMDPI
 70
   300
  0
XRECORD
  5
1BBD
102
{ACAD_REACTORS
330
1BBC
102
}
330
1BBC
100
AcDbXrecord
280
     1
102
SHADEPLOT
 70
     0
102
SHADEPLOTRESLEVEL
 70
     2
102
SHADEPLOTCUSTOMDPI
 70
   300
  0
CELLSTYLEMAP
  5
1B80
102
{ACAD_REACTORS
330
B6F
102
}
330
B6F
100
AcDbCellStyleMap
 90
        3
300
CELLSTYLE
  1
TABLEFORMAT_BEGIN
 90
        5
170
     1
 91
        0
 92
    32768
 62
   257
 93
        1
300
CONTENTFORMAT
  1
CONTENTFORMAT_BEGIN
 90
        0
 91
        0
 92
      512
 93
        0
300

 40
0.0
140
1.0
 94
        5
 62
     1
340
1B
144
6.0
309
CONTENTFORMAT_END
171
     1
301
MARGIN
  1
CELLMARGIN_BEGIN
 40
1.5
 40
1.5
 40
1.5
 40
1.5
 40
0.18
 40
0.18
309
CELLMARGIN_END
 94
        6
 95
        1
302
GRIDFORMAT
  1
GRIDFORMAT_BEGIN
 90
        0
 91
        1
 62
     0
 92
       -2
340
0
 93
        0
 40
0.045
309
GRIDFORMAT_END
 95
        2
302
GRIDFORMAT
  1
GRIDFORMAT_BEGIN
 90
        0
 91
        1
 62
     0
 92
       -2
340
0
 93
        0
 40
0.045
309
GRIDFORMAT_END
 95
        4
302
GRIDFORMAT
  1
GRIDFORMAT_BEGIN
 90
        0
 91
        1
 62
     0
 92
       -2
340
0
 93
        0
 40
0.045
309
GRIDFORMAT_END
 95
        8
302
GRIDFORMAT
  1
GRIDFORMAT_BEGIN
 90
        0
 91
        1
 62
     0
 92
       -2
340
0
 93
        0
 40
0.045
309
GRIDFORMAT_END
 95
       16
302
GRIDFORMAT
  1
GRIDFORMAT_BEGIN
 90
        0
 91
        1
 62
     0
 92
       -2
340
0
 93
        0
 40
0.045
309
GRIDFORMAT_END
 95
       32
302
GRIDFORMAT
  1
GRIDFORMAT_BEGIN
 90
        0
 91
        1
 62
     0
 92
       -2
340
0
 93
        0
 40
0.045
309
GRIDFORMAT_END
309
TABLEFORMAT_END
  1
CELLSTYLE_BEGIN
 90
        1
 91
        1
300
_TITLE
309
CELLSTYLE_END
300
CELLSTYLE
  1
TABLEFORMAT_BEGIN
 90
        5
170
     1
 91
        0
 92
        0
 62
   257
 93
        1
300
CONTENTFORMAT
  1
CONTENTFORMAT_BEGIN
 90
        0
 91
        0
 92
      512
 93
        0
300

 40
0.0
140
1.0
 94
        5
 62
     3
340
1B
144
3.5
309
CONTENTFORMAT_END
171
     1
301
MARGIN
  1
CELLMARGIN_BEGIN
 40
1.5
 40
1.5
 40
1.5
 40
1.5
 40
0.18
 40
0.18
309
CELLMARGIN_END
 94
        6
 95
        1
302
GRIDFORMAT
  1
GRIDFORMAT_BEGIN
 90
        0
 91
        1
 62
     0
 92
       -2
340
0
 93
        0
 40
0.045
309
GRIDFORMAT_END
 95
        2
302
GRIDFORMAT
  1
GRIDFORMAT_BEGIN
 90
        0
 91
        1
 62
     0
 92
       -2
340
0
 93
        0
 40
0.045
309
GRIDFORMAT_END
 95
        4
302
GRIDFORMAT
  1
GRIDFORMAT_BEGIN
 90
        0
 91
        1
 62
     0
 92
       -2
340
0
 93
        0
 40
0.045
309
GRIDFORMAT_END
 95
        8
302
GRIDFORMAT
  1
GRIDFORMAT_BEGIN
 90
        0
 91
        1
 62
     0
 92
       -2
340
0
 93
        0
 40
0.045
309
GRIDFORMAT_END
 95
       16
302
GRIDFORMAT
  1
GRIDFORMAT_BEGIN
 90
        0
 91
        1
 62
     0
 92
       -2
340
0
 93
        0
 40
0.045
309
GRIDFORMAT_END
 95
       32
302
GRIDFORMAT
  1
GRIDFORMAT_BEGIN
 90
        0
 91
        1
 62
     0
 92
       -2
340
0
 93
        0
 40
0.045
309
GRIDFORMAT_END
309
TABLEFORMAT_END
  1
CELLSTYLE_BEGIN
 90
        2
 91
        1
300
_HEADER
309
CELLSTYLE_END
300
CELLSTYLE
  1
TABLEFORMAT_BEGIN
 90
        5
170
     1
 91
        0
 92
        0
 62
   257
 93
        1
300
CONTENTFORMAT
  1
CONTENTFORMAT_BEGIN
 90
        0
 91
        0
 92
      512
 93
        0
300

 40
0.0
140
1.0
 94
        5
 62
     7
340
1B
144
3.0
309
CONTENTFORMAT_END
171
     1
301
MARGIN
  1
CELLMARGIN_BEGIN
 40
1.5
 40
1.5
 40
1.5
 40
1.5
 40
0.18
 40
0.18
309
CELLMARGIN_END
 94
        6
 95
        1
302
GRIDFORMAT
  1
GRIDFORMAT_BEGIN
 90
        0
 91
        1
 62
     0
 92
       -2
340
0
 93
        0
 40
0.045
309
GRIDFORMAT_END
 95
        2
302
GRIDFORMAT
  1
GRIDFORMAT_BEGIN
 90
        0
 91
        1
 62
     0
 92
       -2
340
0
 93
        0
 40
0.045
309
GRIDFORMAT_END
 95
        4
302
GRIDFORMAT
  1
GRIDFORMAT_BEGIN
 90
        0
 91
        1
 62
     0
 92
       -2
340
0
 93
        0
 40
0.045
309
GRIDFORMAT_END
 95
        8
302
GRIDFORMAT
  1
GRIDFORMAT_BEGIN
 90
        0
 91
        1
 62
     0
 92
       -2
340
0
 93
        0
 40
0.045
309
GRIDFORMAT_END
 95
       16
302
GRIDFORMAT
  1
GRIDFORMAT_BEGIN
 90
        0
 91
        1
 62
     0
 92
       -2
340
0
 93
        0
 40
0.045
309
GRIDFORMAT_END
 95
       32
302
GRIDFORMAT
  1
GRIDFORMAT_BEGIN
 90
        0
 91
        1
 62
     0
 92
       -2
340
0
 93
        0
 40
0.045
309
GRIDFORMAT_END
309
TABLEFORMAT_END
  1
CELLSTYLE_BEGIN
 90
        3
 91
        2
300
_DATA
309
CELLSTYLE_END
  0
XRECORD
  5
1BB2
102
{ACAD_REACTORS
330
B6F
102
}
330
B6F
100
AcDbXrecord
280
     1
102
ACAD_ROUNDTRIP_PRE2007_TABLESTYLE
 90
      512
 91
        0
  1

 92
      512
 93
        0
  2

 94
      512
 95
        0
  3

  0
CELLSTYLEMAP
  5
1B81
102
{ACAD_REACTORS
330
B71
102
}
330
B71
100
AcDbCellStyleMap
 90
        3
300
CELLSTYLE
  1
TABLEFORMAT_BEGIN
 90
        5
170
     1
 91
        0
 92
    32768
 62
   257
 93
        1
300
CONTENTFORMAT
  1
CONTENTFORMAT_BEGIN
 90
        0
 91
        0
 92
      512
 93
        0
300

 40
0.0
140
1.0
 94
        5
 62
     1
340
1B
144
6.0
309
CONTENTFORMAT_END
171
     1
301
MARGIN
  1
CELLMARGIN_BEGIN
 40
1.5
 40
1.5
 40
1.5
 40
1.5
 40
0.18
 40
0.18
309
CELLMARGIN_END
 94
        6
 95
        1
302
GRIDFORMAT
  1
GRIDFORMAT_BEGIN
 90
        0
 91
        1
 62
     0
 92
       -2
340
0
 93
        0
 40
0.045
309
GRIDFORMAT_END
 95
        2
302
GRIDFORMAT
  1
GRIDFORMAT_BEGIN
 90
        0
 91
        1
 62
     0
 92
       -2
340
0
 93
        0
 40
0.045
309
GRIDFORMAT_END
 95
        4
302
GRIDFORMAT
  1
GRIDFORMAT_BEGIN
 90
        0
 91
        1
 62
     0
 92
       -2
340
0
 93
        0
 40
0.045
309
GRIDFORMAT_END
 95
        8
302
GRIDFORMAT
  1
GRIDFORMAT_BEGIN
 90
        0
 91
        1
 62
     0
 92
       -2
340
0
 93
        0
 40
0.045
309
GRIDFORMAT_END
 95
       16
302
GRIDFORMAT
  1
GRIDFORMAT_BEGIN
 90
        0
 91
        1
 62
     0
 92
       -2
340
0
 93
        0
 40
0.045
309
GRIDFORMAT_END
 95
       32
302
GRIDFORMAT
  1
GRIDFORMAT_BEGIN
 90
        0
 91
        1
 62
     0
 92
       -2
340
0
 93
        0
 40
0.045
309
GRIDFORMAT_END
309
TABLEFORMAT_END
  1
CELLSTYLE_BEGIN
 90
        1
 91
        1
300
_TITLE
309
CELLSTYLE_END
300
CELLSTYLE
  1
TABLEFORMAT_BEGIN
 90
        5
170
     1
 91
        0
 92
        0
 62
   257
 93
        1
300
CONTENTFORMAT
  1
CONTENTFORMAT_BEGIN
 90
        0
 91
        0
 92
      512
 93
        0
300

 40
0.0
140
1.0
 94
        5
 62
     3
340
1B
144
5.0
309
CONTENTFORMAT_END
171
     1
301
MARGIN
  1
CELLMARGIN_BEGIN
 40
1.5
 40
1.5
 40
1.5
 40
1.5
 40
0.18
 40
0.18
309
CELLMARGIN_END
 94
        6
 95
        1
302
GRIDFORMAT
  1
GRIDFORMAT_BEGIN
 90
        0
 91
        1
 62
     0
 92
       -2
340
0
 93
        0
 40
0.045
309
GRIDFORMAT_END
 95
        2
302
GRIDFORMAT
  1
GRIDFORMAT_BEGIN
 90
        0
 91
        1
 62
     0
 92
       -2
340
0
 93
        0
 40
0.045
309
GRIDFORMAT_END
 95
        4
302
GRIDFORMAT
  1
GRIDFORMAT_BEGIN
 90
        0
 91
        1
 62
     0
 92
       -2
340
0
 93
        0
 40
0.045
309
GRIDFORMAT_END
 95
        8
302
GRIDFORMAT
  1
GRIDFORMAT_BEGIN
 90
        0
 91
        1
 62
     0
 92
       -2
340
0
 93
        0
 40
0.045
309
GRIDFORMAT_END
 95
       16
302
GRIDFORMAT
  1
GRIDFORMAT_BEGIN
 90
        0
 91
        1
 62
     0
 92
       -2
340
0
 93
        0
 40
0.045
309
GRIDFORMAT_END
 95
       32
302
GRIDFORMAT
  1
GRIDFORMAT_BEGIN
 90
        0
 91
        1
 62
     0
 92
       -2
340
0
 93
        0
 40
0.045
309
GRIDFORMAT_END
309
TABLEFORMAT_END
  1
CELLSTYLE_BEGIN
 90
        2
 91
        1
300
_HEADER
309
CELLSTYLE_END
300
CELLSTYLE
  1
TABLEFORMAT_BEGIN
 90
        5
170
     1
 91
        0
 92
        0
 62
   257
 93
        1
300
CONTENTFORMAT
  1
CONTENTFORMAT_BEGIN
 90
        0
 91
        0
 92
      512
 93
        0
300

 40
0.0
140
1.0
 94
        5
 62
     7
340
1B
144
4.5
309
CONTENTFORMAT_END
171
     1
301
MARGIN
  1
CELLMARGIN_BEGIN
 40
1.5
 40
1.5
 40
1.5
 40
1.5
 40
0.18
 40
0.18
309
CELLMARGIN_END
 94
        6
 95
        1
302
GRIDFORMAT
  1
GRIDFORMAT_BEGIN
 90
        0
 91
        1
 62
     0
 92
       -2
340
0
 93
        0
 40
0.045
309
GRIDFORMAT_END
 95
        2
302
GRIDFORMAT
  1
GRIDFORMAT_BEGIN
 90
        0
 91
        1
 62
     0
 92
       -2
340
0
 93
        0
 40
0.045
309
GRIDFORMAT_END
 95
        4
302
GRIDFORMAT
  1
GRIDFORMAT_BEGIN
 90
        0
 91
        1
 62
     0
 92
       -2
340
0
 93
        0
 40
0.045
309
GRIDFORMAT_END
 95
        8
302
GRIDFORMAT
  1
GRIDFORMAT_BEGIN
 90
        0
 91
        1
 62
     0
 92
       -2
340
0
 93
        0
 40
0.045
309
GRIDFORMAT_END
 95
       16
302
GRIDFORMAT
  1
GRIDFORMAT_BEGIN
 90
        0
 91
        1
 62
     0
 92
       -2
340
0
 93
        0
 40
0.045
309
GRIDFORMAT_END
 95
       32
302
GRIDFORMAT
  1
GRIDFORMAT_BEGIN
 90
        0
 91
        1
 62
     0
 92
       -2
340
0
 93
        0
 40
0.045
309
GRIDFORMAT_END
309
TABLEFORMAT_END
  1
CELLSTYLE_BEGIN
 90
        3
 91
        2
300
_DATA
309
CELLSTYLE_END
  0
XRECORD
  5
1BB3
102
{ACAD_REACTORS
330
B71
102
}
330
B71
100
AcDbXrecord
280
     1
102
ACAD_ROUNDTRIP_PRE2007_TABLESTYLE
 90
      512
 91
        0
  1

 92
      512
 93
        0
  2

 94
      512
 95
        0
  3

  0
CELLSTYLEMAP
  5
1B7F
102
{ACAD_REACTORS
330
362
102
}
330
362
100
AcDbCellStyleMap
 90
        3
300
CELLSTYLE
  1
TABLEFORMAT_BEGIN
 90
        5
170
     1
 91
        0
 92
    32768
 62
   257
 93
        1
300
CONTENTFORMAT
  1
CONTENTFORMAT_BEGIN
 90
        0
 91
        0
 92
      512
 93
        0
300

 40
0.0
140
1.0
 94
        5
 62
     0
340
C
144
6.0
309
CONTENTFORMAT_END
171
     1
301
MARGIN
  1
CELLMARGIN_BEGIN
 40
1.5
 40
1.5
 40
1.5
 40
1.5
 40
0.18
 40
0.18
309
CELLMARGIN_END
 94
        6
 95
        1
302
GRIDFORMAT
  1
GRIDFORMAT_BEGIN
 90
        0
 91
        1
 62
     0
 92
       -2
340
0
 93
        0
 40
0.045
309
GRIDFORMAT_END
 95
        2
302
GRIDFORMAT
  1
GRIDFORMAT_BEGIN
 90
        0
 91
        1
 62
     0
 92
       -2
340
0
 93
        0
 40
0.045
309
GRIDFORMAT_END
 95
        4
302
GRIDFORMAT
  1
GRIDFORMAT_BEGIN
 90
        0
 91
        1
 62
     0
 92
       -2
340
0
 93
        0
 40
0.045
309
GRIDFORMAT_END
 95
        8
302
GRIDFORMAT
  1
GRIDFORMAT_BEGIN
 90
        0
 91
        1
 62
     0
 92
       -2
340
0
 93
        0
 40
0.045
309
GRIDFORMAT_END
 95
       16
302
GRIDFORMAT
  1
GRIDFORMAT_BEGIN
 90
        0
 91
        1
 62
     0
 92
       -2
340
0
 93
        0
 40
0.045
309
GRIDFORMAT_END
 95
       32
302
GRIDFORMAT
  1
GRIDFORMAT_BEGIN
 90
        0
 91
        1
 62
     0
 92
       -2
340
0
 93
        0
 40
0.045
309
GRIDFORMAT_END
309
TABLEFORMAT_END
  1
CELLSTYLE_BEGIN
 90
        1
 91
        1
300
_TITLE
309
CELLSTYLE_END
300
CELLSTYLE
  1
TABLEFORMAT_BEGIN
 90
        5
170
     1
 91
        0
 92
        0
 62
   257
 93
        1
300
CONTENTFORMAT
  1
CONTENTFORMAT_BEGIN
 90
        0
 91
        0
 92
      512
 93
        0
300

 40
0.0
140
1.0
 94
        5
 62
     0
340
C
144
4.5
309
CONTENTFORMAT_END
171
     1
301
MARGIN
  1
CELLMARGIN_BEGIN
 40
1.5
 40
1.5
 40
1.5
 40
1.5
 40
0.18
 40
0.18
309
CELLMARGIN_END
 94
        6
 95
        1
302
GRIDFORMAT
  1
GRIDFORMAT_BEGIN
 90
        0
 91
        1
 62
     0
 92
       -2
340
0
 93
        0
 40
0.045
309
GRIDFORMAT_END
 95
        2
302
GRIDFORMAT
  1
GRIDFORMAT_BEGIN
 90
        0
 91
        1
 62
     0
 92
       -2
340
0
 93
        0
 40
0.045
309
GRIDFORMAT_END
 95
        4
302
GRIDFORMAT
  1
GRIDFORMAT_BEGIN
 90
        0
 91
        1
 62
     0
 92
       -2
340
0
 93
        0
 40
0.045
309
GRIDFORMAT_END
 95
        8
302
GRIDFORMAT
  1
GRIDFORMAT_BEGIN
 90
        0
 91
        1
 62
     0
 92
       -2
340
0
 93
        0
 40
0.045
309
GRIDFORMAT_END
 95
       16
302
GRIDFORMAT
  1
GRIDFORMAT_BEGIN
 90
        0
 91
        1
 62
     0
 92
       -2
340
0
 93
        0
 40
0.045
309
GRIDFORMAT_END
 95
       32
302
GRIDFORMAT
  1
GRIDFORMAT_BEGIN
 90
        0
 91
        1
 62
     0
 92
       -2
340
0
 93
        0
 40
0.045
309
GRIDFORMAT_END
309
TABLEFORMAT_END
  1
CELLSTYLE_BEGIN
 90
        2
 91
        1
300
_HEADER
309
CELLSTYLE_END
300
CELLSTYLE
  1
TABLEFORMAT_BEGIN
 90
        5
170
     1
 91
        0
 92
        0
 62
   257
 93
        1
300
CONTENTFORMAT
  1
CONTENTFORMAT_BEGIN
 90
        0
 91
        0
 92
      512
 93
        0
300

 40
0.0
140
1.0
 94
        2
 62
     0
340
C
144
4.5
309
CONTENTFORMAT_END
171
     1
301
MARGIN
  1
CELLMARGIN_BEGIN
 40
1.5
 40
1.5
 40
1.5
 40
1.5
 40
0.18
 40
0.18
309
CELLMARGIN_END
 94
        6
 95
        1
302
GRIDFORMAT
  1
GRIDFORMAT_BEGIN
 90
        0
 91
        1
 62
     0
 92
       -2
340
0
 93
        0
 40
0.045
309
GRIDFORMAT_END
 95
        2
302
GRIDFORMAT
  1
GRIDFORMAT_BEGIN
 90
        0
 91
        1
 62
     0
 92
       -2
340
0
 93
        0
 40
0.045
309
GRIDFORMAT_END
 95
        4
302
GRIDFORMAT
  1
GRIDFORMAT_BEGIN
 90
        0
 91
        1
 62
     0
 92
       -2
340
0
 93
        0
 40
0.045
309
GRIDFORMAT_END
 95
        8
302
GRIDFORMAT
  1
GRIDFORMAT_BEGIN
 90
        0
 91
        1
 62
     0
 92
       -2
340
0
 93
        0
 40
0.045
309
GRIDFORMAT_END
 95
       16
302
GRIDFORMAT
  1
GRIDFORMAT_BEGIN
 90
        0
 91
        1
 62
     0
 92
       -2
340
0
 93
        0
 40
0.045
309
GRIDFORMAT_END
 95
       32
302
GRIDFORMAT
  1
GRIDFORMAT_BEGIN
 90
        0
 91
        1
 62
     0
 92
       -2
340
0
 93
        0
 40
0.045
309
GRIDFORMAT_END
309
TABLEFORMAT_END
  1
CELLSTYLE_BEGIN
 90
        3
 91
        2
300
_DATA
309
CELLSTYLE_END
  0
XRECORD
  5
1BB0
102
{ACAD_REACTORS
330
362
102
}
330
362
100
AcDbXrecord
280
     1
102
ACAD_ROUNDTRIP_PRE2007_TABLESTYLE
 90
      512
 91
        0
  1

 92
      512
 93
        0
  2

 94
      512
 95
        0
  3

  0
XRECORD
  5
1B9B
102
{ACAD_REACTORS
330
1B9A
102
}
330
1B9A
100
AcDbXrecord
280
     1
102
RTVSPropertyOp0
 70
     1
102
RTVSPropertyOp1
 70
     1
102
RTVSPropertyOp2
 70
     1
102
RTVSPropertyOp3
 70
     1
102
RTVSPropertyOp4
 70
     1
102
RTVSPropertyOp5
 70
     1
102
RTVSPropertyOp6
 70
     1
102
RTVSPropertyOp7
 70
     1
102
RTVSPropertyOp8
 70
     1
102
RTVSPropertyOp9
 70
     1
102
RTVSPropertyOp10
 70
     1
102
RTVSPropertyOp11
 70
     1
102
RTVSPropertyOp12
 70
     1
102
RTVSPropertyOp13
 70
     1
102
RTVSPropertyOp14
 70
     1
102
RTVSPropertyOp15
 70
     1
102
RTVSPropertyOp16
 70
     1
102
RTVSPropertyOp17
 70
     1
102
RTVSPropertyOp18
 70
     1
102
RTVSPropertyOp19
 70
     1
102
RTVSPropertyOp20
 70
     1
102
RTVSPropertyOp21
 70
     1
102
RTVSPropertyOp22
 70
     1
102
RTVSPropertyOp23
 70
     1
102
RTVSPropertyOp24
 70
     1
102
RTVSPropertyOp25
 70
     1
102
RTVSPropertyOp26
 70
     1
102
RTVSPropertyOp27
 70
     1
102
RTVSPropertyOp28
 70
     1
102
RTVSPropertyOp29
 70
     1
102
RTVSPropertyOp30
 70
     1
102
RTVSPropertyOp31
 70
     1
102
RTVSPropertyOp32
 70
     1
  0
XRECORD
  5
1B9F
102
{ACAD_REACTORS
330
1B9E
102
}
330
1B9E
100
AcDbXrecord
280
     1
102
RTVSPropertyOp0
 70
     1
102
RTVSPropertyOp1
 70
     1
102
RTVSPropertyOp2
 70
     1
102
RTVSPropertyOp3
 70
     1
102
RTVSPropertyOp4
 70
     1
102
RTVSPropertyOp5
 70
     1
102
RTVSPropertyOp6
 70
     1
102
RTVSPropertyOp7
 70
     1
102
RTVSPropertyOp8
 70
     1
102
RTVSPropertyOp9
 70
     1
102
RTVSPropertyOp10
 70
     1
102
RTVSPropertyOp11
 70
     1
102
RTVSPropertyOp12
 70
     1
102
RTVSPropertyOp13
 70
     1
102
RTVSPropertyOp14
 70
     1
102
RTVSPropertyOp15
 70
     1
102
RTVSPropertyOp16
 70
     1
102
RTVSPropertyOp17
 70
     1
102
RTVSPropertyOp18
 70
     1
102
RTVSPropertyOp19
 70
     1
102
RTVSPropertyOp20
 70
     1
102
RTVSPropertyOp21
 70
     1
102
RTVSPropertyOp22
 70
     1
102
RTVSPropertyOp23
 70
     1
102
RTVSPropertyOp24
 70
     1
102
RTVSPropertyOp25
 70
     1
102
RTVSPropertyOp26
 70
     1
102
RTVSPropertyOp27
 70
     1
102
RTVSPropertyOp28
 70
     1
102
RTVSPropertyOp29
 70
     1
102
RTVSPropertyOp30
 70
     1
102
RTVSPropertyOp31
 70
     1
102
RTVSPropertyOp32
 70
     1
  0
XRECORD
  5
1B9D
102
{ACAD_REACTORS
330
1B9C
102
}
330
1B9C
100
AcDbXrecord
280
     1
102
RTVSPropertyOp0
 70
     1
102
RTVSPropertyOp1
 70
     1
102
RTVSPropertyOp2
 70
     1
102
RTVSPropertyOp3
 70
     1
102
RTVSPropertyOp4
 70
     1
102
RTVSPropertyOp5
 70
     1
102
RTVSPropertyOp6
 70
     1
102
RTVSPropertyOp7
 70
     1
102
RTVSPropertyOp8
 70
     1
102
RTVSPropertyOp9
 70
     1
102
RTVSPropertyOp10
 70
     1
102
RTVSPropertyOp11
 70
     1
102
RTVSPropertyOp12
 70
     1
102
RTVSPropertyOp13
 70
     1
102
RTVSPropertyOp14
 70
     1
102
RTVSPropertyOp15
 70
     1
102
RTVSPropertyOp16
 70
     1
102
RTVSPropertyOp17
 70
     1
102
RTVSPropertyOp18
 70
     1
102
RTVSPropertyOp19
 70
     1
102
RTVSPropertyOp20
 70
     1
102
RTVSPropertyOp21
 70
     1
102
RTVSPropertyOp22
 70
     1
102
RTVSPropertyOp23
 70
     1
102
RTVSPropertyOp24
 70
     1
102
RTVSPropertyOp25
 70
     1
102
RTVSPropertyOp26
 70
     1
102
RTVSPropertyOp27
 70
     1
102
RTVSPropertyOp28
 70
     1
102
RTVSPropertyOp29
 70
     1
102
RTVSPropertyOp30
 70
     1
102
RTVSPropertyOp31
 70
     1
102
RTVSPropertyOp32
 70
     1
  0
XRECORD
  5
1B99
102
{ACAD_REACTORS
330
1B98
102
}
330
1B98
100
AcDbXrecord
280
     1
102
RTVSPropertyOp0
 70
     1
102
RTVSPropertyOp1
 70
     1
102
RTVSPropertyOp2
 70
     1
102
RTVSPropertyOp3
 70
     1
102
RTVSPropertyOp4
 70
     1
102
RTVSPropertyOp5
 70
     1
102
RTVSPropertyOp6
 70
     1
102
RTVSPropertyOp7
 70
     1
102
RTVSPropertyOp8
 70
     1
102
RTVSPropertyOp9
 70
     1
102
RTVSPropertyOp10
 70
     1
102
RTVSPropertyOp11
 70
     1
102
RTVSPropertyOp12
 70
     1
102
RTVSPropertyOp13
 70
     1
102
RTVSPropertyOp14
 70
     1
102
RTVSPropertyOp15
 70
     1
102
RTVSPropertyOp16
 70
     1
102
RTVSPropertyOp17
 70
     1
102
RTVSPropertyOp18
 70
     1
102
RTVSPropertyOp19
 70
     1
102
RTVSPropertyOp20
 70
     1
102
RTVSPropertyOp21
 70
     1
102
RTVSPropertyOp22
 70
     1
102
RTVSPropertyOp23
 70
     1
102
RTVSPropertyOp24
 70
     1
102
RTVSPropertyOp25
 70
     1
102
RTVSPropertyOp26
 70
     1
102
RTVSPropertyOp27
 70
     1
102
RTVSPropertyOp28
 70
     1
102
RTVSPropertyOp29
 70
     1
102
RTVSPropertyOp30
 70
     1
102
RTVSPropertyOp31
 70
     1
102
RTVSPropertyOp32
 70
     1
  0
XRECORD
  5
1BA7
102
{ACAD_REACTORS
330
1BA6
102
}
330
1BA6
100
AcDbXrecord
280
     1
102
RTVSPropertyOp0
 70
     1
102
RTVSPropertyOp1
 70
     1
102
RTVSPropertyOp2
 70
     1
102
RTVSPropertyOp3
 70
     1
102
RTVSPropertyOp4
 70
     1
102
RTVSPropertyOp5
 70
     1
102
RTVSPropertyOp6
 70
     1
102
RTVSPropertyOp7
 70
     1
102
RTVSPropertyOp8
 70
     1
102
RTVSPropertyOp9
 70
     1
102
RTVSPropertyOp10
 70
     1
102
RTVSPropertyOp11
 70
     1
102
RTVSPropertyOp12
 70
     1
102
RTVSPropertyOp13
 70
     1
102
RTVSPropertyOp14
 70
     1
102
RTVSPropertyOp15
 70
     1
102
RTVSPropertyOp16
 70
     1
102
RTVSPropertyOp17
 70
     1
102
RTVSPropertyOp18
 70
     1
102
RTVSPropertyOp19
 70
     1
102
RTVSPropertyOp20
 70
     1
102
RTVSPropertyOp21
 70
     1
102
RTVSPropertyOp22
 70
     1
102
RTVSPropertyOp23
 70
     1
102
RTVSPropertyOp24
 70
     1
102
RTVSPropertyOp25
 70
     1
102
RTVSPropertyOp26
 70
     1
102
RTVSPropertyOp27
 70
     1
102
RTVSPropertyOp28
 70
     1
102
RTVSPropertyOp29
 70
     1
102
RTVSPropertyOp30
 70
     1
102
RTVSPropertyOp31
 70
     1
102
RTVSPropertyOp32
 70
     1
  0
XRECORD
  5
1BAF
102
{ACAD_REACTORS
330
1BAE
102
}
330
1BAE
100
AcDbXrecord
280
     1
102
RTVSPropertyOp0
 70
     1
102
RTVSPropertyOp1
 70
     1
102
RTVSPropertyOp2
 70
     1
102
RTVSPropertyOp3
 70
     1
102
RTVSPropertyOp4
 70
     1
102
RTVSPropertyOp5
 70
     1
102
RTVSPropertyOp6
 70
     1
102
RTVSPropertyOp7
 70
     1
102
RTVSPropertyOp8
 70
     1
102
RTVSPropertyOp9
 70
     1
102
RTVSPropertyOp10
 70
     1
102
RTVSPropertyOp11
 70
     1
102
RTVSPropertyOp12
 70
     1
102
RTVSPropertyOp13
 70
     1
102
RTVSPropertyOp14
 70
     1
102
RTVSPropertyOp15
 70
     1
102
RTVSPropertyOp16
 70
     1
102
RTVSPropertyOp17
 70
     1
102
RTVSPropertyOp18
 70
     1
102
RTVSPropertyOp19
 70
     1
102
RTVSPropertyOp20
 70
     1
102
RTVSPropertyOp21
 70
     1
102
RTVSPropertyOp22
 70
     1
102
RTVSPropertyOp23
 70
     1
102
RTVSPropertyOp24
 70
     1
102
RTVSPropertyOp25
 70
     1
102
RTVSPropertyOp26
 70
     1
102
RTVSPropertyOp27
 70
     1
102
RTVSPropertyOp28
 70
     1
102
RTVSPropertyOp29
 70
     1
102
RTVSPropertyOp30
 70
     1
102
RTVSPropertyOp31
 70
     1
102
RTVSPropertyOp32
 70
     1
  0
XRECORD
  5
1BA1
102
{ACAD_REACTORS
330
1BA0
102
}
330
1BA0
100
AcDbXrecord
280
     1
102
RTVSPropertyOp0
 70
     1
102
RTVSPropertyOp1
 70
     1
102
RTVSPropertyOp2
 70
     1
102
RTVSPropertyOp3
 70
     1
102
RTVSPropertyOp4
 70
     1
102
RTVSPropertyOp5
 70
     1
102
RTVSPropertyOp6
 70
     1
102
RTVSPropertyOp7
 70
     1
102
RTVSPropertyOp8
 70
     1
102
RTVSPropertyOp9
 70
     1
102
RTVSPropertyOp10
 70
     1
102
RTVSPropertyOp11
 70
     1
102
RTVSPropertyOp12
 70
     1
102
RTVSPropertyOp13
 70
     1
102
RTVSPropertyOp14
 70
     1
102
RTVSPropertyOp15
 70
     1
102
RTVSPropertyOp16
 70
     1
102
RTVSPropertyOp17
 70
     1
102
RTVSPropertyOp18
 70
     1
102
RTVSPropertyOp19
 70
     1
102
RTVSPropertyOp20
 70
     1
102
RTVSPropertyOp21
 70
     1
102
RTVSPropertyOp22
 70
     1
102
RTVSPropertyOp23
 70
     1
102
RTVSPropertyOp24
 70
     1
102
RTVSPropertyOp25
 70
     1
102
RTVSPropertyOp26
 70
     1
102
RTVSPropertyOp27
 70
     1
102
RTVSPropertyOp28
 70
     1
102
RTVSPropertyOp29
 70
     1
102
RTVSPropertyOp30
 70
     1
102
RTVSPropertyOp31
 70
     1
102
RTVSPropertyOp32
 70
     1
  0
XRECORD
  5
1BA5
102
{ACAD_REACTORS
330
1BA4
102
}
330
1BA4
100
AcDbXrecord
280
     1
102
RTVSPropertyOp0
 70
     1
102
RTVSPropertyOp1
 70
     1
102
RTVSPropertyOp2
 70
     1
102
RTVSPropertyOp3
 70
     1
102
RTVSPropertyOp4
 70
     1
102
RTVSPropertyOp5
 70
     1
102
RTVSPropertyOp6
 70
     1
102
RTVSPropertyOp7
 70
     1
102
RTVSPropertyOp8
 70
     1
102
RTVSPropertyOp9
 70
     1
102
RTVSPropertyOp10
 70
     1
102
RTVSPropertyOp11
 70
     1
102
RTVSPropertyOp12
 70
     1
102
RTVSPropertyOp13
 70
     1
102
RTVSPropertyOp14
 70
     1
102
RTVSPropertyOp15
 70
     1
102
RTVSPropertyOp16
 70
     1
102
RTVSPropertyOp17
 70
     1
102
RTVSPropertyOp18
 70
     1
102
RTVSPropertyOp19
 70
     1
102
RTVSPropertyOp20
 70
     1
102
RTVSPropertyOp21
 70
     1
102
RTVSPropertyOp22
 70
     1
102
RTVSPropertyOp23
 70
     1
102
RTVSPropertyOp24
 70
     1
102
RTVSPropertyOp25
 70
     1
102
RTVSPropertyOp26
 70
     1
102
RTVSPropertyOp27
 70
     1
102
RTVSPropertyOp28
 70
     1
102
RTVSPropertyOp29
 70
     1
102
RTVSPropertyOp30
 70
     1
102
RTVSPropertyOp31
 70
     1
102
RTVSPropertyOp32
 70
     1
  0
XRECORD
  5
1BD1
102
{ACAD_REACTORS
330
1BD0
102
}
330
1BD0
100
AcDbXrecord
280
     1
102
RTVSPropertyOp0
 70
     0
102
RTVSPropertyOp1
 70
     0
102
RTVSPropertyOp2
 70
     0
102
RTVSPropertyOp3
 70
     0
102
RTVSPropertyOp4
 70
     0
102
RTVSPropertyOp5
 70
     0
102
RTVSPropertyOp6
 70
     0
102
RTVSPropertyOp7
 70
     0
102
RTVSPropertyOp8
 70
     0
102
RTVSPropertyOp9
 70
     0
102
RTVSPropertyOp10
 70
     0
102
RTVSPropertyOp11
 70
     0
102
RTVSPropertyOp12
 70
     0
102
RTVSPropertyOp13
 70
     0
102
RTVSPropertyOp14
 70
     2
102
RTVSPropertyOp15
 70
     0
102
RTVSPropertyOp16
 70
     0
102
RTVSPropertyOp17
 70
     0
102
RTVSPropertyOp18
 70
     0
102
RTVSPropertyOp19
 70
     0
102
RTVSPropertyOp20
 70
     0
102
RTVSPropertyOp21
 70
     0
102
RTVSPropertyOp22
 70
     0
102
RTVSPropertyOp23
 70
     0
102
RTVSPropertyOp24
 70
     0
102
RTVSPropertyOp25
 70
     0
102
RTVSPropertyOp26
 70
     0
102
RTVSPropertyOp27
 70
     0
102
RTVSPropertyOp28
 70
     0
102
RTVSPropertyOp29
 70
     0
102
RTVSPropertyOp30
 70
     0
102
RTVSPropertyOp31
 70
     0
102
RTVSPropertyOp32
 70
     0
  0
XRECORD
  5
1BAD
102
{ACAD_REACTORS
330
1BAC
102
}
330
1BAC
100
AcDbXrecord
280
     1
102
RTVSPropertyOp0
 70
     1
102
RTVSPropertyOp1
 70
     1
102
RTVSPropertyOp2
 70
     1
102
RTVSPropertyOp3
 70
     1
102
RTVSPropertyOp4
 70
     1
102
RTVSPropertyOp5
 70
     1
102
RTVSPropertyOp6
 70
     1
102
RTVSPropertyOp7
 70
     1
102
RTVSPropertyOp8
 70
     1
102
RTVSPropertyOp9
 70
     1
102
RTVSPropertyOp10
 70
     1
102
RTVSPropertyOp11
 70
     1
102
RTVSPropertyOp12
 70
     1
102
RTVSPropertyOp13
 70
     1
102
RTVSPropertyOp14
 70
     1
102
RTVSPropertyOp15
 70
     1
102
RTVSPropertyOp16
 70
     1
102
RTVSPropertyOp17
 70
     1
102
RTVSPropertyOp18
 70
     1
102
RTVSPropertyOp19
 70
     1
102
RTVSPropertyOp20
 70
     1
102
RTVSPropertyOp21
 70
     1
102
RTVSPropertyOp22
 70
     1
102
RTVSPropertyOp23
 70
     1
102
RTVSPropertyOp24
 70
     1
102
RTVSPropertyOp25
 70
     1
102
RTVSPropertyOp26
 70
     1
102
RTVSPropertyOp27
 70
     1
102
RTVSPropertyOp28
 70
     1
102
RTVSPropertyOp29
 70
     1
102
RTVSPropertyOp30
 70
     1
102
RTVSPropertyOp31
 70
     1
102
RTVSPropertyOp32
 70
     1
  0
XRECORD
  5
1B91
102
{ACAD_REACTORS
330
1B90
102
}
330
1B90
100
AcDbXrecord
280
     1
102
RTVSPropertyOp0
 70
     1
102
RTVSPropertyOp1
 70
     1
102
RTVSPropertyOp2
 70
     1
102
RTVSPropertyOp3
 70
     1
102
RTVSPropertyOp4
 70
     1
102
RTVSPropertyOp5
 70
     1
102
RTVSPropertyOp6
 70
     1
102
RTVSPropertyOp7
 70
     1
102
RTVSPropertyOp8
 70
     1
102
RTVSPropertyOp9
 70
     1
102
RTVSPropertyOp10
 70
     1
102
RTVSPropertyOp11
 70
     1
102
RTVSPropertyOp12
 70
     1
102
RTVSPropertyOp13
 70
     1
102
RTVSPropertyOp14
 70
     1
102
RTVSPropertyOp15
 70
     1
102
RTVSPropertyOp16
 70
     1
102
RTVSPropertyOp17
 70
     1
102
RTVSPropertyOp18
 70
     1
102
RTVSPropertyOp19
 70
     1
102
RTVSPropertyOp20
 70
     1
102
RTVSPropertyOp21
 70
     1
102
RTVSPropertyOp22
 70
     1
102
RTVSPropertyOp23
 70
     1
102
RTVSPropertyOp24
 70
     1
102
RTVSPropertyOp25
 70
     1
102
RTVSPropertyOp26
 70
     1
102
RTVSPropertyOp27
 70
     1
102
RTVSPropertyOp28
 70
     1
102
RTVSPropertyOp29
 70
     1
102
RTVSPropertyOp30
 70
     1
102
RTVSPropertyOp31
 70
     1
102
RTVSPropertyOp32
 70
     1
  0
XRECORD
  5
1B93
102
{ACAD_REACTORS
330
1B92
102
}
330
1B92
100
AcDbXrecord
280
     1
102
RTVSPropertyOp0
 70
     1
102
RTVSPropertyOp1
 70
     1
102
RTVSPropertyOp2
 70
     1
102
RTVSPropertyOp3
 70
     1
102
RTVSPropertyOp4
 70
     1
102
RTVSPropertyOp5
 70
     1
102
RTVSPropertyOp6
 70
     1
102
RTVSPropertyOp7
 70
     1
102
RTVSPropertyOp8
 70
     1
102
RTVSPropertyOp9
 70
     1
102
RTVSPropertyOp10
 70
     1
102
RTVSPropertyOp11
 70
     1
102
RTVSPropertyOp12
 70
     1
102
RTVSPropertyOp13
 70
     1
102
RTVSPropertyOp14
 70
     1
102
RTVSPropertyOp15
 70
     1
102
RTVSPropertyOp16
 70
     1
102
RTVSPropertyOp17
 70
     1
102
RTVSPropertyOp18
 70
     1
102
RTVSPropertyOp19
 70
     1
102
RTVSPropertyOp20
 70
     1
102
RTVSPropertyOp21
 70
     1
102
RTVSPropertyOp22
 70
     1
102
RTVSPropertyOp23
 70
     1
102
RTVSPropertyOp24
 70
     1
102
RTVSPropertyOp25
 70
     1
102
RTVSPropertyOp26
 70
     1
102
RTVSPropertyOp27
 70
     1
102
RTVSPropertyOp28
 70
     1
102
RTVSPropertyOp29
 70
     1
102
RTVSPropertyOp30
 70
     1
102
RTVSPropertyOp31
 70
     1
102
RTVSPropertyOp32
 70
     1
  0
XRECORD
  5
1B95
102
{ACAD_REACTORS
330
1B94
102
}
330
1B94
100
AcDbXrecord
280
     1
102
RTVSPropertyOp0
 70
     1
102
RTVSPropertyOp1
 70
     1
102
RTVSPropertyOp2
 70
     1
102
RTVSPropertyOp3
 70
     1
102
RTVSPropertyOp4
 70
     1
102
RTVSPropertyOp5
 70
     1
102
RTVSPropertyOp6
 70
     1
102
RTVSPropertyOp7
 70
     1
102
RTVSPropertyOp8
 70
     1
102
RTVSPropertyOp9
 70
     1
102
RTVSPropertyOp10
 70
     1
102
RTVSPropertyOp11
 70
     1
102
RTVSPropertyOp12
 70
     1
102
RTVSPropertyOp13
 70
     1
102
RTVSPropertyOp14
 70
     1
102
RTVSPropertyOp15
 70
     1
102
RTVSPropertyOp16
 70
     1
102
RTVSPropertyOp17
 70
     1
102
RTVSPropertyOp18
 70
     1
102
RTVSPropertyOp19
 70
     1
102
RTVSPropertyOp20
 70
     1
102
RTVSPropertyOp21
 70
     1
102
RTVSPropertyOp22
 70
     1
102
RTVSPropertyOp23
 70
     1
102
RTVSPropertyOp24
 70
     1
102
RTVSPropertyOp25
 70
     1
102
RTVSPropertyOp26
 70
     1
102
RTVSPropertyOp27
 70
     1
102
RTVSPropertyOp28
 70
     1
102
RTVSPropertyOp29
 70
     1
102
RTVSPropertyOp30
 70
     1
102
RTVSPropertyOp31
 70
     1
102
RTVSPropertyOp32
 70
     1
  0
XRECORD
  5
1B97
102
{ACAD_REACTORS
330
1B96
102
}
330
1B96
100
AcDbXrecord
280
     1
102
RTVSPropertyOp0
 70
     1
102
RTVSPropertyOp1
 70
     1
102
RTVSPropertyOp2
 70
     1
102
RTVSPropertyOp3
 70
     1
102
RTVSPropertyOp4
 70
     1
102
RTVSPropertyOp5
 70
     1
102
RTVSPropertyOp6
 70
     1
102
RTVSPropertyOp7
 70
     1
102
RTVSPropertyOp8
 70
     1
102
RTVSPropertyOp9
 70
     1
102
RTVSPropertyOp10
 70
     1
102
RTVSPropertyOp11
 70
     1
102
RTVSPropertyOp12
 70
     1
102
RTVSPropertyOp13
 70
     1
102
RTVSPropertyOp14
 70
     1
102
RTVSPropertyOp15
 70
     1
102
RTVSPropertyOp16
 70
     1
102
RTVSPropertyOp17
 70
     1
102
RTVSPropertyOp18
 70
     1
102
RTVSPropertyOp19
 70
     1
102
RTVSPropertyOp20
 70
     1
102
RTVSPropertyOp21
 70
     1
102
RTVSPropertyOp22
 70
     1
102
RTVSPropertyOp23
 70
     1
102
RTVSPropertyOp24
 70
     1
102
RTVSPropertyOp25
 70
     1
102
RTVSPropertyOp26
 70
     1
102
RTVSPropertyOp27
 70
     1
102
RTVSPropertyOp28
 70
     1
102
RTVSPropertyOp29
 70
     1
102
RTVSPropertyOp30
 70
     1
102
RTVSPropertyOp31
 70
     1
102
RTVSPropertyOp32
 70
     1
  0
XRECORD
  5
1BC1
102
{ACAD_REACTORS
330
1BC0
102
}
330
1BC0
100
AcDbXrecord
280
     1
102
RTVSPropertyOp0
 70
     1
102
RTVSPropertyOp1
 70
     1
102
RTVSPropertyOp2
 70
     1
102
RTVSPropertyOp3
 70
     1
102
RTVSPropertyOp4
 70
     1
102
RTVSPropertyOp5
 70
     1
102
RTVSPropertyOp6
 70
     1
102
RTVSPropertyOp7
 70
     1
102
RTVSPropertyOp8
 70
     1
102
RTVSPropertyOp9
 70
     1
102
RTVSPropertyOp10
 70
     1
102
RTVSPropertyOp11
 70
     1
102
RTVSPropertyOp12
 70
     1
102
RTVSPropertyOp13
 70
     1
102
RTVSPropertyOp14
 70
     1
102
RTVSPropertyOp15
 70
     1
102
RTVSPropertyOp16
 70
     1
102
RTVSPropertyOp17
 70
     1
102
RTVSPropertyOp18
 70
     1
102
RTVSPropertyOp19
 70
     1
102
RTVSPropertyOp20
 70
     1
102
RTVSPropertyOp21
 70
     1
102
RTVSPropertyOp22
 70
     1
102
RTVSPropertyOp23
 70
     1
102
RTVSPropertyOp24
 70
     1
102
RTVSPropertyOp25
 70
     1
102
RTVSPropertyOp26
 70
     1
102
RTVSPropertyOp27
 70
     1
102
RTVSPropertyOp28
 70
     1
102
RTVSPropertyOp29
 70
     1
102
RTVSPropertyOp30
 70
     1
102
RTVSPropertyOp31
 70
     1
102
RTVSPropertyOp32
 70
     1
  0
XRECORD
  5
1BCD
102
{ACAD_REACTORS
330
1BCC
102
}
330
1BCC
100
AcDbXrecord
280
     1
102
RTVSPropertyOp0
 70
     0
102
RTVSPropertyOp1
 70
     0
102
RTVSPropertyOp2
 70
     0
102
RTVSPropertyOp3
 70
     0
102
RTVSPropertyOp4
 70
     0
102
RTVSPropertyOp5
 70
     0
102
RTVSPropertyOp6
 70
     0
102
RTVSPropertyOp7
 70
     0
102
RTVSPropertyOp8
 70
     0
102
RTVSPropertyOp9
 70
     0
102
RTVSPropertyOp10
 70
     0
102
RTVSPropertyOp11
 70
     0
102
RTVSPropertyOp12
 70
     0
102
RTVSPropertyOp13
 70
     0
102
RTVSPropertyOp14
 70
     2
102
RTVSPropertyOp15
 70
     0
102
RTVSPropertyOp16
 70
     0
102
RTVSPropertyOp17
 70
     0
102
RTVSPropertyOp18
 70
     0
102
RTVSPropertyOp19
 70
     0
102
RTVSPropertyOp20
 70
     0
102
RTVSPropertyOp21
 70
     0
102
RTVSPropertyOp22
 70
     0
102
RTVSPropertyOp23
 70
     0
102
RTVSPropertyOp24
 70
     0
102
RTVSPropertyOp25
 70
     0
102
RTVSPropertyOp26
 70
     0
102
RTVSPropertyOp27
 70
     0
102
RTVSPropertyOp28
 70
     0
102
RTVSPropertyOp29
 70
     0
102
RTVSPropertyOp30
 70
     0
102
RTVSPropertyOp31
 70
     0
102
RTVSPropertyOp32
 70
     0
  0
XRECORD
  5
1BAB
102
{ACAD_REACTORS
330
1BAA
102
}
330
1BAA
100
AcDbXrecord
280
     1
102
RTVSPropertyOp0
 70
     1
102
RTVSPropertyOp1
 70
     1
102
RTVSPropertyOp2
 70
     1
102
RTVSPropertyOp3
 70
     1
102
RTVSPropertyOp4
 70
     1
102
RTVSPropertyOp5
 70
     1
102
RTVSPropertyOp6
 70
     1
102
RTVSPropertyOp7
 70
     1
102
RTVSPropertyOp8
 70
     1
102
RTVSPropertyOp9
 70
     1
102
RTVSPropertyOp10
 70
     1
102
RTVSPropertyOp11
 70
     1
102
RTVSPropertyOp12
 70
     1
102
RTVSPropertyOp13
 70
     1
102
RTVSPropertyOp14
 70
     1
102
RTVSPropertyOp15
 70
     1
102
RTVSPropertyOp16
 70
     1
102
RTVSPropertyOp17
 70
     1
102
RTVSPropertyOp18
 70
     1
102
RTVSPropertyOp19
 70
     1
102
RTVSPropertyOp20
 70
     1
102
RTVSPropertyOp21
 70
     1
102
RTVSPropertyOp22
 70
     1
102
RTVSPropertyOp23
 70
     1
102
RTVSPropertyOp24
 70
     1
102
RTVSPropertyOp25
 70
     1
102
RTVSPropertyOp26
 70
     1
102
RTVSPropertyOp27
 70
     1
102
RTVSPropertyOp28
 70
     1
102
RTVSPropertyOp29
 70
     1
102
RTVSPropertyOp30
 70
     1
102
RTVSPropertyOp31
 70
     1
102
RTVSPropertyOp32
 70
     1
  0
XRECORD
  5
1BCF
102
{ACAD_REACTORS
330
1BCE
102
}
330
1BCE
100
AcDbXrecord
280
     1
102
RTVSPropertyOp0
 70
     0
102
RTVSPropertyOp1
 70
     0
102
RTVSPropertyOp2
 70
     0
102
RTVSPropertyOp3
 70
     0
102
RTVSPropertyOp4
 70
     0
102
RTVSPropertyOp5
 70
     0
102
RTVSPropertyOp6
 70
     0
102
RTVSPropertyOp7
 70
     0
102
RTVSPropertyOp8
 70
     0
102
RTVSPropertyOp9
 70
     0
102
RTVSPropertyOp10
 70
     0
102
RTVSPropertyOp11
 70
     0
102
RTVSPropertyOp12
 70
     0
102
RTVSPropertyOp13
 70
     0
102
RTVSPropertyOp14
 70
     2
102
RTVSPropertyOp15
 70
     0
102
RTVSPropertyOp16
 70
     0
102
RTVSPropertyOp17
 70
     0
102
RTVSPropertyOp18
 70
     0
102
RTVSPropertyOp19
 70
     0
102
RTVSPropertyOp20
 70
     0
102
RTVSPropertyOp21
 70
     0
102
RTVSPropertyOp22
 70
     0
102
RTVSPropertyOp23
 70
     0
102
RTVSPropertyOp24
 70
     0
102
RTVSPropertyOp25
 70
     0
102
RTVSPropertyOp26
 70
     0
102
RTVSPropertyOp27
 70
     0
102
RTVSPropertyOp28
 70
     0
102
RTVSPropertyOp29
 70
     0
102
RTVSPropertyOp30
 70
     0
102
RTVSPropertyOp31
 70
     0
102
RTVSPropertyOp32
 70
     0
  0
XRECORD
  5
1BA3
102
{ACAD_REACTORS
330
1BA2
102
}
330
1BA2
100
AcDbXrecord
280
     1
102
RTVSPropertyOp0
 70
     1
102
RTVSPropertyOp1
 70
     1
102
RTVSPropertyOp2
 70
     1
102
RTVSPropertyOp3
 70
     1
102
RTVSPropertyOp4
 70
     1
102
RTVSPropertyOp5
 70
     1
102
RTVSPropertyOp6
 70
     1
102
RTVSPropertyOp7
 70
     1
102
RTVSPropertyOp8
 70
     1
102
RTVSPropertyOp9
 70
     1
102
RTVSPropertyOp10
 70
     1
102
RTVSPropertyOp11
 70
     1
102
RTVSPropertyOp12
 70
     1
102
RTVSPropertyOp13
 70
     1
102
RTVSPropertyOp14
 70
     1
102
RTVSPropertyOp15
 70
     1
102
RTVSPropertyOp16
 70
     1
102
RTVSPropertyOp17
 70
     1
102
RTVSPropertyOp18
 70
     1
102
RTVSPropertyOp19
 70
     1
102
RTVSPropertyOp20
 70
     1
102
RTVSPropertyOp21
 70
     1
102
RTVSPropertyOp22
 70
     1
102
RTVSPropertyOp23
 70
     1
102
RTVSPropertyOp24
 70
     1
102
RTVSPropertyOp25
 70
     1
102
RTVSPropertyOp26
 70
     1
102
RTVSPropertyOp27
 70
     1
102
RTVSPropertyOp28
 70
     1
102
RTVSPropertyOp29
 70
     1
102
RTVSPropertyOp30
 70
     1
102
RTVSPropertyOp31
 70
     1
102
RTVSPropertyOp32
 70
     1
  0
XRECORD
  5
1BCB
102
{ACAD_REACTORS
330
1BCA
102
}
330
1BCA
100
AcDbXrecord
280
     1
102
RTVSPropertyOp0
 70
     1
102
RTVSPropertyOp1
 70
     1
102
RTVSPropertyOp2
 70
     1
102
RTVSPropertyOp3
 70
     1
102
RTVSPropertyOp4
 70
     1
102
RTVSPropertyOp5
 70
     1
102
RTVSPropertyOp6
 70
     1
102
RTVSPropertyOp7
 70
     1
102
RTVSPropertyOp8
 70
     1
102
RTVSPropertyOp9
 70
     1
102
RTVSPropertyOp10
 70
     1
102
RTVSPropertyOp11
 70
     1
102
RTVSPropertyOp12
 70
     1
102
RTVSPropertyOp13
 70
     1
102
RTVSPropertyOp14
 70
     1
102
RTVSPropertyOp15
 70
     1
102
RTVSPropertyOp16
 70
     1
102
RTVSPropertyOp17
 70
     1
102
RTVSPropertyOp18
 70
     1
102
RTVSPropertyOp19
 70
     1
102
RTVSPropertyOp20
 70
     1
102
RTVSPropertyOp21
 70
     1
102
RTVSPropertyOp22
 70
     1
102
RTVSPropertyOp23
 70
     1
102
RTVSPropertyOp24
 70
     1
102
RTVSPropertyOp25
 70
     1
102
RTVSPropertyOp26
 70
     1
102
RTVSPropertyOp27
 70
     1
102
RTVSPropertyOp28
 70
     1
102
RTVSPropertyOp29
 70
     1
102
RTVSPropertyOp30
 70
     1
102
RTVSPropertyOp31
 70
     1
102
RTVSPropertyOp32
 70
     1
  0
XRECORD
  5
1BC9
102
{ACAD_REACTORS
330
1BC8
102
}
330
1BC8
100
AcDbXrecord
280
     1
102
RTVSPropertyOp0
 70
     1
102
RTVSPropertyOp1
 70
     1
102
RTVSPropertyOp2
 70
     1
102
RTVSPropertyOp3
 70
     1
102
RTVSPropertyOp4
 70
     1
102
RTVSPropertyOp5
 70
     1
102
RTVSPropertyOp6
 70
     1
102
RTVSPropertyOp7
 70
     1
102
RTVSPropertyOp8
 70
     1
102
RTVSPropertyOp9
 70
     1
102
RTVSPropertyOp10
 70
     1
102
RTVSPropertyOp11
 70
     1
102
RTVSPropertyOp12
 70
     1
102
RTVSPropertyOp13
 70
     1
102
RTVSPropertyOp14
 70
     1
102
RTVSPropertyOp15
 70
     1
102
RTVSPropertyOp16
 70
     1
102
RTVSPropertyOp17
 70
     1
102
RTVSPropertyOp18
 70
     1
102
RTVSPropertyOp19
 70
     1
102
RTVSPropertyOp20
 70
     1
102
RTVSPropertyOp21
 70
     1
102
RTVSPropertyOp22
 70
     1
102
RTVSPropertyOp23
 70
     1
102
RTVSPropertyOp24
 70
     1
102
RTVSPropertyOp25
 70
     1
102
RTVSPropertyOp26
 70
     1
102
RTVSPropertyOp27
 70
     1
102
RTVSPropertyOp28
 70
     1
102
RTVSPropertyOp29
 70
     1
102
RTVSPropertyOp30
 70
     1
102
RTVSPropertyOp31
 70
     1
102
RTVSPropertyOp32
 70
     1
  0
XRECORD
  5
1BC3
102
{ACAD_REACTORS
330
1BC2
102
}
330
1BC2
100
AcDbXrecord
280
     1
102
RTVSPropertyOp0
 70
     1
102
RTVSPropertyOp1
 70
     1
102
RTVSPropertyOp2
 70
     1
102
RTVSPropertyOp3
 70
     1
102
RTVSPropertyOp4
 70
     1
102
RTVSPropertyOp5
 70
     1
102
RTVSPropertyOp6
 70
     1
102
RTVSPropertyOp7
 70
     1
102
RTVSPropertyOp8
 70
     1
102
RTVSPropertyOp9
 70
     1
102
RTVSPropertyOp10
 70
     1
102
RTVSPropertyOp11
 70
     1
102
RTVSPropertyOp12
 70
     1
102
RTVSPropertyOp13
 70
     1
102
RTVSPropertyOp14
 70
     1
102
RTVSPropertyOp15
 70
     1
102
RTVSPropertyOp16
 70
     1
102
RTVSPropertyOp17
 70
     1
102
RTVSPropertyOp18
 70
     1
102
RTVSPropertyOp19
 70
     1
102
RTVSPropertyOp20
 70
     1
102
RTVSPropertyOp21
 70
     1
102
RTVSPropertyOp22
 70
     1
102
RTVSPropertyOp23
 70
     1
102
RTVSPropertyOp24
 70
     1
102
RTVSPropertyOp25
 70
     1
102
RTVSPropertyOp26
 70
     1
102
RTVSPropertyOp27
 70
     1
102
RTVSPropertyOp28
 70
     1
102
RTVSPropertyOp29
 70
     1
102
RTVSPropertyOp30
 70
     1
102
RTVSPropertyOp31
 70
     1
102
RTVSPropertyOp32
 70
     1
  0
XRECORD
  5
1BC5
102
{ACAD_REACTORS
330
1BC4
102
}
330
1BC4
100
AcDbXrecord
280
     1
102
RTVSPropertyOp0
 70
     1
102
RTVSPropertyOp1
 70
     1
102
RTVSPropertyOp2
 70
     1
102
RTVSPropertyOp3
 70
     1
102
RTVSPropertyOp4
 70
     1
102
RTVSPropertyOp5
 70
     1
102
RTVSPropertyOp6
 70
     1
102
RTVSPropertyOp7
 70
     1
102
RTVSPropertyOp8
 70
     1
102
RTVSPropertyOp9
 70
     1
102
RTVSPropertyOp10
 70
     1
102
RTVSPropertyOp11
 70
     1
102
RTVSPropertyOp12
 70
     1
102
RTVSPropertyOp13
 70
     1
102
RTVSPropertyOp14
 70
     1
102
RTVSPropertyOp15
 70
     1
102
RTVSPropertyOp16
 70
     1
102
RTVSPropertyOp17
 70
     1
102
RTVSPropertyOp18
 70
     1
102
RTVSPropertyOp19
 70
     1
102
RTVSPropertyOp20
 70
     1
102
RTVSPropertyOp21
 70
     1
102
RTVSPropertyOp22
 70
     1
102
RTVSPropertyOp23
 70
     1
102
RTVSPropertyOp24
 70
     1
102
RTVSPropertyOp25
 70
     1
102
RTVSPropertyOp26
 70
     1
102
RTVSPropertyOp27
 70
     1
102
RTVSPropertyOp28
 70
     1
102
RTVSPropertyOp29
 70
     1
102
RTVSPropertyOp30
 70
     1
102
RTVSPropertyOp31
 70
     1
102
RTVSPropertyOp32
 70
     1
  0
XRECORD
  5
1BA9
102
{ACAD_REACTORS
330
1BA8
102
}
330
1BA8
100
AcDbXrecord
280
     1
102
RTVSPropertyOp0
 70
     1
102
RTVSPropertyOp1
 70
     1
102
RTVSPropertyOp2
 70
     1
102
RTVSPropertyOp3
 70
     1
102
RTVSPropertyOp4
 70
     1
102
RTVSPropertyOp5
 70
     1
102
RTVSPropertyOp6
 70
     1
102
RTVSPropertyOp7
 70
     1
102
RTVSPropertyOp8
 70
     1
102
RTVSPropertyOp9
 70
     1
102
RTVSPropertyOp10
 70
     1
102
RTVSPropertyOp11
 70
     1
102
RTVSPropertyOp12
 70
     1
102
RTVSPropertyOp13
 70
     1
102
RTVSPropertyOp14
 70
     1
102
RTVSPropertyOp15
 70
     1
102
RTVSPropertyOp16
 70
     1
102
RTVSPropertyOp17
 70
     1
102
RTVSPropertyOp18
 70
     1
102
RTVSPropertyOp19
 70
     1
102
RTVSPropertyOp20
 70
     1
102
RTVSPropertyOp21
 70
     1
102
RTVSPropertyOp22
 70
     1
102
RTVSPropertyOp23
 70
     1
102
RTVSPropertyOp24
 70
     1
102
RTVSPropertyOp25
 70
     1
102
RTVSPropertyOp26
 70
     1
102
RTVSPropertyOp27
 70
     1
102
RTVSPropertyOp28
 70
     1
102
RTVSPropertyOp29
 70
     1
102
RTVSPropertyOp30
 70
     1
102
RTVSPropertyOp31
 70
     1
102
RTVSPropertyOp32
 70
     1
  0
XRECORD
  5
1BBF
102
{ACAD_REACTORS
330
1BBE
102
}
330
1BBE
100
AcDbXrecord
280
     1
102
RTVSPropertyOp0
 70
     1
102
RTVSPropertyOp1
 70
     1
102
RTVSPropertyOp2
 70
     1
102
RTVSPropertyOp3
 70
     1
102
RTVSPropertyOp4
 70
     1
102
RTVSPropertyOp5
 70
     1
102
RTVSPropertyOp6
 70
     1
102
RTVSPropertyOp7
 70
     1
102
RTVSPropertyOp8
 70
     1
102
RTVSPropertyOp9
 70
     1
102
RTVSPropertyOp10
 70
     1
102
RTVSPropertyOp11
 70
     1
102
RTVSPropertyOp12
 70
     1
102
RTVSPropertyOp13
 70
     1
102
RTVSPropertyOp14
 70
     1
102
RTVSPropertyOp15
 70
     1
102
RTVSPropertyOp16
 70
     1
102
RTVSPropertyOp17
 70
     1
102
RTVSPropertyOp18
 70
     1
102
RTVSPropertyOp19
 70
     1
102
RTVSPropertyOp20
 70
     1
102
RTVSPropertyOp21
 70
     1
102
RTVSPropertyOp22
 70
     1
102
RTVSPropertyOp23
 70
     1
102
RTVSPropertyOp24
 70
     1
102
RTVSPropertyOp25
 70
     1
102
RTVSPropertyOp26
 70
     1
102
RTVSPropertyOp27
 70
     1
102
RTVSPropertyOp28
 70
     1
102
RTVSPropertyOp29
 70
     1
102
RTVSPropertyOp30
 70
     1
102
RTVSPropertyOp31
 70
     1
102
RTVSPropertyOp32
 70
     1
  0
XRECORD
  5
1BC7
102
{ACAD_REACTORS
330
1BC6
102
}
330
1BC6
100
AcDbXrecord
280
     1
102
RTVSPropertyOp0
 70
     1
102
RTVSPropertyOp1
 70
     1
102
RTVSPropertyOp2
 70
     1
102
RTVSPropertyOp3
 70
     1
102
RTVSPropertyOp4
 70
     1
102
RTVSPropertyOp5
 70
     1
102
RTVSPropertyOp6
 70
     1
102
RTVSPropertyOp7
 70
     1
102
RTVSPropertyOp8
 70
     1
102
RTVSPropertyOp9
 70
     1
102
RTVSPropertyOp10
 70
     1
102
RTVSPropertyOp11
 70
     1
102
RTVSPropertyOp12
 70
     1
102
RTVSPropertyOp13
 70
     1
102
RTVSPropertyOp14
 70
     1
102
RTVSPropertyOp15
 70
     1
102
RTVSPropertyOp16
 70
     1
102
RTVSPropertyOp17
 70
     1
102
RTVSPropertyOp18
 70
     1
102
RTVSPropertyOp19
 70
     1
102
RTVSPropertyOp20
 70
     1
102
RTVSPropertyOp21
 70
     1
102
RTVSPropertyOp22
 70
     1
102
RTVSPropertyOp23
 70
     1
102
RTVSPropertyOp24
 70
     1
102
RTVSPropertyOp25
 70
     1
102
RTVSPropertyOp26
 70
     1
102
RTVSPropertyOp27
 70
     1
102
RTVSPropertyOp28
 70
     1
102
RTVSPropertyOp29
 70
     1
102
RTVSPropertyOp30
 70
     1
102
RTVSPropertyOp31
 70
     1
102
RTVSPropertyOp32
 70
     1
  0
ENDSEC
  0
EOF
