  0
SECTION
  2
HEADER
  9
$ACADVER
  1
AC1015
  9
$ACADMAINTVER
 70
    20
  9
$DWGCODEPAGE
  3
ANSI_1252
  9
$INSBASE
 10
0.0
 20
0.0
 30
0.0
  9
$EXTMIN
 10
-2.722411081875179
 20
-2.547399664995282
 30
-0.0000000000000053
  9
$EXTMAX
 10
27.76011370877677
 20
40.56256358314112
 30
0.0000000000000099
  9
$LIMMIN
 10
0.0
 20
0.0
  9
$LIMMAX
 10
420.0
 20
300.0
  9
$ORTHOMODE
 70
     0
  9
$REGENMODE
 70
     1
  9
$FILLMODE
 70
     1
  9
$QTEXTMODE
 70
     0
  9
$MIRRTEXT
 70
     0
  9
$LTSCALE
 40
10.0
  9
$ATTMODE
 70
     1
  9
$TEXTSIZE
 40
3.0
  9
$TRACEWID
 40
0.05
  9
$TEXTSTYLE
  7
ROMANS
  9
$CLAYER
  8
P-0000
  9
$CELTYPE
  6
CONTINUOUS
  9
$CECOLOR
 62
     7
  9
$CELTSCALE
 40
1.0
  9
$DISPSILH
 70
     0
  9
$DIMSCALE
 40
10.0
  9
$DIMASZ
 40
2.0
  9
$DIMEXO
 40
1.0
  9
$DIMDLI
 40
10.0
  9
$DIMRND
 40
0.0
  9
$DIMDLE
 40
0.0
  9
$DIMEXE
 40
1.5
  9
$DIMTP
 40
0.0
  9
$DIMTM
 40
0.0
  9
$DIMTXT
 40
2.0
  9
$DIMCEN
 40
2.0
  9
$DIMTSZ
 40
0.0
  9
$DIMTOL
 70
     0
  9
$DIMLIM
 70
     0
  9
$DIMTIH
 70
     0
  9
$DIMTOH
 70
     0
  9
$DIMSE1
 70
     0
  9
$DIMSE2
 70
     0
  9
$DIMTAD
 70
     1
  9
$DIMZIN
 70
     8
  9
$DIMBLK
  1

  9
$DIMASO
 70
     1
  9
$DIMSHO
 70
     1
  9
$DIMPOST
  1

  9
$DIMAPOST
  1

  9
$DIMALT
 70
     0
  9
$DIMALTD
 70
     2
  9
$DIMALTF
 40
25.4
  9
$DIMLFAC
 40
1.0
  9
$DIMTOFL
 70
     1
  9
$DIMTVP
 40
0.0
  9
$DIMTIX
 70
     0
  9
$DIMSOXD
 70
     0
  9
$DIMSAH
 70
     0
  9
$DIMBLK1
  1

  9
$DIMBLK2
  1

  9
$DIMSTYLE
  2
ACADTOP
  9
$DIMCLRD
 70
     2
  9
$DIMCLRE
 70
     2
  9
$DIMCLRT
 70
     1
  9
$DIMTFAC
 40
0.6
  9
$DIMGAP
 40
1.0
  9
$DIMJUST
 70
     0
  9
$DIMSD1
 70
     0
  9
$DIMSD2
 70
     0
  9
$DIMTOLJ
 70
     1
  9
$DIMTZIN
 70
     8
  9
$DIMALTZ
 70
     0
  9
$DIMALTTZ
 70
     0
  9
$DIMUPT
 70
     0
  9
$DIMDEC
 70
     2
  9
$DIMTDEC
 70
     2
  9
$DIMALTU
 70
     2
  9
$DIMALTTD
 70
     2
  9
$DIMTXSTY
  7
Stile_Quota
  9
$DIMAUNIT
 70
     0
  9
$DIMADEC
 70
     1
  9
$DIMALTRND
 40
0.0
  9
$DIMAZIN
 70
     2
  9
$DIMDSEP
 70
    46
  9
$DIMATFIT
 70
     0
  9
$DIMFRAC
 70
     0
  9
$DIMLDRBLK
  1

  9
$DIMLUNIT
 70
     2
  9
$DIMLWD
 70
    -2
  9
$DIMLWE
 70
    -2
  9
$DIMTMOVE
 70
     0
  9
$LUNITS
 70
     2
  9
$LUPREC
 70
     3
  9
$SKETCHINC
 40
0.1
  9
$FILLETRAD
 40
0.0
  9
$AUNITS
 70
     0
  9
$AUPREC
 70
     3
  9
$MENU
  1
.
  9
$ELEVATION
 40
0.0
  9
$PELEVATION
 40
0.0
  9
$THICKNESS
 40
0.0
  9
$LIMCHECK
 70
     0
  9
$CHAMFERA
 40
0.5
  9
$CHAMFERB
 40
0.5
  9
$CHAMFERC
 40
1.0
  9
$CHAMFERD
 40
0.0
  9
$SKPOLY
 70
     1
  9
$TDCREATE
 40
2455048.410603657
  9
$TDUCREATE
 40
2455048.368936991
  9
$TDUPDATE
 40
2455646.457939919
  9
$TDUUPDATE
 40
2455646.416273252
  9
$TDINDWG
 40
0.3285413194
  9
$TDUSRTIMER
 40
0.3285413194
  9
$USRTIMER
 70
     1
  9
$ANGBASE
 50
0.0
  9
$ANGDIR
 70
     0
  9
$PDMODE
 70
     0
  9
$PDSIZE
 40
0.0
  9
$PLINEWID
 40
0.0
  9
$SPLFRAME
 70
     0
  9
$SPLINETYPE
 70
     6
  9
$SPLINESEGS
 70
     8
  9
$HANDSEED
  5
15E3
  9
$SURFTAB1
 70
     6
  9
$SURFTAB2
 70
     6
  9
$SURFTYPE
 70
     6
  9
$SURFU
 70
     6
  9
$SURFV
 70
     6
  9
$UCSBASE
  2

  9
$UCSNAME
  2

  9
$UCSORG
 10
0.0
 20
0.0
 30
0.0
  9
$UCSXDIR
 10
1.0
 20
0.0
 30
0.0
  9
$UCSYDIR
 10
0.0
 20
1.0
 30
0.0
  9
$UCSORTHOREF
  2

  9
$UCSORTHOVIEW
 70
     0
  9
$UCSORGTOP
 10
0.0
 20
0.0
 30
0.0
  9
$UCSORGBOTTOM
 10
0.0
 20
0.0
 30
0.0
  9
$UCSORGLEFT
 10
0.0
 20
0.0
 30
0.0
  9
$UCSORGRIGHT
 10
0.0
 20
0.0
 30
0.0
  9
$UCSORGFRONT
 10
0.0
 20
0.0
 30
0.0
  9
$UCSORGBACK
 10
0.0
 20
0.0
 30
0.0
  9
$PUCSBASE
  2

  9
$PUCSNAME
  2

  9
$PUCSORG
 10
0.0
 20
0.0
 30
0.0
  9
$PUCSXDIR
 10
1.0
 20
0.0
 30
0.0
  9
$PUCSYDIR
 10
0.0
 20
1.0
 30
0.0
  9
$PUCSORTHOREF
  2

  9
$PUCSORTHOVIEW
 70
     0
  9
$PUCSORGTOP
 10
0.0
 20
0.0
 30
0.0
  9
$PUCSORGBOTTOM
 10
0.0
 20
0.0
 30
0.0
  9
$PUCSORGLEFT
 10
0.0
 20
0.0
 30
0.0
  9
$PUCSORGRIGHT
 10
0.0
 20
0.0
 30
0.0
  9
$PUCSORGFRONT
 10
0.0
 20
0.0
 30
0.0
  9
$PUCSORGBACK
 10
0.0
 20
0.0
 30
0.0
  9
$USERI1
 70
     0
  9
$USERI2
 70
     0
  9
$USERI3
 70
     0
  9
$USERI4
 70
     0
  9
$USERI5
 70
     0
  9
$USERR1
 40
0.0
  9
$USERR2
 40
0.0
  9
$USERR3
 40
0.0
  9
$USERR4
 40
0.0
  9
$USERR5
 40
0.0
  9
$WORLDVIEW
 70
     1
  9
$SHADEDGE
 70
     3
  9
$SHADEDIF
 70
    70
  9
$TILEMODE
 70
     1
  9
$MAXACTVP
 70
    48
  9
$PINSBASE
 10
0.0
 20
0.0
 30
0.0
  9
$PLIMCHECK
 70
     0
  9
$PEXTMIN
 10
1.000000000000000E+20
 20
1.000000000000000E+20
 30
1.000000000000000E+20
  9
$PEXTMAX
 10
-1.000000000000000E+20
 20
-1.000000000000000E+20
 30
-1.000000000000000E+20
  9
$PLIMMIN
 10
0.0
 20
0.0
  9
$PLIMMAX
 10
12.0
 20
9.0
  9
$UNITMODE
 70
     0
  9
$VISRETAIN
 70
     1
  9
$PLINEGEN
 70
     0
  9
$PSLTSCALE
 70
     0
  9
$TREEDEPTH
 70
  3020
  9
$CMLSTYLE
  2
STANDARD
  9
$CMLJUST
 70
     0
  9
$CMLSCALE
 40
1.0
  9
$PROXYGRAPHICS
 70
     1
  9
$MEASUREMENT
 70
     1
  9
$CELWEIGHT
370
    -1
  9
$ENDCAPS
280
     0
  9
$JOINSTYLE
280
     0
  9
$LWDISPLAY
290
     0
  9
$INSUNITS
 70
     0
  9
$HYPERLINKBASE
  1

  9
$STYLESHEET
  1

  9
$XEDIT
290
     1
  9
$CEPSNTYPE
380
     0
  9
$PSTYLEMODE
290
     1
  9
$FINGERPRINTGUID
  2
{B3D0D7AD-13AF-457E-A88E-1842042EC2FF}
  9
$VERSIONGUID
  2
{127601CD-5675-408F-BAA7-B22534ADA819}
  9
$EXTNAMES
290
     1
  9
$PSVPSCALE
 40
0.0
  9
$OLESTARTUP
290
     0
  0
ENDSEC
  0
SECTION
  2
CLASSES
  0
CLASS
  1
DICTIONARYVAR
  2
AcDbDictionaryVar
  3
ObjectDBX Classes
 90
        0
280
     0
281
     0
  0
CLASS
  1
ACDBDICTIONARYWDFLT
  2
AcDbDictionaryWithDefault
  3
ObjectDBX Classes
 90
        0
280
     0
281
     0
  0
CLASS
  1
ACDBPLACEHOLDER
  2
AcDbPlaceHolder
  3
ObjectDBX Classes
 90
        0
280
     0
281
     0
  0
CLASS
  1
LAYOUT
  2
AcDbLayout
  3
ObjectDBX Classes
 90
        0
280
     0
281
     0
  0
CLASS
  1
PLOTSETTINGS
  2
AcDbPlotSettings
  3
ObjectDBX Classes
 90
        0
280
     0
281
     0
  0
CLASS
  1
MATERIAL
  2
AcDbMaterial
  3
ObjectDBX Classes
 90
     1153
280
     0
281
     0
  0
CLASS
  1
VISUALSTYLE
  2
AcDbVisualStyle
  3
ObjectDBX Classes
 90
     4095
280
     0
281
     0
  0
CLASS
  1
TABLESTYLE
  2
AcDbTableStyle
  3
ObjectDBX Classes
 90
     4095
280
     0
281
     0
  0
CLASS
  1
SCALE
  2
AcDbScale
  3
ObjectDBX Classes
 90
     1153
280
     0
281
     0
  0
CLASS
  1
MLEADERSTYLE
  2
AcDbMLeaderStyle
  3
ACDB_MLEADERSTYLE_CLASS
 90
     4095
280
     0
281
     0
  0
CLASS
  1
CELLSTYLEMAP
  2
AcDbCellStyleMap
  3
ObjectDBX Classes
 90
     1152
280
     0
281
     0
  0
CLASS
  1
DIMASSOC
  2
AcDbDimAssoc
  3
"AcDbDimAssoc|Product Desc:     AcDim ARX App For Dimension|Company:          Autodesk, Inc.|WEB Address:      www.autodesk.com"
 90
        0
280
     0
281
     0
  0
CLASS
  1
ACDBQSCATEGORY
  2
AcQsCategory
  3
categories
 90
     1024
280
     0
281
     0
  0
CLASS
  1
ACDBQSPALLSTYLE
  2
AcQsPallStyle
  3
pallcart
 90
     1024
280
     0
281
     0
  0
CLASS
  1
SORTENTSTABLE
  2
AcDbSortentsTable
  3
ObjectDBX Classes
 90
        0
280
     0
281
     0
  0
CLASS
  1
AEC_REFEDIT_STATUS_TRACKER
  2
AecDbRefEditStatusTracker
  3
AecArchBase60|Product Desc: Autodesk Architectural Desktop 2007 |Company: Autodesk,Inc. |WEB Address: www.autodesk.com
 90
    32897
280
     0
281
     0
  0
CLASS
  1
NPOCOLLECTION
  2
AcDbImpNonPersistentObjectsCollection
  3
ObjectDBX Classes
 90
    33921
280
     0
281
     0
  0
ENDSEC
  0
SECTION
  2
TABLES
  0
TABLE
  2
VPORT
  5
12
102
{ACAD_XDICTIONARY
360
300
102
}
330
0
100
AcDbSymbolTable
 70
     1
  0
VPORT
  5
2AE
330
12
100
AcDbSymbolTableRecord
100
AcDbViewportTableRecord
  2
*Active
 70
     0
 10
0.0
 20
0.0
 11
1.0
 21
1.0
 12
12.51885131345079
 22
19.00758195907292
 13
0.0
 23
0.0
 14
1.0
 24
1.0
 15
1.0
 25
1.0
 16
0.0
 26
0.0
 36
1.0
 17
0.0
 27
0.0
 37
0.0
 40
43.42656028545443
 41
2.251225490196078
 42
50.0
 43
0.0
 44
0.0
 50
0.0
 51
0.0
 71
     0
 72
   100
 73
     1
 74
     0
 75
     0
 76
     0
 77
     0
 78
     0
281
     0
 65
     1
110
0.0
120
0.0
130
0.0
111
1.0
121
0.0
131
0.0
112
0.0
122
1.0
132
0.0
 79
     0
146
0.0
  0
ENDTAB
  0
TABLE
  2
LTYPE
  5
D
330
0
100
AcDbSymbolTable
 70
     6
  0
LTYPE
  5
E
330
D
100
AcDbSymbolTableRecord
100
AcDbLinetypeTableRecord
  2
BYBLOCK
 70
     0
  3

 72
    65
 73
     0
 40
0.0
  0
LTYPE
  5
F
330
D
100
AcDbSymbolTableRecord
100
AcDbLinetypeTableRecord
  2
BYLAYER
 70
     0
  3

 72
    65
 73
     0
 40
0.0
  0
LTYPE
  5
5
330
D
100
AcDbSymbolTableRecord
100
AcDbLinetypeTableRecord
  2
CONTINUOUS
 70
     0
  3
Solid line
 72
    65
 73
     0
 40
0.0
  0
LTYPE
  5
3E
330
D
100
AcDbSymbolTableRecord
100
AcDbLinetypeTableRecord
  2
ASSI
 70
     0
  3
-.-.-.-.-.-.-.-.-.-.-.-.-.-.-.-.-.-.-.-.-.-.-.-
 72
    65
 73
     4
 40
16.0
 49
10.0
 74
     0
 49
-2.0
 74
     0
 49
2.0
 74
     0
 49
-2.0
 74
     0
  0
LTYPE
  5
3F
330
D
100
AcDbSymbolTableRecord
100
AcDbLinetypeTableRecord
  2
INGOMBRI
 70
     0
  3
--..--..--..--..--..--..--..--..--..--..--..--
 72
    65
 73
     6
 40
20.0
 49
10.0
 74
     0
 49
-2.0
 74
     0
 49
2.0
 74
     0
 49
-2.0
 74
     0
 49
2.0
 74
     0
 49
-2.0
 74
     0
  0
LTYPE
  5
40
330
D
100
AcDbSymbolTableRecord
100
AcDbLinetypeTableRecord
  2
TRATTEGGIO
 70
     0
  3
- - - - - - - - - - - - - - - - - - - - - -
 72
    65
 73
     2
 40
5.5
 49
4.0
 74
     0
 49
-1.5
 74
     0
  0
LTYPE
  5
277
330
D
100
AcDbSymbolTableRecord
100
AcDbLinetypeTableRecord
  2
PUNTO
 70
     0
  3
Punto . . . . . . . . . . . . . . . . . . . . .
 72
    65
 73
     2
 40
6.349999999999999
 49
0.0
 74
     0
 49
-6.349999999999999
 74
     0
  0
LTYPE
  5
948
330
D
100
AcDbSymbolTableRecord
100
AcDbLinetypeTableRecord
  2
DASHDOT2
 70
     0
  3
_._._._._._._._._._._._._._._._._._._._._._._._
 72
    65
 73
     4
 40
0.5
 49
0.25
 74
     0
 49
-0.125
 74
     0
 49
0.0
 74
     0
 49
-0.125
 74
     0
  0
ENDTAB
  0
TABLE
  2
LAYER
  5
A
102
{ACAD_XDICTIONARY
360
94F
102
}
330
0
100
AcDbSymbolTable
 70
     9
  0
LAYER
  5
4
102
{ACAD_XDICTIONARY
360
37B
102
}
330
A
100
AcDbSymbolTableRecord
100
AcDbLayerTableRecord
  2
0
 70
     0
 62
     7
  6
CONTINUOUS
370
    -3
390
44
  0
LAYER
  5
118
330
A
100
AcDbSymbolTableRecord
100
AcDbLayerTableRecord
  2
Defpoints
 70
     0
 62
     7
  6
CONTINUOUS
290
     0
370
    -3
390
44
  0
LAYER
  5
6DB
102
{ACAD_XDICTIONARY
360
117D
102
}
330
A
100
AcDbSymbolTableRecord
100
AcDbLayerTableRecord
  2
P-0000
 70
     0
 62
     7
  6
CONTINUOUS
370
    -3
390
44
1001
AcAecLayerStandard
1000

1000
PROFIL.Q30-1V TAMP./ARG.
  0
LAYER
  5
711
102
{ACAD_XDICTIONARY
360
117F
102
}
330
A
100
AcDbSymbolTableRecord
100
AcDbLayerTableRecord
  2
PROFILOQ30
 70
     0
 62
     2
  6
CONTINUOUS
370
    -3
390
44
  0
LAYER
  5
712
102
{ACAD_XDICTIONARY
360
1181
102
}
330
A
100
AcDbSymbolTableRecord
100
AcDbLayerTableRecord
  2
DIMENSIONI
 70
     0
 62
     7
  6
CONTINUOUS
370
    -3
390
44
  0
LAYER
  5
946
102
{ACAD_XDICTIONARY
360
1183
102
}
330
A
100
AcDbSymbolTableRecord
100
AcDbLayerTableRecord
  2
P-5DA5
 70
     0
 62
     7
  6
CONTINUOUS
370
    -3
390
44
1001
AcAecLayerStandard
1000

1000
.cart
  0
LAYER
  5
ADE
102
{ACAD_XDICTIONARY
360
1185
102
}
330
A
100
AcDbSymbolTableRecord
100
AcDbLayerTableRecord
  2
P-6B6E
 70
     0
 62
     7
  6
CONTINUOUS
370
    -3
390
44
1001
AcAecLayerStandard
1000

1000
.1
  0
LAYER
  5
11B7
330
A
100
AcDbSymbolTableRecord
100
AcDbLayerTableRecord
  2
TESTO
 70
     0
 62
     4
  6
CONTINUOUS
370
    -3
390
44
  0
LAYER
  5
13FE
330
A
100
AcDbSymbolTableRecord
100
AcDbLayerTableRecord
  2
P-5837
 70
     0
 62
     7
  6
CONTINUOUS
370
    -3
390
44
1001
AcAecLayerStandard
1000

1000
PROF.Q30 1V  TAMP. ALL.ANOD.ARG
  0
ENDTAB
  0
TABLE
  2
STYLE
  5
B
330
0
100
AcDbSymbolTable
 70
    10
  0
STYLE
  5
C
330
B
100
AcDbSymbolTableRecord
100
AcDbTextStyleTableRecord
  2
STANDARD
 70
     0
 40
0.0
 41
0.8
 50
0.0
 71
     0
 42
0.2
  3
romans.shx
  4

  0
STYLE
  5
1B
330
B
100
AcDbSymbolTableRecord
100
AcDbTextStyleTableRecord
  2
ROMANS
 70
     0
 40
0.0
 41
0.8
 50
0.0
 71
     0
 42
3.0
  3
ROMANS.shx
  4

  0
STYLE
  5
25
330
B
100
AcDbSymbolTableRecord
100
AcDbTextStyleTableRecord
  2

 70
     1
 40
0.0
 41
1.0
 50
0.0
 71
     0
 42
0.2
  3
ltypeshp.shx
  4

  0
STYLE
  5
35C
330
B
100
AcDbSymbolTableRecord
100
AcDbTextStyleTableRecord
  2
Stile_Quota
 70
     0
 40
0.0
 41
1.0
 50
0.0
 71
     0
 42
3.0
  3
BOD_I.TTF
  4

1001
ACAD
1000
Bodoni MT
1071
 16777234
  0
STYLE
  5
635
330
B
100
AcDbSymbolTableRecord
100
AcDbTextStyleTableRecord
  2
Stile_Quota_FISSO
 70
     0
 40
20.0
 41
1.0
 50
0.0
 71
     0
 42
3.0
  3
BOD_I.TTF
  4

1001
ACAD
1000
Bodoni MT
1071
 16777234
  0
STYLE
  5
949
330
B
100
AcDbSymbolTableRecord
100
AcDbTextStyleTableRecord
  2
STYLE1
 70
     0
 40
0.0
 41
1.0
 50
0.0
 71
     0
 42
3.0
  3
eurr____.ttf
  4

1001
ACAD
1000
EuroRoman
1071
      514
  0
STYLE
  5
94A
330
B
100
AcDbSymbolTableRecord
100
AcDbTextStyleTableRecord
  2
arial_ttf
 70
     0
 40
0.0
 41
1.0
 50
0.0
 71
     0
 42
0.2
  3
ARIAL.TTF
  4

1001
ACAD
1000
Arial
1071
        2
  0
STYLE
  5
94B
330
B
100
AcDbSymbolTableRecord
100
AcDbTextStyleTableRecord
  2
seansi_ttf
 70
     0
 40
0.0
 41
1.0
 50
0.0
 71
     0
 42
0.2
  3
seansi.ttf
  4

  0
STYLE
  5
94C
330
B
100
AcDbSymbolTableRecord
100
AcDbTextStyleTableRecord
  2
Stile_Cart
 70
     0
 40
0.0
 41
1.0
 50
0.0
 71
     0
 42
1.5
  3
TIMES.TTF
  4

1001
ACAD
1000
Times New Roman
1071
       18
  0
STYLE
  5
1274
330
B
100
AcDbSymbolTableRecord
100
AcDbTextStyleTableRecord
  2
SIMPLEX
 70
     0
 40
0.0
 41
1.0
 50
0.0
 71
     0
 42
0.2
  3
SIMPLEX.shx
  4

  0
ENDTAB
  0
TABLE
  2
VIEW
  5
10
330
0
100
AcDbSymbolTable
 70
     0
  0
ENDTAB
  0
TABLE
  2
UCS
  5
11
330
0
100
AcDbSymbolTable
 70
     0
  0
ENDTAB
  0
TABLE
  2
APPID
  5
14
330
0
100
AcDbSymbolTable
 70
    14
  0
APPID
  5
15
330
14
100
AcDbSymbolTableRecord
100
AcDbRegAppTableRecord
  2
ACAD
 70
     0
  0
APPID
  5
53
330
14
100
AcDbSymbolTableRecord
100
AcDbRegAppTableRecord
  2
TOP
 70
     0
  0
APPID
  5
356
330
14
100
AcDbSymbolTableRecord
100
AcDbRegAppTableRecord
  2
ACAD_MLEADERVER
 70
     0
  0
APPID
  5
35A
330
14
100
AcDbSymbolTableRecord
100
AcDbRegAppTableRecord
  2
ACAD_DSTYLE_DIMJAG
 70
     0
  0
APPID
  5
35B
330
14
100
AcDbSymbolTableRecord
100
AcDbRegAppTableRecord
  2
ACAD_DSTYLE_DIMTALN
 70
     0
  0
APPID
  5
35D
330
14
100
AcDbSymbolTableRecord
100
AcDbRegAppTableRecord
  2
AcadAnnoPO
 70
     0
  0
APPID
  5
374
330
14
100
AcDbSymbolTableRecord
100
AcDbRegAppTableRecord
  2
ACAD_EXEMPT_FROM_CAD_STANDARDS
 70
     0
  0
APPID
  5
38F
330
14
100
AcDbSymbolTableRecord
100
AcDbRegAppTableRecord
  2
ACAD_PSEXT
 70
     0
  0
APPID
  5
3BC
330
14
100
AcDbSymbolTableRecord
100
AcDbRegAppTableRecord
  2
ACAD_DSTYLE_DIMBREAK
 70
     0
  0
APPID
  5
6DC
330
14
100
AcDbSymbolTableRecord
100
AcDbRegAppTableRecord
  2
AcAecLayerStandard
 70
     0
  0
APPID
  5
A89
330
14
100
AcDbSymbolTableRecord
100
AcDbRegAppTableRecord
  2
Bound
 70
     0
  0
APPID
  5
A8C
330
14
100
AcDbSymbolTableRecord
100
AcDbRegAppTableRecord
  2
OrigLayer
 70
     0
  0
APPID
  5
DD3
330
14
100
AcDbSymbolTableRecord
100
AcDbRegAppTableRecord
  2
ACAD_DSTYLE_DIMRADIAL_EXTENSION
 70
     0
  0
APPID
  5
15C4
330
14
100
AcDbSymbolTableRecord
100
AcDbRegAppTableRecord
  2
ACAD_DSTYLE_DIMJOGGED_JOGANGLE_SYMBOL
 70
     0
  0
ENDTAB
  0
TABLE
  2
DIMSTYLE
  5
16
330
0
100
AcDbSymbolTable
 70
     8
100
AcDbDimStyleTable
 71
     5
340
1D
340
AE0
340
94E
340
94D
340
713
  0
DIMSTYLE
105
1D
330
16
100
AcDbSymbolTableRecord
100
AcDbDimStyleTableRecord
  2
ACADTOP
 70
     0
 40
10.0
 41
2.0
 42
1.0
 43
10.0
 44
1.5
 73
     0
 74
     0
 77
     1
 78
     8
 79
     2
140
2.0
141
2.0
146
0.6
147
1.0
172
     1
176
     2
177
     2
178
     1
179
     1
271
     2
272
     2
284
     8
289
     0
340
35C
1001
ACAD_DSTYLE_DIMJAG
1070
   388
1040
1.5
1001
ACAD_DSTYLE_DIMTALN
1070
   392
1070
     0
  0
DIMSTYLE
105
3BD
330
16
100
AcDbSymbolTableRecord
100
AcDbDimStyleTableRecord
  2
DIERRE_LUNG-ALT
 70
     0
 40
10.0
 41
3.0
 42
1.0
 43
10.0
 44
1.5
 73
     0
 74
     0
 75
     1
 76
     1
 78
     8
 79
     2
140
20.0
141
2.0
146
0.6
147
1.0
172
     1
176
     3
177
     3
178
    30
179
     1
271
     1
272
     1
281
     1
282
     1
284
     8
340
635
1001
ACAD_DSTYLE_DIMBREAK
1070
   391
1040
3.75
1001
ACAD_DSTYLE_DIMJAG
1070
   388
1040
1.5
1001
ACAD_DSTYLE_DIMTALN
1070
   392
1070
     0
  0
DIMSTYLE
105
3BE
330
16
100
AcDbSymbolTableRecord
100
AcDbDimStyleTableRecord
  2
DIERRE_LARG
 70
     0
 40
10.0
 41
3.0
 42
1.0
 43
10.0
 44
1.5
 73
     0
 74
     0
 75
     1
 76
     1
 78
     8
 79
     2
140
20.0
141
2.0
146
0.6
147
1.0
172
     1
176
     4
177
     4
178
     4
179
     1
271
     1
272
     1
281
     1
282
     1
284
     8
340
635
1001
ACAD_DSTYLE_DIMBREAK
1070
   391
1040
3.75
1001
ACAD_DSTYLE_DIMJAG
1070
   388
1040
1.5
1001
ACAD_DSTYLE_DIMTALN
1070
   392
1070
     0
  0
DIMSTYLE
105
713
330
16
100
AcDbSymbolTableRecord
100
AcDbDimStyleTableRecord
  2
MAURO
 70
     0
 40
10.0
 41
20.0
 42
20.0
 73
     0
 74
     0
 77
     1
140
10.0
147
2.2
172
     1
271
     1
272
     1
279
     2
340
1B
  0
DIMSTYLE
105
94D
330
16
100
AcDbSymbolTableRecord
100
AcDbDimStyleTableRecord
  2
STANDARD
 70
     0
340
C
  0
DIMSTYLE
105
94E
330
16
100
AcDbSymbolTableRecord
100
AcDbDimStyleTableRecord
  2
ISO-25
 70
     0
 41
2.5
 42
0.625
 43
3.75
 44
1.25
 73
     0
 74
     0
 77
     1
 78
     8
140
2.5
141
2.5
143
0.03937007874016
147
0.625
171
     3
172
     1
271
     2
272
     2
274
     3
278
    44
283
     0
284
     8
340
C
1001
ACAD_DSTYLE_DIMJOGGED_JOGANGLE_SYMBOL
1070
   384
1040
1.570796326794896
  0
DIMSTYLE
105
AE0
330
16
100
AcDbSymbolTableRecord
100
AcDbDimStyleTableRecord
  2
ACADTOP10_0_0_10
 70
     0
 40
10.0
 41
2.0
 42
1.0
 43
10.0
 44
1.5
 73
     0
 74
     0
 77
     1
 78
     8
 79
     2
140
2.0
141
2.0
144
0.1
146
0.6
147
1.0
172
     1
176
     2
177
     2
178
     1
179
     1
271
     2
272
     2
284
     8
289
     0
340
35C
  0
DIMSTYLE
105
1275
330
16
100
AcDbSymbolTableRecord
100
AcDbDimStyleTableRecord
  2
MECC
 70
     0
 40
10.0
 41
25.0
 42
30.0
 44
5.0
 73
     0
 74
     0
 77
     1
 78
     8
140
25.0
146
0.0072
147
8.0
172
     1
271
     2
272
     2
279
     2
284
     8
285
     8
286
     8
340
1274
  0
ENDTAB
  0
TABLE
  2
BLOCK_RECORD
  5
1
330
0
100
AcDbSymbolTable
 70
    45
  0
BLOCK_RECORD
  5
2
330
1
100
AcDbSymbolTableRecord
100
AcDbBlockTableRecord
  2
*MODEL_SPACE
340
47
  0
BLOCK_RECORD
  5
7
330
1
100
AcDbSymbolTableRecord
100
AcDbBlockTableRecord
  2
*PAPER_SPACE
340
48
  0
BLOCK_RECORD
  5
951
102
{ACAD_XDICTIONARY
360
A6A
102
}
330
1
100
AcDbSymbolTableRecord
100
AcDbBlockTableRecord
  2
TAB-A4
340
0
  0
BLOCK_RECORD
  5
AFA
330
1
100
AcDbSymbolTableRecord
100
AcDbBlockTableRecord
  2
*D1
340
0
  0
BLOCK_RECORD
  5
B16
330
1
100
AcDbSymbolTableRecord
100
AcDbBlockTableRecord
  2
*D2
340
0
  0
BLOCK_RECORD
  5
B2E
330
1
100
AcDbSymbolTableRecord
100
AcDbBlockTableRecord
  2
*D3
340
0
  0
BLOCK_RECORD
  5
B46
330
1
100
AcDbSymbolTableRecord
100
AcDbBlockTableRecord
  2
*D4
340
0
  0
BLOCK_RECORD
  5
B5E
330
1
100
AcDbSymbolTableRecord
100
AcDbBlockTableRecord
  2
*D5
340
0
  0
BLOCK_RECORD
  5
B7A
330
1
100
AcDbSymbolTableRecord
100
AcDbBlockTableRecord
  2
*D6
340
0
  0
BLOCK_RECORD
  5
B96
330
1
100
AcDbSymbolTableRecord
100
AcDbBlockTableRecord
  2
*D7
340
0
  0
BLOCK_RECORD
  5
C1A
330
1
100
AcDbSymbolTableRecord
100
AcDbBlockTableRecord
  2
*D8
340
0
  0
BLOCK_RECORD
  5
C36
330
1
100
AcDbSymbolTableRecord
100
AcDbBlockTableRecord
  2
*D9
340
0
  0
BLOCK_RECORD
  5
C4E
330
1
100
AcDbSymbolTableRecord
100
AcDbBlockTableRecord
  2
*D10
340
0
  0
BLOCK_RECORD
  5
C66
330
1
100
AcDbSymbolTableRecord
100
AcDbBlockTableRecord
  2
*D11
340
0
  0
BLOCK_RECORD
  5
C82
330
1
100
AcDbSymbolTableRecord
100
AcDbBlockTableRecord
  2
*D12
340
0
  0
BLOCK_RECORD
  5
C9E
330
1
100
AcDbSymbolTableRecord
100
AcDbBlockTableRecord
  2
*D13
340
0
  0
BLOCK_RECORD
  5
CBA
330
1
100
AcDbSymbolTableRecord
100
AcDbBlockTableRecord
  2
*D14
340
0
  0
BLOCK_RECORD
  5
CD6
330
1
100
AcDbSymbolTableRecord
100
AcDbBlockTableRecord
  2
*D15
340
0
  0
BLOCK_RECORD
  5
D0A
330
1
100
AcDbSymbolTableRecord
100
AcDbBlockTableRecord
  2
*D16
340
0
  0
BLOCK_RECORD
  5
D1B
330
1
100
AcDbSymbolTableRecord
100
AcDbBlockTableRecord
  2
*D17
340
0
  0
BLOCK_RECORD
  5
D71
330
1
100
AcDbSymbolTableRecord
100
AcDbBlockTableRecord
  2
*D18
340
0
  0
BLOCK_RECORD
  5
D89
330
1
100
AcDbSymbolTableRecord
100
AcDbBlockTableRecord
  2
*D19
340
0
  0
BLOCK_RECORD
  5
DA1
330
1
100
AcDbSymbolTableRecord
100
AcDbBlockTableRecord
  2
*D20
340
0
  0
BLOCK_RECORD
  5
DD5
330
1
100
AcDbSymbolTableRecord
100
AcDbBlockTableRecord
  2
*D21
340
0
  0
BLOCK_RECORD
  5
DE7
330
1
100
AcDbSymbolTableRecord
100
AcDbBlockTableRecord
  2
*D22
340
0
  0
BLOCK_RECORD
  5
DF9
330
1
100
AcDbSymbolTableRecord
100
AcDbBlockTableRecord
  2
*D23
340
0
  0
BLOCK_RECORD
  5
E11
330
1
100
AcDbSymbolTableRecord
100
AcDbBlockTableRecord
  2
*D24
340
0
  0
BLOCK_RECORD
  5
E29
330
1
100
AcDbSymbolTableRecord
100
AcDbBlockTableRecord
  2
*D25
340
0
  0
BLOCK_RECORD
  5
E45
330
1
100
AcDbSymbolTableRecord
100
AcDbBlockTableRecord
  2
*D26
340
0
  0
BLOCK_RECORD
  5
E5D
330
1
100
AcDbSymbolTableRecord
100
AcDbBlockTableRecord
  2
*D27
340
0
  0
BLOCK_RECORD
  5
E75
330
1
100
AcDbSymbolTableRecord
100
AcDbBlockTableRecord
  2
*D28
340
0
  0
BLOCK_RECORD
  5
EA2
330
1
100
AcDbSymbolTableRecord
100
AcDbBlockTableRecord
  2
*D29
340
0
  0
BLOCK_RECORD
  5
EBE
330
1
100
AcDbSymbolTableRecord
100
AcDbBlockTableRecord
  2
*D30
340
0
  0
BLOCK_RECORD
  5
F92
330
1
100
AcDbSymbolTableRecord
100
AcDbBlockTableRecord
  2
*D31
340
0
  0
BLOCK_RECORD
  5
FA2
330
1
100
AcDbSymbolTableRecord
100
AcDbBlockTableRecord
  2
*D32
340
0
  0
BLOCK_RECORD
  5
FB4
330
1
100
AcDbSymbolTableRecord
100
AcDbBlockTableRecord
  2
*D33
340
0
  0
BLOCK_RECORD
  5
FC4
330
1
100
AcDbSymbolTableRecord
100
AcDbBlockTableRecord
  2
*D34
340
0
  0
BLOCK_RECORD
  5
102E
330
1
100
AcDbSymbolTableRecord
100
AcDbBlockTableRecord
  2
*D35
340
0
  0
BLOCK_RECORD
  5
1046
330
1
100
AcDbSymbolTableRecord
100
AcDbBlockTableRecord
  2
*D36
340
0
  0
BLOCK_RECORD
  5
1062
330
1
100
AcDbSymbolTableRecord
100
AcDbBlockTableRecord
  2
*D37
340
0
  0
BLOCK_RECORD
  5
10C9
330
1
100
AcDbSymbolTableRecord
100
AcDbBlockTableRecord
  2
*D38
340
0
  0
BLOCK_RECORD
  5
10E5
330
1
100
AcDbSymbolTableRecord
100
AcDbBlockTableRecord
  2
*D39
340
0
  0
BLOCK_RECORD
  5
1531
330
1
100
AcDbSymbolTableRecord
100
AcDbBlockTableRecord
  2
*D42
340
0
  0
BLOCK_RECORD
  5
1538
330
1
100
AcDbSymbolTableRecord
100
AcDbBlockTableRecord
  2
*D43
340
0
  0
BLOCK_RECORD
  5
1578
330
1
100
AcDbSymbolTableRecord
100
AcDbBlockTableRecord
  2
*D44
340
0
  0
ENDTAB
  0
ENDSEC
  0
SECTION
  2
BLOCKS
  0
BLOCK
  5
3
330
2
100
AcDbEntity
  8
0
100
AcDbBlockBegin
  2
*MODEL_SPACE
 70
     0
 10
0.0
 20
0.0
 30
0.0
  3
*MODEL_SPACE
  1

  0
ENDBLK
  5
6
330
2
100
AcDbEntity
  8
0
100
AcDbBlockEnd
  0
BLOCK
  5
8
330
7
100
AcDbEntity
 67
     1
  8
0
100
AcDbBlockBegin
  2
*PAPER_SPACE
 70
     0
 10
0.0
 20
0.0
 30
0.0
  3
*PAPER_SPACE
  1

  0
ENDBLK
  5
9
330
7
100
AcDbEntity
 67
     1
  8
0
100
AcDbBlockEnd
  0
BLOCK
  5
A6C
330
951
100
AcDbEntity
  8
0
 62
     7
100
AcDbBlockBegin
  2
TAB-A4
 70
     2
 10
0.0
 20
0.0
 30
0.0
  3
TAB-A4
  1

  0
LINE
  5
952
330
951
100
AcDbEntity
  8
0
  6
Continuous
 62
     0
100
AcDbLine
 10
100.0
 20
143.5
 30
0.0
 11
-100.0
 21
143.5
 31
0.0
1001
TOP
1070
     7
  0
LINE
  5
953
330
951
100
AcDbEntity
  8
0
  6
Continuous
 62
     0
100
AcDbLine
 10
-100.0
 20
143.5
 30
0.0
 11
-100.0
 21
-143.5
 31
0.0
1001
TOP
1070
     7
  0
LINE
  5
954
330
951
100
AcDbEntity
  8
0
  6
Continuous
 62
     0
100
AcDbLine
 10
-100.0
 20
-143.5
 30
0.0
 11
100.0
 21
-143.5
 31
0.0
1001
TOP
1070
     7
  0
LINE
  5
955
330
951
100
AcDbEntity
  8
0
  6
Continuous
 62
     0
100
AcDbLine
 10
100.0
 20
-143.5
 30
0.0
 11
100.0
 21
143.5
 31
0.0
1001
TOP
1070
     7
  0
LINE
  5
956
330
951
100
AcDbEntity
  8
0
  6
Continuous
 62
     0
100
AcDbLine
 10
105.0
 20
148.5
 30
0.0
 11
-105.0
 21
148.5
 31
0.0
1001
TOP
1070
     3
  0
LINE
  5
957
330
951
100
AcDbEntity
  8
0
  6
Continuous
 62
     0
100
AcDbLine
 10
-105.0
 20
148.5
 30
0.0
 11
-105.0
 21
-148.5
 31
0.0
1001
TOP
1070
     3
  0
LINE
  5
958
330
951
100
AcDbEntity
  8
0
  6
Continuous
 62
     0
100
AcDbLine
 10
-105.0
 20
-148.5
 30
0.0
 11
105.0
 21
-148.5
 31
0.0
1001
TOP
1070
     3
  0
LINE
  5
959
330
951
100
AcDbEntity
  8
0
  6
Continuous
 62
     0
100
AcDbLine
 10
105.0
 20
-148.5
 30
0.0
 11
105.0
 21
148.5
 31
0.0
1001
TOP
1070
     3
  0
ATTDEF
  5
95A
330
951
100
AcDbEntity
  8
0
 62
     0
 48
35.0
100
AcDbText
 10
-76.25989897767704
 20
-84.74999999999999
 30
0.0
 40
2.5
  1

  7
Stile_Cart
 11
-76.25989897767704
 21
-83.49999999999999
 31
0.0
100
AcDbAttributeDefinition
  3

  2
DESCRIZIONE
 70
     4
 74
     2
1001
TOP
1070
     7
  0
LINE
  5
95B
330
951
100
AcDbEntity
  8
0
 62
     0
 48
35.0
100
AcDbLine
 10
100.0
 20
-138.5
 30
0.0
 11
-100.0
 21
-138.5
 31
0.0
1001
TOP
1070
     3
  0
MTEXT
  5
95C
330
951
100
AcDbEntity
  8
0
 62
     0
 48
35.0
100
AcDbMText
 10
0.0
 20
-141.0
 30
0.0
 40
1.499624999999999
 41
190.3973187722231
 71
     5
 72
     1
  1
{\C256;SI VIETA L'USO E LA RIPRODUZIONE O LA VISIONE A TERZI DEL PRESENTE DISEGNO SENZA ESPLICITA AUTORIZZAZIONE, \H1.333x;Dierre \H0.75x;TUTELERA' I PROPRI DIRITTI A NORMA DI LEGGE}
  7
Stile_Cart
 73
     1
 44
1.0
1001
TOP
1070
     3
1001
ACAD
1000
MTEXTBEGIN
1070
    73
1070
     1
1070
    44
1040
1.0
1070
    74
1070
     0
1000
MTEXTEND
  0
LINE
  5
95D
330
951
100
AcDbEntity
  8
0
 62
     0
 48
35.0
100
AcDbLine
 10
-100.0
 20
-78.5
 30
0.0
 11
100.0
 21
-78.49999999999988
 31
0.0
1001
TOP
1070
     3
  0
LINE
  5
95E
330
951
100
AcDbEntity
  8
0
 62
     0
 48
35.0
100
AcDbLine
 10
35.0
 20
-78.5
 30
0.0
 11
35.0
 21
-138.5
 31
0.0
1001
TOP
1070
     3
  0
LINE
  5
95F
330
951
100
AcDbEntity
  8
0
 62
     0
 48
35.0
100
AcDbLine
 10
-100.0
 20
-130.5
 30
0.0
 11
35.0
 21
-130.5
 31
0.0
1001
TOP
1070
     1
  0
LINE
  5
960
330
951
100
AcDbEntity
  8
0
 62
     0
 48
35.0
100
AcDbLine
 10
-100.0
 20
-108.5
 30
0.0
 11
35.0
 21
-108.5
 31
0.0
1001
TOP
1070
     1
  0
LINE
  5
961
330
951
100
AcDbEntity
  8
0
 62
     0
 48
35.0
100
AcDbLine
 10
-66.25
 20
-130.5
 30
0.0
 11
-66.25
 21
-138.5
 31
0.0
1001
TOP
1070
     7
  0
LINE
  5
962
330
951
100
AcDbEntity
  8
0
 62
     0
 48
35.0
100
AcDbLine
 10
-100.0
 20
-98.50000000000001
 30
0.0
 11
35.0
 21
-98.50000000000001
 31
0.0
1001
TOP
1070
     1
  0
LINE
  5
963
330
951
100
AcDbEntity
  8
0
 62
     0
 48
35.0
100
AcDbLine
 10
-27.5
 20
-98.50000000000001
 30
0.0
 11
-27.5
 21
-108.5
 31
0.0
1001
TOP
1070
     1
  0
TEXT
  5
964
330
951
100
AcDbEntity
  8
0
 62
     0
 48
35.0
100
AcDbText
 10
-99.24333629514059
 20
-84.74999999999999
 30
0.0
 40
1.6
  1
DENOMINAZIONE:
  7
STYLE1
100
AcDbText
1001
TOP
1070
     1
  0
TEXT
  5
965
330
951
100
AcDbEntity
  8
0
 62
     0
 48
35.0
100
AcDbText
 10
-99.24333629514059
 20
-105.5
 30
0.0
 40
1.6
  1
CLIENTE:
  7
STYLE1
100
AcDbText
1001
TOP
1070
     1
  0
LINE
  5
966
330
951
100
AcDbEntity
  8
0
 62
     0
 48
35.0
100
AcDbLine
 10
-27.5
 20
-103.5
 30
0.0
 11
35.00000000000091
 21
-103.5
 31
0.0
1001
TOP
1070
     1
  0
TEXT
  5
967
330
951
100
AcDbEntity
  8
0
 62
     0
 48
35.0
100
AcDbText
 10
-26.74333629514058
 20
-102.25
 30
0.0
 40
1.6
  1
COD. CLIENTE:
  7
STYLE1
100
AcDbText
1001
TOP
1070
     1
  0
TEXT
  5
968
330
951
100
AcDbEntity
  8
0
 62
     0
 48
35.0
100
AcDbText
 10
-26.74333629514058
 20
-107.25
 30
0.0
 40
1.6
  1
CC CLIENTE:
  7
STYLE1
100
AcDbText
1001
TOP
1070
     1
  0
LINE
  5
969
330
951
100
AcDbEntity
  8
0
 62
     0
 48
35.0
100
AcDbLine
 10
35.0
 20
-85.99999999999988
 30
0.0
 11
100.0
 21
-85.99999999999988
 31
0.0
1001
TOP
1070
     7
  0
LINE
  5
96A
330
951
100
AcDbEntity
  8
0
 62
     0
 48
35.0
100
AcDbLine
 10
35.0
 20
-93.49999999999988
 30
0.0
 11
100.0
 21
-93.49999999999988
 31
0.0
1001
TOP
1070
     7
  0
LINE
  5
96B
330
951
100
AcDbEntity
  8
0
 62
     0
 48
35.0
100
AcDbLine
 10
35.0
 20
-100.9999999999999
 30
0.0
 11
100.0
 21
-100.9999999999999
 31
0.0
1001
TOP
1070
     7
  0
TEXT
  5
96C
330
951
100
AcDbEntity
  8
0
 62
     0
 48
35.0
100
AcDbText
 10
35.75666370485942
 20
-83.99999999999989
 30
0.0
 40
1.6
  1
Data:
  7
STYLE1
100
AcDbText
1001
TOP
1070
     1
  0
TEXT
  5
96D
330
951
100
AcDbEntity
  8
0
 62
     0
 48
35.0
100
AcDbText
 10
35.75666370485942
 20
-90.74999999999988
 30
0.0
 40
1.6
  1
Diseg.:        
  7
STYLE1
100
AcDbText
1001
TOP
1070
     1
  0
TEXT
  5
96E
330
951
100
AcDbEntity
  8
0
 62
     0
 48
35.0
100
AcDbText
 10
35.75666370485942
 20
-98.49999999999988
 30
0.0
 40
1.6
  1
Rifer. ordine:
  7
STYLE1
100
AcDbText
1001
TOP
1070
     1
  0
LINE
  5
96F
330
951
100
AcDbEntity
  8
0
 62
     0
 48
35.0
100
AcDbLine
 10
72.0
 20
-78.49999999999988
 30
0.0
 11
72.0
 21
-93.49999999999999
 31
0.0
  0
TEXT
  5
970
330
951
100
AcDbEntity
  8
0
 62
     0
 48
35.0
100
AcDbText
 10
72.75666370485942
 20
-83.99999999999989
 30
0.0
 40
1.6
  1
Scala:
  7
STYLE1
100
AcDbText
1001
TOP
1070
     1
  0
TEXT
  5
971
330
951
100
AcDbEntity
  8
0
 62
     0
 48
35.0
100
AcDbText
 10
72.75666370485942
 20
-91.49999999999989
 30
0.0
 40
1.6
  1
Q.ta:
  7
STYLE1
100
AcDbText
1001
TOP
1070
     1
  0
TEXT
  5
972
330
951
100
AcDbEntity
  8
0
 62
     0
 48
35.0
100
AcDbText
 10
35.85819235127565
 20
-110.1249999999999
 30
0.0
 40
1.76
  1
Codice N
  7
STYLE1
100
AcDbText
1001
TOP
1070
     1
  0
LINE
  5
973
330
951
100
AcDbEntity
  8
0
 62
     0
 48
35.0
100
AcDbLine
 10
35.0
 20
-114.7499999999999
 30
0.0
 11
100.0
 21
-114.7499999999999
 31
0.0
1001
TOP
1070
     7
  0
LINE
  5
974
330
951
100
AcDbEntity
  8
0
 62
     0
 48
35.0
100
AcDbLine
 10
35.0
 20
-124.7499999999999
 30
0.0
 11
100.0
 21
-124.7499999999999
 31
0.0
1001
TOP
1070
     7
  0
LINE
  5
975
330
951
100
AcDbEntity
  8
0
 62
     0
 48
35.0
100
AcDbLine
 10
35.0
 20
-130.5
 30
0.0
 11
100.0
 21
-130.5
 31
0.0
1001
TOP
1070
     7
  0
CIRCLE
  5
976
330
951
100
AcDbEntity
  8
0
  6
Continuous
 62
     0
100
AcDbCircle
 10
94.1449550471707
 20
-134.5409172698267
 30
0.0
 40
3.0
1001
TOP
1070
     2
  0
LINE
  5
977
330
951
100
AcDbEntity
  8
0
  6
DASHDOT2
 62
     0
100
AcDbLine
 10
94.1449550471707
 20
-131.5409172698267
 30
0.0
 11
94.1449550471707
 21
-137.5409172698267
 31
0.0
1001
TOP
1070
     2
  0
CIRCLE
  5
978
330
951
100
AcDbEntity
  8
0
  6
Continuous
 62
     0
100
AcDbCircle
 10
94.1449550471707
 20
-134.5409172698267
 30
0.0
 40
1.5
1001
TOP
1070
     2
  0
LINE
  5
979
330
951
100
AcDbEntity
  8
0
  6
DASHDOT2
 62
     0
100
AcDbLine
 10
81.35716881113784
 20
-134.5409172698267
 30
0.0
 11
97.14495504717071
 21
-134.5409172698267
 31
0.0
1001
TOP
1070
     2
  0
LINE
  5
97A
330
951
100
AcDbEntity
  8
0
  6
Continuous
 62
     0
100
AcDbLine
 10
88.51173788868619
 20
-131.5409172698267
 30
0.0
 11
88.51173788868619
 21
-137.8298833532369
 31
0.0
1001
TOP
1070
     2
  0
LINE
  5
97B
330
951
100
AcDbEntity
  8
0
  6
Continuous
 62
     0
100
AcDbLine
 10
81.35716881113784
 20
-133.0409172698267
 30
0.0
 11
81.35716881113784
 21
-136.0409172698267
 31
0.0
1001
TOP
1070
     2
  0
LINE
  5
97C
330
951
100
AcDbEntity
  8
0
  6
Continuous
 62
     0
100
AcDbLine
 10
81.35716881113784
 20
-136.0409172698267
 30
0.0
 11
88.51173788868619
 21
-137.8298833532369
 31
0.0
1001
TOP
1070
     2
  0
LINE
  5
97D
330
951
100
AcDbEntity
  8
0
  6
Continuous
 62
     0
100
AcDbLine
 10
88.51173788868619
 20
-131.5409172698267
 30
0.0
 11
81.35716881113784
 21
-133.0409172698267
 31
0.0
1001
TOP
1070
     2
  0
LINE
  5
97E
330
951
100
AcDbEntity
  8
0
 62
     0
 48
35.0
100
AcDbLine
 10
78.5
 20
-138.5
 30
0.0
 11
78.5
 21
-130.5
 31
0.0
  0
MTEXT
  5
97F
330
951
100
AcDbEntity
  8
0
 62
     0
 48
35.0
100
AcDbMText
 10
36.70159610234714
 20
-116.147829675845
 30
0.0
 40
2.0
 41
187.0802
 71
     1
 72
     5
  1
{\C256;LE TOLLERANZE SI INTENDONO SU PEZZO\PFINITO COMPLETO DI ZINCATURA}
  7
Stile_Cart
 73
     1
 44
1.0
1001
TOP
1070
     3
1001
ACAD
1000
MTEXTBEGIN
1070
    73
1070
     1
1070
    44
1040
1.0
1070
    74
1070
     0
1000
MTEXTEND
  0
LINE
  5
980
330
951
100
AcDbEntity
  8
0
 62
     0
100
AcDbLine
 10
-100.0
 20
-71.0
 30
0.0
 11
99.99999999999909
 21
-71.00000000000012
 31
0.0
1001
TOP
1070
     3
  0
LINE
  5
981
330
951
100
AcDbEntity
  8
0
 62
     0
100
AcDbLine
 10
-100.0
 20
-67.0
 30
0.0
 11
99.99999999999909
 21
-67.0
 31
0.0
1001
TOP
1070
     3
  0
LINE
  5
982
330
951
100
AcDbEntity
  8
0
 62
     0
100
AcDbLine
 10
-100.0
 20
-62.0
 30
0.0
 11
99.99999999999909
 21
-61.99999999999988
 31
0.0
1001
TOP
1070
     3
  0
LINE
  5
983
330
951
100
AcDbEntity
  8
0
 62
     0
 48
35.0
100
AcDbLine
 10
-85.0
 20
-61.99999999999999
 30
0.0
 11
-85.0
 21
-78.5
 31
0.0
1001
TOP
1070
     1
  0
TEXT
  5
984
330
951
100
AcDbEntity
  8
0
 62
     0
 48
35.0
100
AcDbText
 10
-99.24333629514149
 20
-76.0
 30
0.0
 40
1.6
  1
POS.
  7
STYLE1
100
AcDbText
1001
TOP
1070
     1
  0
TEXT
  5
985
330
951
100
AcDbEntity
  8
0
 62
     0
 48
35.0
100
AcDbText
 10
-84.2433362951424
 20
-76.0
 30
0.0
 40
1.6
  1
MATERIALE:
  7
STYLE1
100
AcDbText
1001
TOP
1070
     1
  0
LINE
  5
986
330
951
100
AcDbEntity
  8
0
 62
     0
 48
35.0
100
AcDbLine
 10
14.99999999999909
 20
-71.00000000000022
 30
0.0
 11
15.0
 21
-78.5
 31
0.0
1001
TOP
1070
     1
  0
TEXT
  5
987
330
951
100
AcDbEntity
  8
0
 62
     0
 48
35.0
100
AcDbText
 10
15.75666370485669
 20
-76.0
 30
0.0
 40
1.6
  1
TRATTAMENTI:
  7
STYLE1
100
AcDbText
1001
TOP
1070
     1
  0
TEXT
  5
988
330
951
100
AcDbEntity
  8
0
 62
     0
 48
35.0
100
AcDbText
 10
-94.94297836942587
 20
-69.79763860700177
 30
0.0
 40
1.6
  1
Rev.
  7
STYLE1
100
AcDbText
1001
TOP
1070
     1
  0
LINE
  5
989
330
951
100
AcDbEntity
  8
0
 62
     0
 48
35.0
100
AcDbLine
 10
80.0
 20
-61.9999999999999
 30
0.0
 11
80.0000000000009
 21
-71.00000000000012
 31
0.0
1001
TOP
1070
     1
  0
LINE
  5
98A
330
951
100
AcDbEntity
  8
0
 62
     0
 48
35.0
100
AcDbLine
 10
65.00000000000032
 20
-61.99999999999991
 30
0.0
 11
65.00000000000091
 21
-71.00000000000114
 31
0.0
1001
TOP
1070
     1
  0
TEXT
  5
98B
330
951
100
AcDbEntity
  8
0
 62
     0
 48
35.0
100
AcDbText
 10
70.05702163057503
 20
-69.79763860700177
 30
0.0
 40
1.6
  1
Data
  7
STYLE1
100
AcDbText
1001
TOP
1070
     1
  0
TEXT
  5
98C
330
951
100
AcDbEntity
  8
0
 62
     0
 48
35.0
100
AcDbText
 10
87.79240430569643
 20
-69.79763860700177
 30
0.0
 40
1.6
  1
Diseg.
  7
STYLE1
100
AcDbText
1001
TOP
1070
     1
  0
LINE
  5
98D
330
951
100
AcDbEntity
  8
0
 62
     0
 48
35.0
100
AcDbLine
 10
-32.5
 20
-130.5
 30
0.0
 11
-32.5
 21
-138.5
 31
0.0
1001
TOP
1070
     7
  0
LINE
  5
98E
330
951
100
AcDbEntity
  8
0
 62
     0
 48
35.0
100
AcDbLine
 10
1.25
 20
-130.5
 30
0.0
 11
1.25
 21
-138.5
 31
0.0
1001
TOP
1070
     7
  0
LINE
  5
98F
330
951
100
AcDbEntity
  8
0
  6
Continuous
 62
     0
100
AcDbLine
 10
-84.625
 20
-135.2853677388285
 30
0.0
 11
-83.125
 21
-138.2853677388285
 31
0.0
1001
TOP
1070
     2
  0
LINE
  5
990
330
951
100
AcDbEntity
  8
0
  6
Continuous
 62
     0
100
AcDbLine
 10
-83.125
 20
-138.2853677388285
 30
0.0
 11
-80.12500000000001
 21
-132.2853677388285
 31
0.0
1001
TOP
1070
     2
  0
CIRCLE
  5
991
330
951
100
AcDbEntity
  8
0
  6
Continuous
 62
     0
100
AcDbCircle
 10
-83.125
 20
-136.1513931426129
 30
0.0
 40
0.8660254037843873
1001
TOP
1070
     2
  0
TEXT
  5
992
330
951
100
AcDbEntity
  8
0
  6
Continuous
 62
     0
100
AcDbText
 10
36.65725579953532
 20
-127.6856811538551
 30
0.0
 40
1.5
  1
Le QUOTE senza tolleranze si intendono h 11 / H 11
  7
Stile_Cart
100
AcDbText
1001
TOP
1070
     7
  0
TEXT
  5
993
330
951
100
AcDbEntity
  8
0
  6
Continuous
 62
     0
100
AcDbText
 10
36.56316783991022
 20
-136.7809056532263
 30
0.0
 40
1.5
  1
Smussi e raggi non quotati = 1 mm
  7
Stile_Cart
100
AcDbText
1001
TOP
1070
     7
  0
TEXT
  5
994
330
951
100
AcDbEntity
  8
0
  6
Continuous
 62
     0
100
AcDbText
 10
36.70159610234714
 20
-133.4356811538553
 30
0.0
 40
1.5
  1
Negli spigoli non quotati smussi 0,5 x 45°
  7
Stile_Cart
100
AcDbText
1001
TOP
1070
     7
  0
LINE
  5
995
330
951
100
AcDbEntity
  8
0
  6
Continuous
 62
     0
100
AcDbLine
 10
22.04910490551336
 20
-135.2267571184318
 30
0.0
 11
23.54910490551336
 21
-138.2267571184318
 31
0.0
1001
TOP
1070
     2
  0
LINE
  5
996
330
951
100
AcDbEntity
  8
0
  6
Continuous
 62
     0
100
AcDbLine
 10
23.54910490551336
 20
-138.2267571184318
 30
0.0
 11
26.54910490551336
 21
-132.2267571184318
 31
0.0
1001
TOP
1070
     2
  0
TEXT
  5
997
330
951
100
AcDbEntity
  8
0
  6
Continuous
 62
     0
100
AcDbText
 10
21.21024234627165
 20
-134.7267571184318
 30
0.0
 40
2.0
  1
0,8
  7
seansi_ttf
 11
21.21024234627165
 21
-132.7267571184318
 31
0.0
100
AcDbText
 73
     3
1001
TOP
1070
     2
  0
LINE
  5
998
330
951
100
AcDbEntity
  8
0
  6
Continuous
 62
     0
100
AcDbLine
 10
14.18630267108197
 20
-135.2559419652411
 30
0.0
 11
15.68630267108197
 21
-138.2559419652411
 31
0.0
1001
TOP
1070
     2
  0
LINE
  5
999
330
951
100
AcDbEntity
  8
0
  6
Continuous
 62
     0
100
AcDbLine
 10
15.68630267108197
 20
-138.2559419652411
 30
0.0
 11
17.18630267108197
 21
-135.2559419652411
 31
0.0
1001
TOP
1070
     2
  0
LINE
  5
99A
330
951
100
AcDbEntity
  8
0
  6
Continuous
 62
     0
100
AcDbLine
 10
17.18630267108197
 20
-135.2559419652411
 30
0.0
 11
14.18630267108197
 21
-135.2559419652411
 31
0.0
1001
TOP
1070
     2
  0
LINE
  5
99B
330
951
100
AcDbEntity
  8
0
  6
Continuous
 62
     0
100
AcDbLine
 10
14.18630267108197
 20
-135.2559419652411
 30
0.0
 11
12.68630267108197
 21
-138.2559419652411
 31
0.0
1001
TOP
1070
     2
  0
LINE
  5
99C
330
951
100
AcDbEntity
  8
0
  6
Continuous
 62
     0
100
AcDbLine
 10
12.68630267108197
 20
-138.2559419652411
 30
0.0
 11
11.18630267108197
 21
-135.2559419652411
 31
0.0
1001
TOP
1070
     2
  0
LINE
  5
99D
330
951
100
AcDbEntity
  8
0
  6
Continuous
 62
     0
100
AcDbLine
 10
11.18630267108197
 20
-135.2559419652411
 30
0.0
 11
14.18630267108197
 21
-135.2559419652411
 31
0.0
1001
TOP
1070
     2
  0
LINE
  5
99E
330
951
100
AcDbEntity
  8
0
  6
Continuous
 62
     0
100
AcDbLine
 10
11.18630267108197
 20
-135.2559419652411
 30
0.0
 11
9.686302671081968
 21
-138.2559419652411
 31
0.0
1001
TOP
1070
     2
  0
LINE
  5
99F
330
951
100
AcDbEntity
  8
0
  6
Continuous
 62
     0
100
AcDbLine
 10
9.686302671081968
 20
-138.2559419652411
 30
0.0
 11
8.186302671081968
 21
-135.2559419652411
 31
0.0
1001
TOP
1070
     2
  0
LINE
  5
9A0
330
951
100
AcDbEntity
  8
0
  6
Continuous
 62
     0
100
AcDbLine
 10
8.186302671081968
 20
-135.2559419652411
 30
0.0
 11
11.18630267108197
 21
-135.2559419652411
 31
0.0
1001
TOP
1070
     2
  0
LINE
  5
9A1
330
951
100
AcDbEntity
  8
0
  6
Continuous
 62
     0
100
AcDbLine
 10
-11.09407416882067
 20
-135.2999430320282
 30
0.0
 11
-9.594074168820668
 21
-138.2999430320282
 31
0.0
1001
TOP
1070
     2
  0
LINE
  5
9A2
330
951
100
AcDbEntity
  8
0
  6
Continuous
 62
     0
100
AcDbLine
 10
-9.594074168820668
 20
-138.2999430320282
 30
0.0
 11
-6.594074168820668
 21
-132.2999430320282
 31
0.0
1001
TOP
1070
     2
  0
TEXT
  5
9A3
330
951
100
AcDbEntity
  8
0
  6
Continuous
 62
     0
100
AcDbText
 10
-11.93293672806237
 20
-134.7999430320282
 30
0.0
 40
2.0
  1
1,6
  7
seansi_ttf
 11
-11.93293672806237
 21
-132.7999430320282
 31
0.0
100
AcDbText
 73
     3
1001
TOP
1070
     2
  0
LINE
  5
9A4
330
951
100
AcDbEntity
  8
0
  6
Continuous
 62
     0
100
AcDbLine
 10
-21.65592583117933
 20
-135.2999430320282
 30
0.0
 11
-20.15592583117933
 21
-138.2999430320282
 31
0.0
1001
TOP
1070
     2
  0
LINE
  5
9A5
330
951
100
AcDbEntity
  8
0
  6
Continuous
 62
     0
100
AcDbLine
 10
-20.15592583117933
 20
-138.2999430320282
 30
0.0
 11
-18.65592583117933
 21
-135.2999430320282
 31
0.0
1001
TOP
1070
     2
  0
LINE
  5
9A6
330
951
100
AcDbEntity
  8
0
  6
Continuous
 62
     0
100
AcDbLine
 10
-18.65592583117933
 20
-135.2999430320282
 30
0.0
 11
-21.65592583117933
 21
-135.2999430320282
 31
0.0
1001
TOP
1070
     2
  0
LINE
  5
9A7
330
951
100
AcDbEntity
  8
0
  6
Continuous
 62
     0
100
AcDbLine
 10
-21.65592583117933
 20
-135.2999430320282
 30
0.0
 11
-23.15592583117933
 21
-138.2999430320282
 31
0.0
1001
TOP
1070
     2
  0
LINE
  5
9A8
330
951
100
AcDbEntity
  8
0
  6
Continuous
 62
     0
100
AcDbLine
 10
-23.15592583117933
 20
-138.2999430320282
 30
0.0
 11
-24.65592583117933
 21
-135.2999430320282
 31
0.0
1001
TOP
1070
     2
  0
LINE
  5
9A9
330
951
100
AcDbEntity
  8
0
  6
Continuous
 62
     0
100
AcDbLine
 10
-24.65592583117933
 20
-135.2999430320282
 30
0.0
 11
-21.65592583117933
 21
-135.2999430320282
 31
0.0
1001
TOP
1070
     2
  0
LINE
  5
9AA
330
951
100
AcDbEntity
  8
0
  6
Continuous
 62
     0
100
AcDbLine
 10
-58.06883755106941
 20
-135.3397943988076
 30
0.0
 11
-56.56883755106941
 21
-138.3397943988076
 31
0.0
1001
TOP
1070
     2
  0
LINE
  5
9AB
330
951
100
AcDbEntity
  8
0
  6
Continuous
 62
     0
100
AcDbLine
 10
-56.56883755106941
 20
-138.3397943988076
 30
0.0
 11
-55.0688375510694
 21
-135.3397943988076
 31
0.0
1001
TOP
1070
     2
  0
LINE
  5
9AC
330
951
100
AcDbEntity
  8
0
  6
Continuous
 62
     0
100
AcDbLine
 10
-55.0688375510694
 20
-135.3397943988076
 30
0.0
 11
-58.06883755106941
 21
-135.3397943988076
 31
0.0
1001
TOP
1070
     2
  0
LINE
  5
9AD
330
951
100
AcDbEntity
  8
0
  6
Continuous
 62
     0
100
AcDbLine
 10
-43.68116244893059
 20
-135.3397943988076
 30
0.0
 11
-42.18116244893059
 21
-138.3397943988076
 31
0.0
1001
TOP
1070
     2
  0
LINE
  5
9AE
330
951
100
AcDbEntity
  8
0
  6
Continuous
 62
     0
100
AcDbLine
 10
-42.18116244893059
 20
-138.3397943988076
 30
0.0
 11
-39.18116244893059
 21
-132.3397943988076
 31
0.0
1001
TOP
1070
     2
  0
TEXT
  5
9AF
330
951
100
AcDbEntity
  8
0
  6
Continuous
 62
     0
100
AcDbText
 10
-44.52002500817229
 20
-134.8397943988076
 30
0.0
 40
2.0
  1
6,3
  7
seansi_ttf
 11
-44.52002500817229
 21
-132.8397943988076
 31
0.0
100
AcDbText
 73
     3
1001
TOP
1070
     2
  0
ATTDEF
  5
9B0
330
951
100
AcDbEntity
  8
0
 62
     0
 48
35.0
100
AcDbText
 10
-76.25989897767704
 20
-89.74999999999999
 30
0.0
 40
2.5
  1

  7
Stile_Cart
 11
-76.25989897767704
 21
-88.49999999999999
 31
0.0
100
AcDbAttributeDefinition
  3

  2
DESCRIZIONE2
 70
     4
 74
     2
1001
TOP
1070
     7
  0
ATTDEF
  5
9B1
330
951
100
AcDbEntity
  8
0
 62
     0
 48
35.0
100
AcDbText
 10
-76.25989897767704
 20
-94.74999999999999
 30
0.0
 40
2.5
  1

  7
Stile_Cart
 11
-76.25989897767704
 21
-93.49999999999999
 31
0.0
100
AcDbAttributeDefinition
  3

  2
DESCRIZIONE3
 70
     4
 74
     2
1001
TOP
1070
     7
  0
ATTDEF
  5
9B2
330
951
100
AcDbEntity
  8
0
 62
     0
 48
35.0
100
AcDbText
 10
42.76829842361894
 20
-83.99999999999989
 30
0.0
 40
3.5
  1

  7
Stile_Cart
 11
42.76829842361894
 21
-82.2499999999999
 31
0.0
100
AcDbAttributeDefinition
  3

  2
DATA
 70
     4
 74
     2
1001
TOP
1070
     7
  0
ATTDEF
  5
9B3
330
951
100
AcDbEntity
  8
0
 62
     0
 48
35.0
100
AcDbText
 10
79.15321575123653
 20
-83.99999999999989
 30
0.0
 40
3.5
  1

  7
Stile_Cart
 11
79.15321575123653
 21
-82.24999999999988
 31
0.0
100
AcDbAttributeDefinition
  3

  2
SCALA
 70
     4
 74
     2
1001
TOP
1070
     7
  0
ATTDEF
  5
9B4
330
951
100
AcDbEntity
  8
0
 62
     0
 48
35.0
100
AcDbText
 10
79.15321575123653
 20
-91.49999999999989
 30
0.0
 40
3.5
  1

  7
Stile_Cart
 11
79.15321575123653
 21
-89.74999999999988
 31
0.0
100
AcDbAttributeDefinition
  3

  2
QTA
 70
     4
 74
     2
1001
TOP
1070
     7
  0
ATTDEF
  5
9B5
330
951
100
AcDbEntity
  8
0
 62
     0
 48
35.0
100
AcDbText
 10
42.76829842361894
 20
-90.74999999999988
 30
0.0
 40
2.0
  1

  7
Stile_Cart
 11
42.76829842361894
 21
-89.74999999999988
 31
0.0
100
AcDbAttributeDefinition
  3

  2
DISEGNATORE
 70
     4
 74
     2
1001
TOP
1070
     7
  0
ATTDEF
  5
9B6
330
951
100
AcDbEntity
  8
0
 62
     0
 48
35.0
100
AcDbText
 10
51.64776592404542
 20
-98.49999999999988
 30
0.0
 40
2.5
  1

  7
Stile_Cart
 11
51.64776592404542
 21
-97.24999999999988
 31
0.0
100
AcDbAttributeDefinition
  3

  2
RIF_ORDINE
 70
     4
 74
     2
1001
TOP
1070
     7
  0
ATTDEF
  5
9B7
330
951
100
AcDbEntity
  8
0
 62
     0
 48
35.0
100
AcDbText
 10
50.29007657152305
 20
-110.1249999999999
 30
0.0
 40
4.5
  1

  7
Stile_Cart
 11
50.29007657152305
 21
-107.8749999999999
 31
0.0
100
AcDbAttributeDefinition
  3

  2
CODICE
 70
     4
 74
     2
1001
TOP
1070
     7
  0
ATTDEF
  5
9B8
330
951
100
AcDbEntity
  8
0
 62
     0
 48
35.0
100
AcDbText
 10
-10.1983793647978
 20
-102.25
 30
0.0
 40
2.5
  1

  7
Stile_Cart
 11
-10.1983793647978
 21
-101.0
 31
0.0
100
AcDbAttributeDefinition
  3

  2
COD_CLIENTE
 70
     4
 74
     2
1001
TOP
1070
     7
  0
ATTDEF
  5
9B9
330
951
100
AcDbEntity
  8
0
 62
     0
 48
35.0
100
AcDbText
 10
-10.18785708582345
 20
-107.25
 30
0.0
 40
2.5
  1

  7
Stile_Cart
 11
-10.18785708582345
 21
-106.0
 31
0.0
100
AcDbAttributeDefinition
  3

  2
COMMESSA
 70
     4
 74
     2
1001
TOP
1070
     7
  0
ATTDEF
  5
9BA
330
951
100
AcDbEntity
  8
0
 62
     0
 48
35.0
100
AcDbText
 10
-87.23964845993032
 20
-105.5
 30
0.0
 40
4.0
  1

  7
Stile_Cart
 11
-87.23964845993032
 21
-103.5
 31
0.0
100
AcDbAttributeDefinition
  3

  2
CLIENTE
 70
     4
 74
     2
1001
TOP
1070
     7
  0
ATTDEF
  5
9BB
330
951
100
AcDbEntity
  8
0
 62
     0
 48
35.0
100
AcDbText
 10
-67.95452598552799
 20
-76.0
 30
0.0
 40
2.5
  1

  7
Stile_Cart
 11
-67.95452598552799
 21
-74.75
 31
0.0
100
AcDbAttributeDefinition
  3

  2
MATERIALE
 70
     4
 74
     2
1001
TOP
1070
     7
  0
ATTDEF
  5
9BC
330
951
100
AcDbEntity
  8
0
 62
     0
 48
35.0
100
AcDbText
 10
35.56280592835867
 20
-76.0
 30
0.0
 40
2.5
  1

  7
Stile_Cart
 11
35.56280592835867
 21
-74.75
 31
0.0
100
AcDbAttributeDefinition
  3

  2
TRATTAMENTI
 70
     4
 74
     2
1001
TOP
1070
     7
  0
ATTDEF
  5
9BD
330
951
100
AcDbEntity
  8
0
 62
     0
 48
35.0
100
AcDbText
 10
-89.96922082042067
 20
-76.0
 30
0.0
 40
2.5
  1

  7
Stile_Cart
 72
     1
 11
-89.96922082042067
 21
-74.75
 31
0.0
100
AcDbAttributeDefinition
  3

  2
POS.
 70
     4
 74
     2
1001
TOP
1070
     7
  0
ATTDEF
  5
9BE
330
951
100
AcDbEntity
  8
0
 62
     0
 48
35.0
100
AcDbText
 10
-92.5
 20
-65.75
 30
0.0
 40
2.5
  1

  7
Stile_Cart
 72
     1
 11
-92.5
 21
-64.5
 31
0.0
100
AcDbAttributeDefinition
  3

  2
REV
 70
     4
 74
     2
1001
TOP
1070
     7
  0
ATTDEF
  5
9BF
330
951
100
AcDbEntity
  8
0
 62
     0
 48
35.0
100
AcDbText
 10
-83.0
 20
-65.75
 30
0.0
 40
2.5
  1

  7
Stile_Cart
 11
-83.0
 21
-64.5
 31
0.0
100
AcDbAttributeDefinition
  3

  2
MOD_REV
 70
     4
 74
     2
1001
TOP
1070
     7
  0
ATTDEF
  5
9C0
330
951
100
AcDbEntity
  8
0
 62
     0
 48
35.0
100
AcDbText
 10
72.50000000000032
 20
-65.74999999999994
 30
0.0
 40
2.5
  1

  7
Stile_Cart
 72
     1
 11
72.50000000000032
 21
-64.49999999999994
 31
0.0
100
AcDbAttributeDefinition
  3

  2
DATA_REV
 70
     4
 74
     2
1001
TOP
1070
     7
  0
ATTDEF
  5
9C1
330
951
100
AcDbEntity
  8
0
 62
     0
 48
35.0
100
AcDbText
 10
89.96023144605638
 20
-65.49999999999994
 30
0.0
 40
2.0
  1

 41
0.8
  7
Stile_Cart
 72
     1
 11
89.96023144605638
 21
-64.49999999999994
 31
0.0
100
AcDbAttributeDefinition
  3

  2
DISEGN_REV
 70
     4
 74
     2
1001
TOP
1070
     7
  0
TEXT
  5
9C2
330
951
100
AcDbEntity
  8
P-0000
  6
Continuous
 62
     0
 48
35.0
100
AcDbText
 10
-46.28135167661025
 20
-113.3527525052883
 30
0.0
 40
1.846799999999999
  1
Sedi operative: Fiorano Circ.le S. Giovanni Ev.,23   41042 Spezzano (MO)
  7
STYLE1
100
AcDbText
1001
TOP
1070
     7
  0
TEXT
  5
9C3
330
951
100
AcDbEntity
  8
P-0000
  6
Continuous
 62
     0
 48
35.0
100
AcDbText
 10
-6.340918626483258
 20
-117.0692022869476
 30
0.0
 40
1.846799999999999
  1
Tel. 0536 921322  Fax 0536 921218
  7
STYLE1
100
AcDbText
1001
TOP
1070
     7
  0
TEXT
  5
9C4
330
951
100
AcDbEntity
  8
P-0000
  6
Continuous
 62
     0
 48
35.0
100
AcDbText
 10
-29.75490795040492
 20
-120.7856520686069
 30
0.0
 40
1.846799999999999
  1
Bologna Via Del Selciatore, 12   40127 (BO) 
  7
STYLE1
100
AcDbText
1001
TOP
1070
     7
  0
TEXT
  5
9C5
330
951
100
AcDbEntity
  8
P-0000
  6
Continuous
 62
     0
 48
35.0
100
AcDbText
 10
-3.770224758554846
 20
-124.5021018502664
 30
0.0
 40
1.846799999999999
  1
Tel. 051 535318  Fax 051 531297
  7
STYLE1
100
AcDbText
1001
TOP
1070
     7
  0
TEXT
  5
9C6
330
951
100
AcDbEntity
  8
P-0000
  6
Continuous
 62
     0
 48
35.0
100
AcDbText
 10
-29.75453034516
 20
-128.1147363829751
 30
0.0
 40
1.5
  1
www.dierremacap.com . tecnico@dierreprotezioni.com  
  7
STYLE1
100
AcDbText
1001
TOP
1070
     7
  0
ARC
  5
9C7
330
951
100
AcDbEntity
  8
P-0000
  6
Continuous
 62
     0
370
     0
100
AcDbCircle
 10
-87.55587540093328
 20
-119.8343908033039
 30
0.0
 40
7.264056604142308
100
AcDbArc
 50
54.62314853322836
 51
125.3768514667716
1001
TOP
1070
    85
  0
ARC
  5
9C8
330
951
100
AcDbEntity
  8
P-0000
  6
Continuous
 62
     0
370
     0
100
AcDbCircle
 10
-88.37772146816295
 20
-119.8661633216503
 30
0.0
 40
7.793069759999999
100
AcDbArc
 50
49.82610094250764
 51
223.428751725223
1001
TOP
1070
    85
  0
ARC
  5
9C9
330
951
100
AcDbEntity
  8
P-0000
  6
Continuous
 62
     0
370
     0
100
AcDbCircle
 10
-87.77383862674813
 20
-119.1102130429075
 30
0.0
 40
4.056769053873
100
AcDbArc
 50
51.09712919102834
 51
223.6094645412326
1001
TOP
1070
    85
  0
ARC
  5
9CA
330
951
100
AcDbEntity
  8
P-0000
  6
Continuous
 62
     0
370
     0
100
AcDbCircle
 10
-88.42266163376624
 20
-119.4851385567151
 30
0.0
 40
4.763630338834137
100
AcDbArc
 50
47.85430720588668
 51
226.8522865263435
1001
TOP
1070
    85
  0
ARC
  5
9CB
330
951
100
AcDbEntity
  8
P-0000
  6
Continuous
 62
     0
370
     0
100
AcDbCircle
 10
-88.82997178899747
 20
-120.0817487520743
 30
0.0
 40
4.056769053873
100
AcDbArc
 50
231.0971291910283
 51
43.60946454123257
1001
TOP
1070
    85
  0
ARC
  5
9CC
330
951
100
AcDbEntity
  8
P-0000
  6
Continuous
 62
     0
370
     0
100
AcDbCircle
 10
-88.18114878197755
 20
-119.7068232382669
 30
0.0
 40
4.763630338834137
100
AcDbArc
 50
227.8543072058867
 51
46.85228652634355
1001
TOP
1070
    85
  0
ARC
  5
9CD
330
951
100
AcDbEntity
  8
P-0000
  6
Continuous
 62
     0
370
     0
100
AcDbCircle
 10
-88.37772146816295
 20
-119.8661633216503
 30
0.0
 40
7.793069759999999
100
AcDbArc
 50
230.1466606584018
 51
45.36258570986113
1001
TOP
1070
    85
  0
ARC
  5
9CE
330
951
100
AcDbEntity
  8
P-0000
  6
Continuous
 62
     0
370
     0
100
AcDbCircle
 10
-89.52593793590565
 20
-119.7374591014475
 30
0.0
 40
7.220700683144739
100
AcDbArc
 50
237.8184274609863
 51
321.1976420062348
1001
TOP
1070
    85
  0
ARC
  5
9CF
330
951
100
AcDbEntity
  8
P-0000
  6
Continuous
 62
     0
370
     0
100
AcDbCircle
 10
-88.50216480330599
 20
-119.1656258049447
 30
0.0
 40
5.663278842528495
100
AcDbArc
 50
171.3036725542784
 51
228.0269063594487
1001
TOP
1070
    85
  0
LINE
  5
9D0
330
951
100
AcDbEntity
  8
P-0000
  6
Continuous
 62
     0
370
     0
100
AcDbLine
 10
-92.28966119657778
 20
-123.3760412617837
 30
0.0
 11
-94.03728088778988
 21
-125.2235249353502
 31
0.0
1001
TOP
1070
    85
  0
LINE
  5
9D1
330
951
100
AcDbEntity
  8
P-0000
  6
Continuous
 62
     0
370
     0
100
AcDbLine
 10
-90.71117445104736
 20
-121.9083255159412
 30
0.0
 11
-91.68042069830406
 21
-122.9606500129607
 31
0.0
1001
TOP
1070
    85
  0
ARC
  5
9D2
330
951
100
AcDbEntity
  8
P-0000
  6
Continuous
 62
     0
370
     0
100
AcDbCircle
 10
-88.54309328048001
 20
-118.4440510223681
 30
0.0
 40
5.558875133404746
100
AcDbArc
 50
125.3768514667716
 51
178.611514748478
1001
TOP
1070
    85
  0
LINE
  5
9D3
330
951
100
AcDbEntity
  8
P-0000
  6
Continuous
 62
     0
370
     0
100
AcDbLine
 10
-53.65438013237113
 20
-115.6426918998433
 30
0.0
 11
-52.51302380375555
 21
-115.6426918998433
 31
0.0
1001
TOP
1070
     7
  0
ARC
  5
9D4
330
951
100
AcDbEntity
  8
P-0000
  6
Continuous
 62
     0
370
     0
100
AcDbCircle
 10
-54.83784997234598
 20
-114.9033114623533
 30
0.0
 40
2.439569664000001
100
AcDbArc
 50
354.0835439993975
 51
342.3574175336751
1001
TOP
1070
     7
  0
LINE
  5
9D5
330
951
100
AcDbEntity
  8
P-0000
  6
Continuous
 62
     0
370
     0
100
AcDbLine
 10
-56.253151669302
 20
-115.1547779670433
 30
0.0
 11
-52.39829186638807
 21
-115.1547779670433
 31
0.0
1001
TOP
1070
     7
  0
ARC
  5
9D6
330
951
100
AcDbEntity
  8
P-0000
  6
Continuous
 62
     0
370
     0
100
AcDbCircle
 10
-67.13328107890589
 20
-114.9033114623533
 30
0.0
 40
2.439569664000001
100
AcDbArc
 50
354.0835439993975
 51
342.3574175336751
1001
TOP
1070
     7
  0
LINE
  5
9D7
330
951
100
AcDbEntity
  8
P-0000
  6
Continuous
 62
     0
370
     0
100
AcDbLine
 10
-77.50234959180421
 20
-117.3428811263534
 30
0.0
 11
-74.57486599500507
 21
-117.3428811263534
 31
0.0
1001
TOP
1070
     7
  0
LINE
  5
9D8
330
951
100
AcDbEntity
  8
P-0000
  6
Continuous
 62
     0
370
     0
100
AcDbLine
 10
-74.57486599500507
 20
-110.9999999999532
 30
0.0
 11
-77.50234959180421
 21
-110.9999999999532
 31
0.0
1001
TOP
1070
     7
  0
LINE
  5
9D9
330
951
100
AcDbEntity
  8
P-0000
  6
Continuous
 62
     0
370
     0
100
AcDbLine
 10
-82.90217148550416
 20
-114.320869039862
 30
0.0
 11
-84.48030571869711
 21
-115.9543842828061
 31
0.0
1001
TOP
1070
    85
  0
ARC
  5
9DA
330
951
100
AcDbEntity
  8
P-0000
  6
Continuous
 62
     0
370
     0
100
AcDbCircle
 10
-89.02722975211579
 20
-120.4469356245718
 30
0.0
 40
6.391989965892938
100
AcDbArc
 50
323.352977406186
 51
44.65536847523573
1001
TOP
1070
    85
  0
LINE
  5
9DB
330
951
100
AcDbEntity
  8
P-0000
  6
Continuous
 62
     0
370
     0
100
AcDbLine
 10
-85.89263596469553
 20
-117.283636279041
 30
0.0
 11
-84.92338971744155
 21
-116.2313117820216
 31
0.0
1001
TOP
1070
    85
  0
LINE
  5
9DC
330
951
100
AcDbEntity
  8
P-0000
  6
Continuous
 62
     0
370
     0
100
AcDbLine
 10
-77.50234959180421
 20
-110.9999999999532
 30
0.0
 11
-77.50234959180421
 21
-117.3428811263534
 31
0.0
1001
TOP
1070
     7
  0
ARC
  5
9DD
330
951
100
AcDbEntity
  8
P-0000
  6
Continuous
 62
     0
370
     0
100
AcDbCircle
 10
-74.81882296140435
 20
-113.6835266303536
 30
0.0
 40
1.5857202816
100
AcDbArc
 50
0.0
 51
90.0
1001
TOP
1070
     7
  0
ARC
  5
9DE
330
951
100
AcDbEntity
  8
P-0000
  6
Continuous
 62
     0
370
     0
100
AcDbCircle
 10
-74.81882296140435
 20
-114.6593544959532
 30
0.0
 40
1.5857202816
100
AcDbArc
 50
270.0
 51
0.0
1001
TOP
1070
     7
  0
ARC
  5
9DF
330
951
100
AcDbEntity
  8
P-0000
  6
Continuous
 62
     0
370
     0
100
AcDbCircle
 10
-74.57486599500507
 20
-114.9033114623533
 30
0.0
 40
2.439569663999999
100
AcDbArc
 50
270.0
 51
0.0
1001
TOP
1070
     7
  0
ARC
  5
9E0
330
951
100
AcDbEntity
  8
P-0000
  6
Continuous
 62
     0
370
     0
100
AcDbCircle
 10
-74.57486599500507
 20
-113.4395696639535
 30
0.0
 40
2.439569663999999
100
AcDbArc
 50
0.0
 51
90.0
1001
TOP
1070
     7
  0
LINE
  5
9E1
330
951
100
AcDbEntity
  8
P-0000
  6
Continuous
 62
     0
370
     0
100
AcDbLine
 10
-76.40454324300486
 20
-112.0978063487534
 30
0.0
 11
-76.40454324300486
 21
-116.2450747775533
 31
0.0
1001
TOP
1070
     7
  0
LINE
  5
9E2
330
951
100
AcDbEntity
  8
P-0000
  6
Continuous
 62
     0
370
     0
100
AcDbLine
 10
-76.40454324300486
 20
-116.2450747775533
 30
0.0
 11
-74.81882296140435
 21
-116.2450747775533
 31
0.0
1001
TOP
1070
     7
  0
LINE
  5
9E3
330
951
100
AcDbEntity
  8
P-0000
  6
Continuous
 62
     0
370
     0
100
AcDbLine
 10
-74.81882296140435
 20
-112.0978063487534
 30
0.0
 11
-76.40454324300486
 21
-112.0978063487534
 31
0.0
1001
TOP
1070
     7
  0
LINE
  5
9E4
330
951
100
AcDbEntity
  8
P-0000
  6
Continuous
 62
     0
370
     0
100
AcDbLine
 10
-70.30472164210562
 20
-117.3428811263534
 30
0.0
 11
-70.30472164210562
 21
-112.4637417983535
 31
0.0
1001
TOP
1070
     7
  0
LINE
  5
9E5
330
951
100
AcDbEntity
  8
P-0000
  6
Continuous
 62
     0
370
     0
100
AcDbLine
 10
-71.4025279909076
 20
-112.4637417983535
 30
0.0
 11
-71.4025279909076
 21
-117.3428811263534
 31
0.0
1001
TOP
1070
     7
  0
LINE
  5
9E6
330
951
100
AcDbEntity
  8
P-0000
  6
Continuous
 62
     0
370
     0
100
AcDbLine
 10
-71.4025279909076
 20
-117.3428811263534
 30
0.0
 11
-70.30472164210562
 21
-117.3428811263534
 31
0.0
1001
TOP
1070
     7
  0
LINE
  5
9E7
330
951
100
AcDbEntity
  8
P-0000
  6
Continuous
 62
     0
370
     0
100
AcDbLine
 10
-71.4025279909076
 20
-111.9758278655534
 30
0.0
 11
-70.30472164210562
 21
-111.9758278655534
 31
0.0
1001
TOP
1070
     7
  0
LINE
  5
9E8
330
951
100
AcDbEntity
  8
P-0000
  6
Continuous
 62
     0
370
     0
100
AcDbLine
 10
-70.30472164210562
 20
-110.9999999999532
 30
0.0
 11
-71.4025279909076
 21
-110.9999999999532
 31
0.0
1001
TOP
1070
     7
  0
HATCH
  5
9E9
330
951
100
AcDbEntity
  8
P-0000
  6
Continuous
 62
     0
100
AcDbHatch
 10
0.0
 20
0.0
 30
0.0
210
0.0
220
0.0
230
1.0
  2
SOLID
 70
     1
 71
     0
 91
        1
 92
        1
 93
        4
 72
     1
 10
-70.30472164210627
 20
-110.9999999999534
 11
-71.40252799090693
 21
-110.9999999999534
 72
     1
 10
-71.40252799090564
 20
-110.9999999999534
 11
-71.40252799090564
 21
-111.9758278655534
 72
     1
 10
-71.40252799090564
 20
-111.9758278655535
 11
-70.30472164210498
 21
-111.9758278655535
 72
     1
 10
-70.30472164210627
 20
-111.9758278655535
 11
-70.30472164210627
 21
-110.9999999999535
 97
        0
 75
     0
 76
     1
 98
        1
 10
-136.4839087803873
 20
-204.8924935638848
1001
TOP
1070
     3
  0
LINE
  5
9EA
330
951
100
AcDbEntity
  8
P-0000
  6
Continuous
 62
     0
370
     0
100
AcDbLine
 10
-70.30472164210562
 20
-112.4637417983535
 30
0.0
 11
-71.4025279909076
 21
-112.4637417983535
 31
0.0
1001
TOP
1070
     7
  0
LINE
  5
9EB
330
951
100
AcDbEntity
  8
P-0000
  6
Continuous
 62
     0
370
     0
100
AcDbLine
 10
-73.23310267980318
 20
-114.6593544959532
 30
0.0
 11
-73.23310267980318
 21
-113.6835266303536
 31
0.0
1001
TOP
1070
     7
  0
LINE
  5
9EC
330
951
100
AcDbEntity
  8
P-0000
  6
Continuous
 62
     0
370
     0
100
AcDbLine
 10
-72.13529633100447
 20
-114.9033114623533
 30
0.0
 11
-72.13529633100447
 21
-113.4395696639535
 31
0.0
1001
TOP
1070
     7
  0
LINE
  5
9ED
330
951
100
AcDbEntity
  8
P-0000
  6
Continuous
 62
     0
370
     0
100
AcDbLine
 10
-71.4025279909076
 20
-110.9999999999532
 30
0.0
 11
-71.4025279909076
 21
-111.9758278655534
 31
0.0
1001
TOP
1070
     7
  0
LINE
  5
9EE
330
951
100
AcDbEntity
  8
P-0000
  6
Continuous
 62
     0
370
     0
100
AcDbLine
 10
-70.30472164210562
 20
-111.9758278655534
 30
0.0
 11
-70.30472164210562
 21
-110.9999999999532
 31
0.0
1001
TOP
1070
     7
  0
LINE
  5
9EF
330
951
100
AcDbEntity
  8
P-0000
  6
Continuous
 62
     0
370
     0
100
AcDbLine
 10
-61.67972155649409
 20
-112.4637417983535
 30
0.0
 11
-61.22362894667041
 21
-112.4637417983535
 31
0.0
1001
TOP
1070
     7
  0
ARC
  5
9F0
330
951
100
AcDbEntity
  8
P-0000
  6
Continuous
 62
     0
370
     0
100
AcDbCircle
 10
-61.22455238416592
 20
-115.7450893416161
 30
0.0
 40
2.30551986259622
100
AcDbArc
 50
89.97705113130741
 51
144.7782320142388
1001
TOP
1070
     7
  0
LINE
  5
9F1
330
951
100
AcDbEntity
  8
P-0000
  6
Continuous
 62
     0
370
     0
100
AcDbLine
 10
-65.94981123893105
 20
-115.6426918998433
 30
0.0
 11
-64.80845491031482
 21
-115.6426918998433
 31
0.0
1001
TOP
1070
     7
  0
LINE
  5
9F2
330
951
100
AcDbEntity
  8
P-0000
  6
Continuous
 62
     0
370
     0
100
AcDbLine
 10
-68.54858277585996
 20
-115.1547779670433
 30
0.0
 11
-64.69372297294865
 21
-115.1547779670433
 31
0.0
1001
TOP
1070
     7
  0
ARC
  5
9F3
330
951
100
AcDbEntity
  8
P-0000
  6
Continuous
 62
     0
370
     0
100
AcDbCircle
 10
-67.13328107890589
 20
-114.7813329791535
 30
0.0
 40
1.463741798400002
100
AcDbArc
 50
194.7813103722914
 51
323.9519363800095
1001
TOP
1070
     7
  0
ARC
  5
9F4
330
951
100
AcDbEntity
  8
P-0000
  6
Continuous
 62
     0
370
     0
100
AcDbCircle
 10
-67.13315394981435
 20
-114.7246775057507
 30
0.0
 40
1.309503544180366
100
AcDbArc
 50
23.46032899247153
 51
156.5396710075285
1001
TOP
1070
     7
  0
LINE
  5
9F5
330
951
100
AcDbEntity
  8
P-0000
  6
Continuous
 62
     0
370
     0
100
AcDbLine
 10
-68.33440862006644
 20
-114.2033457980831
 30
0.0
 11
-65.93189927956226
 21
-114.2033457980831
 31
0.0
1001
TOP
1070
     7
  0
LINE
  5
9F6
330
951
100
AcDbEntity
  8
P-0000
  6
Continuous
 62
     0
370
     0
100
AcDbLine
 10
-63.1079911333061
 20
-117.3428811263534
 30
0.0
 11
-63.1079911333061
 21
-114.4153975295534
 31
0.0
1001
TOP
1070
     7
  0
LINE
  5
9F7
330
951
100
AcDbEntity
  8
P-0000
  6
Continuous
 62
     0
370
     0
100
AcDbLine
 10
-64.2057974821061
 20
-112.4637417983535
 30
0.0
 11
-64.2057974821061
 21
-117.3428811263534
 31
0.0
1001
TOP
1070
     7
  0
LINE
  5
9F8
330
951
100
AcDbEntity
  8
P-0000
  6
Continuous
 62
     0
370
     0
100
AcDbLine
 10
-64.2057974821061
 20
-117.3428811263534
 30
0.0
 11
-63.1079911333061
 21
-117.3428811263534
 31
0.0
1001
TOP
1070
     7
  0
LINE
  5
9F9
330
951
100
AcDbEntity
  8
P-0000
  6
Continuous
 62
     0
370
     0
100
AcDbLine
 10
-63.1079911333061
 20
-112.4637417983535
 30
0.0
 11
-64.2057974821061
 21
-112.4637417983535
 31
0.0
1001
TOP
1070
     7
  0
ARC
  5
9FA
330
951
100
AcDbEntity
  8
P-0000
  6
Continuous
 62
     0
370
     0
100
AcDbCircle
 10
-61.5678898700862
 20
-114.1605808182826
 30
0.0
 40
1.700520210299701
100
AcDbArc
 50
93.77067625261986
 51
154.9129671807329
1001
TOP
1070
     7
  0
LINE
  5
9FB
330
951
100
AcDbEntity
  8
P-0000
  6
Continuous
 62
     0
370
     0
100
AcDbLine
 10
-63.1079911333061
 20
-113.4395696639535
 30
0.0
 11
-63.1079911333061
 21
-112.4637417983535
 31
0.0
1001
TOP
1070
     7
  0
LINE
  5
9FC
330
951
100
AcDbEntity
  8
P-0000
  6
Continuous
 62
     0
370
     0
100
AcDbLine
 10
-63.1079911333061
 20
-112.4637417983535
 30
0.0
 11
-63.1079911333061
 21
-113.4395696639535
 31
0.0
1001
TOP
1070
     7
  0
LINE
  5
9FD
330
951
100
AcDbEntity
  8
P-0000
  6
Continuous
 62
     0
370
     0
100
AcDbLine
 10
-59.39496610469735
 20
-117.3428811263534
 30
0.0
 11
-59.39496610469735
 21
-114.4153975295534
 31
0.0
1001
TOP
1070
     7
  0
LINE
  5
9FE
330
951
100
AcDbEntity
  8
P-0000
  6
Continuous
 62
     0
370
     0
100
AcDbLine
 10
-60.49277245349801
 20
-112.4637417983535
 30
0.0
 11
-60.49277245349801
 21
-117.3428811263534
 31
0.0
1001
TOP
1070
     7
  0
LINE
  5
9FF
330
951
100
AcDbEntity
  8
P-0000
  6
Continuous
 62
     0
370
     0
100
AcDbLine
 10
-60.49277245349801
 20
-117.3428811263534
 30
0.0
 11
-59.39496610469735
 21
-117.3428811263534
 31
0.0
1001
TOP
1070
     7
  0
ARC
  5
A00
330
951
100
AcDbEntity
  8
P-0000
  6
Continuous
 62
     0
370
     0
100
AcDbCircle
 10
-57.8548648414781
 20
-114.1605808182826
 30
0.0
 40
1.700520210299701
100
AcDbArc
 50
93.77067625261986
 51
154.9129671807329
1001
TOP
1070
     7
  0
ARC
  5
A01
330
951
100
AcDbEntity
  8
P-0000
  6
Continuous
 62
     0
370
     0
100
AcDbCircle
 10
-57.51152735555913
 20
-115.7450893416161
 30
0.0
 40
2.30551986259622
100
AcDbArc
 50
89.97705113130741
 51
144.7782320142388
1001
TOP
1070
     7
  0
LINE
  5
A02
330
951
100
AcDbEntity
  8
P-0000
  6
Continuous
 62
     0
370
     0
100
AcDbLine
 10
-59.39496610469735
 20
-113.4395696639535
 30
0.0
 11
-59.39496610469735
 21
-112.4637417983535
 31
0.0
1001
TOP
1070
     7
  0
LINE
  5
A03
330
951
100
AcDbEntity
  8
P-0000
  6
Continuous
 62
     0
370
     0
100
AcDbLine
 10
-61.22362894667041
 20
-113.4395696639535
 30
0.0
 11
-61.22362894667041
 21
-112.4637417983535
 31
0.0
1001
TOP
1070
     7
  0
LINE
  5
A04
330
951
100
AcDbEntity
  8
P-0000
  6
Continuous
 62
     0
370
     0
100
AcDbLine
 10
-59.39496610469735
 20
-112.4637417983535
 30
0.0
 11
-59.39496610469735
 21
-113.4395696639535
 31
0.0
1001
TOP
1070
     7
  0
LINE
  5
A05
330
951
100
AcDbEntity
  8
P-0000
  6
Continuous
 62
     0
370
     0
100
AcDbLine
 10
-59.39496610469735
 20
-112.4637417983535
 30
0.0
 11
-60.49277245349801
 21
-112.4637417983535
 31
0.0
1001
TOP
1070
     7
  0
LINE
  5
A06
330
951
100
AcDbEntity
  8
P-0000
  6
Continuous
 62
     0
370
     0
100
AcDbLine
 10
-57.5106039180623
 20
-113.4395696639535
 30
0.0
 11
-57.5106039180623
 21
-112.4637417983535
 31
0.0
1001
TOP
1070
     7
  0
LINE
  5
A07
330
951
100
AcDbEntity
  8
P-0000
  6
Continuous
 62
     0
370
     0
100
AcDbLine
 10
-57.96669652788599
 20
-112.4637417983535
 30
0.0
 11
-57.5106039180623
 21
-112.4637417983535
 31
0.0
1001
TOP
1070
     7
  0
ARC
  5
A08
330
951
100
AcDbEntity
  8
P-0000
  6
Continuous
 62
     0
370
     0
100
AcDbCircle
 10
-54.83784997234598
 20
-114.7813329791535
 30
0.0
 40
1.463741798400002
100
AcDbArc
 50
194.7813103722914
 51
323.9519363800095
1001
TOP
1070
     7
  0
ARC
  5
A09
330
951
100
AcDbEntity
  8
P-0000
  6
Continuous
 62
     0
370
     0
100
AcDbCircle
 10
-54.83772284325443
 20
-114.7246775057507
 30
0.0
 40
1.309503544180366
100
AcDbArc
 50
23.46032899247153
 51
156.5396710075285
1001
TOP
1070
     7
  0
LINE
  5
A0A
330
951
100
AcDbEntity
  8
P-0000
  6
Continuous
 62
     0
370
     0
100
AcDbLine
 10
-56.03897751350586
 20
-114.2033457980831
 30
0.0
 11
-53.63646817300168
 21
-114.2033457980831
 31
0.0
1001
TOP
1070
     7
  0
HATCH
  5
A0B
330
951
100
AcDbEntity
  8
P-0000
  6
Continuous
 62
     0
 48
35.0
100
AcDbHatch
 10
0.0
 20
0.0
 30
0.0
210
0.0
220
0.0
230
1.0
  2
SOLID
 70
     1
 71
     0
 91
        4
 92
        7
 72
     1
 73
     1
 93
        5
 10
-94.03728088778988
 20
-125.2235249353502
 42
0.0
 10
-92.28966119657778
 20
-123.3760412617837
 42
-0.2526825286644691
 10
-94.10033621549056
 20
-118.3093524326913
 42
-0.2365496875282557
 10
-91.7614140375581
 20
-113.911556758355
 42
-0.3189181398811662
 10
-83.35033676430748
 20
-113.9115567583528
 42
0.9456749006874259
 97
        0
 92
       23
 72
     1
 73
     1
 93
        3
 10
-91.68042069830406
 20
-122.9606500129607
 42
0.0
 10
-90.71117445104736
 20
-121.9083255159412
 42
-0.9367032511192487
 10
-85.2261793413445
 20
-115.9531879682591
 42
0.991293729556146
 97
        0
 92
       23
 72
     1
 73
     1
 93
        3
 10
-91.37763107440111
 20
-123.2387738267226
 42
0.9912937295513184
 10
-84.92338971744155
 20
-116.2313117820216
 42
0.0
 10
-85.89263596469553
 20
-117.283636279041
 42
-0.9367032511219315
 97
        0
 92
        7
 72
     1
 73
     1
 93
        4
 10
-83.89875797035076
 20
-124.2622092592821
 42
-0.3807594385329842
 10
-93.37171269560638
 20
-125.8488038677993
 42
0.9590989174885454
 10
-82.90217148550416
 20
-114.320869039862
 42
0.0
 10
-84.48030571869711
 20
-115.9543842828061
 42
-0.3704192144445529
 97
        0
 75
     0
 76
     1
 47
0.0537802133905057
 98
        4
 10
-95.28899908413293
 20
-117.9121948253558
 10
-92.51811574438377
 20
-119.1148667670212
 10
-84.53359595731015
 20
-120.3175387086872
 10
-82.20022029262763
 20
-118.4953086011877
1001
TOP
1070
     3
  0
HATCH
  5
A0C
330
951
100
AcDbEntity
  8
P-0000
  6
Continuous
 62
     0
 48
35.0
100
AcDbHatch
 10
0.0
 20
0.0
 30
0.0
210
0.0
220
0.0
230
1.0
  2
SOLID
 70
     1
 71
     0
 91
        9
 92
        7
 72
     1
 73
     1
 93
        6
 10
-74.57486599500573
 20
-110.9999999999531
 42
0.0
 10
-77.50234959180421
 20
-110.9999999999531
 42
0.0
 10
-77.50234959180485
 20
-117.3428811263533
 42
0.0
 10
-74.57486599500573
 20
-117.3428811263533
 42
0.4142135623732426
 10
-72.13529633100447
 20
-114.9033114623533
 42
0.0
 10
-72.13529633100447
 20
-113.4395696639534
 42
0.4142135623732917
 97
        0
 92
       22
 72
     1
 73
     1
 93
        6
 10
-76.40454324300486
 20
-112.0978063487534
 42
0.0
 10
-74.81882296140435
 20
-112.0978063487534
 42
-0.4142135623733217
 10
-73.23310267980318
 20
-113.6835266303533
 42
0.0
 10
-73.23310267980318
 20
-114.6593544959533
 42
-0.4142135623732008
 10
-74.81882296140369
 20
-116.2450747775532
 42
0.0
 10
-76.40454324300486
 20
-116.2450747775532
 42
0.0
 97
        0
 92
        7
 72
     0
 73
     1
 93
        4
 10
-71.40252799090825
 20
-117.3428811263533
 10
-70.30472164210562
 20
-117.3428811263534
 10
-70.30472164210562
 20
-112.4637417983535
 10
-71.4025279909076
 20
-112.4637417983534
 97
        0
 92
        7
 72
     1
 73
     1
 93
        4
 10
-68.5485827758606
 20
-115.1547779670432
 42
0.0
 10
-64.70670638553077
 20
-115.1547779670432
 42
19.52759892169242
 10
-64.80845491031548
 20
-115.6426918998433
 42
0.0
 10
-65.94981123892972
 20
-115.6426918998433
 42
-0.6319943824460191
 97
        0
 92
       22
 72
     1
 73
     1
 93
        2
 10
-68.33440862006513
 20
-114.2033457980811
 42
-0.6561238478654379
 10
-65.93189927956356
 20
-114.2033457980831
 42
0.0
 97
        0
 92
        7
 72
     1
 73
     1
 93
        9
 10
-63.1079911333061
 20
-114.4153975295551
 42
-0.2437791817823871
 10
-61.22362894667041
 20
-113.4395696639536
 42
0.0
 10
-61.22362894667041
 20
-112.4637417983535
 42
0.0
 10
-61.6797215564895
 20
-112.4637417983534
 42
0.2732984134248683
 10
-63.1079911333061
 20
-113.4395696639525
 42
0.0
 10
-63.1079911333061
 20
-112.4637417983534
 42
0.0
 10
-64.20579748210546
 20
-112.4637417983534
 42
0.0
 10
-64.2057974821061
 20
-117.3428811263532
 42
0.0
 10
-63.10799113330676
 20
-117.3428811263532
 42
0.0
 97
        0
 92
        7
 72
     1
 73
     1
 93
        9
 10
-60.49277245349736
 20
-117.3428811263533
 42
0.0
 10
-59.3949661046967
 20
-117.3428811263534
 42
0.0
 10
-59.39496610469735
 20
-114.4153975295523
 42
-0.2437791817821463
 10
-57.5106039180623
 20
-113.4395696639536
 42
0.0
 10
-57.5106039180623
 20
-112.4637417983535
 42
0.0
 10
-57.9666965278814
 20
-112.4637417983534
 42
0.2732984134246251
 10
-59.39496610469735
 20
-113.4395696639511
 42
0.0
 10
-59.39496610469735
 20
-112.4637417983534
 42
0.0
 10
-60.49277245349801
 20
-112.4637417983535
 42
0.0
 97
        0
 92
        7
 72
     1
 73
     1
 93
        4
 10
-52.41127527897084
 20
-115.1547779670432
 42
19.52759892169242
 10
-52.51302380375555
 20
-115.6426918998433
 42
0.0
 10
-53.65438013237048
 20
-115.6426918998433
 42
-0.631994382445661
 10
-56.25315166930069
 20
-115.1547779670432
 42
0.0
 97
        0
 92
       22
 72
     1
 73
     1
 93
        2
 10
-56.03897751350586
 20
-114.2033457980832
 42
-0.6561238478663365
 10
-53.63646817300299
 20
-114.2033457980831
 42
0.0
 97
        0
 75
     0
 76
     1
 47
0.1054092179442032
 98
        9
 10
-77.30509361450609
 20
-111.652214293695
 10
-77.30509361450609
 20
-111.652214293695
 10
-70.92517770860029
 20
-114.0180230722183
 10
-68.97004263540313
 20
-114.9952049659171
 10
-68.97004263540313
 20
-114.9952049659171
 10
-63.41334181494616
 20
-115.2523580455926
 10
-60.12048197631124
 20
-115.1494968773671
 10
-55.90150541812637
 20
-114.429468063343
 10
-55.90150541812637
 20
-114.429468063343
1001
TOP
1070
     5
  0
MTEXT
  5
A0D
330
951
100
AcDbEntity
  8
P-0000
  6
Continuous
 62
     0
100
AcDbMText
 10
-77.50752909622914
 20
-125.390962447158
 30
0.0
 40
1.5
 41
15.89275572328779
 71
     1
 72
     5
  1
{\f@Arial Unicode MS|b0|i0|c0|p34;\H2x;Group\H0.5x; srl}
  7
ROMANS
 73
     1
 44
1.0
1001
TOP
1070
     7
1001
ACAD
1000
MTEXTBEGIN
1070
    73
1070
     1
1070
    44
1040
1.0
1070
    74
1070
     0
1000
MTEXTEND
  0
LINE
  5
A0E
330
951
100
AcDbEntity
  8
P-0000
  6
Continuous
 62
     0
100
AcDbLine
 10
-60.31400746853627
 20
-118.6190131723036
 30
0.0
 11
-65.10163245619105
 21
-118.6190131723036
 31
0.0
1001
TOP
1070
     7
  0
LINE
  5
A0F
330
951
100
AcDbEntity
  8
P-0000
  6
Continuous
 62
     0
100
AcDbLine
 10
-65.10163245619105
 20
-118.6190131723036
 30
0.0
 11
-60.31400746853627
 21
-118.6190131723036
 31
0.0
1001
TOP
1070
     7
  0
LINE
  5
A10
330
951
100
AcDbEntity
  8
P-0000
  6
Continuous
 62
     0
100
AcDbLine
 10
-60.60899754084211
 20
-122.4817401737899
 30
0.0
 11
-59.78513540320495
 21
-121.2719230596353
 31
0.0
1001
TOP
1070
     7
  0
LINE
  5
A11
330
951
100
AcDbEntity
  8
P-0000
  6
Continuous
 62
     0
100
AcDbLine
 10
-60.60899754084211
 20
-122.4817401737899
 30
0.0
 11
-59.78513540320495
 21
-121.2719230596353
 31
0.0
1001
TOP
1070
     7
  0
LINE
  5
A12
330
951
100
AcDbEntity
  8
P-0000
  6
Continuous
 62
     0
100
AcDbLine
 10
-60.60899754084211
 20
-122.4817401737899
 30
0.0
 11
-58.9612732655678
 21
-122.4817401737899
 31
0.0
1001
TOP
1070
     7
  0
LINE
  5
A13
330
951
100
AcDbEntity
  8
P-0000
  6
Continuous
 62
     0
100
AcDbLine
 10
-58.9612732655678
 20
-122.4817401737899
 30
0.0
 11
-60.60899754084211
 21
-122.4817401737899
 31
0.0
1001
TOP
1070
     7
  0
LINE
  5
A14
330
951
100
AcDbEntity
  8
P-0000
  6
Continuous
 62
     0
100
AcDbLine
 10
-63.4872398605242
 20
-124.055443766988
 30
0.0
 11
-56.08303094588571
 21
-124.055443766988
 31
0.0
1001
TOP
1070
     7
  0
LINE
  5
A15
330
951
100
AcDbEntity
  8
P-0000
  6
Continuous
 62
     0
100
AcDbLine
 10
-63.4872398605242
 20
-124.055443766988
 30
0.0
 11
-56.08303094588571
 21
-124.055443766988
 31
0.0
1001
TOP
1070
     7
  0
LINE
  5
A16
330
951
100
AcDbEntity
  8
P-0000
  6
Continuous
 62
     0
100
AcDbLine
 10
-61.88263947056615
 20
-120.9225027431548
 30
0.0
 11
-60.31400746853627
 21
-118.6190131723036
 31
0.0
1001
TOP
1070
     7
  0
LINE
  5
A17
330
951
100
AcDbEntity
  8
P-0000
  6
Continuous
 62
     0
100
AcDbLine
 10
-61.88263947056615
 20
-120.9225027431548
 30
0.0
 11
-60.31400746853627
 21
-118.6190131723036
 31
0.0
1001
TOP
1070
     7
  0
LINE
  5
A18
330
951
100
AcDbEntity
  8
P-0000
  6
Continuous
 62
     0
100
AcDbLine
 10
-63.4872398605242
 20
-124.055443766988
 30
0.0
 11
-59.78513540320495
 21
-118.6190131723036
 31
0.0
1001
TOP
1070
     7
  0
LINE
  5
A19
330
951
100
AcDbEntity
  8
P-0000
  6
Continuous
 62
     0
100
AcDbLine
 10
-59.78513540320495
 20
-118.6190131723036
 30
0.0
 11
-63.4872398605242
 21
-124.055443766988
 31
0.0
1001
TOP
1070
     7
  0
LINE
  5
A1A
330
951
100
AcDbEntity
  8
P-0000
  6
Continuous
 62
     0
100
AcDbLine
 10
-72.47806497115667
 20
-118.6190131723036
 30
0.0
 11
-68.77596051383742
 21
-118.6190131723036
 31
0.0
1001
TOP
1070
     7
  0
LINE
  5
A1B
330
951
100
AcDbEntity
  8
P-0000
  6
Continuous
 62
     0
100
AcDbLine
 10
-72.47806497115667
 20
-118.6190131723036
 30
0.0
 11
-68.77596051383742
 21
-118.6190131723036
 31
0.0
1001
TOP
1070
     7
  0
LINE
  5
A1C
330
951
100
AcDbEntity
  8
P-0000
  6
Continuous
 62
     0
100
AcDbLine
 10
-71.94919290582532
 20
-124.055443766988
 30
0.0
 11
-68.24708844850608
 21
-118.6190131723036
 31
0.0
1001
TOP
1070
     7
  0
LINE
  5
A1D
330
951
100
AcDbEntity
  8
P-0000
  6
Continuous
 62
     0
100
AcDbLine
 10
-72.47806497115667
 20
-124.055443766988
 30
0.0
 11
-68.77596051383742
 21
-118.6190131723036
 31
0.0
1001
TOP
1070
     7
  0
LINE
  5
A1E
330
951
100
AcDbEntity
  8
P-0000
  6
Continuous
 62
     0
100
AcDbLine
 10
-71.94919290582532
 20
-124.055443766988
 30
0.0
 11
-68.24708844850608
 21
-118.6190131723036
 31
0.0
1001
TOP
1070
     7
  0
LINE
  5
A1F
330
951
100
AcDbEntity
  8
P-0000
  6
Continuous
 62
     0
100
AcDbLine
 10
-68.77596051383742
 20
-118.6190131723036
 30
0.0
 11
-72.47806497115667
 21
-124.055443766988
 31
0.0
1001
TOP
1070
     7
  0
LINE
  5
A20
330
951
100
AcDbEntity
  8
P-0000
  6
Continuous
 62
     0
100
AcDbLine
 10
-71.94919290582532
 20
-124.055443766988
 30
0.0
 11
-64.54498399118683
 21
-124.055443766988
 31
0.0
1001
TOP
1070
     7
  0
LINE
  5
A21
330
951
100
AcDbEntity
  8
P-0000
  6
Continuous
 62
     0
100
AcDbLine
 10
-64.54498399118683
 20
-124.055443766988
 30
0.0
 11
-71.94919290582532
 21
-124.055443766988
 31
0.0
1001
TOP
1070
     7
  0
LINE
  5
A22
330
951
100
AcDbEntity
  8
P-0000
  6
Continuous
 62
     0
100
AcDbLine
 10
-77.50234959180421
 20
-118.6190131723036
 30
0.0
 11
-75.2546433141461
 21
-118.6190131723036
 31
0.0
1001
TOP
1070
     7
  0
LINE
  5
A23
330
951
100
AcDbEntity
  8
P-0000
  6
Continuous
 62
     0
100
AcDbLine
 10
-77.50234959180421
 20
-124.055443766988
 30
0.0
 11
-75.2546433141461
 21
-124.055443766988
 31
0.0
1001
TOP
1070
     7
  0
LINE
  5
A24
330
951
100
AcDbEntity
  8
P-0000
  6
Continuous
 62
     0
100
AcDbLine
 10
-75.2546433141461
 20
-124.055443766988
 30
0.0
 11
-77.50234959180421
 21
-124.055443766988
 31
0.0
1001
TOP
1070
     7
  0
LINE
  5
A25
330
951
100
AcDbEntity
  8
P-0000
  6
Continuous
 62
     0
100
AcDbLine
 10
-77.50234959180421
 20
-118.6190131723036
 30
0.0
 11
-75.2546433141461
 21
-118.6190131723036
 31
0.0
1001
TOP
1070
     7
  0
LINE
  5
A26
330
951
100
AcDbEntity
  8
P-0000
  6
Continuous
 62
     0
100
AcDbLine
 10
-77.50234959180421
 20
-124.055443766988
 30
0.0
 11
-77.50234959180421
 21
-118.6190131723036
 31
0.0
1001
TOP
1070
     7
  0
LINE
  5
A27
330
951
100
AcDbEntity
  8
P-0000
  6
Continuous
 62
     0
100
AcDbLine
 10
-77.50234959180421
 20
-124.055443766988
 30
0.0
 11
-77.50234959180421
 21
-118.6190131723036
 31
0.0
1001
TOP
1070
     7
  0
LINE
  5
A28
330
951
100
AcDbEntity
  8
P-0000
  6
Continuous
 62
     0
100
AcDbLine
 10
-72.47806497115667
 20
-121.7664203586998
 30
0.0
 11
-73.8663541426514
 21
-124.055443766988
 31
0.0
1001
TOP
1070
     7
  0
LINE
  5
A29
330
951
100
AcDbEntity
  8
P-0000
  6
Continuous
 62
     0
100
AcDbLine
 10
-72.47806497115667
 20
-121.7664203586998
 30
0.0
 11
-72.47806497115667
 21
-124.055443766988
 31
0.0
1001
TOP
1070
     7
  0
LINE
  5
A2A
330
951
100
AcDbEntity
  8
P-0000
  6
Continuous
 62
     0
100
AcDbLine
 10
-72.47806497115667
 20
-121.7664203586998
 30
0.0
 11
-73.8663541426514
 21
-124.055443766988
 31
0.0
1001
TOP
1070
     7
  0
LINE
  5
A2B
330
951
100
AcDbEntity
  8
P-0000
  6
Continuous
 62
     0
100
AcDbLine
 10
-72.47806497115667
 20
-124.055443766988
 30
0.0
 11
-72.47806497115667
 21
-121.7664203586998
 31
0.0
1001
TOP
1070
     7
  0
LINE
  5
A2C
330
951
100
AcDbEntity
  8
P-0000
  6
Continuous
 62
     0
100
AcDbLine
 10
-75.2546433141461
 20
-124.055443766988
 30
0.0
 11
-75.2546433141461
 21
-121.7664203586998
 31
0.0
1001
TOP
1070
     7
  0
LINE
  5
A2D
330
951
100
AcDbEntity
  8
P-0000
  6
Continuous
 62
     0
100
AcDbLine
 10
-75.2546433141461
 20
-121.7664203586998
 30
0.0
 11
-75.2546433141461
 21
-124.055443766988
 31
0.0
1001
TOP
1070
     7
  0
LINE
  5
A2E
330
951
100
AcDbEntity
  8
P-0000
  6
Continuous
 62
     0
100
AcDbLine
 10
-75.2546433141461
 20
-121.7664203586998
 30
0.0
 11
-73.8663541426514
 21
-124.055443766988
 31
0.0
1001
TOP
1070
     7
  0
LINE
  5
A2F
330
951
100
AcDbEntity
  8
P-0000
  6
Continuous
 62
     0
100
AcDbLine
 10
-73.8663541426514
 20
-124.055443766988
 30
0.0
 11
-75.2546433141461
 21
-121.7664203586998
 31
0.0
1001
TOP
1070
     7
  0
LINE
  5
A30
330
951
100
AcDbEntity
  8
P-0000
  6
Continuous
 62
     0
100
AcDbLine
 10
-72.47806497115667
 20
-118.6190131723036
 30
0.0
 11
-73.8663541426514
 21
-120.9080365805917
 31
0.0
1001
TOP
1070
     7
  0
LINE
  5
A31
330
951
100
AcDbEntity
  8
P-0000
  6
Continuous
 62
     0
100
AcDbLine
 10
-73.8663541426514
 20
-120.9080365805917
 30
0.0
 11
-72.47806497115667
 21
-118.6190131723036
 31
0.0
1001
TOP
1070
     7
  0
LINE
  5
A32
330
951
100
AcDbEntity
  8
P-0000
  6
Continuous
 62
     0
100
AcDbLine
 10
-75.2546433141461
 20
-118.6190131723036
 30
0.0
 11
-73.8663541426514
 21
-120.9080365805917
 31
0.0
1001
TOP
1070
     7
  0
LINE
  5
A33
330
951
100
AcDbEntity
  8
P-0000
  6
Continuous
 62
     0
100
AcDbLine
 10
-75.2546433141461
 20
-118.6190131723036
 30
0.0
 11
-73.8663541426514
 21
-120.9080365805917
 31
0.0
1001
TOP
1070
     7
  0
ELLIPSE
  5
A34
330
951
100
AcDbEntity
  8
P-0000
  6
Continuous
 62
     0
100
AcDbEllipse
 10
-65.10163245619105
 20
-120.0496528024836
 30
0.0
 11
-0.0000000000000277
 21
1.430639630180138
 31
0.0
210
0.0
220
0.0
230
-1.0
 40
0.9241881291669729
 41
4.077362244994374
 42
6.283185307179586
1001
TOP
1070
     7
  0
LINE
  5
A35
330
951
100
AcDbEntity
  8
P-0000
  6
Continuous
 62
     0
100
AcDbLine
 10
-64.54498399118683
 20
-124.055443766988
 30
0.0
 11
-68.24708844850608
 21
-118.6190131723036
 31
0.0
1001
TOP
1070
     7
  0
LINE
  5
A36
330
951
100
AcDbEntity
  8
P-0000
  6
Continuous
 62
     0
100
AcDbLine
 10
-68.24708844850608
 20
-118.6190131723036
 30
0.0
 11
-64.54498399118683
 21
-124.055443766988
 31
0.0
1001
TOP
1070
     7
  0
ELLIPSE
  5
A37
330
951
100
AcDbEntity
  8
P-0000
  6
Continuous
 62
     0
100
AcDbEllipse
 10
-65.10163245619105
 20
-120.0496528024836
 30
0.0
 11
0.0000000000000073
 21
1.430639630180138
 31
0.0
210
0.0
220
0.0
230
1.0
 40
0.9241881291669608
 41
0.0000000000000056
 42
2.205823062185215
1001
TOP
1070
     7
  0
LINE
  5
A38
330
951
100
AcDbEntity
  8
P-0000
  6
Continuous
 62
     0
100
AcDbLine
 10
-64.01611192585551
 20
-124.055443766988
 30
0.0
 11
-66.16606131471133
 21
-120.8983068549025
 31
0.0
1001
TOP
1070
     7
  0
LINE
  5
A39
330
951
100
AcDbEntity
  8
P-0000
  6
Continuous
 62
     0
100
AcDbLine
 10
-66.16606131471133
 20
-120.8983068549025
 30
0.0
 11
-64.01611192585551
 21
-124.055443766988
 31
0.0
1001
TOP
1070
     7
  0
LINE
  5
A3A
330
951
100
AcDbEntity
  8
P-0000
  6
Continuous
 62
     0
100
AcDbLine
 10
-67.42322631086892
 20
-122.4817401737899
 30
0.0
 11
-68.24708844850608
 21
-121.2719230596353
 31
0.0
1001
TOP
1070
     7
  0
LINE
  5
A3B
330
951
100
AcDbEntity
  8
P-0000
  6
Continuous
 62
     0
100
AcDbLine
 10
-68.24708844850608
 20
-121.2719230596353
 30
0.0
 11
-67.42322631086892
 21
-122.4817401737899
 31
0.0
1001
TOP
1070
     7
  0
LINE
  5
A3C
330
951
100
AcDbEntity
  8
P-0000
  6
Continuous
 62
     0
100
AcDbLine
 10
-69.07095058614323
 20
-122.4817401737899
 30
0.0
 11
-68.24708844850608
 21
-121.2719230596353
 31
0.0
1001
TOP
1070
     7
  0
LINE
  5
A3D
330
951
100
AcDbEntity
  8
P-0000
  6
Continuous
 62
     0
100
AcDbLine
 10
-69.07095058614323
 20
-122.4817401737899
 30
0.0
 11
-68.24708844850608
 21
-121.2719230596353
 31
0.0
1001
TOP
1070
     7
  0
LINE
  5
A3E
330
951
100
AcDbEntity
  8
P-0000
  6
Continuous
 62
     0
100
AcDbLine
 10
-69.07095058614323
 20
-122.4817401737899
 30
0.0
 11
-67.42322631086892
 21
-122.4817401737899
 31
0.0
1001
TOP
1070
     7
  0
LINE
  5
A3F
330
951
100
AcDbEntity
  8
P-0000
  6
Continuous
 62
     0
100
AcDbLine
 10
-67.42322631086892
 20
-122.4817401737899
 30
0.0
 11
-69.07095058614323
 21
-122.4817401737899
 31
0.0
1001
TOP
1070
     7
  0
LINE
  5
A40
330
951
100
AcDbEntity
  8
P-0000
  6
Continuous
 62
     0
100
AcDbLine
 10
-64.01611192585551
 20
-124.055443766988
 30
0.0
 11
-62.44747992382563
 21
-121.7519541961368
 31
0.0
1001
TOP
1070
     7
  0
LINE
  5
A41
330
951
100
AcDbEntity
  8
P-0000
  6
Continuous
 62
     0
100
AcDbLine
 10
-64.01611192585551
 20
-124.055443766988
 30
0.0
 11
-62.44747992382563
 21
-121.7519541961368
 31
0.0
1001
TOP
1070
     7
  0
LINE
  5
A42
330
951
100
AcDbEntity
  8
P-0000
  6
Continuous
 62
     0
100
AcDbLine
 10
-62.44747992382563
 20
-121.7519541961368
 30
0.0
 11
-63.46925566656012
 21
-121.7519541961368
 31
0.0
1001
TOP
1070
     7
  0
LINE
  5
A43
330
951
100
AcDbEntity
  8
P-0000
  6
Continuous
 62
     0
100
AcDbLine
 10
-63.46925566656012
 20
-120.9225027431548
 30
0.0
 11
-61.88263947056615
 21
-120.9225027431548
 31
0.0
1001
TOP
1070
     7
  0
LINE
  5
A44
330
951
100
AcDbEntity
  8
P-0000
  6
Continuous
 62
     0
100
AcDbLine
 10
-62.44747992382563
 20
-121.7519541961368
 30
0.0
 11
-63.46925566656012
 21
-121.7519541961368
 31
0.0
1001
TOP
1070
     7
  0
LINE
  5
A45
330
951
100
AcDbEntity
  8
P-0000
  6
Continuous
 62
     0
100
AcDbLine
 10
-61.88263947056615
 20
-120.9225027431548
 30
0.0
 11
-63.46925566656012
 21
-120.9225027431548
 31
0.0
1001
TOP
1070
     7
  0
ELLIPSE
  5
A46
330
951
100
AcDbEntity
  8
P-0000
  6
Continuous
 62
     0
100
AcDbEllipse
 10
-63.46925566656012
 20
-121.3372284696458
 30
0.0
 11
0.0000000000000016
 21
0.4147257264910956
 31
0.0
210
0.0
220
0.0
230
-1.0
 40
0.9241881291669779
 41
3.141592653589793
 42
6.283185307179586
1001
TOP
1070
     7
  0
ELLIPSE
  5
A47
330
951
100
AcDbEntity
  8
P-0000
  6
Continuous
 62
     0
100
AcDbEllipse
 10
-63.46925566656012
 20
-121.3372284696458
 30
0.0
 11
-0.0000000000000201
 21
0.4147257264910956
 31
0.0
210
0.0
220
0.0
230
1.0
 40
0.9241881291669438
 41
-0.0000000000000524
 42
3.14159265358974
1001
TOP
1070
     7
  0
ELLIPSE
  5
A48
330
951
100
AcDbEntity
  8
P-0000
  6
Continuous
 62
     0
100
AcDbEllipse
 10
-55.55415888055438
 20
-120.3357807285197
 30
0.0
 11
-0.0000000000001066
 21
0.6294814372792618
 31
0.0
210
0.0
220
0.0
230
1.0
 40
0.9241881291669697
 41
3.141592653589633
 42
6.283185307179426
1001
TOP
1070
     7
  0
ELLIPSE
  5
A49
330
951
100
AcDbEntity
  8
P-0000
  6
Continuous
 62
     0
100
AcDbEllipse
 10
-55.55415888055438
 20
-120.3357807285197
 30
0.0
 11
0.0000000000000215
 21
0.6294814372792617
 31
0.0
210
0.0
220
0.0
230
-1.0
 40
0.9241881291669697
 41
0.0
 42
3.141592653589793
1001
TOP
1070
     7
  0
ELLIPSE
  5
A4A
330
951
100
AcDbEntity
  8
P-0000
  6
Continuous
 62
     0
100
AcDbEllipse
 10
-55.55415888055438
 20
-120.3357807285197
 30
0.0
 11
0.0000000000000215
 21
1.716767556216168
 31
0.0
210
0.0
220
0.0
230
1.0
 40
0.9241881291669681
 41
3.141592653589806
 42
6.283185307179599
1001
TOP
1070
     7
  0
ELLIPSE
  5
A4B
330
951
100
AcDbEntity
  8
P-0000
  6
Continuous
 62
     0
100
AcDbEllipse
 10
-55.55415888055438
 20
-120.3357807285197
 30
0.0
 11
0.0000000000000018
 21
1.716767556216167
 31
0.0
210
0.0
220
0.0
230
-1.0
 40
0.9241881291669688
 41
0.0
 42
3.141592653589793
1001
TOP
1070
     7
  0
LINE
  5
A4C
330
951
100
AcDbEntity
  8
P-0000
  6
Continuous
 62
     0
100
AcDbLine
 10
-59.78513540320495
 20
-121.2719230596353
 30
0.0
 11
-58.9612732655678
 21
-122.4817401737899
 31
0.0
1001
TOP
1070
     7
  0
LINE
  5
A4D
330
951
100
AcDbEntity
  8
P-0000
  6
Continuous
 62
     0
100
AcDbLine
 10
-58.9612732655678
 20
-122.4817401737899
 30
0.0
 11
-59.78513540320495
 21
-121.2719230596353
 31
0.0
1001
TOP
1070
     7
  0
LINE
  5
A4E
330
951
100
AcDbEntity
  8
P-0000
  6
Continuous
 62
     0
100
AcDbLine
 10
-56.08303094588571
 20
-124.055443766988
 30
0.0
 11
-59.78513540320495
 21
-118.6190131723036
 31
0.0
1001
TOP
1070
     7
  0
LINE
  5
A4F
330
951
100
AcDbEntity
  8
P-0000
  6
Continuous
 62
     0
100
AcDbLine
 10
-55.55415888055438
 20
-124.055443766988
 30
0.0
 11
-59.25626333787364
 21
-118.6190131723036
 31
0.0
1001
TOP
1070
     7
  0
LINE
  5
A50
330
951
100
AcDbEntity
  8
P-0000
  6
Continuous
 62
     0
100
AcDbLine
 10
-55.55415888055438
 20
-124.055443766988
 30
0.0
 11
-59.25626333787364
 21
-118.6190131723036
 31
0.0
1001
TOP
1070
     7
  0
LINE
  5
A51
330
951
100
AcDbEntity
  8
P-0000
  6
Continuous
 62
     0
100
AcDbLine
 10
-56.08303094588571
 20
-124.055443766988
 30
0.0
 11
-59.78513540320495
 21
-118.6190131723036
 31
0.0
1001
TOP
1070
     7
  0
LINE
  5
A52
330
951
100
AcDbEntity
  8
P-0000
  6
Continuous
 62
     0
100
AcDbLine
 10
-55.55415888055438
 20
-124.055443766988
 30
0.0
 11
-55.55415888055438
 21
-122.0525482847359
 31
0.0
1001
TOP
1070
     7
  0
LINE
  5
A53
330
951
100
AcDbEntity
  8
P-0000
  6
Continuous
 62
     0
100
AcDbLine
 10
-55.55415888055438
 20
-122.0525482847359
 30
0.0
 11
-55.55415888055438
 21
-124.055443766988
 31
0.0
1001
TOP
1070
     7
  0
LINE
  5
A54
330
951
100
AcDbEntity
  8
P-0000
  6
Continuous
 62
     0
100
AcDbLine
 10
-59.25626333787364
 20
-118.6190131723036
 30
0.0
 11
-55.55415888055438
 21
-118.6190131723036
 31
0.0
1001
TOP
1070
     7
  0
LINE
  5
A55
330
951
100
AcDbEntity
  8
P-0000
  6
Continuous
 62
     0
100
AcDbLine
 10
-59.25626333787364
 20
-118.6190131723036
 30
0.0
 11
-55.55415888055438
 21
-118.6190131723036
 31
0.0
1001
TOP
1070
     7
  0
LINE
  5
A56
330
951
100
AcDbEntity
  8
P-0000
  6
Continuous
 62
     0
100
AcDbLine
 10
-55.55415888055438
 20
-119.7062992912404
 30
0.0
 11
-56.41148833382832
 21
-119.7062992912404
 31
0.0
1001
TOP
1070
     7
  0
LINE
  5
A57
330
951
100
AcDbEntity
  8
P-0000
  6
Continuous
 62
     0
100
AcDbLine
 10
-56.41148833382832
 20
-119.7062992912404
 30
0.0
 11
-55.55415888055438
 21
-119.7062992912404
 31
0.0
1001
TOP
1070
     7
  0
LINE
  5
A58
330
951
100
AcDbEntity
  8
P-0000
  6
Continuous
 62
     0
100
AcDbLine
 10
-55.55415888055438
 20
-120.9652621657989
 30
0.0
 11
-56.41148833382832
 21
-119.7062992912404
 31
0.0
1001
TOP
1070
     7
  0
LINE
  5
A59
330
951
100
AcDbEntity
  8
P-0000
  6
Continuous
 62
     0
100
AcDbLine
 10
-55.55415888055438
 20
-120.9652621657989
 30
0.0
 11
-56.41148833382832
 21
-119.7062992912404
 31
0.0
1001
TOP
1070
     7
  0
LINE
  5
A5A
330
951
100
AcDbEntity
  8
0
 62
     0
 48
35.0
100
AcDbLine
 10
7.000000000000056
 20
142.5
 30
0.0
 11
98.00000000000004
 21
142.5
 31
0.0
1001
TOP
1070
     1
  0
LINE
  5
A5B
330
951
100
AcDbEntity
  8
0
 62
     0
100
AcDbLine
 10
7.000000000000056
 20
143.5
 30
0.0
 11
100.0
 21
143.5
 31
0.0
1001
TOP
1070
   256
  0
ARC
  5
A5C
330
951
100
AcDbEntity
  8
0
 62
     0
 48
35.0
100
AcDbCircle
 10
98.00000000000004
 20
141.5
 30
0.0
 40
1.0
100
AcDbArc
 50
0.0
 51
90.0
1001
TOP
1070
     1
  0
LINE
  5
A5D
330
951
100
AcDbEntity
  8
0
 62
     0
 48
35.0
100
AcDbLine
 10
99.00000000000003
 20
141.5
 30
0.0
 11
99.00000000000005
 21
113.5
 31
0.0
1001
TOP
1070
     1
  0
LINE
  5
A5E
330
951
100
AcDbEntity
  8
0
 62
     0
100
AcDbLine
 10
100.0
 20
143.5
 30
0.0
 11
100.0
 21
113.5
 31
0.0
1001
TOP
1070
   256
  0
ARC
  5
A5F
330
951
100
AcDbEntity
  8
0
 62
     0
 48
35.0
100
AcDbCircle
 10
98.00000000000006
 20
113.5
 30
0.0
 40
1.0
100
AcDbArc
 50
270.0
 51
0.0
1001
TOP
1070
     1
  0
ARC
  5
A60
330
951
100
AcDbEntity
  8
0
 62
     0
100
AcDbCircle
 10
98.00000000000006
 20
113.5
 30
0.0
 40
2.0
100
AcDbArc
 50
270.0
 51
0.0
1001
TOP
1070
   256
  0
LINE
  5
A61
330
951
100
AcDbEntity
  8
0
 62
     0
 48
35.0
100
AcDbLine
 10
98.00000000000006
 20
112.5
 30
0.0
 11
7.000000000000056
 21
112.5
 31
0.0
1001
TOP
1070
     1
  0
LINE
  5
A62
330
951
100
AcDbEntity
  8
0
 62
     0
100
AcDbLine
 10
98.00000000000006
 20
111.4999999999999
 30
0.0
 11
7.000000000000056
 21
111.5
 31
0.0
1001
TOP
1070
   256
  0
ARC
  5
A63
330
951
100
AcDbEntity
  8
0
 62
     0
 48
35.0
100
AcDbCircle
 10
7.000000000000056
 20
113.5
 30
0.0
 40
1.0
100
AcDbArc
 50
180.0
 51
270.0
1001
TOP
1070
     1
  0
ARC
  5
A64
330
951
100
AcDbEntity
  8
0
 62
     0
100
AcDbCircle
 10
7.000000000000056
 20
113.5
 30
0.0
 40
2.0
100
AcDbArc
 50
180.0
 51
270.0
1001
TOP
1070
   256
  0
LINE
  5
A65
330
951
100
AcDbEntity
  8
0
 62
     0
 48
35.0
100
AcDbLine
 10
6.000000000000056
 20
113.5
 30
0.0
 11
6.000000000000056
 21
141.5
 31
0.0
1001
TOP
1070
     1
  0
LINE
  5
A66
330
951
100
AcDbEntity
  8
0
 62
     0
100
AcDbLine
 10
5.000000000000056
 20
113.5
 30
0.0
 11
5.000000000000056
 21
141.5
 31
0.0
1001
TOP
1070
   256
  0
ARC
  5
A67
330
951
100
AcDbEntity
  8
0
 62
     0
 48
35.0
100
AcDbCircle
 10
7.000000000000056
 20
141.5
 30
0.0
 40
1.0
100
AcDbArc
 50
90.0
 51
180.0
1001
TOP
1070
     1
  0
ARC
  5
A68
330
951
100
AcDbEntity
  8
0
 62
     0
100
AcDbCircle
 10
7.000000000000056
 20
141.5
 30
0.0
 40
2.0
100
AcDbArc
 50
90.0
 51
180.0
1001
TOP
1070
   256
  0
MTEXT
  5
A69
330
951
100
AcDbEntity
  8
0
 62
     0
100
AcDbMText
 10
29.58535811428735
 20
135.6251466847724
 30
0.0
 40
6.0
 41
54.93080742428151
 71
     1
 72
     5
  1
{\fVrinda|b0|i0|c0|p2;BAR CODE\PMontaggio}
 73
     1
 44
1.0
1001
TOP
1070
   256
1001
ACAD
1000
MTEXTBEGIN
1070
    73
1070
     1
1070
    44
1040
1.0
1070
    74
1070
     0
1000
MTEXTEND
  0
ENDBLK
  5
A6D
330
951
100
AcDbEntity
  8
0
 62
     7
100
AcDbBlockEnd
  0
BLOCK
  5
AFB
330
AFA
100
AcDbEntity
  8
0
 62
     3
100
AcDbBlockBegin
  2
*D1
 70
     1
 10
0.0
 20
0.0
 30
0.0
  3
*D1
  1

  0
LINE
  5
F36
330
AFA
100
AcDbEntity
  8
P-6B6E
  6
Continuous
 62
     2
370
    -2
100
AcDbLine
 10
-128.5780933024798
 20
1852.112761407766
 30
0.0
 11
103.776186978188
 21
1852.112761407766
 31
0.0
  0
LINE
  5
F37
330
AFA
100
AcDbEntity
  8
P-6B6E
  6
Continuous
 62
     2
370
    -2
100
AcDbLine
 10
-128.5780933024798
 20
1832.112761409867
 30
0.0
 11
103.776186978188
 21
1832.112761409867
 31
0.0
  0
LINE
  5
F38
330
AFA
100
AcDbEntity
  8
P-6B6E
  6
Continuous
 62
     2
370
    -2
100
AcDbLine
 10
88.77618697818798
 20
1872.112761407766
 30
0.0
 11
88.776186978188
 21
1892.112761407766
 31
0.0
  0
LINE
  5
F39
330
AFA
100
AcDbEntity
  8
P-6B6E
  6
Continuous
 62
     2
370
    -2
100
AcDbLine
 10
88.77618697818796
 20
1812.112761409867
 30
0.0
 11
88.77618697818794
 21
1758.716259952141
 31
0.0
  0
LINE
  5
F3A
330
AFA
100
AcDbEntity
  8
P-6B6E
  6
Continuous
 62
     2
370
    -2
100
AcDbLine
 10
88.77618697818798
 20
1852.112761407766
 30
0.0
 11
88.77618697818798
 21
1832.112761409867
 31
0.0
  0
SOLID
  5
F3B
330
AFA
100
AcDbEntity
  8
P-6B6E
  6
Continuous
 62
     2
100
AcDbTrace
 10
85.44285364485466
 20
1872.112761407766
 30
0.0
 11
92.1095203115213
 21
1872.112761407766
 31
0.0
 12
88.77618697818798
 22
1852.112761407766
 32
0.0
 13
88.77618697818798
 23
1852.112761407766
 33
0.0
  0
SOLID
  5
F3C
330
AFA
100
AcDbEntity
  8
P-6B6E
  6
Continuous
 62
     2
100
AcDbTrace
 10
85.44285364485464
 20
1812.112761409867
 30
0.0
 11
92.1095203115213
 21
1812.112761409867
 31
0.0
 12
88.77618697818798
 22
1832.112761409867
 32
0.0
 13
88.77618697818798
 23
1832.112761409867
 33
0.0
  0
MTEXT
  5
F3D
330
AFA
100
AcDbEntity
  8
P-6B6E
  6
Continuous
 62
     1
100
AcDbMText
 10
68.77618697818768
 20
1775.414510681004
 30
0.0
 40
20.0
 41
0.0
 71
     5
 72
     1
  1
\A1;2
  7
Stile_Quota
 11
0.0000000000000001
 21
1.0
 31
0.0
 73
     1
 44
1.0
1001
ACAD
1000
MTEXTBEGIN
1070
    73
1070
     1
1070
    44
1040
1.0
1070
    74
1070
     0
1000
MTEXTEND
  0
POINT
  5
F3E
330
AFA
100
AcDbEntity
  8
Defpoints
  6
Continuous
 62
     0
100
AcDbPoint
 10
-138.5780933024798
 20
1852.112761407766
 30
0.0
  0
POINT
  5
F3F
330
AFA
100
AcDbEntity
  8
Defpoints
  6
Continuous
 62
     0
100
AcDbPoint
 10
-138.5780933024798
 20
1832.112761409867
 30
0.0
  0
POINT
  5
F40
330
AFA
100
AcDbEntity
  8
Defpoints
  6
Continuous
 62
     0
100
AcDbPoint
 10
88.77618697818798
 20
1832.112761409867
 30
0.0
  0
ENDBLK
  5
AFC
330
AFA
100
AcDbEntity
  8
0
 62
     3
100
AcDbBlockEnd
  0
BLOCK
  5
B17
330
B16
100
AcDbEntity
  8
0
 62
     3
100
AcDbBlockBegin
  2
*D2
 70
     1
 10
0.0
 20
0.0
 30
0.0
  3
*D2
  1

  0
LINE
  5
F41
330
B16
100
AcDbEntity
  8
P-6B6E
  6
Continuous
 62
     2
370
    -2
100
AcDbLine
 10
-128.5780933025798
 20
1832.112761409866
 30
0.0
 11
163.4022848980567
 21
1832.112761409866
 31
0.0
  0
LINE
  5
F42
330
B16
100
AcDbEntity
  8
P-6B6E
  6
Continuous
 62
     2
370
    -2
100
AcDbLine
 10
-154.7915217072077
 20
2132.112761379866
 30
0.0
 11
163.4022848980567
 21
2132.112761379866
 31
0.0
  0
LINE
  5
F43
330
B16
100
AcDbEntity
  8
P-6B6E
  6
Continuous
 62
     2
370
    -2
100
AcDbLine
 10
148.4022848980566
 20
1852.112761409865
 30
0.0
 11
148.4022848980567
 21
2112.112761379866
 31
0.0
  0
SOLID
  5
F44
330
B16
100
AcDbEntity
  8
P-6B6E
  6
Continuous
 62
     2
100
AcDbTrace
 10
145.0689515647233
 20
1852.112761409865
 30
0.0
 11
151.73561823139
 21
1852.112761409865
 31
0.0
 12
148.4022848980566
 22
1832.112761409866
 32
0.0
 13
148.4022848980566
 23
1832.112761409866
 33
0.0
  0
SOLID
  5
F45
330
B16
100
AcDbEntity
  8
P-6B6E
  6
Continuous
 62
     2
100
AcDbTrace
 10
145.0689515647234
 20
2112.112761379866
 30
0.0
 11
151.7356182313901
 21
2112.112761379866
 31
0.0
 12
148.4022848980567
 22
2132.112761379866
 32
0.0
 13
148.4022848980567
 23
2132.112761379866
 33
0.0
  0
MTEXT
  5
F46
330
B16
100
AcDbEntity
  8
P-6B6E
  6
Continuous
 62
     1
100
AcDbMText
 10
128.1763373761904
 20
1982.112761394866
 30
0.0
 40
20.0
 41
0.0
 71
     5
 72
     1
  1
\A1;30
  7
Stile_Quota
 11
0.0000000000000001
 21
1.0
 31
0.0
 73
     1
 44
1.0
1001
ACAD
1000
MTEXTBEGIN
1070
    73
1070
     1
1070
    44
1040
1.0
1070
    74
1070
     0
1000
MTEXTEND
  0
POINT
  5
F47
330
B16
100
AcDbEntity
  8
Defpoints
  6
Continuous
 62
     0
100
AcDbPoint
 10
-138.5780933025799
 20
1832.112761409866
 30
0.0
  0
POINT
  5
F48
330
B16
100
AcDbEntity
  8
Defpoints
  6
Continuous
 62
     0
100
AcDbPoint
 10
-164.7915217072077
 20
2132.112761379866
 30
0.0
  0
POINT
  5
F49
330
B16
100
AcDbEntity
  8
Defpoints
  6
Continuous
 62
     0
100
AcDbPoint
 10
148.4022848980567
 20
2132.112761379866
 30
0.0
  0
ENDBLK
  5
B18
330
B16
100
AcDbEntity
  8
0
 62
     3
100
AcDbBlockEnd
  0
BLOCK
  5
B2F
330
B2E
100
AcDbEntity
  8
0
 62
     3
100
AcDbBlockBegin
  2
*D3
 70
     1
 10
0.0
 20
0.0
 30
0.0
  3
*D3
  1

  0
LINE
  5
F4A
330
B2E
100
AcDbEntity
  8
P-6B6E
  6
Continuous
 62
     2
370
    -2
100
AcDbLine
 10
-154.7915217072077
 20
2132.112761379866
 30
0.0
 11
163.4022848980567
 21
2132.112761379866
 31
0.0
  0
LINE
  5
F4B
330
B2E
100
AcDbEntity
  8
P-6B6E
  6
Continuous
 62
     2
370
    -2
100
AcDbLine
 10
-234.384763990538
 20
2232.112761369865
 30
0.0
 11
163.4022848980567
 21
2232.112761369865
 31
0.0
  0
LINE
  5
F4C
330
B2E
100
AcDbEntity
  8
P-6B6E
  6
Continuous
 62
     2
370
    -2
100
AcDbLine
 10
148.4022848980567
 20
2152.112761379866
 30
0.0
 11
148.4022848980567
 21
2212.112761369866
 31
0.0
  0
SOLID
  5
F4D
330
B2E
100
AcDbEntity
  8
P-6B6E
  6
Continuous
 62
     2
100
AcDbTrace
 10
145.0689515647234
 20
2152.112761379866
 30
0.0
 11
151.7356182313901
 21
2152.112761379866
 31
0.0
 12
148.4022848980567
 22
2132.112761379866
 32
0.0
 13
148.4022848980567
 23
2132.112761379866
 33
0.0
  0
SOLID
  5
F4E
330
B2E
100
AcDbEntity
  8
P-6B6E
  6
Continuous
 62
     2
100
AcDbTrace
 10
145.0689515647234
 20
2212.112761369866
 30
0.0
 11
151.7356182313901
 21
2212.112761369866
 31
0.0
 12
148.4022848980567
 22
2232.112761369865
 32
0.0
 13
148.4022848980567
 23
2232.112761369865
 33
0.0
  0
MTEXT
  5
F4F
330
B2E
100
AcDbEntity
  8
P-6B6E
  6
Continuous
 62
     1
100
AcDbMText
 10
128.1763373761905
 20
2182.112761374866
 30
0.0
 40
20.0
 41
0.0
 71
     5
 72
     1
  1
\A1;10
  7
Stile_Quota
 11
0.0000000000000001
 21
1.0
 31
0.0
 73
     1
 44
1.0
1001
ACAD
1000
MTEXTBEGIN
1070
    73
1070
     1
1070
    44
1040
1.0
1070
    74
1070
     0
1000
MTEXTEND
  0
POINT
  5
F50
330
B2E
100
AcDbEntity
  8
Defpoints
  6
Continuous
 62
     0
100
AcDbPoint
 10
-164.7915217072077
 20
2132.112761379866
 30
0.0
  0
POINT
  5
F51
330
B2E
100
AcDbEntity
  8
Defpoints
  6
Continuous
 62
     0
100
AcDbPoint
 10
-244.384763990538
 20
2232.112761369865
 30
0.0
  0
POINT
  5
F52
330
B2E
100
AcDbEntity
  8
Defpoints
  6
Continuous
 62
     0
100
AcDbPoint
 10
148.4022848980567
 20
2232.112761369865
 30
0.0
  0
ENDBLK
  5
B30
330
B2E
100
AcDbEntity
  8
0
 62
     3
100
AcDbBlockEnd
  0
BLOCK
  5
B47
330
B46
100
AcDbEntity
  8
0
 62
     3
100
AcDbBlockBegin
  2
*D4
 70
     1
 10
0.0
 20
0.0
 30
0.0
  3
*D4
  1

  0
LINE
  5
F53
330
B46
100
AcDbEntity
  8
P-6B6E
  6
Continuous
 62
     2
370
    -2
100
AcDbLine
 10
-128.5780933024798
 20
1852.112761407766
 30
0.0
 11
103.776186978188
 21
1852.112761407766
 31
0.0
  0
LINE
  5
F54
330
B46
100
AcDbEntity
  8
P-6B6E
  6
Continuous
 62
     2
370
    -2
100
AcDbLine
 10
-128.5780933024798
 20
2112.112761381965
 30
0.0
 11
103.776186978188
 21
2112.112761381965
 31
0.0
  0
LINE
  5
F55
330
B46
100
AcDbEntity
  8
P-6B6E
  6
Continuous
 62
     2
370
    -2
100
AcDbLine
 10
88.77618697818798
 20
1872.112761407766
 30
0.0
 11
88.77618697818803
 21
2092.112761381965
 31
0.0
  0
SOLID
  5
F56
330
B46
100
AcDbEntity
  8
P-6B6E
  6
Continuous
 62
     2
100
AcDbTrace
 10
85.44285364485466
 20
1872.112761407766
 30
0.0
 11
92.1095203115213
 21
1872.112761407766
 31
0.0
 12
88.77618697818798
 22
1852.112761407766
 32
0.0
 13
88.77618697818798
 23
1852.112761407766
 33
0.0
  0
SOLID
  5
F57
330
B46
100
AcDbEntity
  8
P-6B6E
  6
Continuous
 62
     2
100
AcDbTrace
 10
85.44285364485471
 20
2092.112761381965
 30
0.0
 11
92.10952031152137
 21
2092.112761381965
 31
0.0
 12
88.77618697818803
 22
2112.112761381965
 32
0.0
 13
88.77618697818803
 23
2112.112761381965
 33
0.0
  0
MTEXT
  5
F58
330
B46
100
AcDbEntity
  8
P-6B6E
  6
Continuous
 62
     1
100
AcDbMText
 10
68.5502394563218
 20
1982.112761394866
 30
0.0
 40
20.0
 41
0.0
 71
     5
 72
     1
  1
\A1;26
  7
Stile_Quota
 11
0.0000000000000001
 21
1.0
 31
0.0
 73
     1
 44
1.0
1001
ACAD
1000
MTEXTBEGIN
1070
    73
1070
     1
1070
    44
1040
1.0
1070
    74
1070
     0
1000
MTEXTEND
  0
POINT
  5
F59
330
B46
100
AcDbEntity
  8
Defpoints
  6
Continuous
 62
     0
100
AcDbPoint
 10
-138.5780933024798
 20
1852.112761407766
 30
0.0
  0
POINT
  5
F5A
330
B46
100
AcDbEntity
  8
Defpoints
  6
Continuous
 62
     0
100
AcDbPoint
 10
-138.5780933024798
 20
2112.112761381965
 30
0.0
  0
POINT
  5
F5B
330
B46
100
AcDbEntity
  8
Defpoints
  6
Continuous
 62
     0
100
AcDbPoint
 10
88.77618697818803
 20
2112.112761381965
 30
0.0
  0
ENDBLK
  5
B48
330
B46
100
AcDbEntity
  8
0
 62
     3
100
AcDbBlockEnd
  0
BLOCK
  5
B5F
330
B5E
100
AcDbEntity
  8
0
 62
     3
100
AcDbBlockBegin
  2
*D5
 70
     1
 10
0.0
 20
0.0
 30
0.0
  3
*D5
  1

  0
LINE
  5
F5C
330
B5E
100
AcDbEntity
  8
P-6B6E
  6
Continuous
 62
     2
370
    -2
100
AcDbLine
 10
-128.5780933024798
 20
2112.112761381967
 30
0.0
 11
103.776186978188
 21
2112.112761381967
 31
0.0
  0
LINE
  5
F5D
330
B5E
100
AcDbEntity
  8
P-6B6E
  6
Continuous
 62
     2
370
    -2
100
AcDbLine
 10
-154.7915217072077
 20
2132.112761379866
 30
0.0
 11
103.776186978188
 21
2132.112761379866
 31
0.0
  0
LINE
  5
F5E
330
B5E
100
AcDbEntity
  8
P-6B6E
  6
Continuous
 62
     2
370
    -2
100
AcDbLine
 10
88.77618697818803
 20
2092.112761381967
 30
0.0
 11
88.77618697818801
 21
2072.112761381967
 31
0.0
  0
LINE
  5
F5F
330
B5E
100
AcDbEntity
  8
P-6B6E
  6
Continuous
 62
     2
370
    -2
100
AcDbLine
 10
88.77618697818805
 20
2152.112761379866
 30
0.0
 11
88.77618697818805
 21
2205.509262837592
 31
0.0
  0
LINE
  5
F60
330
B5E
100
AcDbEntity
  8
P-6B6E
  6
Continuous
 62
     2
370
    -2
100
AcDbLine
 10
88.77618697818803
 20
2112.112761381967
 30
0.0
 11
88.77618697818803
 21
2132.112761379866
 31
0.0
  0
SOLID
  5
F61
330
B5E
100
AcDbEntity
  8
P-6B6E
  6
Continuous
 62
     2
100
AcDbTrace
 10
85.44285364485471
 20
2092.112761381967
 30
0.0
 11
92.10952031152137
 21
2092.112761381967
 31
0.0
 12
88.77618697818803
 22
2112.112761381967
 32
0.0
 13
88.77618697818803
 23
2112.112761381967
 33
0.0
  0
SOLID
  5
F62
330
B5E
100
AcDbEntity
  8
P-6B6E
  6
Continuous
 62
     2
100
AcDbTrace
 10
85.44285364485473
 20
2152.112761379866
 30
0.0
 11
92.10952031152137
 21
2152.112761379866
 31
0.0
 12
88.77618697818803
 22
2132.112761379866
 32
0.0
 13
88.77618697818803
 23
2132.112761379866
 33
0.0
  0
MTEXT
  5
F63
330
B5E
100
AcDbEntity
  8
P-6B6E
  6
Continuous
 62
     1
100
AcDbMText
 10
68.77618697818769
 20
2188.811012108729
 30
0.0
 40
20.0
 41
0.0
 71
     5
 72
     1
  1
\A1;2
  7
Stile_Quota
 11
0.0000000000000001
 21
1.0
 31
0.0
 73
     1
 44
1.0
1001
ACAD
1000
MTEXTBEGIN
1070
    73
1070
     1
1070
    44
1040
1.0
1070
    74
1070
     0
1000
MTEXTEND
  0
POINT
  5
F64
330
B5E
100
AcDbEntity
  8
Defpoints
  6
Continuous
 62
     0
100
AcDbPoint
 10
-138.5780933024798
 20
2112.112761381967
 30
0.0
  0
POINT
  5
F65
330
B5E
100
AcDbEntity
  8
Defpoints
  6
Continuous
 62
     0
100
AcDbPoint
 10
-164.7915217072077
 20
2132.112761379866
 30
0.0
  0
POINT
  5
F66
330
B5E
100
AcDbEntity
  8
Defpoints
  6
Continuous
 62
     0
100
AcDbPoint
 10
88.77618697818803
 20
2132.112761379866
 30
0.0
  0
ENDBLK
  5
B60
330
B5E
100
AcDbEntity
  8
0
 62
     3
100
AcDbBlockEnd
  0
BLOCK
  5
B7B
330
B7A
100
AcDbEntity
  8
0
 62
     3
100
AcDbBlockBegin
  2
*D6
 70
     1
 10
0.0
 20
0.0
 30
0.0
  3
*D6
  1

  0
LINE
  5
F70
330
B7A
100
AcDbEntity
  8
P-6B6E
  6
Continuous
 62
     2
370
    -2
100
AcDbLine
 10
-240.5780932913804
 20
2182.112761374868
 30
0.0
 11
55.48793400411523
 21
2182.112761374868
 31
0.0
  0
LINE
  5
F71
330
B7A
100
AcDbEntity
  8
P-6B6E
  6
Continuous
 62
     2
370
    -2
100
AcDbLine
 10
-234.3847639906712
 20
2232.112761369897
 30
0.0
 11
55.48793400411525
 21
2232.112761369897
 31
0.0
  0
LINE
  5
F72
330
B7A
100
AcDbEntity
  8
P-6B6E
  6
Continuous
 62
     2
370
    -2
100
AcDbLine
 10
40.48793400411522
 20
2162.112761374868
 30
0.0
 11
40.48793400411521
 21
2142.112761374868
 31
0.0
  0
LINE
  5
F73
330
B7A
100
AcDbEntity
  8
P-6B6E
  6
Continuous
 62
     2
370
    -2
100
AcDbLine
 10
40.48793400411524
 20
2252.112761369897
 30
0.0
 11
40.48793400411525
 21
2304.911595189139
 31
0.0
  0
LINE
  5
F74
330
B7A
100
AcDbEntity
  8
P-6B6E
  6
Continuous
 62
     2
370
    -2
100
AcDbLine
 10
40.48793400411522
 20
2182.112761374868
 30
0.0
 11
40.48793400411524
 21
2232.112761369897
 31
0.0
  0
SOLID
  5
F75
330
B7A
100
AcDbEntity
  8
P-6B6E
  6
Continuous
 62
     2
100
AcDbTrace
 10
37.15460067078189
 20
2162.112761374868
 30
0.0
 11
43.82126733744856
 21
2162.112761374868
 31
0.0
 12
40.48793400411522
 22
2182.112761374868
 32
0.0
 13
40.48793400411522
 23
2182.112761374868
 33
0.0
  0
SOLID
  5
F76
330
B7A
100
AcDbEntity
  8
P-6B6E
  6
Continuous
 62
     2
100
AcDbTrace
 10
37.1546006707819
 20
2252.112761369897
 30
0.0
 11
43.82126733744857
 21
2252.112761369897
 31
0.0
 12
40.48793400411524
 22
2232.112761369897
 32
0.0
 13
40.48793400411524
 23
2232.112761369897
 33
0.0
  0
MTEXT
  5
F77
330
B7A
100
AcDbEntity
  8
P-6B6E
  6
Continuous
 62
     1
100
AcDbMText
 10
20.26198648224899
 20
2288.512178279518
 30
0.0
 40
20.0
 41
0.0
 71
     5
 72
     1
  1
\A1;5
  7
Stile_Quota
 11
0.0000000000000001
 21
1.0
 31
0.0
 73
     1
 44
1.0
1001
ACAD
1000
MTEXTBEGIN
1070
    73
1070
     1
1070
    44
1040
1.0
1070
    74
1070
     0
1000
MTEXTEND
  0
POINT
  5
F78
330
B7A
100
AcDbEntity
  8
Defpoints
  6
Continuous
 62
     0
100
AcDbPoint
 10
-250.5780932913804
 20
2182.112761374868
 30
0.0
  0
POINT
  5
F79
330
B7A
100
AcDbEntity
  8
Defpoints
  6
Continuous
 62
     0
100
AcDbPoint
 10
-244.3847639906711
 20
2232.112761369897
 30
0.0
  0
POINT
  5
F7A
330
B7A
100
AcDbEntity
  8
Defpoints
  6
Continuous
 62
     0
100
AcDbPoint
 10
40.48793400411524
 20
2232.112761369897
 30
0.0
  0
ENDBLK
  5
B7C
330
B7A
100
AcDbEntity
  8
0
 62
     3
100
AcDbBlockEnd
  0
BLOCK
  5
B97
330
B96
100
AcDbEntity
  8
0
 62
     3
100
AcDbBlockBegin
  2
*D7
 70
     1
 10
0.0
 20
0.0
 30
0.0
  3
*D7
  1

  0
LINE
  5
F86
330
B96
100
AcDbEntity
  8
P-6B6E
  6
Continuous
 62
     2
370
    -2
100
AcDbLine
 10
-258.5780932895795
 20
2217.112761371366
 30
0.0
 11
5.635204297550425
 21
2217.112761371366
 31
0.0
  0
LINE
  5
F87
330
B96
100
AcDbEntity
  8
P-6B6E
  6
Continuous
 62
     2
370
    -2
100
AcDbLine
 10
-234.5882984363152
 20
2232.112761369865
 30
0.0
 11
5.635204297550457
 21
2232.112761369865
 31
0.0
  0
LINE
  5
F88
330
B96
100
AcDbEntity
  8
P-6B6E
  6
Continuous
 62
     2
370
    -2
100
AcDbLine
 10
-9.364795702449562
 20
2197.112761371366
 30
0.0
 11
-9.364795702449567
 21
2177.112761371367
 31
0.0
  0
LINE
  5
F89
330
B96
100
AcDbEntity
  8
P-6B6E
  6
Continuous
 62
     2
370
    -2
100
AcDbLine
 10
-9.36479570244955
 20
2252.112761369866
 30
0.0
 11
-9.364795702449534
 21
2328.993227842169
 31
0.0
  0
LINE
  5
F8A
330
B96
100
AcDbEntity
  8
P-6B6E
  6
Continuous
 62
     2
370
    -2
100
AcDbLine
 10
-9.364795702449558
 20
2217.112761371366
 30
0.0
 11
-9.364795702449555
 21
2232.112761369865
 31
0.0
  0
SOLID
  5
F8B
330
B96
100
AcDbEntity
  8
P-6B6E
  6
Continuous
 62
     2
100
AcDbTrace
 10
-12.69812903578289
 20
2197.112761371366
 30
0.0
 11
-6.031462369116229
 21
2197.112761371366
 31
0.0
 12
-9.364795702449558
 22
2217.112761371366
 32
0.0
 13
-9.364795702449558
 23
2217.112761371366
 33
0.0
  0
SOLID
  5
F8C
330
B96
100
AcDbEntity
  8
P-6B6E
  6
Continuous
 62
     2
100
AcDbTrace
 10
-12.69812903578288
 20
2252.112761369866
 30
0.0
 11
-6.031462369116217
 21
2252.112761369866
 31
0.0
 12
-9.364795702449555
 22
2232.112761369865
 32
0.0
 13
-9.364795702449555
 23
2232.112761369865
 33
0.0
  0
MTEXT
  5
F8D
330
B96
100
AcDbEntity
  8
P-6B6E
  6
Continuous
 62
     1
100
AcDbMText
 10
-29.5907432243158
 20
2300.552994606017
 30
0.0
 40
20.0
 41
0.0
 71
     5
 72
     1
  1
\A1;1.5
  7
Stile_Quota
 11
0.0000000000000001
 21
1.0
 31
0.0
 73
     1
 44
1.0
1001
ACAD
1000
MTEXTBEGIN
1070
    73
1070
     1
1070
    44
1040
1.0
1070
    74
1070
     0
1000
MTEXTEND
  0
POINT
  5
F8E
330
B96
100
AcDbEntity
  8
Defpoints
  6
Continuous
 62
     0
100
AcDbPoint
 10
-268.5780932895796
 20
2217.112761371366
 30
0.0
  0
POINT
  5
F8F
330
B96
100
AcDbEntity
  8
Defpoints
  6
Continuous
 62
     0
100
AcDbPoint
 10
-244.5882984363152
 20
2232.112761369865
 30
0.0
  0
POINT
  5
F90
330
B96
100
AcDbEntity
  8
Defpoints
  6
Continuous
 62
     0
100
AcDbPoint
 10
-9.364795702449555
 20
2232.112761369865
 30
0.0
  0
ENDBLK
  5
B98
330
B96
100
AcDbEntity
  8
0
 62
     3
100
AcDbBlockEnd
  0
BLOCK
  5
C1B
330
C1A
100
AcDbEntity
  8
0
 62
     3
100
AcDbBlockBegin
  2
*D8
 70
     1
 10
0.0
 20
0.0
 30
0.0
  3
*D8
  1

  0
LINE
  5
C29
330
C1A
100
AcDbEntity
  8
P-6B6E
  6
Continuous
 62
     2
370
    -2
100
AcDbLine
 10
-130.5780933032802
 20
1917.112761402365
 30
0.0
 11
-130.5780933032802
 21
1944.026216187252
 31
0.0
  0
LINE
  5
C2A
330
C1A
100
AcDbEntity
  8
P-6B6E
  6
Continuous
 62
     2
370
    -2
100
AcDbLine
 10
-133.57809330298
 20
1917.112761402365
 30
0.0
 11
-133.57809330298
 21
1944.026216187252
 31
0.0
  0
LINE
  5
C2B
330
C1A
100
AcDbEntity
  8
P-6B6E
  6
Continuous
 62
     2
370
    -2
100
AcDbLine
 10
-110.5780933032802
 20
1929.026216187252
 30
0.0
 11
-90.57809330328018
 21
1929.026216187252
 31
0.0
  0
LINE
  5
C2C
330
C1A
100
AcDbEntity
  8
P-6B6E
  6
Continuous
 62
     2
370
    -2
100
AcDbLine
 10
-153.57809330298
 20
1929.026216187252
 30
0.0
 11
-230.2253236236798
 21
1929.026216187252
 31
0.0
  0
LINE
  5
C2D
330
C1A
100
AcDbEntity
  8
P-6B6E
  6
Continuous
 62
     2
370
    -2
100
AcDbLine
 10
-130.5780933032802
 20
1929.026216187252
 30
0.0
 11
-133.57809330298
 21
1929.026216187252
 31
0.0
  0
SOLID
  5
C2E
330
C1A
100
AcDbEntity
  8
P-6B6E
  6
Continuous
 62
     2
100
AcDbTrace
 10
-110.5780933032802
 20
1932.359549520586
 30
0.0
 11
-110.5780933032802
 21
1925.692882853919
 31
0.0
 12
-130.5780933032802
 22
1929.026216187252
 32
0.0
 13
-130.5780933032802
 23
1929.026216187252
 33
0.0
  0
SOLID
  5
C2F
330
C1A
100
AcDbEntity
  8
P-6B6E
  6
Continuous
 62
     2
100
AcDbTrace
 10
-153.57809330298
 20
1932.359549520586
 30
0.0
 11
-153.57809330298
 21
1925.692882853919
 31
0.0
 12
-133.57809330298
 22
1929.026216187252
 32
0.0
 13
-133.57809330298
 23
1929.026216187252
 33
0.0
  0
MTEXT
  5
C30
330
C1A
100
AcDbEntity
  8
P-6B6E
  6
Continuous
 62
     1
100
AcDbMText
 10
-201.9017084633299
 20
1949.252163709118
 30
0.0
 40
20.0
 41
0.0
 71
     5
 72
     1
  1
\A1;0.3
  7
Stile_Quota
 73
     1
 44
1.0
1001
ACAD
1000
MTEXTBEGIN
1070
    73
1070
     1
1070
    44
1040
1.0
1070
    74
1070
     0
1000
MTEXTEND
  0
POINT
  5
C31
330
C1A
100
AcDbEntity
  8
Defpoints
  6
Continuous
 62
     0
100
AcDbPoint
 10
-130.5780933032802
 20
1907.112761402365
 30
0.0
  0
POINT
  5
C32
330
C1A
100
AcDbEntity
  8
Defpoints
  6
Continuous
 62
     0
100
AcDbPoint
 10
-133.57809330298
 20
1907.112761402365
 30
0.0
  0
POINT
  5
C33
330
C1A
100
AcDbEntity
  8
Defpoints
  6
Continuous
 62
     0
100
AcDbPoint
 10
-133.57809330298
 20
1929.026216187252
 30
0.0
  0
ENDBLK
  5
C1C
330
C1A
100
AcDbEntity
  8
0
 62
     3
100
AcDbBlockEnd
  0
BLOCK
  5
C37
330
C36
100
AcDbEntity
  8
0
 62
     3
100
AcDbBlockBegin
  2
*D9
 70
     1
 10
0.0
 20
0.0
 30
0.0
  3
*D9
  1

  0
LINE
  5
D67
330
C36
100
AcDbEntity
  8
P-6B6E
  6
Continuous
 62
     2
370
    -2
100
AcDbLine
 10
-113.5780933050799
 20
1847.112761407366
 30
0.0
 11
-113.5780933050799
 21
1588.476969413316
 31
0.0
  0
LINE
  5
D68
330
C36
100
AcDbEntity
  8
P-6B6E
  6
Continuous
 62
     2
370
    -2
100
AcDbLine
 10
-413.5780932750804
 20
1847.112761407366
 30
0.0
 11
-413.5780932750804
 21
1588.476969413316
 31
0.0
  0
LINE
  5
D69
330
C36
100
AcDbEntity
  8
P-6B6E
  6
Continuous
 62
     2
370
    -2
100
AcDbLine
 10
-133.5780933050799
 20
1603.476969413315
 30
0.0
 11
-393.5780932750804
 21
1603.476969413315
 31
0.0
  0
SOLID
  5
D6A
330
C36
100
AcDbEntity
  8
P-6B6E
  6
Continuous
 62
     2
100
AcDbTrace
 10
-133.5780933050799
 20
1606.810302746649
 30
0.0
 11
-133.5780933050799
 21
1600.143636079982
 31
0.0
 12
-113.5780933050799
 22
1603.476969413315
 32
0.0
 13
-113.5780933050799
 23
1603.476969413315
 33
0.0
  0
SOLID
  5
D6B
330
C36
100
AcDbEntity
  8
P-6B6E
  6
Continuous
 62
     2
100
AcDbTrace
 10
-393.5780932750804
 20
1606.810302746649
 30
0.0
 11
-393.5780932750804
 21
1600.143636079982
 31
0.0
 12
-413.5780932750804
 22
1603.476969413315
 32
0.0
 13
-413.5780932750804
 23
1603.476969413315
 33
0.0
  0
MTEXT
  5
D6C
330
C36
100
AcDbEntity
  8
P-6B6E
  6
Continuous
 62
     1
100
AcDbMText
 10
-263.5780932900801
 20
1623.702916935181
 30
0.0
 40
20.0
 41
0.0
 71
     5
 72
     1
  1
\A1;30
  7
Stile_Quota
 73
     1
 44
1.0
1001
ACAD
1000
MTEXTBEGIN
1070
    73
1070
     1
1070
    44
1040
1.0
1070
    74
1070
     0
1000
MTEXTEND
  0
POINT
  5
D6D
330
C36
100
AcDbEntity
  8
Defpoints
  6
Continuous
 62
     0
100
AcDbPoint
 10
-113.5780933050799
 20
1857.112761407366
 30
0.0
  0
POINT
  5
D6E
330
C36
100
AcDbEntity
  8
Defpoints
  6
Continuous
 62
     0
100
AcDbPoint
 10
-413.5780932750804
 20
1857.112761407366
 30
0.0
  0
POINT
  5
D6F
330
C36
100
AcDbEntity
  8
Defpoints
  6
Continuous
 62
     0
100
AcDbPoint
 10
-413.5780932750804
 20
1603.476969413315
 30
0.0
  0
ENDBLK
  5
C38
330
C36
100
AcDbEntity
  8
0
 62
     3
100
AcDbBlockEnd
  0
BLOCK
  5
C4F
330
C4E
100
AcDbEntity
  8
0
 62
     3
100
AcDbBlockBegin
  2
*D10
 70
     1
 10
0.0
 20
0.0
 30
0.0
  3
*D10
  1

  0
LINE
  5
D3F
330
C4E
100
AcDbEntity
  8
P-6B6E
  6
Continuous
 62
     2
370
    -2
100
AcDbLine
 10
-393.5780932771814
 20
1847.112761407267
 30
0.0
 11
-393.5780932771814
 21
1645.342169310145
 31
0.0
  0
LINE
  5
D40
330
C4E
100
AcDbEntity
  8
P-6B6E
  6
Continuous
 62
     2
370
    -2
100
AcDbLine
 10
-133.57809330298
 20
1847.112761407267
 30
0.0
 11
-133.57809330298
 21
1645.342169310145
 31
0.0
  0
LINE
  5
D41
330
C4E
100
AcDbEntity
  8
P-6B6E
  6
Continuous
 62
     2
370
    -2
100
AcDbLine
 10
-373.5780932771814
 20
1660.342169310144
 30
0.0
 11
-153.57809330298
 21
1660.342169310144
 31
0.0
  0
SOLID
  5
D42
330
C4E
100
AcDbEntity
  8
P-6B6E
  6
Continuous
 62
     2
100
AcDbTrace
 10
-373.5780932771814
 20
1663.675502643477
 30
0.0
 11
-373.5780932771814
 21
1657.008835976811
 31
0.0
 12
-393.5780932771814
 22
1660.342169310144
 32
0.0
 13
-393.5780932771814
 23
1660.342169310144
 33
0.0
  0
SOLID
  5
D43
330
C4E
100
AcDbEntity
  8
P-6B6E
  6
Continuous
 62
     2
100
AcDbTrace
 10
-153.57809330298
 20
1663.675502643477
 30
0.0
 11
-153.57809330298
 21
1657.008835976811
 31
0.0
 12
-133.57809330298
 22
1660.342169310144
 32
0.0
 13
-133.57809330298
 23
1660.342169310144
 33
0.0
  0
MTEXT
  5
D44
330
C4E
100
AcDbEntity
  8
P-6B6E
  6
Continuous
 62
     1
100
AcDbMText
 10
-263.5780932900807
 20
1680.56811683201
 30
0.0
 40
20.0
 41
0.0
 71
     5
 72
     1
  1
\A1;26
  7
Stile_Quota
 73
     1
 44
1.0
1001
ACAD
1000
MTEXTBEGIN
1070
    73
1070
     1
1070
    44
1040
1.0
1070
    74
1070
     0
1000
MTEXTEND
  0
POINT
  5
D45
330
C4E
100
AcDbEntity
  8
Defpoints
  6
Continuous
 62
     0
100
AcDbPoint
 10
-393.5780932771814
 20
1857.112761407267
 30
0.0
  0
POINT
  5
D46
330
C4E
100
AcDbEntity
  8
Defpoints
  6
Continuous
 62
     0
100
AcDbPoint
 10
-133.57809330298
 20
1857.112761407267
 30
0.0
  0
POINT
  5
D47
330
C4E
100
AcDbEntity
  8
Defpoints
  6
Continuous
 62
     0
100
AcDbPoint
 10
-133.57809330298
 20
1660.342169310144
 30
0.0
  0
ENDBLK
  5
C50
330
C4E
100
AcDbEntity
  8
0
 62
     3
100
AcDbBlockEnd
  0
BLOCK
  5
C67
330
C66
100
AcDbEntity
  8
0
 62
     3
100
AcDbBlockBegin
  2
*D11
 70
     1
 10
0.0
 20
0.0
 30
0.0
  3
*D11
  1

  0
LINE
  5
D48
330
C66
100
AcDbEntity
  8
P-6B6E
  6
Continuous
 62
     2
370
    -2
100
AcDbLine
 10
-133.5780933029798
 20
1847.112761407267
 30
0.0
 11
-133.5780933029798
 21
1645.342169310145
 31
0.0
  0
LINE
  5
D49
330
C66
100
AcDbEntity
  8
P-6B6E
  6
Continuous
 62
     2
370
    -2
100
AcDbLine
 10
-113.5780933050801
 20
1847.112761407366
 30
0.0
 11
-113.5780933050801
 21
1645.342169310145
 31
0.0
  0
LINE
  5
D4A
330
C66
100
AcDbEntity
  8
P-6B6E
  6
Continuous
 62
     2
370
    -2
100
AcDbLine
 10
-153.5780933029798
 20
1660.342169310144
 30
0.0
 11
-173.5780933029798
 21
1660.342169310144
 31
0.0
  0
LINE
  5
D4B
330
C66
100
AcDbEntity
  8
P-6B6E
  6
Continuous
 62
     2
370
    -2
100
AcDbLine
 10
-93.57809330508009
 20
1660.342169310144
 30
0.0
 11
-40.18159184735414
 21
1660.342169310144
 31
0.0
  0
LINE
  5
D4C
330
C66
100
AcDbEntity
  8
P-6B6E
  6
Continuous
 62
     2
370
    -2
100
AcDbLine
 10
-133.5780933029798
 20
1660.342169310144
 30
0.0
 11
-113.5780933050801
 21
1660.342169310144
 31
0.0
  0
SOLID
  5
D4D
330
C66
100
AcDbEntity
  8
P-6B6E
  6
Continuous
 62
     2
100
AcDbTrace
 10
-153.5780933029798
 20
1663.675502643477
 30
0.0
 11
-153.5780933029798
 21
1657.008835976811
 31
0.0
 12
-133.5780933029798
 22
1660.342169310144
 32
0.0
 13
-133.5780933029798
 23
1660.342169310144
 33
0.0
  0
SOLID
  5
D4E
330
C66
100
AcDbEntity
  8
P-6B6E
  6
Continuous
 62
     2
100
AcDbTrace
 10
-93.57809330508009
 20
1663.675502643477
 30
0.0
 11
-93.57809330508009
 21
1657.008835976811
 31
0.0
 12
-113.5780933050801
 22
1660.342169310144
 32
0.0
 13
-113.5780933050801
 23
1660.342169310144
 33
0.0
  0
MTEXT
  5
D4F
330
C66
100
AcDbEntity
  8
P-6B6E
  6
Continuous
 62
     1
100
AcDbMText
 10
-56.87984257621711
 20
1680.342169310144
 30
0.0
 40
20.0
 41
0.0
 71
     5
 72
     1
  1
\A1;2
  7
Stile_Quota
 73
     1
 44
1.0
1001
ACAD
1000
MTEXTBEGIN
1070
    73
1070
     1
1070
    44
1040
1.0
1070
    74
1070
     0
1000
MTEXTEND
  0
POINT
  5
D50
330
C66
100
AcDbEntity
  8
Defpoints
  6
Continuous
 62
     0
100
AcDbPoint
 10
-133.5780933029798
 20
1857.112761407267
 30
0.0
  0
POINT
  5
D51
330
C66
100
AcDbEntity
  8
Defpoints
  6
Continuous
 62
     0
100
AcDbPoint
 10
-113.5780933050801
 20
1857.112761407366
 30
0.0
  0
POINT
  5
D52
330
C66
100
AcDbEntity
  8
Defpoints
  6
Continuous
 62
     0
100
AcDbPoint
 10
-113.5780933050801
 20
1660.342169310144
 30
0.0
  0
ENDBLK
  5
C68
330
C66
100
AcDbEntity
  8
0
 62
     3
100
AcDbBlockEnd
  0
BLOCK
  5
C83
330
C82
100
AcDbEntity
  8
0
 62
     3
100
AcDbBlockBegin
  2
*D12
 70
     1
 10
0.0
 20
0.0
 30
0.0
  3
*D12
  1

  0
LINE
  5
D53
330
C82
100
AcDbEntity
  8
P-6B6E
  6
Continuous
 62
     2
370
    -2
100
AcDbLine
 10
-393.5780932771814
 20
1847.112761407267
 30
0.0
 11
-393.5780932771814
 21
1645.342169310145
 31
0.0
  0
LINE
  5
D54
330
C82
100
AcDbEntity
  8
P-6B6E
  6
Continuous
 62
     2
370
    -2
100
AcDbLine
 10
-413.5780932750804
 20
1847.112761407366
 30
0.0
 11
-413.5780932750804
 21
1645.342169310145
 31
0.0
  0
LINE
  5
D55
330
C82
100
AcDbEntity
  8
P-6B6E
  6
Continuous
 62
     2
370
    -2
100
AcDbLine
 10
-373.5780932771814
 20
1660.342169310144
 30
0.0
 11
-353.5780932771814
 21
1660.342169310144
 31
0.0
  0
LINE
  5
D56
330
C82
100
AcDbEntity
  8
P-6B6E
  6
Continuous
 62
     2
370
    -2
100
AcDbLine
 10
-433.5780932750804
 20
1660.342169310144
 30
0.0
 11
-486.9745947328063
 21
1660.342169310144
 31
0.0
  0
LINE
  5
D57
330
C82
100
AcDbEntity
  8
P-6B6E
  6
Continuous
 62
     2
370
    -2
100
AcDbLine
 10
-393.5780932771814
 20
1660.342169310144
 30
0.0
 11
-413.5780932750804
 21
1660.342169310144
 31
0.0
  0
SOLID
  5
D58
330
C82
100
AcDbEntity
  8
P-6B6E
  6
Continuous
 62
     2
100
AcDbTrace
 10
-373.5780932771814
 20
1663.675502643477
 30
0.0
 11
-373.5780932771814
 21
1657.008835976811
 31
0.0
 12
-393.5780932771814
 22
1660.342169310144
 32
0.0
 13
-393.5780932771814
 23
1660.342169310144
 33
0.0
  0
SOLID
  5
D59
330
C82
100
AcDbEntity
  8
P-6B6E
  6
Continuous
 62
     2
100
AcDbTrace
 10
-433.5780932750804
 20
1663.675502643477
 30
0.0
 11
-433.5780932750804
 21
1657.008835976811
 31
0.0
 12
-413.5780932750804
 22
1660.342169310144
 32
0.0
 13
-413.5780932750804
 23
1660.342169310144
 33
0.0
  0
MTEXT
  5
D5A
330
C82
100
AcDbEntity
  8
P-6B6E
  6
Continuous
 62
     1
100
AcDbMText
 10
-470.2763440039433
 20
1680.342169310144
 30
0.0
 40
20.0
 41
0.0
 71
     5
 72
     1
  1
\A1;2
  7
Stile_Quota
 73
     1
 44
1.0
1001
ACAD
1000
MTEXTBEGIN
1070
    73
1070
     1
1070
    44
1040
1.0
1070
    74
1070
     0
1000
MTEXTEND
  0
POINT
  5
D5B
330
C82
100
AcDbEntity
  8
Defpoints
  6
Continuous
 62
     0
100
AcDbPoint
 10
-393.5780932771814
 20
1857.112761407267
 30
0.0
  0
POINT
  5
D5C
330
C82
100
AcDbEntity
  8
Defpoints
  6
Continuous
 62
     0
100
AcDbPoint
 10
-413.5780932750804
 20
1857.112761407366
 30
0.0
  0
POINT
  5
D5D
330
C82
100
AcDbEntity
  8
Defpoints
  6
Continuous
 62
     0
100
AcDbPoint
 10
-413.5780932750804
 20
1660.342169310144
 30
0.0
  0
ENDBLK
  5
C84
330
C82
100
AcDbEntity
  8
0
 62
     3
100
AcDbBlockEnd
  0
BLOCK
  5
C9F
330
C9E
100
AcDbEntity
  8
0
 62
     3
100
AcDbBlockBegin
  2
*D13
 70
     1
 10
0.0
 20
0.0
 30
0.0
  3
*D13
  1

  0
LINE
  5
CAD
330
C9E
100
AcDbEntity
  8
P-6B6E
  6
Continuous
 62
     2
370
    -2
100
AcDbLine
 10
-338.5780932825801
 20
1839.112761408064
 30
0.0
 11
-338.5780932825801
 21
1704.339981994694
 31
0.0
  0
LINE
  5
CAE
330
C9E
100
AcDbEntity
  8
P-6B6E
  6
Continuous
 62
     2
370
    -2
100
AcDbLine
 10
-393.5780932771814
 20
1847.112761407267
 30
0.0
 11
-393.5780932771814
 21
1704.339981994694
 31
0.0
  0
LINE
  5
CAF
330
C9E
100
AcDbEntity
  8
P-6B6E
  6
Continuous
 62
     2
370
    -2
100
AcDbLine
 10
-318.5780932825801
 20
1719.339981994694
 30
0.0
 11
-298.5780932825801
 21
1719.339981994694
 31
0.0
  0
LINE
  5
CB0
330
C9E
100
AcDbEntity
  8
P-6B6E
  6
Continuous
 62
     2
370
    -2
100
AcDbLine
 10
-413.5780932771814
 20
1719.339981994694
 30
0.0
 11
-490.6626413821377
 21
1719.339981994694
 31
0.0
  0
LINE
  5
CB1
330
C9E
100
AcDbEntity
  8
P-6B6E
  6
Continuous
 62
     2
370
    -2
100
AcDbLine
 10
-338.5780932825801
 20
1719.339981994694
 30
0.0
 11
-393.5780932771814
 21
1719.339981994694
 31
0.0
  0
SOLID
  5
CB2
330
C9E
100
AcDbEntity
  8
P-6B6E
  6
Continuous
 62
     2
100
AcDbTrace
 10
-318.5780932825801
 20
1722.673315328028
 30
0.0
 11
-318.5780932825801
 21
1716.006648661361
 31
0.0
 12
-338.5780932825801
 22
1719.339981994694
 32
0.0
 13
-338.5780932825801
 23
1719.339981994694
 33
0.0
  0
SOLID
  5
CB3
330
C9E
100
AcDbEntity
  8
P-6B6E
  6
Continuous
 62
     2
100
AcDbTrace
 10
-413.5780932771814
 20
1722.673315328028
 30
0.0
 11
-413.5780932771814
 21
1716.006648661361
 31
0.0
 12
-393.5780932771814
 22
1719.339981994694
 32
0.0
 13
-393.5780932771814
 23
1719.339981994694
 33
0.0
  0
MTEXT
  5
CB4
330
C9E
100
AcDbEntity
  8
P-6B6E
  6
Continuous
 62
     1
100
AcDbMText
 10
-462.1203673296595
 20
1739.56592951656
 30
0.0
 40
20.0
 41
0.0
 71
     5
 72
     1
  1
\A1;5.5
  7
Stile_Quota
 73
     1
 44
1.0
1001
ACAD
1000
MTEXTBEGIN
1070
    73
1070
     1
1070
    44
1040
1.0
1070
    74
1070
     0
1000
MTEXTEND
  0
POINT
  5
CB5
330
C9E
100
AcDbEntity
  8
Defpoints
  6
Continuous
 62
     0
100
AcDbPoint
 10
-338.5780932825801
 20
1849.112761408064
 30
0.0
  0
POINT
  5
CB6
330
C9E
100
AcDbEntity
  8
Defpoints
  6
Continuous
 62
     0
100
AcDbPoint
 10
-393.5780932771814
 20
1857.112761407267
 30
0.0
  0
POINT
  5
CB7
330
C9E
100
AcDbEntity
  8
Defpoints
  6
Continuous
 62
     0
100
AcDbPoint
 10
-393.5780932771814
 20
1719.339981994694
 30
0.0
  0
ENDBLK
  5
CA0
330
C9E
100
AcDbEntity
  8
0
 62
     3
100
AcDbBlockEnd
  0
BLOCK
  5
CBB
330
CBA
100
AcDbEntity
  8
0
 62
     3
100
AcDbBlockBegin
  2
*D14
 70
     1
 10
0.0
 20
0.0
 30
0.0
  3
*D14
  1

  0
LINE
  5
CFC
330
CBA
100
AcDbEntity
  8
P-6B6E
  6
Continuous
 62
     2
370
    -2
100
AcDbLine
 10
-338.5780932825801
 20
1839.112761408064
 30
0.0
 11
-338.5780932825801
 21
1704.339981994694
 31
0.0
  0
LINE
  5
CFD
330
CBA
100
AcDbEntity
  8
P-6B6E
  6
Continuous
 62
     2
370
    -2
100
AcDbLine
 10
-288.5780932875805
 20
1839.112761408064
 30
0.0
 11
-288.5780932875805
 21
1704.339981994694
 31
0.0
  0
LINE
  5
CFE
330
CBA
100
AcDbEntity
  8
P-6B6E
  6
Continuous
 62
     2
370
    -2
100
AcDbLine
 10
-358.5780932825801
 20
1719.339981994694
 30
0.0
 11
-378.5780932825801
 21
1719.339981994694
 31
0.0
  0
LINE
  5
CFF
330
CBA
100
AcDbEntity
  8
P-6B6E
  6
Continuous
 62
     2
370
    -2
100
AcDbLine
 10
-268.5780932875805
 20
1719.339981994694
 30
0.0
 11
-248.5780932875805
 21
1719.339981994694
 31
0.0
  0
LINE
  5
D00
330
CBA
100
AcDbEntity
  8
P-6B6E
  6
Continuous
 62
     2
370
    -2
100
AcDbLine
 10
-338.5780932825801
 20
1719.339981994694
 30
0.0
 11
-288.5780932875805
 21
1719.339981994694
 31
0.0
  0
SOLID
  5
D01
330
CBA
100
AcDbEntity
  8
P-6B6E
  6
Continuous
 62
     2
100
AcDbTrace
 10
-358.5780932825801
 20
1722.673315328028
 30
0.0
 11
-358.5780932825801
 21
1716.006648661361
 31
0.0
 12
-338.5780932825801
 22
1719.339981994694
 32
0.0
 13
-338.5780932825801
 23
1719.339981994694
 33
0.0
  0
SOLID
  5
D02
330
CBA
100
AcDbEntity
  8
P-6B6E
  6
Continuous
 62
     2
100
AcDbTrace
 10
-268.5780932875805
 20
1722.673315328028
 30
0.0
 11
-268.5780932875805
 21
1716.006648661361
 31
0.0
 12
-288.5780932875805
 22
1719.339981994694
 32
0.0
 13
-288.5780932875805
 23
1719.339981994694
 33
0.0
  0
MTEXT
  5
D03
330
CBA
100
AcDbEntity
  8
P-6B6E
  6
Continuous
 62
     1
100
AcDbMText
 10
-313.5780932850803
 20
1739.56592951656
 30
0.0
 40
20.0
 41
0.0
 71
     5
 72
     1
  1
\A1;5
  7
Stile_Quota
 73
     1
 44
1.0
1001
ACAD
1000
MTEXTBEGIN
1070
    73
1070
     1
1070
    44
1040
1.0
1070
    74
1070
     0
1000
MTEXTEND
  0
POINT
  5
D04
330
CBA
100
AcDbEntity
  8
Defpoints
  6
Continuous
 62
     0
100
AcDbPoint
 10
-338.5780932825801
 20
1849.112761408064
 30
0.0
  0
POINT
  5
D05
330
CBA
100
AcDbEntity
  8
Defpoints
  6
Continuous
 62
     0
100
AcDbPoint
 10
-288.5780932875805
 20
1849.112761408064
 30
0.0
  0
POINT
  5
D06
330
CBA
100
AcDbEntity
  8
Defpoints
  6
Continuous
 62
     0
100
AcDbPoint
 10
-288.5780932875805
 20
1719.339981994694
 30
0.0
  0
ENDBLK
  5
CBC
330
CBA
100
AcDbEntity
  8
0
 62
     3
100
AcDbBlockEnd
  0
BLOCK
  5
CD7
330
CD6
100
AcDbEntity
  8
0
 62
     3
100
AcDbBlockBegin
  2
*D15
 70
     1
 10
0.0
 20
0.0
 30
0.0
  3
*D15
  1

  0
LINE
  5
CE5
330
CD6
100
AcDbEntity
  8
P-6B6E
  6
Continuous
 62
     2
370
    -2
100
AcDbLine
 10
-188.5780932975795
 20
1839.112761408064
 30
0.0
 11
-188.5780932975795
 21
1704.339981994694
 31
0.0
  0
LINE
  5
CE6
330
CD6
100
AcDbEntity
  8
P-6B6E
  6
Continuous
 62
     2
370
    -2
100
AcDbLine
 10
-133.5780933029798
 20
1847.112761407267
 30
0.0
 11
-133.5780933029798
 21
1704.339981994694
 31
0.0
  0
LINE
  5
CE7
330
CD6
100
AcDbEntity
  8
P-6B6E
  6
Continuous
 62
     2
370
    -2
100
AcDbLine
 10
-208.5780932975795
 20
1719.339981994694
 30
0.0
 11
-228.5780932975795
 21
1719.339981994694
 31
0.0
  0
LINE
  5
CE8
330
CD6
100
AcDbEntity
  8
P-6B6E
  6
Continuous
 62
     2
370
    -2
100
AcDbLine
 10
-113.5780933029798
 20
1719.339981994694
 30
0.0
 11
-36.49354519802356
 21
1719.339981994694
 31
0.0
  0
LINE
  5
CE9
330
CD6
100
AcDbEntity
  8
P-6B6E
  6
Continuous
 62
     2
370
    -2
100
AcDbLine
 10
-188.5780932975795
 20
1719.339981994694
 30
0.0
 11
-133.5780933029798
 21
1719.339981994694
 31
0.0
  0
SOLID
  5
CEA
330
CD6
100
AcDbEntity
  8
P-6B6E
  6
Continuous
 62
     2
100
AcDbTrace
 10
-208.5780932975795
 20
1722.673315328028
 30
0.0
 11
-208.5780932975795
 21
1716.006648661361
 31
0.0
 12
-188.5780932975795
 22
1719.339981994694
 32
0.0
 13
-188.5780932975795
 23
1719.339981994694
 33
0.0
  0
SOLID
  5
CEB
330
CD6
100
AcDbEntity
  8
P-6B6E
  6
Continuous
 62
     2
100
AcDbTrace
 10
-113.5780933029798
 20
1722.673315328028
 30
0.0
 11
-113.5780933029798
 21
1716.006648661361
 31
0.0
 12
-133.5780933029798
 22
1719.339981994694
 32
0.0
 13
-133.5780933029798
 23
1719.339981994694
 33
0.0
  0
MTEXT
  5
CEC
330
CD6
100
AcDbEntity
  8
P-6B6E
  6
Continuous
 62
     1
100
AcDbMText
 10
-65.03581925050169
 20
1739.56592951656
 30
0.0
 40
20.0
 41
0.0
 71
     5
 72
     1
  1
\A1;5.5
  7
Stile_Quota
 73
     1
 44
1.0
1001
ACAD
1000
MTEXTBEGIN
1070
    73
1070
     1
1070
    44
1040
1.0
1070
    74
1070
     0
1000
MTEXTEND
  0
POINT
  5
CED
330
CD6
100
AcDbEntity
  8
Defpoints
  6
Continuous
 62
     0
100
AcDbPoint
 10
-188.5780932975795
 20
1849.112761408064
 30
0.0
  0
POINT
  5
CEE
330
CD6
100
AcDbEntity
  8
Defpoints
  6
Continuous
 62
     0
100
AcDbPoint
 10
-133.5780933029798
 20
1857.112761407267
 30
0.0
  0
POINT
  5
CEF
330
CD6
100
AcDbEntity
  8
Defpoints
  6
Continuous
 62
     0
100
AcDbPoint
 10
-133.5780933029798
 20
1719.339981994694
 30
0.0
  0
ENDBLK
  5
CD8
330
CD6
100
AcDbEntity
  8
0
 62
     3
100
AcDbBlockEnd
  0
BLOCK
  5
D0B
330
D0A
100
AcDbEntity
  8
0
 62
     7
100
AcDbBlockBegin
  2
*D16
 70
     1
 10
0.0
 20
0.0
 30
0.0
  3
*D16
  1

  0
LINE
  5
D29
330
D0A
100
AcDbEntity
  8
P-6B6E
  6
Continuous
 62
     2
370
    -2
100
AcDbLine
 10
-288.5780932875796
 20
1839.112761408064
 30
0.0
 11
-288.5780932875796
 21
1704.339981994694
 31
0.0
  0
LINE
  5
D2A
330
D0A
100
AcDbEntity
  8
P-6B6E
  6
Continuous
 62
     2
370
    -2
100
AcDbLine
 10
-238.57809329258
 20
1839.112761408064
 30
0.0
 11
-238.57809329258
 21
1704.339981994694
 31
0.0
  0
LINE
  5
D2B
330
D0A
100
AcDbEntity
  8
P-6B6E
  6
Continuous
 62
     2
370
    -2
100
AcDbLine
 10
-308.5780932875796
 20
1719.339981994694
 30
0.0
 11
-328.5780932875796
 21
1719.339981994694
 31
0.0
  0
LINE
  5
D2C
330
D0A
100
AcDbEntity
  8
P-6B6E
  6
Continuous
 62
     2
370
    -2
100
AcDbLine
 10
-218.57809329258
 20
1719.339981994694
 30
0.0
 11
-198.57809329258
 21
1719.339981994694
 31
0.0
  0
LINE
  5
D2D
330
D0A
100
AcDbEntity
  8
P-6B6E
  6
Continuous
 62
     2
370
    -2
100
AcDbLine
 10
-288.5780932875796
 20
1719.339981994694
 30
0.0
 11
-238.57809329258
 21
1719.339981994694
 31
0.0
  0
SOLID
  5
D2E
330
D0A
100
AcDbEntity
  8
P-6B6E
  6
Continuous
 62
     2
100
AcDbTrace
 10
-308.5780932875796
 20
1722.673315328028
 30
0.0
 11
-308.5780932875796
 21
1716.006648661361
 31
0.0
 12
-288.5780932875796
 22
1719.339981994694
 32
0.0
 13
-288.5780932875796
 23
1719.339981994694
 33
0.0
  0
SOLID
  5
D2F
330
D0A
100
AcDbEntity
  8
P-6B6E
  6
Continuous
 62
     2
100
AcDbTrace
 10
-218.57809329258
 20
1722.673315328028
 30
0.0
 11
-218.57809329258
 21
1716.006648661361
 31
0.0
 12
-238.57809329258
 22
1719.339981994694
 32
0.0
 13
-238.57809329258
 23
1719.339981994694
 33
0.0
  0
MTEXT
  5
D30
330
D0A
100
AcDbEntity
  8
P-6B6E
  6
Continuous
 62
     1
100
AcDbMText
 10
-263.5780932900798
 20
1739.56592951656
 30
0.0
 40
20.0
 41
0.0
 71
     5
 72
     1
  1
\A1;5
  7
Stile_Quota
 73
     1
 44
1.0
1001
ACAD
1000
MTEXTBEGIN
1070
    73
1070
     1
1070
    44
1040
1.0
1070
    74
1070
     0
1000
MTEXTEND
  0
POINT
  5
D31
330
D0A
100
AcDbEntity
  8
Defpoints
  6
Continuous
 62
     0
100
AcDbPoint
 10
-288.5780932875796
 20
1849.112761408064
 30
0.0
  0
POINT
  5
D32
330
D0A
100
AcDbEntity
  8
Defpoints
  6
Continuous
 62
     0
100
AcDbPoint
 10
-238.57809329258
 20
1849.112761408064
 30
0.0
  0
POINT
  5
D33
330
D0A
100
AcDbEntity
  8
Defpoints
  6
Continuous
 62
     0
100
AcDbPoint
 10
-238.57809329258
 20
1719.339981994694
 30
0.0
  0
ENDBLK
  5
D0C
330
D0A
100
AcDbEntity
  8
0
 62
     7
100
AcDbBlockEnd
  0
BLOCK
  5
D1C
330
D1B
100
AcDbEntity
  8
0
 62
     7
100
AcDbBlockBegin
  2
*D17
 70
     1
 10
0.0
 20
0.0
 30
0.0
  3
*D17
  1

  0
LINE
  5
D34
330
D1B
100
AcDbEntity
  8
P-6B6E
  6
Continuous
 62
     2
370
    -2
100
AcDbLine
 10
-238.5780932925791
 20
1839.112761408064
 30
0.0
 11
-238.5780932925791
 21
1704.339981994694
 31
0.0
  0
LINE
  5
D35
330
D1B
100
AcDbEntity
  8
P-6B6E
  6
Continuous
 62
     2
370
    -2
100
AcDbLine
 10
-188.5780932975795
 20
1839.112761408064
 30
0.0
 11
-188.5780932975795
 21
1704.339981994694
 31
0.0
  0
LINE
  5
D36
330
D1B
100
AcDbEntity
  8
P-6B6E
  6
Continuous
 62
     2
370
    -2
100
AcDbLine
 10
-258.5780932925791
 20
1719.339981994694
 30
0.0
 11
-278.5780932925791
 21
1719.339981994694
 31
0.0
  0
LINE
  5
D37
330
D1B
100
AcDbEntity
  8
P-6B6E
  6
Continuous
 62
     2
370
    -2
100
AcDbLine
 10
-168.5780932975794
 20
1719.339981994694
 30
0.0
 11
-148.5780932975794
 21
1719.339981994694
 31
0.0
  0
LINE
  5
D38
330
D1B
100
AcDbEntity
  8
P-6B6E
  6
Continuous
 62
     2
370
    -2
100
AcDbLine
 10
-238.5780932925791
 20
1719.339981994694
 30
0.0
 11
-188.5780932975795
 21
1719.339981994694
 31
0.0
  0
SOLID
  5
D39
330
D1B
100
AcDbEntity
  8
P-6B6E
  6
Continuous
 62
     2
100
AcDbTrace
 10
-258.5780932925791
 20
1722.673315328028
 30
0.0
 11
-258.5780932925791
 21
1716.006648661361
 31
0.0
 12
-238.5780932925791
 22
1719.339981994694
 32
0.0
 13
-238.5780932925791
 23
1719.339981994694
 33
0.0
  0
SOLID
  5
D3A
330
D1B
100
AcDbEntity
  8
P-6B6E
  6
Continuous
 62
     2
100
AcDbTrace
 10
-168.5780932975794
 20
1722.673315328028
 30
0.0
 11
-168.5780932975794
 21
1716.006648661361
 31
0.0
 12
-188.5780932975795
 22
1719.339981994694
 32
0.0
 13
-188.5780932975795
 23
1719.339981994694
 33
0.0
  0
MTEXT
  5
D3B
330
D1B
100
AcDbEntity
  8
P-6B6E
  6
Continuous
 62
     1
100
AcDbMText
 10
-213.5780932950793
 20
1739.56592951656
 30
0.0
 40
20.0
 41
0.0
 71
     5
 72
     1
  1
\A1;5
  7
Stile_Quota
 73
     1
 44
1.0
1001
ACAD
1000
MTEXTBEGIN
1070
    73
1070
     1
1070
    44
1040
1.0
1070
    74
1070
     0
1000
MTEXTEND
  0
POINT
  5
D3C
330
D1B
100
AcDbEntity
  8
Defpoints
  6
Continuous
 62
     0
100
AcDbPoint
 10
-238.5780932925791
 20
1849.112761408064
 30
0.0
  0
POINT
  5
D3D
330
D1B
100
AcDbEntity
  8
Defpoints
  6
Continuous
 62
     0
100
AcDbPoint
 10
-188.5780932975795
 20
1849.112761408064
 30
0.0
  0
POINT
  5
D3E
330
D1B
100
AcDbEntity
  8
Defpoints
  6
Continuous
 62
     0
100
AcDbPoint
 10
-188.5780932975795
 20
1719.339981994694
 30
0.0
  0
ENDBLK
  5
D1D
330
D1B
100
AcDbEntity
  8
0
 62
     7
100
AcDbBlockEnd
  0
BLOCK
  5
D72
330
D71
100
AcDbEntity
  8
0
 62
     3
100
AcDbBlockBegin
  2
*D18
 70
     1
 10
0.0
 20
0.0
 30
0.0
  3
*D18
  1

  0
LINE
  5
1135
330
D71
100
AcDbEntity
  8
P-6B6E
  6
Continuous
 62
     2
370
    -2
100
AcDbLine
 10
-398.5780932775797
 20
1832.112761409867
 30
0.0
 11
-706.5751951627134
 21
1832.112761409867
 31
0.0
  0
LINE
  5
1136
330
D71
100
AcDbEntity
  8
P-6B6E
  6
Continuous
 62
     2
370
    -2
100
AcDbLine
 10
-418.5780932755806
 20
2132.112761379866
 30
0.0
 11
-706.5751951627134
 21
2132.112761379866
 31
0.0
  0
LINE
  5
1137
330
D71
100
AcDbEntity
  8
P-6B6E
  6
Continuous
 62
     2
370
    -2
100
AcDbLine
 10
-691.5751951627135
 20
1852.112761409867
 30
0.0
 11
-691.5751951627135
 21
2112.112761379866
 31
0.0
  0
SOLID
  5
1138
330
D71
100
AcDbEntity
  8
P-6B6E
  6
Continuous
 62
     2
100
AcDbTrace
 10
-694.9085284960468
 20
1852.112761409867
 30
0.0
 11
-688.2418618293801
 21
1852.112761409867
 31
0.0
 12
-691.5751951627135
 22
1832.112761409867
 32
0.0
 13
-691.5751951627135
 23
1832.112761409867
 33
0.0
  0
SOLID
  5
1139
330
D71
100
AcDbEntity
  8
P-6B6E
  6
Continuous
 62
     2
100
AcDbTrace
 10
-694.9085284960468
 20
2112.112761379866
 30
0.0
 11
-688.2418618293801
 21
2112.112761379866
 31
0.0
 12
-691.5751951627135
 22
2132.112761379866
 32
0.0
 13
-691.5751951627135
 23
2132.112761379866
 33
0.0
  0
MTEXT
  5
113A
330
D71
100
AcDbEntity
  8
P-6B6E
  6
Continuous
 62
     1
100
AcDbMText
 10
-711.8011426845797
 20
1982.112761394866
 30
0.0
 40
20.0
 41
0.0
 71
     5
 72
     1
  1
\A1;30
  7
Stile_Quota
 11
0.0000000000000001
 21
1.0
 31
0.0
 73
     1
 44
1.0
1001
ACAD
1000
MTEXTBEGIN
1070
    73
1070
     1
1070
    44
1040
1.0
1070
    74
1070
     0
1000
MTEXTEND
  0
POINT
  5
113B
330
D71
100
AcDbEntity
  8
Defpoints
  6
Continuous
 62
     0
100
AcDbPoint
 10
-388.5780932775797
 20
1832.112761409867
 30
0.0
  0
POINT
  5
113C
330
D71
100
AcDbEntity
  8
Defpoints
  6
Continuous
 62
     0
100
AcDbPoint
 10
-408.5780932755806
 20
2132.112761379866
 30
0.0
  0
POINT
  5
113D
330
D71
100
AcDbEntity
  8
Defpoints
  6
Continuous
 62
     0
100
AcDbPoint
 10
-691.5751951627135
 20
2132.112761379866
 30
0.0
  0
ENDBLK
  5
D73
330
D71
100
AcDbEntity
  8
0
 62
     3
100
AcDbBlockEnd
  0
BLOCK
  5
D8A
330
D89
100
AcDbEntity
  8
0
 62
     3
100
AcDbBlockBegin
  2
*D19
 70
     1
 10
0.0
 20
0.0
 30
0.0
  3
*D19
  1

  0
LINE
  5
1102
330
D89
100
AcDbEntity
  8
P-6B6E
  6
Continuous
 62
     2
370
    -2
100
AcDbLine
 10
-418.5780932755806
 20
2132.112761379866
 30
0.0
 11
-706.5751951627134
 21
2132.112761379866
 31
0.0
  0
LINE
  5
1103
330
D89
100
AcDbEntity
  8
P-6B6E
  6
Continuous
 62
     2
370
    -2
100
AcDbLine
 10
-395.8275912677722
 20
2262.11276136689
 30
0.0
 11
-706.5751951627134
 21
2262.11276136689
 31
0.0
  0
LINE
  5
1104
330
D89
100
AcDbEntity
  8
P-6B6E
  6
Continuous
 62
     2
370
    -2
100
AcDbLine
 10
-691.5751951627135
 20
2152.112761379866
 30
0.0
 11
-691.5751951627135
 21
2242.11276136689
 31
0.0
  0
SOLID
  5
1105
330
D89
100
AcDbEntity
  8
P-6B6E
  6
Continuous
 62
     2
100
AcDbTrace
 10
-694.9085284960468
 20
2152.112761379866
 30
0.0
 11
-688.2418618293801
 21
2152.112761379866
 31
0.0
 12
-691.5751951627135
 22
2132.112761379866
 32
0.0
 13
-691.5751951627135
 23
2132.112761379866
 33
0.0
  0
SOLID
  5
1106
330
D89
100
AcDbEntity
  8
P-6B6E
  6
Continuous
 62
     2
100
AcDbTrace
 10
-694.9085284960468
 20
2242.11276136689
 30
0.0
 11
-688.2418618293801
 21
2242.11276136689
 31
0.0
 12
-691.5751951627135
 22
2262.11276136689
 32
0.0
 13
-691.5751951627135
 23
2262.11276136689
 33
0.0
  0
MTEXT
  5
1107
330
D89
100
AcDbEntity
  8
P-6B6E
  6
Continuous
 62
     1
100
AcDbMText
 10
-711.7865654251045
 20
2197.112761373379
 30
0.0
 40
20.0
 41
0.0
 71
     5
 72
     1
  1
\A1;13
  7
Stile_Quota
 11
0.0000000000000001
 21
1.0
 31
0.0
 73
     1
 44
1.0
1001
ACAD
1000
MTEXTBEGIN
1070
    73
1070
     1
1070
    44
1040
1.0
1070
    74
1070
     0
1000
MTEXTEND
  0
POINT
  5
1108
330
D89
100
AcDbEntity
  8
Defpoints
  6
Continuous
 62
     0
100
AcDbPoint
 10
-408.5780932755806
 20
2132.112761379866
 30
0.0
  0
POINT
  5
1109
330
D89
100
AcDbEntity
  8
Defpoints
  6
Continuous
 62
     0
100
AcDbPoint
 10
-385.8275912677722
 20
2262.11276136689
 30
0.0
  0
POINT
  5
110A
330
D89
100
AcDbEntity
  8
Defpoints
  6
Continuous
 62
     0
100
AcDbPoint
 10
-691.5751951627135
 20
2262.11276136689
 30
0.0
  0
ENDBLK
  5
D8B
330
D89
100
AcDbEntity
  8
0
 62
     3
100
AcDbBlockEnd
  0
BLOCK
  5
DA2
330
DA1
100
AcDbEntity
  8
0
 62
     3
100
AcDbBlockBegin
  2
*D20
 70
     1
 10
0.0
 20
0.0
 30
0.0
  3
*D20
  1

  0
LINE
  5
110B
330
DA1
100
AcDbEntity
  8
P-6B6E
  6
Continuous
 62
     2
370
    -2
100
AcDbLine
 10
-403.5780932770794
 20
2147.112761377865
 30
0.0
 11
-654.4322471580326
 21
2147.112761377865
 31
0.0
  0
LINE
  5
110C
330
DA1
100
AcDbEntity
  8
P-6B6E
  6
Continuous
 62
     2
370
    -2
100
AcDbLine
 10
-418.5780932755806
 20
2132.112761379866
 30
0.0
 11
-654.4322471580326
 21
2132.112761379866
 31
0.0
  0
LINE
  5
110D
330
DA1
100
AcDbEntity
  8
P-6B6E
  6
Continuous
 62
     2
370
    -2
100
AcDbLine
 10
-639.4322471580326
 20
2167.112761377866
 30
0.0
 11
-639.4322471580326
 21
2187.112761377866
 31
0.0
  0
LINE
  5
110E
330
DA1
100
AcDbEntity
  8
P-6B6E
  6
Continuous
 62
     2
370
    -2
100
AcDbLine
 10
-639.4322471580326
 20
2112.112761379866
 30
0.0
 11
-639.4322471580326
 21
2035.232294907563
 31
0.0
  0
LINE
  5
110F
330
DA1
100
AcDbEntity
  8
P-6B6E
  6
Continuous
 62
     2
370
    -2
100
AcDbLine
 10
-639.4322471580326
 20
2147.112761377865
 30
0.0
 11
-639.4322471580326
 21
2132.112761379866
 31
0.0
  0
SOLID
  5
1110
330
DA1
100
AcDbEntity
  8
P-6B6E
  6
Continuous
 62
     2
100
AcDbTrace
 10
-642.7655804913659
 20
2167.112761377866
 30
0.0
 11
-636.0989138246992
 21
2167.112761377866
 31
0.0
 12
-639.4322471580326
 22
2147.112761377865
 32
0.0
 13
-639.4322471580326
 23
2147.112761377865
 33
0.0
  0
SOLID
  5
1111
330
DA1
100
AcDbEntity
  8
P-6B6E
  6
Continuous
 62
     2
100
AcDbTrace
 10
-642.7655804913659
 20
2112.112761379866
 30
0.0
 11
-636.0989138246992
 21
2112.112761379866
 31
0.0
 12
-639.4322471580326
 22
2132.112761379866
 32
0.0
 13
-639.4322471580326
 23
2132.112761379866
 33
0.0
  0
MTEXT
  5
1112
330
DA1
100
AcDbEntity
  8
P-6B6E
  6
Continuous
 62
     1
100
AcDbMText
 10
-659.6581946798989
 20
2063.672528143715
 30
0.0
 40
20.0
 41
0.0
 71
     5
 72
     1
  1
\A1;1.5
  7
Stile_Quota
 11
0.0000000000000001
 21
1.0
 31
0.0
 73
     1
 44
1.0
1001
ACAD
1000
MTEXTBEGIN
1070
    73
1070
     1
1070
    44
1040
1.0
1070
    74
1070
     0
1000
MTEXTEND
  0
POINT
  5
1113
330
DA1
100
AcDbEntity
  8
Defpoints
  6
Continuous
 62
     0
100
AcDbPoint
 10
-393.5780932770795
 20
2147.112761377865
 30
0.0
  0
POINT
  5
1114
330
DA1
100
AcDbEntity
  8
Defpoints
  6
Continuous
 62
     0
100
AcDbPoint
 10
-408.5780932755806
 20
2132.112761379866
 30
0.0
  0
POINT
  5
1115
330
DA1
100
AcDbEntity
  8
Defpoints
  6
Continuous
 62
     0
100
AcDbPoint
 10
-639.4322471580326
 20
2132.112761379866
 30
0.0
  0
ENDBLK
  5
DA3
330
DA1
100
AcDbEntity
  8
0
 62
     3
100
AcDbBlockEnd
  0
BLOCK
  5
DD6
330
DD5
100
AcDbEntity
  8
0
 62
     3
100
AcDbBlockBegin
  2
*D21
 70
     1
 10
0.0
 20
0.0
 30
0.0
  3
*D21
  1

  0
LINE
  5
1551
330
DD5
100
AcDbEntity
  8
P-6B6E
  6
Continuous
 62
     2
370
    -2
100
AcDbLine
 10
-420.9218382996064
 20
1825.825668897433
 30
0.0
 11
-491.6547902451322
 21
1757.403523919691
 31
0.0
  0
LINE
  5
1552
330
DD5
100
AcDbEntity
  8
P-6B6E
  6
Continuous
 62
     2
370
    -2
100
AcDbLine
 10
-388.5780932775796
 20
1857.112761407366
 30
0.0
 11
-406.5468405112402
 21
1839.731043347065
 31
0.0
  0
SOLID
  5
1553
330
DD5
100
AcDbEntity
  8
P-6B6E
  6
Continuous
 62
     2
100
AcDbTrace
 10
-423.2394007078783
 20
1828.221501862161
 30
0.0
 11
-418.6042758913345
 21
1823.429835932706
 31
0.0
 12
-406.5468405112402
 22
1839.731043347065
 32
0.0
 13
-406.5468405112402
 23
1839.731043347065
 33
0.0
  0
MTEXT
  5
1554
330
DD5
100
AcDbEntity
  8
P-6B6E
  6
Continuous
 62
     1
100
AcDbMText
 10
-477.5382818610595
 20
1799.199306728469
 30
0.0
 40
20.0
 41
0.0
 71
     5
 72
     1
  1
\A1;R2.5
  7
Stile_Quota
 11
0.7187498894183177
 21
0.6952687224815714
 31
0.0
 73
     1
 44
1.0
1001
ACAD
1000
MTEXTBEGIN
1070
    73
1070
     1
1070
    44
1040
1.0
1070
    74
1070
     0
1000
MTEXTEND
  0
POINT
  5
1555
330
DD5
100
AcDbEntity
  8
Defpoints
  6
Continuous
 62
     0
100
AcDbPoint
 10
-406.5468405112402
 20
1839.731043347065
 30
0.0
  0
POINT
  5
1556
330
DD5
100
AcDbEntity
  8
Defpoints
  6
Continuous
 62
     0
100
AcDbPoint
 10
-388.5780932775796
 20
1857.112761407366
 30
0.0
  0
ENDBLK
  5
DD7
330
DD5
100
AcDbEntity
  8
0
 62
     3
100
AcDbBlockEnd
  0
BLOCK
  5
DE8
330
DE7
100
AcDbEntity
  8
0
 62
     3
100
AcDbBlockBegin
  2
*D22
 70
     1
 10
0.0
 20
0.0
 30
0.0
  3
*D22
  1

  0
LINE
  5
154B
330
DE7
100
AcDbEntity
  8
P-6B6E
  6
Continuous
 62
     2
370
    -2
100
AcDbLine
 10
-105.9810078781842
 20
1826.089705116767
 30
0.0
 11
-34.69402254863462
 21
1758.244984342725
 31
0.0
  0
LINE
  5
154C
330
DE7
100
AcDbEntity
  8
P-6B6E
  6
Continuous
 62
     2
370
    -2
100
AcDbLine
 10
-138.5780933025799
 20
1857.112761407366
 30
0.0
 11
-120.4686014009427
 21
1839.877730135577
 31
0.0
  0
SOLID
  5
154D
330
DE7
100
AcDbEntity
  8
P-6B6E
  6
Continuous
 62
     2
100
AcDbTrace
 10
-103.6830037083827
 20
1828.504304037226
 30
0.0
 11
-108.2790120479859
 21
1823.675106196307
 31
0.0
 12
-120.4686014009427
 22
1839.877730135577
 32
0.0
 13
-120.4686014009427
 23
1839.877730135577
 33
0.0
  0
MTEXT
  5
154E
330
DE7
100
AcDbEntity
  8
P-6B6E
  6
Continuous
 62
     1
100
AcDbMText
 10
-49.14992492899933
 20
1799.924597535812
 30
0.0
 40
20.0
 41
0.0
 71
     5
 72
     1
  1
\A1;R2.5
  7
Stile_Quota
 11
0.7243796761379207
 21
-0.6894012509404963
 31
0.0
 73
     1
 44
1.0
1001
ACAD
1000
MTEXTBEGIN
1070
    73
1070
     1
1070
    44
1040
1.0
1070
    74
1070
     0
1000
MTEXTEND
  0
POINT
  5
154F
330
DE7
100
AcDbEntity
  8
Defpoints
  6
Continuous
 62
     0
100
AcDbPoint
 10
-120.4686014009427
 20
1839.877730135577
 30
0.0
  0
POINT
  5
1550
330
DE7
100
AcDbEntity
  8
Defpoints
  6
Continuous
 62
     0
100
AcDbPoint
 10
-138.5780933025799
 20
1857.112761407366
 30
0.0
  0
ENDBLK
  5
DE9
330
DE7
100
AcDbEntity
  8
0
 62
     3
100
AcDbBlockEnd
  0
BLOCK
  5
DFA
330
DF9
100
AcDbEntity
  8
0
 62
     3
100
AcDbBlockBegin
  2
*D23
 70
     1
 10
0.0
 20
0.0
 30
0.0
  3
*D23
  1

  0
LINE
  5
1116
330
DF9
100
AcDbEntity
  8
P-6B6E
  6
Continuous
 62
     2
370
    -2
100
AcDbLine
 10
-398.5780932775797
 20
1832.112761409867
 30
0.0
 11
-760.9404191923403
 21
1832.112761409867
 31
0.0
  0
LINE
  5
1117
330
DF9
100
AcDbEntity
  8
P-6B6E
  6
Continuous
 62
     2
370
    -2
100
AcDbLine
 10
-395.8275912677722
 20
2262.11276136689
 30
0.0
 11
-760.9404191923403
 21
2262.11276136689
 31
0.0
  0
LINE
  5
1118
330
DF9
100
AcDbEntity
  8
P-6B6E
  6
Continuous
 62
     2
370
    -2
100
AcDbLine
 10
-745.9404191923404
 20
1852.112761409867
 30
0.0
 11
-745.9404191923404
 21
2242.11276136689
 31
0.0
  0
SOLID
  5
1119
330
DF9
100
AcDbEntity
  8
P-6B6E
  6
Continuous
 62
     2
100
AcDbTrace
 10
-749.2737525256737
 20
1852.112761409867
 30
0.0
 11
-742.607085859007
 21
1852.112761409867
 31
0.0
 12
-745.9404191923404
 22
1832.112761409867
 32
0.0
 13
-745.9404191923404
 23
1832.112761409867
 33
0.0
  0
SOLID
  5
111A
330
DF9
100
AcDbEntity
  8
P-6B6E
  6
Continuous
 62
     2
100
AcDbTrace
 10
-749.2737525256737
 20
2242.11276136689
 30
0.0
 11
-742.607085859007
 21
2242.11276136689
 31
0.0
 12
-745.9404191923404
 22
2262.11276136689
 32
0.0
 13
-745.9404191923404
 23
2262.11276136689
 33
0.0
  0
MTEXT
  5
111B
330
DF9
100
AcDbEntity
  8
P-6B6E
  6
Continuous
 62
     1
100
AcDbMText
 10
-766.1517894547314
 20
2047.112761388379
 30
0.0
 40
20.0
 41
0.0
 71
     5
 72
     1
  1
\A1;43
  7
Stile_Quota
 11
0.0000000000000001
 21
1.0
 31
0.0
 73
     1
 44
1.0
1001
ACAD
1000
MTEXTBEGIN
1070
    73
1070
     1
1070
    44
1040
1.0
1070
    74
1070
     0
1000
MTEXTEND
  0
POINT
  5
111C
330
DF9
100
AcDbEntity
  8
Defpoints
  6
Continuous
 62
     0
100
AcDbPoint
 10
-388.5780932775797
 20
1832.112761409867
 30
0.0
  0
POINT
  5
111D
330
DF9
100
AcDbEntity
  8
Defpoints
  6
Continuous
 62
     0
100
AcDbPoint
 10
-385.8275912677722
 20
2262.11276136689
 30
0.0
  0
POINT
  5
111E
330
DF9
100
AcDbEntity
  8
Defpoints
  6
Continuous
 62
     0
100
AcDbPoint
 10
-745.9404191923404
 20
2262.11276136689
 30
0.0
  0
ENDBLK
  5
DFB
330
DF9
100
AcDbEntity
  8
0
 62
     3
100
AcDbBlockEnd
  0
BLOCK
  5
E12
330
E11
100
AcDbEntity
  8
0
 62
     3
100
AcDbBlockBegin
  2
*D24
 70
     1
 10
0.0
 20
0.0
 30
0.0
  3
*D24
  1

  0
LINE
  5
F2D
330
E11
100
AcDbEntity
  8
P-6B6E
  6
Continuous
 62
     2
370
    -2
100
AcDbLine
 10
-413.5780932750804
 20
2207.112761373365
 30
0.0
 11
-413.5780932750804
 21
2543.927064753768
 31
0.0
  0
LINE
  5
F2E
330
E11
100
AcDbEntity
  8
P-6B6E
  6
Continuous
 62
     2
370
    -2
100
AcDbLine
 10
-113.578093305091
 20
2142.112761379884
 30
0.0
 11
-113.578093305091
 21
2543.927064753768
 31
0.0
  0
LINE
  5
F2F
330
E11
100
AcDbEntity
  8
P-6B6E
  6
Continuous
 62
     2
370
    -2
100
AcDbLine
 10
-393.5780932750804
 20
2528.927064753768
 30
0.0
 11
-133.578093305091
 21
2528.927064753768
 31
0.0
  0
SOLID
  5
F30
330
E11
100
AcDbEntity
  8
P-6B6E
  6
Continuous
 62
     2
100
AcDbTrace
 10
-393.5780932750804
 20
2532.260398087101
 30
0.0
 11
-393.5780932750804
 21
2525.593731420435
 31
0.0
 12
-413.5780932750804
 22
2528.927064753768
 32
0.0
 13
-413.5780932750804
 23
2528.927064753768
 33
0.0
  0
SOLID
  5
F31
330
E11
100
AcDbEntity
  8
P-6B6E
  6
Continuous
 62
     2
100
AcDbTrace
 10
-133.578093305091
 20
2532.260398087101
 30
0.0
 11
-133.578093305091
 21
2525.593731420435
 31
0.0
 12
-113.578093305091
 22
2528.927064753768
 32
0.0
 13
-113.578093305091
 23
2528.927064753768
 33
0.0
  0
MTEXT
  5
F32
330
E11
100
AcDbEntity
  8
P-6B6E
  6
Continuous
 62
     1
100
AcDbMText
 10
-263.5780932900857
 20
2549.153012275633
 30
0.0
 40
20.0
 41
0.0
 71
     5
 72
     1
  1
\A1;30
  7
Stile_Quota
 73
     1
 44
1.0
1001
ACAD
1000
MTEXTBEGIN
1070
    73
1070
     1
1070
    44
1040
1.0
1070
    74
1070
     0
1000
MTEXTEND
  0
POINT
  5
F33
330
E11
100
AcDbEntity
  8
Defpoints
  6
Continuous
 62
     0
100
AcDbPoint
 10
-413.5780932750804
 20
2197.112761373365
 30
0.0
  0
POINT
  5
F34
330
E11
100
AcDbEntity
  8
Defpoints
  6
Continuous
 62
     0
100
AcDbPoint
 10
-113.578093305091
 20
2132.112761379884
 30
0.0
  0
POINT
  5
F35
330
E11
100
AcDbEntity
  8
Defpoints
  6
Continuous
 62
     0
100
AcDbPoint
 10
-113.578093305091
 20
2528.927064753768
 30
0.0
  0
ENDBLK
  5
E13
330
E11
100
AcDbEntity
  8
0
 62
     3
100
AcDbBlockEnd
  0
BLOCK
  5
E2A
330
E29
100
AcDbEntity
  8
0
 62
     3
100
AcDbBlockBegin
  2
*D25
 70
     1
 10
0.0
 20
0.0
 30
0.0
  3
*D25
  1

  0
LINE
  5
EEF
330
E29
100
AcDbEntity
  8
P-6B6E
  6
Continuous
 62
     2
370
    -2
100
AcDbLine
 10
-383.5780932780799
 20
2272.112761366866
 30
0.0
 11
-383.5780932780799
 21
2492.032167621846
 31
0.0
  0
LINE
  5
EF0
330
E29
100
AcDbEntity
  8
P-6B6E
  6
Continuous
 62
     2
370
    -2
100
AcDbLine
 10
-413.5780932750797
 20
2207.112761373365
 30
0.0
 11
-413.5780932750797
 21
2492.032167621846
 31
0.0
  0
LINE
  5
EF1
330
E29
100
AcDbEntity
  8
P-6B6E
  6
Continuous
 62
     2
370
    -2
100
AcDbLine
 10
-363.5780932780799
 20
2477.032167621846
 30
0.0
 11
-343.5780932780799
 21
2477.032167621846
 31
0.0
  0
LINE
  5
EF2
330
E29
100
AcDbEntity
  8
P-6B6E
  6
Continuous
 62
     2
370
    -2
100
AcDbLine
 10
-433.5780932750798
 20
2477.032167621846
 30
0.0
 11
-486.0270728669165
 21
2477.032167621846
 31
0.0
  0
LINE
  5
EF3
330
E29
100
AcDbEntity
  8
P-6B6E
  6
Continuous
 62
     2
370
    -2
100
AcDbLine
 10
-383.5780932780799
 20
2477.032167621846
 30
0.0
 11
-413.5780932750797
 21
2477.032167621846
 31
0.0
  0
SOLID
  5
EF4
330
E29
100
AcDbEntity
  8
P-6B6E
  6
Continuous
 62
     2
100
AcDbTrace
 10
-363.5780932780799
 20
2480.365500955179
 30
0.0
 11
-363.5780932780799
 21
2473.698834288512
 31
0.0
 12
-383.5780932780799
 22
2477.032167621846
 32
0.0
 13
-383.5780932780799
 23
2477.032167621846
 33
0.0
  0
SOLID
  5
EF5
330
E29
100
AcDbEntity
  8
P-6B6E
  6
Continuous
 62
     2
100
AcDbTrace
 10
-433.5780932750798
 20
2480.365500955179
 30
0.0
 11
-433.5780932750798
 21
2473.698834288512
 31
0.0
 12
-413.5780932750797
 22
2477.032167621846
 32
0.0
 13
-413.5780932750797
 23
2477.032167621846
 33
0.0
  0
MTEXT
  5
EF6
330
E29
100
AcDbEntity
  8
P-6B6E
  6
Continuous
 62
     1
100
AcDbMText
 10
-469.8025830709982
 20
2497.243537884236
 30
0.0
 40
20.0
 41
0.0
 71
     5
 72
     1
  1
\A1;3
  7
Stile_Quota
 73
     1
 44
1.0
1001
ACAD
1000
MTEXTBEGIN
1070
    73
1070
     1
1070
    44
1040
1.0
1070
    74
1070
     0
1000
MTEXTEND
  0
POINT
  5
EF7
330
E29
100
AcDbEntity
  8
Defpoints
  6
Continuous
 62
     0
100
AcDbPoint
 10
-383.5780932780799
 20
2262.112761366866
 30
0.0
  0
POINT
  5
EF8
330
E29
100
AcDbEntity
  8
Defpoints
  6
Continuous
 62
     0
100
AcDbPoint
 10
-413.5780932750797
 20
2197.112761373365
 30
0.0
  0
POINT
  5
EF9
330
E29
100
AcDbEntity
  8
Defpoints
  6
Continuous
 62
     0
100
AcDbPoint
 10
-413.5780932750797
 20
2477.032167621846
 30
0.0
  0
ENDBLK
  5
E2B
330
E29
100
AcDbEntity
  8
0
 62
     3
100
AcDbBlockEnd
  0
BLOCK
  5
E46
330
E45
100
AcDbEntity
  8
0
 62
     3
100
AcDbBlockBegin
  2
*D26
 70
     1
 10
0.0
 20
0.0
 30
0.0
  3
*D26
  1

  0
LINE
  5
EFA
330
E45
100
AcDbEntity
  8
P-6B6E
  6
Continuous
 62
     2
370
    -2
100
AcDbLine
 10
-383.5780932780799
 20
2272.112761366866
 30
0.0
 11
-383.5780932780799
 21
2492.032167621846
 31
0.0
  0
LINE
  5
EFB
330
E45
100
AcDbEntity
  8
P-6B6E
  6
Continuous
 62
     2
370
    -2
100
AcDbLine
 10
-283.5780932880807
 20
2240.112761370065
 30
0.0
 11
-283.5780932880807
 21
2492.032167621846
 31
0.0
  0
LINE
  5
EFC
330
E45
100
AcDbEntity
  8
P-6B6E
  6
Continuous
 62
     2
370
    -2
100
AcDbLine
 10
-363.5780932780799
 20
2477.032167621846
 30
0.0
 11
-303.5780932880807
 21
2477.032167621846
 31
0.0
  0
SOLID
  5
EFD
330
E45
100
AcDbEntity
  8
P-6B6E
  6
Continuous
 62
     2
100
AcDbTrace
 10
-363.5780932780799
 20
2480.365500955179
 30
0.0
 11
-363.5780932780799
 21
2473.698834288512
 31
0.0
 12
-383.5780932780799
 22
2477.032167621846
 32
0.0
 13
-383.5780932780799
 23
2477.032167621846
 33
0.0
  0
SOLID
  5
EFE
330
E45
100
AcDbEntity
  8
P-6B6E
  6
Continuous
 62
     2
100
AcDbTrace
 10
-303.5780932880807
 20
2480.365500955179
 30
0.0
 11
-303.5780932880807
 21
2473.698834288512
 31
0.0
 12
-283.5780932880807
 22
2477.032167621846
 32
0.0
 13
-283.5780932880807
 23
2477.032167621846
 33
0.0
  0
MTEXT
  5
EFF
330
E45
100
AcDbEntity
  8
P-6B6E
  6
Continuous
 62
     1
100
AcDbMText
 10
-333.5780932830803
 20
2497.258115143711
 30
0.0
 40
20.0
 41
0.0
 71
     5
 72
     1
  1
\A1;10
  7
Stile_Quota
 73
     1
 44
1.0
1001
ACAD
1000
MTEXTBEGIN
1070
    73
1070
     1
1070
    44
1040
1.0
1070
    74
1070
     0
1000
MTEXTEND
  0
POINT
  5
F00
330
E45
100
AcDbEntity
  8
Defpoints
  6
Continuous
 62
     0
100
AcDbPoint
 10
-383.5780932780799
 20
2262.112761366866
 30
0.0
  0
POINT
  5
F01
330
E45
100
AcDbEntity
  8
Defpoints
  6
Continuous
 62
     0
100
AcDbPoint
 10
-283.5780932880807
 20
2230.112761370065
 30
0.0
  0
POINT
  5
F02
330
E45
100
AcDbEntity
  8
Defpoints
  6
Continuous
 62
     0
100
AcDbPoint
 10
-283.5780932880807
 20
2477.032167621846
 30
0.0
  0
ENDBLK
  5
E47
330
E45
100
AcDbEntity
  8
0
 62
     3
100
AcDbBlockEnd
  0
BLOCK
  5
E5E
330
E5D
100
AcDbEntity
  8
0
 62
     3
100
AcDbBlockBegin
  2
*D27
 70
     1
 10
0.0
 20
0.0
 30
0.0
  3
*D27
  1

  0
LINE
  5
F03
330
E5D
100
AcDbEntity
  8
P-6B6E
  6
Continuous
 62
     2
370
    -2
100
AcDbLine
 10
-283.5780932880799
 20
2240.112761370065
 30
0.0
 11
-283.5780932880799
 21
2492.032167621846
 31
0.0
  0
LINE
  5
F04
330
E5D
100
AcDbEntity
  8
P-6B6E
  6
Continuous
 62
     2
370
    -2
100
AcDbLine
 10
-113.5780933050801
 20
2142.112761379866
 30
0.0
 11
-113.57809330508
 21
2492.032167621846
 31
0.0
  0
LINE
  5
F05
330
E5D
100
AcDbEntity
  8
P-6B6E
  6
Continuous
 62
     2
370
    -2
100
AcDbLine
 10
-263.5780932880799
 20
2477.032167621846
 30
0.0
 11
-133.5780933050801
 21
2477.032167621846
 31
0.0
  0
SOLID
  5
F06
330
E5D
100
AcDbEntity
  8
P-6B6E
  6
Continuous
 62
     2
100
AcDbTrace
 10
-263.5780932880799
 20
2480.365500955179
 30
0.0
 11
-263.5780932880799
 21
2473.698834288512
 31
0.0
 12
-283.5780932880799
 22
2477.032167621846
 32
0.0
 13
-283.5780932880799
 23
2477.032167621846
 33
0.0
  0
SOLID
  5
F07
330
E5D
100
AcDbEntity
  8
P-6B6E
  6
Continuous
 62
     2
100
AcDbTrace
 10
-133.5780933050801
 20
2480.365500955179
 30
0.0
 11
-133.5780933050801
 21
2473.698834288512
 31
0.0
 12
-113.57809330508
 22
2477.032167621846
 32
0.0
 13
-113.57809330508
 23
2477.032167621846
 33
0.0
  0
MTEXT
  5
F08
330
E5D
100
AcDbEntity
  8
P-6B6E
  6
Continuous
 62
     1
100
AcDbMText
 10
-198.57809329658
 20
2497.331001441088
 30
0.0
 40
20.0
 41
0.0
 71
     5
 72
     1
  1
\A1;17
  7
Stile_Quota
 73
     1
 44
1.0
1001
ACAD
1000
MTEXTBEGIN
1070
    73
1070
     1
1070
    44
1040
1.0
1070
    74
1070
     0
1000
MTEXTEND
  0
POINT
  5
F09
330
E5D
100
AcDbEntity
  8
Defpoints
  6
Continuous
 62
     0
100
AcDbPoint
 10
-283.5780932880799
 20
2230.112761370065
 30
0.0
  0
POINT
  5
F0A
330
E5D
100
AcDbEntity
  8
Defpoints
  6
Continuous
 62
     0
100
AcDbPoint
 10
-113.5780933050801
 20
2132.112761379866
 30
0.0
  0
POINT
  5
F0B
330
E5D
100
AcDbEntity
  8
Defpoints
  6
Continuous
 62
     0
100
AcDbPoint
 10
-113.57809330508
 20
2477.032167621846
 30
0.0
  0
ENDBLK
  5
E5F
330
E5D
100
AcDbEntity
  8
0
 62
     3
100
AcDbBlockEnd
  0
BLOCK
  5
E76
330
E75
100
AcDbEntity
  8
0
 62
     3
100
AcDbBlockBegin
  2
*D28
 70
     1
 10
0.0
 20
0.0
 30
0.0
  3
*D28
  1

  0
LINE
  5
F0C
330
E75
100
AcDbEntity
  8
P-6B6E
  6
Continuous
 62
     2
370
    -2
100
AcDbLine
 10
-263.5780932900796
 20
2222.112761371866
 30
0.0
 11
-263.5780932900796
 21
2438.515553863864
 31
0.0
  0
LINE
  5
F0D
330
E75
100
AcDbEntity
  8
P-6B6E
  6
Continuous
 62
     2
370
    -2
100
AcDbLine
 10
-283.5780932880807
 20
2240.112761370065
 30
0.0
 11
-283.5780932880807
 21
2438.515553863864
 31
0.0
  0
LINE
  5
F0E
330
E75
100
AcDbEntity
  8
P-6B6E
  6
Continuous
 62
     2
370
    -2
100
AcDbLine
 10
-243.5780932900796
 20
2423.515553863864
 30
0.0
 11
-223.5780932900795
 21
2423.515553863864
 31
0.0
  0
LINE
  5
F0F
330
E75
100
AcDbEntity
  8
P-6B6E
  6
Continuous
 62
     2
370
    -2
100
AcDbLine
 10
-303.5780932880807
 20
2423.515553863864
 30
0.0
 11
-356.9745947458067
 21
2423.515553863864
 31
0.0
  0
LINE
  5
F10
330
E75
100
AcDbEntity
  8
P-6B6E
  6
Continuous
 62
     2
370
    -2
100
AcDbLine
 10
-263.5780932900796
 20
2423.515553863864
 30
0.0
 11
-283.5780932880807
 21
2423.515553863864
 31
0.0
  0
SOLID
  5
F11
330
E75
100
AcDbEntity
  8
P-6B6E
  6
Continuous
 62
     2
100
AcDbTrace
 10
-243.5780932900796
 20
2426.848887197197
 30
0.0
 11
-243.5780932900796
 21
2420.18222053053
 31
0.0
 12
-263.5780932900796
 22
2423.515553863864
 32
0.0
 13
-263.5780932900796
 23
2423.515553863864
 33
0.0
  0
SOLID
  5
F12
330
E75
100
AcDbEntity
  8
P-6B6E
  6
Continuous
 62
     2
100
AcDbTrace
 10
-303.5780932880807
 20
2426.848887197197
 30
0.0
 11
-303.5780932880807
 21
2420.18222053053
 31
0.0
 12
-283.5780932880807
 22
2423.515553863864
 32
0.0
 13
-283.5780932880807
 23
2423.515553863864
 33
0.0
  0
MTEXT
  5
F13
330
E75
100
AcDbEntity
  8
P-6B6E
  6
Continuous
 62
     1
100
AcDbMText
 10
-340.2763440169437
 20
2443.515553863864
 30
0.0
 40
20.0
 41
0.0
 71
     5
 72
     1
  1
\A1;2
  7
Stile_Quota
 73
     1
 44
1.0
1001
ACAD
1000
MTEXTBEGIN
1070
    73
1070
     1
1070
    44
1040
1.0
1070
    74
1070
     0
1000
MTEXTEND
  0
POINT
  5
F14
330
E75
100
AcDbEntity
  8
Defpoints
  6
Continuous
 62
     0
100
AcDbPoint
 10
-263.5780932900796
 20
2212.112761371866
 30
0.0
  0
POINT
  5
F15
330
E75
100
AcDbEntity
  8
Defpoints
  6
Continuous
 62
     0
100
AcDbPoint
 10
-283.5780932880807
 20
2230.112761370065
 30
0.0
  0
POINT
  5
F16
330
E75
100
AcDbEntity
  8
Defpoints
  6
Continuous
 62
     0
100
AcDbPoint
 10
-283.5780932880807
 20
2423.515553863864
 30
0.0
  0
ENDBLK
  5
E77
330
E75
100
AcDbEntity
  8
0
 62
     3
100
AcDbBlockEnd
  0
BLOCK
  5
EA3
330
EA2
100
AcDbEntity
  8
0
 62
     3
100
AcDbBlockBegin
  2
*D29
 70
     1
 10
0.0
 20
0.0
 30
0.0
  3
*D29
  1

  0
LINE
  5
F17
330
EA2
100
AcDbEntity
  8
P-6B6E
  6
Continuous
 62
     2
370
    -2
100
AcDbLine
 10
-263.5780932900798
 20
2222.112761371866
 30
0.0
 11
-263.5780932900798
 21
2391.252884310327
 31
0.0
  0
LINE
  5
F18
330
EA2
100
AcDbEntity
  8
P-6B6E
  6
Continuous
 62
     2
370
    -2
100
AcDbLine
 10
-248.5780932915795
 20
2222.112761371866
 30
0.0
 11
-248.5780932915795
 21
2391.252884310327
 31
0.0
  0
LINE
  5
F19
330
EA2
100
AcDbEntity
  8
P-6B6E
  6
Continuous
 62
     2
370
    -2
100
AcDbLine
 10
-283.5780932900798
 20
2376.252884310327
 30
0.0
 11
-303.5780932900798
 21
2376.252884310327
 31
0.0
  0
LINE
  5
F1A
330
EA2
100
AcDbEntity
  8
P-6B6E
  6
Continuous
 62
     2
370
    -2
100
AcDbLine
 10
-228.5780932915795
 20
2376.252884310327
 30
0.0
 11
-151.6976268192763
 21
2376.252884310327
 31
0.0
  0
LINE
  5
F1B
330
EA2
100
AcDbEntity
  8
P-6B6E
  6
Continuous
 62
     2
370
    -2
100
AcDbLine
 10
-263.5780932900798
 20
2376.252884310327
 30
0.0
 11
-248.5780932915795
 21
2376.252884310327
 31
0.0
  0
SOLID
  5
F1C
330
EA2
100
AcDbEntity
  8
P-6B6E
  6
Continuous
 62
     2
100
AcDbTrace
 10
-283.5780932900798
 20
2379.586217643661
 30
0.0
 11
-283.5780932900798
 21
2372.919550976994
 31
0.0
 12
-263.5780932900798
 22
2376.252884310327
 32
0.0
 13
-263.5780932900798
 23
2376.252884310327
 33
0.0
  0
SOLID
  5
F1D
330
EA2
100
AcDbEntity
  8
P-6B6E
  6
Continuous
 62
     2
100
AcDbTrace
 10
-228.5780932915795
 20
2379.586217643661
 30
0.0
 11
-228.5780932915795
 21
2372.919550976994
 31
0.0
 12
-248.5780932915795
 22
2376.252884310327
 32
0.0
 13
-248.5780932915795
 23
2376.252884310327
 33
0.0
  0
MTEXT
  5
F1E
330
EA2
100
AcDbEntity
  8
P-6B6E
  6
Continuous
 62
     1
100
AcDbMText
 10
-180.1378600554279
 20
2396.478831832193
 30
0.0
 40
20.0
 41
0.0
 71
     5
 72
     1
  1
\A1;1.5
  7
Stile_Quota
 73
     1
 44
1.0
1001
ACAD
1000
MTEXTBEGIN
1070
    73
1070
     1
1070
    44
1040
1.0
1070
    74
1070
     0
1000
MTEXTEND
  0
POINT
  5
F1F
330
EA2
100
AcDbEntity
  8
Defpoints
  6
Continuous
 62
     0
100
AcDbPoint
 10
-263.5780932900798
 20
2212.112761371866
 30
0.0
  0
POINT
  5
F20
330
EA2
100
AcDbEntity
  8
Defpoints
  6
Continuous
 62
     0
100
AcDbPoint
 10
-248.5780932915795
 20
2212.112761371866
 30
0.0
  0
POINT
  5
F21
330
EA2
100
AcDbEntity
  8
Defpoints
  6
Continuous
 62
     0
100
AcDbPoint
 10
-248.5780932915795
 20
2376.252884310327
 30
0.0
  0
ENDBLK
  5
EA4
330
EA2
100
AcDbEntity
  8
0
 62
     3
100
AcDbBlockEnd
  0
BLOCK
  5
EBF
330
EBE
100
AcDbEntity
  8
0
 62
     3
100
AcDbBlockBegin
  2
*D30
 70
     1
 10
0.0
 20
0.0
 30
0.0
  3
*D30
  1

  0
LINE
  5
F22
330
EBE
100
AcDbEntity
  8
P-6B6E
  6
Continuous
 62
     2
370
    -2
100
AcDbLine
 10
-398.5780932765798
 20
2207.112761373365
 30
0.0
 11
-398.5780932765798
 21
2392.850085738687
 31
0.0
  0
LINE
  5
F23
330
EBE
100
AcDbEntity
  8
P-6B6E
  6
Continuous
 62
     2
370
    -2
100
AcDbLine
 10
-413.5780932750797
 20
2207.112761373365
 30
0.0
 11
-413.5780932750797
 21
2392.850085738687
 31
0.0
  0
LINE
  5
F24
330
EBE
100
AcDbEntity
  8
P-6B6E
  6
Continuous
 62
     2
370
    -2
100
AcDbLine
 10
-378.5780932765798
 20
2377.850085738687
 30
0.0
 11
-358.5780932765798
 21
2377.850085738687
 31
0.0
  0
LINE
  5
F25
330
EBE
100
AcDbEntity
  8
P-6B6E
  6
Continuous
 62
     2
370
    -2
100
AcDbLine
 10
-433.5780932750798
 20
2377.850085738687
 30
0.0
 11
-510.458559747383
 21
2377.850085738687
 31
0.0
  0
LINE
  5
F26
330
EBE
100
AcDbEntity
  8
P-6B6E
  6
Continuous
 62
     2
370
    -2
100
AcDbLine
 10
-398.5780932765798
 20
2377.850085738687
 30
0.0
 11
-413.5780932750797
 21
2377.850085738687
 31
0.0
  0
SOLID
  5
F27
330
EBE
100
AcDbEntity
  8
P-6B6E
  6
Continuous
 62
     2
100
AcDbTrace
 10
-378.5780932765798
 20
2381.183419072021
 30
0.0
 11
-378.5780932765798
 21
2374.516752405353
 31
0.0
 12
-398.5780932765798
 22
2377.850085738687
 32
0.0
 13
-398.5780932765798
 23
2377.850085738687
 33
0.0
  0
SOLID
  5
F28
330
EBE
100
AcDbEntity
  8
P-6B6E
  6
Continuous
 62
     2
100
AcDbTrace
 10
-433.5780932750798
 20
2381.183419072021
 30
0.0
 11
-433.5780932750798
 21
2374.516752405353
 31
0.0
 12
-413.5780932750797
 22
2377.850085738687
 32
0.0
 13
-413.5780932750797
 23
2377.850085738687
 33
0.0
  0
MTEXT
  5
F29
330
EBE
100
AcDbEntity
  8
P-6B6E
  6
Continuous
 62
     1
100
AcDbMText
 10
-482.0183265112314
 20
2398.076033260553
 30
0.0
 40
20.0
 41
0.0
 71
     5
 72
     1
  1
\A1;1.5
  7
Stile_Quota
 73
     1
 44
1.0
1001
ACAD
1000
MTEXTBEGIN
1070
    73
1070
     1
1070
    44
1040
1.0
1070
    74
1070
     0
1000
MTEXTEND
  0
POINT
  5
F2A
330
EBE
100
AcDbEntity
  8
Defpoints
  6
Continuous
 62
     0
100
AcDbPoint
 10
-398.5780932765798
 20
2197.112761373365
 30
0.0
  0
POINT
  5
F2B
330
EBE
100
AcDbEntity
  8
Defpoints
  6
Continuous
 62
     0
100
AcDbPoint
 10
-413.5780932750797
 20
2197.112761373365
 30
0.0
  0
POINT
  5
F2C
330
EBE
100
AcDbEntity
  8
Defpoints
  6
Continuous
 62
     0
100
AcDbPoint
 10
-413.5780932750797
 20
2377.850085738687
 30
0.0
  0
ENDBLK
  5
EC0
330
EBE
100
AcDbEntity
  8
0
 62
     3
100
AcDbBlockEnd
  0
BLOCK
  5
F93
330
F92
100
AcDbEntity
  8
0
 62
     3
100
AcDbBlockBegin
  2
*D31
 70
     1
 10
0.0
 20
0.0
 30
0.0
  3
*D31
  1

  0
LINE
  5
FF7
330
F92
100
AcDbEntity
  8
P-6B6E
  6
Continuous
 62
     2
370
    -2
100
AcDbLine
 10
-431.5307645459786
 20
2218.236699581957
 30
0.0
 11
-503.8187115286188
 21
2232.381843999763
 31
0.0
  0
LINE
  5
FF8
330
F92
100
AcDbEntity
  8
P-6B6E
  6
Continuous
 62
     2
370
    -2
100
AcDbLine
 10
-323.5780932840793
 20
2197.112761373364
 30
0.0
 11
-411.9030061331184
 21
2214.395983543717
 31
0.0
  0
SOLID
  5
FF9
330
F92
100
AcDbEntity
  8
P-6B6E
  6
Continuous
 62
     2
100
AcDbTrace
 10
-430.8906452062719
 20
2221.507992650767
 30
0.0
 11
-432.1708838856854
 21
2214.965406513147
 31
0.0
 12
-411.9030061331184
 22
2214.395983543717
 32
0.0
 13
-411.9030061331184
 23
2214.395983543717
 33
0.0
  0
MTEXT
  5
FFA
330
F92
100
AcDbEntity
  8
P-6B6E
  6
Continuous
 62
     1
100
AcDbMText
 10
-473.6031115140802
 20
2247.086283364682
 30
0.0
 40
20.0
 41
0.0
 71
     5
 72
     1
  1
\A1;R9
  7
Stile_Quota
 11
0.9813879206430078
 21
-0.192035801912022
 31
0.0
 73
     1
 44
1.0
1001
ACAD
1000
MTEXTBEGIN
1070
    73
1070
     1
1070
    44
1040
1.0
1070
    74
1070
     0
1000
MTEXTEND
  0
POINT
  5
FFB
330
F92
100
AcDbEntity
  8
Defpoints
  6
Continuous
 62
     0
100
AcDbPoint
 10
-411.9030061331184
 20
2214.395983543717
 30
0.0
  0
POINT
  5
FFC
330
F92
100
AcDbEntity
  8
Defpoints
  6
Continuous
 62
     0
100
AcDbPoint
 10
-323.5780932840793
 20
2197.112761373364
 30
0.0
  0
ENDBLK
  5
F94
330
F92
100
AcDbEntity
  8
0
 62
     3
100
AcDbBlockEnd
  0
BLOCK
  5
FA3
330
FA2
100
AcDbEntity
  8
0
 62
     3
100
AcDbBlockBegin
  2
*D32
 70
     1
 10
0.0
 20
0.0
 30
0.0
  3
*D32
  1

  0
LINE
  5
1545
330
FA2
100
AcDbEntity
  8
P-6B6E
  6
Continuous
 62
     2
370
    -2
100
AcDbLine
 10
-404.8224204717046
 20
2246.350544613528
 30
0.0
 11
-562.8843759287694
 21
2342.143328808025
 31
0.0
  0
LINE
  5
1546
330
FA2
100
AcDbEntity
  8
P-6B6E
  6
Continuous
 62
     2
370
    -2
100
AcDbLine
 10
-323.5780932840798
 20
2197.112761373364
 30
0.0
 11
-387.7183515887491
 21
2235.984695509517
 31
0.0
  0
SOLID
  5
1547
330
FA2
100
AcDbEntity
  8
P-6B6E
  6
Continuous
 62
     2
100
AcDbTrace
 10
-403.0947789543695
 20
2249.201222760687
 30
0.0
 11
-406.5500619890396
 21
2243.499866466368
 31
0.0
 12
-387.7183515887491
 22
2235.984695509517
 32
0.0
 13
-387.7183515887491
 23
2235.984695509517
 33
0.0
  0
MTEXT
  5
1548
330
FA2
100
AcDbEntity
  8
P-6B6E
  6
Continuous
 62
     1
100
AcDbMText
 10
-518.8349312217406
 20
2339.183026150795
 30
0.0
 40
20.0
 41
0.0
 71
     5
 72
     1
  1
\A1;R7.5
  7
Stile_Quota
 11
0.8552034441477712
 21
-0.5182924552005267
 31
0.0
 73
     1
 44
1.0
1001
ACAD
1000
MTEXTBEGIN
1070
    73
1070
     1
1070
    44
1040
1.0
1070
    74
1070
     0
1000
MTEXTEND
  0
POINT
  5
1549
330
FA2
100
AcDbEntity
  8
Defpoints
  6
Continuous
 62
     0
100
AcDbPoint
 10
-387.7183515887491
 20
2235.984695509517
 30
0.0
  0
POINT
  5
154A
330
FA2
100
AcDbEntity
  8
Defpoints
  6
Continuous
 62
     0
100
AcDbPoint
 10
-323.5780932840798
 20
2197.112761373364
 30
0.0
  0
ENDBLK
  5
FA4
330
FA2
100
AcDbEntity
  8
0
 62
     3
100
AcDbBlockEnd
  0
BLOCK
  5
FB5
330
FB4
100
AcDbEntity
  8
0
 62
     3
100
AcDbBlockBegin
  2
*D33
 70
     1
 10
0.0
 20
0.0
 30
0.0
  3
*D33
  1

  0
LINE
  5
153F
330
FB4
100
AcDbEntity
  8
P-6B6E
  6
Continuous
 62
     2
370
    -2
100
AcDbLine
 10
-190.0230380220446
 20
2210.670262211347
 30
0.0
 11
-119.0742392190645
 21
2298.680559327259
 31
0.0
  0
LINE
  5
1540
330
FB4
100
AcDbEntity
  8
P-6B6E
  6
Continuous
 62
     2
370
    -2
100
AcDbLine
 10
-293.5780932870804
 20
2082.212679623665
 30
0.0
 11
-202.5751659340609
 21
2195.099646138745
 31
0.0
  0
SOLID
  5
1541
330
FB4
100
AcDbEntity
  8
P-6B6E
  6
Continuous
 62
     2
100
AcDbTrace
 10
-192.6181407008116
 20
2212.762283530016
 30
0.0
 11
-187.4279353432778
 21
2208.578240892677
 31
0.0
 12
-202.5751659340609
 22
2195.099646138745
 32
0.0
 13
-202.5751659340609
 23
2195.099646138745
 33
0.0
  0
MTEXT
  5
1542
330
FB4
100
AcDbEntity
  8
P-6B6E
  6
Continuous
 62
     1
100
AcDbMText
 10
-164.0190978429248
 20
2275.154652827414
 30
0.0
 40
20.0
 41
0.0
 71
     5
 72
     1
  1
\A1;R14.5
  7
Stile_Quota
 11
0.6276063956008191
 21
0.7785308036301122
 31
0.0
 73
     1
 44
1.0
1001
ACAD
1000
MTEXTBEGIN
1070
    73
1070
     1
1070
    44
1040
1.0
1070
    74
1070
     0
1000
MTEXTEND
  0
POINT
  5
1543
330
FB4
100
AcDbEntity
  8
Defpoints
  6
Continuous
 62
     0
100
AcDbPoint
 10
-202.5751659340609
 20
2195.099646138745
 30
0.0
  0
POINT
  5
1544
330
FB4
100
AcDbEntity
  8
Defpoints
  6
Continuous
 62
     0
100
AcDbPoint
 10
-293.5780932870804
 20
2082.212679623665
 30
0.0
  0
ENDBLK
  5
FB6
330
FB4
100
AcDbEntity
  8
0
 62
     3
100
AcDbBlockEnd
  0
BLOCK
  5
FC5
330
FC4
100
AcDbEntity
  8
0
 62
     3
100
AcDbBlockBegin
  2
*D34
 70
     1
 10
0.0
 20
0.0
 30
0.0
  3
*D34
  1

  0
LINE
  5
1027
330
FC4
100
AcDbEntity
  8
P-6B6E
  6
Continuous
 62
     2
370
    -2
100
AcDbLine
 10
-211.9499281890215
 20
2242.810478429653
 30
0.0
 11
-168.518241025886
 21
2354.862705792378
 31
0.0
  0
LINE
  5
1028
330
FC4
100
AcDbEntity
  8
P-6B6E
  6
Continuous
 62
     2
370
    -2
100
AcDbLine
 10
-293.5780932870805
 20
2032.21267962866
 30
0.0
 11
-219.1780061594025
 21
2224.162291149006
 31
0.0
  0
SOLID
  5
1029
330
FC4
100
AcDbEntity
  8
P-6B6E
  6
Continuous
 62
     2
100
AcDbTrace
 10
-215.0579594024626
 20
2244.015158091383
 30
0.0
 11
-208.8418969755802
 21
2241.605798767923
 31
0.0
 12
-219.1780061594025
 22
2224.162291149006
 32
0.0
 13
-219.1780061594025
 23
2224.162291149006
 33
0.0
  0
MTEXT
  5
102A
330
FC4
100
AcDbEntity
  8
P-6B6E
  6
Continuous
 62
     1
100
AcDbMText
 10
-204.2066192534957
 20
2318.752883573628
 30
0.0
 40
20.0
 41
0.0
 71
     5
 72
     1
  1
\A1;R20.6
  7
Stile_Quota
 11
0.3614038985190506
 21
0.932409364032361
 31
0.0
 73
     1
 44
1.0
1001
ACAD
1000
MTEXTBEGIN
1070
    73
1070
     1
1070
    44
1040
1.0
1070
    74
1070
     0
1000
MTEXTEND
  0
POINT
  5
102B
330
FC4
100
AcDbEntity
  8
Defpoints
  6
Continuous
 62
     0
100
AcDbPoint
 10
-219.1780061594025
 20
2224.162291149006
 30
0.0
  0
POINT
  5
102C
330
FC4
100
AcDbEntity
  8
Defpoints
  6
Continuous
 62
     0
100
AcDbPoint
 10
-293.5780932870805
 20
2032.21267962866
 30
0.0
  0
ENDBLK
  5
FC6
330
FC4
100
AcDbEntity
  8
0
 62
     3
100
AcDbBlockEnd
  0
BLOCK
  5
102F
330
102E
100
AcDbEntity
  8
0
 62
     3
100
AcDbBlockBegin
  2
*D35
 70
     1
 10
0.0
 20
0.0
 30
0.0
  3
*D35
  1

  0
LINE
  5
103B
330
102E
100
AcDbEntity
  8
P-6B6E
  6
Continuous
 62
     2
370
    -2
100
AcDbLine
 10
-293.5780932870805
 20
2022.21267962866
 30
0.0
 11
-293.5780932870805
 21
1905.430735542693
 31
0.0
  0
LINE
  5
103C
330
102E
100
AcDbEntity
  8
P-6B6E
  6
Continuous
 62
     2
370
    -2
100
AcDbLine
 10
-413.5780932750804
 20
1911.532369788367
 30
0.0
 11
-413.5780932750804
 21
1905.430735542693
 31
0.0
  0
LINE
  5
103D
330
102E
100
AcDbEntity
  8
P-6B6E
  6
Continuous
 62
     2
370
    -2
100
AcDbLine
 10
-313.5780932870805
 20
1920.430735542694
 30
0.0
 11
-393.5780932750804
 21
1920.430735542694
 31
0.0
  0
SOLID
  5
103E
330
102E
100
AcDbEntity
  8
P-6B6E
  6
Continuous
 62
     2
100
AcDbTrace
 10
-313.5780932870805
 20
1923.764068876027
 30
0.0
 11
-313.5780932870805
 21
1917.09740220936
 31
0.0
 12
-293.5780932870805
 22
1920.430735542694
 32
0.0
 13
-293.5780932870805
 23
1920.430735542694
 33
0.0
  0
SOLID
  5
103F
330
102E
100
AcDbEntity
  8
P-6B6E
  6
Continuous
 62
     2
100
AcDbTrace
 10
-393.5780932750804
 20
1923.764068876027
 30
0.0
 11
-393.5780932750804
 21
1917.09740220936
 31
0.0
 12
-413.5780932750804
 22
1920.430735542694
 32
0.0
 13
-413.5780932750804
 23
1920.430735542694
 33
0.0
  0
MTEXT
  5
1040
330
102E
100
AcDbEntity
  8
P-6B6E
  6
Continuous
 62
     1
100
AcDbMText
 10
-353.5780932810804
 20
1940.430735542694
 30
0.0
 40
20.0
 41
0.0
 71
     5
 72
     1
  1
\A1;12
  7
Stile_Quota
 73
     1
 44
1.0
1001
ACAD
1000
MTEXTBEGIN
1070
    73
1070
     1
1070
    44
1040
1.0
1070
    74
1070
     0
1000
MTEXTEND
  0
POINT
  5
1041
330
102E
100
AcDbEntity
  8
Defpoints
  6
Continuous
 62
     0
100
AcDbPoint
 10
-293.5780932870805
 20
2032.21267962866
 30
0.0
  0
POINT
  5
1042
330
102E
100
AcDbEntity
  8
Defpoints
  6
Continuous
 62
     0
100
AcDbPoint
 10
-413.5780932750804
 20
1921.532369788367
 30
0.0
  0
POINT
  5
1043
330
102E
100
AcDbEntity
  8
Defpoints
  6
Continuous
 62
     0
100
AcDbPoint
 10
-413.5780932750804
 20
1920.430735542694
 30
0.0
  0
ENDBLK
  5
1030
330
102E
100
AcDbEntity
  8
0
 62
     3
100
AcDbBlockEnd
  0
BLOCK
  5
1047
330
1046
100
AcDbEntity
  8
0
 62
     3
100
AcDbBlockBegin
  2
*D36
 70
     1
 10
0.0
 20
0.0
 30
0.0
  3
*D36
  1

  0
LINE
  5
111F
330
1046
100
AcDbEntity
  8
P-6B6E
  6
Continuous
 62
     2
370
    -2
100
AcDbLine
 10
-418.5780932755806
 20
2132.112761379866
 30
0.0
 11
-593.3059351727388
 21
2132.112761379866
 31
0.0
  0
LINE
  5
1120
330
1046
100
AcDbEntity
  8
P-6B6E
  6
Continuous
 62
     2
370
    -2
100
AcDbLine
 10
-303.5780932870798
 20
2082.212679623665
 30
0.0
 11
-593.3059351727388
 21
2082.212679623665
 31
0.0
  0
LINE
  5
1121
330
1046
100
AcDbEntity
  8
P-6B6E
  6
Continuous
 62
     2
370
    -2
100
AcDbLine
 10
-578.3059351727388
 20
2152.112761379866
 30
0.0
 11
-578.3059351727388
 21
2172.112761379866
 31
0.0
  0
LINE
  5
1122
330
1046
100
AcDbEntity
  8
P-6B6E
  6
Continuous
 62
     2
370
    -2
100
AcDbLine
 10
-578.3059351727388
 20
2062.212679623665
 30
0.0
 11
-578.3059351727388
 21
2042.212679623665
 31
0.0
  0
LINE
  5
1123
330
1046
100
AcDbEntity
  8
P-6B6E
  6
Continuous
 62
     2
370
    -2
100
AcDbLine
 10
-578.3059351727388
 20
2132.112761379866
 30
0.0
 11
-578.3059351727388
 21
2082.212679623665
 31
0.0
  0
SOLID
  5
1124
330
1046
100
AcDbEntity
  8
P-6B6E
  6
Continuous
 62
     2
100
AcDbTrace
 10
-581.6392685060722
 20
2152.112761379866
 30
0.0
 11
-574.9726018394055
 21
2152.112761379866
 31
0.0
 12
-578.3059351727388
 22
2132.112761379866
 32
0.0
 13
-578.3059351727388
 23
2132.112761379866
 33
0.0
  0
SOLID
  5
1125
330
1046
100
AcDbEntity
  8
P-6B6E
  6
Continuous
 62
     2
100
AcDbTrace
 10
-581.6392685060722
 20
2062.212679623665
 30
0.0
 11
-574.9726018394055
 21
2062.212679623665
 31
0.0
 12
-578.3059351727388
 22
2082.212679623665
 32
0.0
 13
-578.3059351727388
 23
2082.212679623665
 33
0.0
  0
MTEXT
  5
1126
330
1046
100
AcDbEntity
  8
P-6B6E
  6
Continuous
 62
     1
100
AcDbMText
 10
-598.531882694605
 20
2107.162720501766
 30
0.0
 40
20.0
 41
0.0
 71
     5
 72
     1
  1
\A1;5
  7
Stile_Quota
 11
0.0000000000000001
 21
1.0
 31
0.0
 73
     1
 44
1.0
1001
ACAD
1000
MTEXTBEGIN
1070
    73
1070
     1
1070
    44
1040
1.0
1070
    74
1070
     0
1000
MTEXTEND
  0
POINT
  5
1127
330
1046
100
AcDbEntity
  8
Defpoints
  6
Continuous
 62
     0
100
AcDbPoint
 10
-408.5780932755806
 20
2132.112761379866
 30
0.0
  0
POINT
  5
1128
330
1046
100
AcDbEntity
  8
Defpoints
  6
Continuous
 62
     0
100
AcDbPoint
 10
-293.5780932870798
 20
2082.212679623665
 30
0.0
  0
POINT
  5
1129
330
1046
100
AcDbEntity
  8
Defpoints
  6
Continuous
 62
     0
100
AcDbPoint
 10
-578.3059351727388
 20
2082.212679623665
 30
0.0
  0
ENDBLK
  5
1048
330
1046
100
AcDbEntity
  8
0
 62
     3
100
AcDbBlockEnd
  0
BLOCK
  5
1063
330
1062
100
AcDbEntity
  8
0
 62
     3
100
AcDbBlockBegin
  2
*D37
 70
     1
 10
0.0
 20
0.0
 30
0.0
  3
*D37
  1

  0
LINE
  5
112A
330
1062
100
AcDbEntity
  8
P-6B6E
  6
Continuous
 62
     2
370
    -2
100
AcDbLine
 10
-303.5780932870798
 20
2082.212679623665
 30
0.0
 11
-593.3059351727388
 21
2082.212679623665
 31
0.0
  0
LINE
  5
112B
330
1062
100
AcDbEntity
  8
P-6B6E
  6
Continuous
 62
     2
370
    -2
100
AcDbLine
 10
-303.5780932870805
 20
2032.21267962866
 30
0.0
 11
-593.3059351727388
 21
2032.21267962866
 31
0.0
  0
LINE
  5
112C
330
1062
100
AcDbEntity
  8
P-6B6E
  6
Continuous
 62
     2
370
    -2
100
AcDbLine
 10
-578.3059351727388
 20
2102.212679623665
 30
0.0
 11
-578.3059351727388
 21
2122.212679623665
 31
0.0
  0
LINE
  5
112D
330
1062
100
AcDbEntity
  8
P-6B6E
  6
Continuous
 62
     2
370
    -2
100
AcDbLine
 10
-578.3059351727388
 20
2012.21267962866
 30
0.0
 11
-578.3059351727388
 21
1992.21267962866
 31
0.0
  0
LINE
  5
112E
330
1062
100
AcDbEntity
  8
P-6B6E
  6
Continuous
 62
     2
370
    -2
100
AcDbLine
 10
-578.3059351727388
 20
2082.212679623665
 30
0.0
 11
-578.3059351727388
 21
2032.21267962866
 31
0.0
  0
SOLID
  5
112F
330
1062
100
AcDbEntity
  8
P-6B6E
  6
Continuous
 62
     2
100
AcDbTrace
 10
-581.6392685060722
 20
2102.212679623665
 30
0.0
 11
-574.9726018394055
 21
2102.212679623665
 31
0.0
 12
-578.3059351727388
 22
2082.212679623665
 32
0.0
 13
-578.3059351727388
 23
2082.212679623665
 33
0.0
  0
SOLID
  5
1130
330
1062
100
AcDbEntity
  8
P-6B6E
  6
Continuous
 62
     2
100
AcDbTrace
 10
-581.6392685060722
 20
2012.21267962866
 30
0.0
 11
-574.9726018394055
 21
2012.21267962866
 31
0.0
 12
-578.3059351727388
 22
2032.21267962866
 32
0.0
 13
-578.3059351727388
 23
2032.21267962866
 33
0.0
  0
MTEXT
  5
1131
330
1062
100
AcDbEntity
  8
P-6B6E
  6
Continuous
 62
     1
100
AcDbMText
 10
-598.531882694605
 20
2057.212679626163
 30
0.0
 40
20.0
 41
0.0
 71
     5
 72
     1
  1
\A1;5
  7
Stile_Quota
 11
0.0000000000000001
 21
1.0
 31
0.0
 73
     1
 44
1.0
1001
ACAD
1000
MTEXTBEGIN
1070
    73
1070
     1
1070
    44
1040
1.0
1070
    74
1070
     0
1000
MTEXTEND
  0
POINT
  5
1132
330
1062
100
AcDbEntity
  8
Defpoints
  6
Continuous
 62
     0
100
AcDbPoint
 10
-293.5780932870798
 20
2082.212679623665
 30
0.0
  0
POINT
  5
1133
330
1062
100
AcDbEntity
  8
Defpoints
  6
Continuous
 62
     0
100
AcDbPoint
 10
-293.5780932870805
 20
2032.21267962866
 30
0.0
  0
POINT
  5
1134
330
1062
100
AcDbEntity
  8
Defpoints
  6
Continuous
 62
     0
100
AcDbPoint
 10
-578.3059351727388
 20
2032.21267962866
 30
0.0
  0
ENDBLK
  5
1064
330
1062
100
AcDbEntity
  8
0
 62
     3
100
AcDbBlockEnd
  0
BLOCK
  5
10CA
330
10C9
100
AcDbEntity
  8
0
 62
     3
100
AcDbBlockBegin
  2
*D38
 70
     1
 10
0.0
 20
0.0
 30
0.0
  3
*D38
  1

  0
LINE
  5
10D8
330
10C9
100
AcDbEntity
  8
P-6B6E
  6
Continuous
 62
     2
370
    -2
100
AcDbLine
 10
-413.5780932750804
 20
2157.112761377865
 30
0.0
 11
-413.5780932750804
 21
2190.198847715606
 31
0.0
  0
LINE
  5
10D9
330
10C9
100
AcDbEntity
  8
P-6B6E
  6
Continuous
 62
     2
370
    -2
100
AcDbLine
 10
-353.5780932810794
 20
2152.112761378365
 30
0.0
 11
-353.5780932810794
 21
2190.198847715606
 31
0.0
  0
LINE
  5
10DA
330
10C9
100
AcDbEntity
  8
P-6B6E
  6
Continuous
 62
     2
370
    -2
100
AcDbLine
 10
-433.5780932750804
 20
2175.198847715606
 30
0.0
 11
-453.5780932750803
 21
2175.198847715606
 31
0.0
  0
LINE
  5
10DB
330
10C9
100
AcDbEntity
  8
P-6B6E
  6
Continuous
 62
     2
370
    -2
100
AcDbLine
 10
-333.5780932810794
 20
2175.198847715606
 30
0.0
 11
-280.8958775376392
 21
2175.198847715606
 31
0.0
  0
LINE
  5
10DC
330
10C9
100
AcDbEntity
  8
P-6B6E
  6
Continuous
 62
     2
370
    -2
100
AcDbLine
 10
-413.5780932750804
 20
2175.198847715606
 30
0.0
 11
-353.5780932810794
 21
2175.198847715606
 31
0.0
  0
SOLID
  5
10DD
330
10C9
100
AcDbEntity
  8
P-6B6E
  6
Continuous
 62
     2
100
AcDbTrace
 10
-433.5780932750804
 20
2178.532181048939
 30
0.0
 11
-433.5780932750804
 21
2171.865514382272
 31
0.0
 12
-413.5780932750804
 22
2175.198847715606
 32
0.0
 13
-413.5780932750804
 23
2175.198847715606
 33
0.0
  0
SOLID
  5
10DE
330
10C9
100
AcDbEntity
  8
P-6B6E
  6
Continuous
 62
     2
100
AcDbTrace
 10
-333.5780932810794
 20
2178.532181048939
 30
0.0
 11
-333.5780932810794
 21
2171.865514382272
 31
0.0
 12
-353.5780932810794
 22
2175.198847715606
 32
0.0
 13
-353.5780932810794
 23
2175.198847715606
 33
0.0
  0
MTEXT
  5
10DF
330
10C9
100
AcDbEntity
  8
P-6B6E
  6
Continuous
 62
     1
100
AcDbMText
 10
-297.2369854093593
 20
2195.424795237471
 30
0.0
 40
20.0
 41
0.0
 71
     5
 72
     1
  1
\A1;6
  7
Stile_Quota
 73
     1
 44
1.0
1001
ACAD
1000
MTEXTBEGIN
1070
    73
1070
     1
1070
    44
1040
1.0
1070
    74
1070
     0
1000
MTEXTEND
  0
POINT
  5
10E0
330
10C9
100
AcDbEntity
  8
Defpoints
  6
Continuous
 62
     0
100
AcDbPoint
 10
-413.5780932750804
 20
2147.112761377865
 30
0.0
  0
POINT
  5
10E1
330
10C9
100
AcDbEntity
  8
Defpoints
  6
Continuous
 62
     0
100
AcDbPoint
 10
-353.5780932810794
 20
2142.112761378366
 30
0.0
  0
POINT
  5
10E2
330
10C9
100
AcDbEntity
  8
Defpoints
  6
Continuous
 62
     0
100
AcDbPoint
 10
-353.5780932810794
 20
2175.198847715606
 30
0.0
  0
ENDBLK
  5
10CB
330
10C9
100
AcDbEntity
  8
0
 62
     3
100
AcDbBlockEnd
  0
BLOCK
  5
10E6
330
10E5
100
AcDbEntity
  8
0
 62
     3
100
AcDbBlockBegin
  2
*D39
 70
     1
 10
0.0
 20
0.0
 30
0.0
  3
*D39
  1

  0
LINE
  5
10F2
330
10E5
100
AcDbEntity
  8
P-6B6E
  6
Continuous
 62
     2
370
    -2
100
AcDbLine
 10
-318.5780932845801
 20
2117.112761380365
 30
0.0
 11
-318.5780932845801
 21
1961.139058234109
 31
0.0
  0
LINE
  5
10F3
330
10E5
100
AcDbEntity
  8
P-6B6E
  6
Continuous
 62
     2
370
    -2
100
AcDbLine
 10
-413.5780932750804
 20
2021.236186002111
 30
0.0
 11
-413.5780932750804
 21
1961.139058234109
 31
0.0
  0
LINE
  5
10F4
330
10E5
100
AcDbEntity
  8
P-6B6E
  6
Continuous
 62
     2
370
    -2
100
AcDbLine
 10
-338.5780932845801
 20
1976.139058234109
 30
0.0
 11
-393.5780932750804
 21
1976.139058234109
 31
0.0
  0
SOLID
  5
10F5
330
10E5
100
AcDbEntity
  8
P-6B6E
  6
Continuous
 62
     2
100
AcDbTrace
 10
-338.5780932845801
 20
1979.472391567442
 30
0.0
 11
-338.5780932845801
 21
1972.805724900776
 31
0.0
 12
-318.5780932845801
 22
1976.139058234109
 32
0.0
 13
-318.5780932845801
 23
1976.139058234109
 33
0.0
  0
SOLID
  5
10F6
330
10E5
100
AcDbEntity
  8
P-6B6E
  6
Continuous
 62
     2
100
AcDbTrace
 10
-393.5780932750804
 20
1979.472391567442
 30
0.0
 11
-393.5780932750804
 21
1972.805724900776
 31
0.0
 12
-413.5780932750804
 22
1976.139058234109
 32
0.0
 13
-413.5780932750804
 23
1976.139058234109
 33
0.0
  0
MTEXT
  5
10F7
330
10E5
100
AcDbEntity
  8
P-6B6E
  6
Continuous
 62
     1
100
AcDbMText
 10
-366.0780932798302
 20
1996.372294385713
 30
0.0
 40
20.0
 41
0.0
 71
     5
 72
     1
  1
\A1;9.5
  7
Stile_Quota
 73
     1
 44
1.0
1001
ACAD
1000
MTEXTBEGIN
1070
    73
1070
     1
1070
    44
1040
1.0
1070
    74
1070
     0
1000
MTEXTEND
  0
POINT
  5
10F8
330
10E5
100
AcDbEntity
  8
Defpoints
  6
Continuous
 62
     0
100
AcDbPoint
 10
-318.5780932845801
 20
2127.112761380365
 30
0.0
  0
POINT
  5
10F9
330
10E5
100
AcDbEntity
  8
Defpoints
  6
Continuous
 62
     0
100
AcDbPoint
 10
-413.5780932750804
 20
2031.236186002111
 30
0.0
  0
POINT
  5
10FA
330
10E5
100
AcDbEntity
  8
Defpoints
  6
Continuous
 62
     0
100
AcDbPoint
 10
-413.5780932750804
 20
1976.139058234109
 30
0.0
  0
ENDBLK
  5
10E7
330
10E5
100
AcDbEntity
  8
0
 62
     3
100
AcDbBlockEnd
  0
BLOCK
  5
1532
330
1531
100
AcDbEntity
  8
0
 62
     7
100
AcDbBlockBegin
  2
*D42
 70
     1
 10
0.0
 20
0.0
 30
0.0
  3
*D42
  1

  0
MTEXT
  5
1534
330
1531
100
AcDbEntity
  8
P-5837
  6
Continuous
 62
    30
100
AcDbMText
 10
1882.417214265208
 20
2063.219258848948
 30
0.0
 40
20.0
 41
0.0
 71
     5
 72
     1
  1
\A1;1000
  7
Stile_Quota_FISSO
 73
     1
 44
1.0
1001
ACAD
1000
MTEXTBEGIN
1070
    73
1070
     1
1070
    44
1040
1.0
1070
    74
1070
     0
1000
MTEXTEND
  0
POINT
  5
1535
330
1531
100
AcDbEntity
  8
Defpoints
  6
Continuous
 62
     0
100
AcDbPoint
 10
1382.417214265208
 20
2048.39553451124
 30
0.0
  0
POINT
  5
1536
330
1531
100
AcDbEntity
  8
Defpoints
  6
Continuous
 62
     0
100
AcDbPoint
 10
2382.417214265208
 20
2048.39553451124
 30
0.0
  0
POINT
  5
1537
330
1531
100
AcDbEntity
  8
Defpoints
  6
Continuous
 62
     0
100
AcDbPoint
 10
2382.417214265208
 20
2063.219258848948
 30
0.0
  0
ENDBLK
  5
1533
330
1531
100
AcDbEntity
  8
0
 62
     7
100
AcDbBlockEnd
  0
BLOCK
  5
1539
330
1538
100
AcDbEntity
  8
0
 62
     7
100
AcDbBlockBegin
  2
*D43
 70
     1
 10
0.0
 20
0.0
 30
0.0
  3
*D43
  1

  0
MTEXT
  5
153B
330
1538
100
AcDbEntity
  8
P-5837
  6
Continuous
 62
    30
100
AcDbMText
 10
1882.417214265208
 20
2212.253146802938
 30
0.0
 40
20.0
 41
0.0
 71
     5
 72
     1
  1
\A1;1000
  7
Stile_Quota_FISSO
 73
     1
 44
1.0
1001
ACAD
1000
MTEXTBEGIN
1070
    73
1070
     1
1070
    44
1040
1.0
1070
    74
1070
     0
1000
MTEXTEND
  0
POINT
  5
153C
330
1538
100
AcDbEntity
  8
Defpoints
  6
Continuous
 62
     0
100
AcDbPoint
 10
1382.417214265208
 20
2197.42942246523
 30
0.0
  0
POINT
  5
153D
330
1538
100
AcDbEntity
  8
Defpoints
  6
Continuous
 62
     0
100
AcDbPoint
 10
2382.417214265208
 20
2197.42942246523
 30
0.0
  0
POINT
  5
153E
330
1538
100
AcDbEntity
  8
Defpoints
  6
Continuous
 62
     0
100
AcDbPoint
 10
2382.417214265208
 20
2212.253146802938
 30
0.0
  0
ENDBLK
  5
153A
330
1538
100
AcDbEntity
  8
0
 62
     7
100
AcDbBlockEnd
  0
BLOCK
  5
1579
330
1578
100
AcDbEntity
  8
0
 62
     7
100
AcDbBlockBegin
  2
*D44
 70
     1
 10
0.0
 20
0.0
 30
0.0
  3
*D44
  1

  0
LINE
  5
1585
330
1578
100
AcDbEntity
  8
P-0000
  6
Continuous
 62
     2
370
    -2
100
AcDbLine
 10
-393.5780932780799
 20
2262.112761366866
 30
0.0
 11
-1014.866336746656
 21
2262.112761366866
 31
0.0
  0
LINE
  5
1586
330
1578
100
AcDbEntity
  8
P-0000
  6
Continuous
 62
     2
370
    -2
100
AcDbLine
 10
-393.5780932780799
 20
1832.112761409867
 30
0.0
 11
-1014.866336746656
 21
1832.112761409867
 31
0.0
  0
LINE
  5
1587
330
1578
100
AcDbEntity
  8
P-0000
  6
Continuous
 62
     2
370
    -2
100
AcDbLine
 10
-999.866336746656
 20
2242.112761366866
 30
0.0
 11
-999.866336746656
 21
1852.112761409867
 31
0.0
  0
SOLID
  5
1588
330
1578
100
AcDbEntity
  8
P-0000
  6
Continuous
 62
     2
100
AcDbTrace
 10
-1003.199670079989
 20
2242.112761366866
 30
0.0
 11
-996.5330034133227
 21
2242.112761366866
 31
0.0
 12
-999.866336746656
 22
2262.112761366866
 32
0.0
 13
-999.866336746656
 23
2262.112761366866
 33
0.0
  0
SOLID
  5
1589
330
1578
100
AcDbEntity
  8
P-0000
  6
Continuous
 62
     2
100
AcDbTrace
 10
-1003.199670079989
 20
1852.112761409867
 30
0.0
 11
-996.5330034133227
 21
1852.112761409867
 31
0.0
 12
-999.866336746656
 22
1832.112761409867
 32
0.0
 13
-999.866336746656
 23
1832.112761409867
 33
0.0
  0
MTEXT
  5
158A
330
1578
100
AcDbEntity
  8
P-0000
  6
Continuous
 62
     1
100
AcDbMText
 10
-1020.092284268522
 20
2047.112761388366
 30
0.0
 40
20.0
 41
0.0
 71
     5
 72
     1
  1
\A1;430
  7
Stile_Quota
 11
0.0000000000000001
 21
1.0
 31
0.0
 73
     1
 44
1.0
1001
ACAD
1000
MTEXTBEGIN
1070
    73
1070
     1
1070
    44
1040
1.0
1070
    74
1070
     0
1000
MTEXTEND
  0
POINT
  5
158B
330
1578
100
AcDbEntity
  8
Defpoints
  6
Continuous
 62
     0
100
AcDbPoint
 10
-383.5780932780799
 20
2262.112761366866
 30
0.0
  0
POINT
  5
158C
330
1578
100
AcDbEntity
  8
Defpoints
  6
Continuous
 62
     0
100
AcDbPoint
 10
-383.57809327808
 20
1832.112761409867
 30
0.0
  0
POINT
  5
158D
330
1578
100
AcDbEntity
  8
Defpoints
  6
Continuous
 62
     0
100
AcDbPoint
 10
-999.866336746656
 20
1832.112761409867
 30
0.0
  0
ENDBLK
  5
157A
330
1578
100
AcDbEntity
  8
0
 62
     7
100
AcDbBlockEnd
  0
ENDSEC
  0
SECTION
  2
ENTITIES
  0
LINE
  5
A8B
330
2
100
AcDbEntity
  8
P-6B6E
  6
Continuous
 62
   144
100
AcDbLine
 10
14.39897948412644
 20
37.4999999962497
 30
0.0
 11
14.41933292870416
 21
37.4999999962497
 31
0.0
1001
OrigLayer
1000
P-0000
1001
TOP
1070
     7
  0
ARC
  5
A8D
330
2
100
AcDbEntity
  8
P-6B6E
  6
Continuous
 62
   144
100
AcDbCircle
 10
22.3786571570372
 20
27.99999999719967
 30
0.0
 40
0.49999999995
100
AcDbArc
 50
270.0
 51
23.08793647698324
1001
OrigLayer
1000
P-0000
1001
TOP
1070
     7
  0
ARC
  5
A8E
330
2
100
AcDbEntity
  8
P-6B6E
  6
Continuous
 62
   144
100
AcDbCircle
 10
3.999999999600007
 20
27.99999999719967
 30
0.0
 40
0.49999999995
100
AcDbArc
 50
180.0
 51
270.0
1001
OrigLayer
1000
P-0000
1001
TOP
1070
     7
  0
ARC
  5
A8F
330
2
100
AcDbEntity
  8
P-6B6E
  6
Continuous
 62
   144
100
AcDbCircle
 10
2.999999999699952
 20
28.49999999709962
 30
0.0
 40
0.49999999995
100
AcDbArc
 50
0.0
 51
90.0
1001
OrigLayer
1000
P-0000
1001
TOP
1070
     7
  0
LINE
  5
A90
330
2
100
AcDbEntity
  8
P-6B6E
  6
Continuous
 62
   144
100
AcDbLine
 10
7.495428625146274
 20
27.49999999724969
 30
0.0
 11
22.3786571570372
 21
27.49999999724969
 31
0.0
1001
OrigLayer
1000
P-0000
1001
TOP
1070
     7
  0
LINE
  5
A91
330
2
100
AcDbEntity
  8
P-6B6E
  6
Continuous
 62
   144
100
AcDbLine
 10
3.499999999650029
 20
27.99999999719967
 30
0.0
 11
3.499999999650029
 21
28.49999999709962
 31
0.0
1001
OrigLayer
1000
P-0000
1001
TOP
1070
     7
  0
LINE
  5
A92
330
2
100
AcDbEntity
  8
P-6B6E
  6
Continuous
 62
   144
100
AcDbLine
 10
-0.4999999999499778
 20
28.9999999970496
 30
0.0
 11
2.999999999699952
 21
28.9999999970496
 31
0.0
1001
OrigLayer
1000
P-0000
1001
TOP
1070
     7
  0
LINE
  5
A93
330
2
100
AcDbEntity
  8
P-6B6E
  6
Continuous
 62
   144
100
AcDbLine
 10
3.999999999600007
 20
27.49999999724969
 30
0.0
 11
6.498849950525894
 21
27.49999999724969
 31
0.0
1001
OrigLayer
1000
P-0000
1001
TOP
1070
     7
  0
ARC
  5
A94
330
2
100
AcDbEntity
  8
P-6B6E
  6
Continuous
 62
   144
100
AcDbCircle
 10
9.499999999049947
 20
22.50999182162968
 30
0.0
 40
14.49999999855
100
AcDbArc
 50
23.08793647698324
 51
68.66402386407132
1001
OrigLayer
1000
P-0000
1001
TOP
1070
     7
  0
ARC
  5
A95
330
2
100
AcDbEntity
  8
P-6B6E
  6
Continuous
 62
   144
100
AcDbCircle
 10
9.499999999049947
 20
17.50999182212945
 30
0.0
 40
20.58640967420414
100
AcDbArc
 50
29.03029457920156
 51
76.17482031759216
1001
OrigLayer
1000
P-0000
1001
TOP
1070
     7
  0
LINE
  5
A96
330
2
100
AcDbEntity
  8
P-6B6E
  6
Continuous
 62
   144
100
AcDbLine
 10
14.79150262064995
 20
35.99999999639976
 30
0.0
 11
14.49999999854999
 21
35.99999999639976
 31
0.0
1001
OrigLayer
1000
P-0000
1001
TOP
1070
     7
  0
ARC
  5
A97
330
2
100
AcDbEntity
  8
P-6B6E
  6
Continuous
 62
   144
100
AcDbCircle
 10
14.49999999854999
 20
35.49999999644979
 30
0.0
 40
0.49999999995
100
AcDbArc
 50
90.0
 51
180.0
1001
OrigLayer
1000
P-0000
1001
TOP
1070
     7
  0
ARC
  5
A98
330
2
100
AcDbEntity
  8
P-6B6E
  6
Continuous
 62
   144
100
AcDbCircle
 10
11.99999999880001
 20
35.49999999644979
 30
0.0
 40
0.49999999995
100
AcDbArc
 50
0.0
 51
90.0
1001
OrigLayer
1000
P-0000
1001
TOP
1070
     7
  0
LINE
  5
A99
330
2
100
AcDbEntity
  8
P-6B6E
  6
Continuous
 62
   144
100
AcDbLine
 10
12.69999999872998
 20
32.49999999674992
 30
0.0
 11
13.79999999861994
 21
32.49999999674992
 31
0.0
1001
OrigLayer
1000
P-0000
1001
TOP
1070
     7
  0
ARC
  5
A9A
330
2
100
AcDbEntity
  8
P-6B6E
  6
Continuous
 62
   144
100
AcDbCircle
 10
12.69999999872998
 20
32.69999999672973
 30
0.0
 40
0.19999999998
100
AcDbArc
 50
180.0
 51
270.0
1001
OrigLayer
1000
P-0000
1001
TOP
1070
     7
  0
ARC
  5
A9B
330
2
100
AcDbEntity
  8
P-6B6E
  6
Continuous
 62
   144
100
AcDbCircle
 10
13.79999999861994
 20
32.69999999672973
 30
0.0
 40
0.19999999998
100
AcDbArc
 50
270.0
 51
0.0
1001
OrigLayer
1000
P-0000
1001
TOP
1070
     7
  0
LINE
  5
A9C
330
2
100
AcDbEntity
  8
P-6B6E
  6
Continuous
 62
   144
100
AcDbLine
 10
12.49999999874998
 20
35.49999999644979
 30
0.0
 11
12.49999999874998
 21
32.69999999672973
 31
0.0
1001
OrigLayer
1000
P-0000
1001
TOP
1070
     7
  0
LINE
  5
A9D
330
2
100
AcDbEntity
  8
P-6B6E
  6
Continuous
 62
   144
100
AcDbLine
 10
13.99999999860002
 20
32.69999999672973
 30
0.0
 11
13.99999999860002
 21
35.49999999644979
 31
0.0
1001
OrigLayer
1000
P-0000
1001
TOP
1070
     7
  0
ARC
  5
A9E
330
2
100
AcDbEntity
  8
P-6B6E
  6
Continuous
 62
   144
100
AcDbCircle
 10
24.99999999750999
 20
24.9999999975098
 30
0.0
 40
0.49999999995
100
AcDbArc
 50
0.0
 51
90.0
1001
OrigLayer
1000
P-0000
1001
TOP
1070
     7
  0
LINE
  5
A9F
330
2
100
AcDbEntity
  8
P-6B6E
  6
Continuous
 62
   144
100
AcDbLine
 10
25.79999999742995
 20
19.99999999800002
 30
0.0
 11
25.49999999745997
 21
19.99999999800002
 31
0.0
1001
OrigLayer
1000
P-0000
1001
TOP
1070
     7
  0
LINE
  5
AA0
330
2
100
AcDbEntity
  8
P-6B6E
  6
Continuous
 62
   144
100
AcDbLine
 10
25.49999999745997
 20
19.99999999800002
 30
0.0
 11
25.49999999745997
 21
24.9999999975098
 31
0.0
1001
OrigLayer
1000
P-0000
1001
TOP
1070
     7
  0
LINE
  5
AA1
330
2
100
AcDbEntity
  8
P-6B6E
  6
Continuous
 62
   144
100
AcDbLine
 10
25.49999999745997
 20
14.99999999849979
 30
0.0
 11
25.79999999742995
 21
14.99999999849979
 31
0.0
1001
OrigLayer
1000
P-0000
1001
TOP
1070
     7
  0
LINE
  5
AA2
330
2
100
AcDbEntity
  8
P-6B6E
  6
Continuous
 62
   144
100
AcDbLine
 10
25.79999999742995
 20
9.999999998999555
 30
0.0
 11
25.49999999745997
 21
9.999999998999555
 31
0.0
1001
OrigLayer
1000
P-0000
1001
TOP
1070
     7
  0
LINE
  5
AA3
330
2
100
AcDbEntity
  8
P-6B6E
  6
Continuous
 62
   144
100
AcDbLine
 10
25.49999999745997
 20
9.999999998999555
 30
0.0
 11
25.49999999745997
 21
14.99999999849979
 31
0.0
1001
OrigLayer
1000
P-0000
1001
TOP
1070
     7
  0
LINE
  5
AA4
330
2
100
AcDbEntity
  8
P-6B6E
  6
Continuous
 62
   144
100
AcDbLine
 10
25.79999999742995
 20
14.99999999849979
 30
0.0
 11
25.79999999742995
 21
19.99999999800002
 31
0.0
1001
OrigLayer
1000
P-0000
1001
TOP
1070
     7
  0
LINE
  5
AA5
330
2
100
AcDbEntity
  8
P-6B6E
  6
Continuous
 62
   144
100
AcDbLine
 10
19.99999999800002
 20
25.79999999742995
 30
0.0
 11
19.99999999800002
 21
25.49999999745978
 31
0.0
1001
OrigLayer
1000
P-0000
1001
TOP
1070
     7
  0
LINE
  5
AA6
330
2
100
AcDbEntity
  8
P-6B6E
  6
Continuous
 62
   144
100
AcDbLine
 10
14.99999999849997
 20
25.49999999745978
 30
0.0
 11
14.99999999849997
 21
25.79999999742995
 31
0.0
1001
OrigLayer
1000
P-0000
1001
TOP
1070
     7
  0
LINE
  5
AA7
330
2
100
AcDbEntity
  8
P-6B6E
  6
Continuous
 62
   144
100
AcDbLine
 10
14.99999999849997
 20
25.79999999742995
 30
0.0
 11
19.99999999800002
 21
25.79999999742995
 31
0.0
1001
OrigLayer
1000
P-0000
1001
TOP
1070
     7
  0
LINE
  5
AA8
330
2
100
AcDbEntity
  8
P-6B6E
  6
Continuous
 62
   144
100
AcDbLine
 10
19.99999999800002
 20
25.49999999745978
 30
0.0
 11
24.99999999750999
 21
25.49999999745978
 31
0.0
1001
OrigLayer
1000
P-0000
1001
TOP
1070
     7
  0
ARC
  5
AA9
330
2
100
AcDbEntity
  8
P-6B6E
  6
Continuous
 62
   144
100
AcDbCircle
 10
10.69999999892998
 20
37.29999999626989
 30
0.0
 40
0.19999999998
100
AcDbArc
 50
90.0
 51
180.0
1001
OrigLayer
1000
P-0000
1001
TOP
1070
     7
  0
ARC
  5
AAA
330
2
100
AcDbEntity
  8
P-6B6E
  6
Continuous
 62
   144
100
AcDbCircle
 10
10.69999999892998
 20
36.19999999638003
 30
0.0
 40
0.19999999998
100
AcDbArc
 50
180.0
 51
270.0
1001
OrigLayer
1000
P-0000
1001
TOP
1070
     7
  0
LINE
  5
AAB
330
2
100
AcDbEntity
  8
P-6B6E
  6
Continuous
 62
   144
100
AcDbLine
 10
10.4999999989499
 20
37.29999999626989
 30
0.0
 11
10.4999999989499
 21
36.19999999638003
 31
0.0
1001
OrigLayer
1000
P-0000
1001
TOP
1070
     7
  0
LINE
  5
AAC
330
2
100
AcDbEntity
  8
P-6B6E
  6
Continuous
 62
   144
100
AcDbLine
 10
6.999999999299959
 20
26.99999999729971
 30
0.0
 11
6.498849950525894
 21
27.49999999724969
 31
0.0
1001
OrigLayer
1000
P-0000
1001
TOP
1070
     7
  0
LINE
  5
AAD
330
2
100
AcDbEntity
  8
P-6B6E
  6
Continuous
 62
   144
100
AcDbLine
 10
6.999999999299959
 20
26.99999999729971
 30
0.0
 11
7.495428625146274
 21
27.49999999724969
 31
0.0
1001
OrigLayer
1000
P-0000
1001
TOP
1070
     7
  0
LINE
  5
AAE
330
2
100
AcDbEntity
  8
P-6B6E
  6
Continuous
 62
   144
100
AcDbLine
 10
0.2750502009781428
 20
40.49999999595002
 30
0.0
 11
0.4999999999499778
 21
40.49999999595002
 31
0.0
1001
OrigLayer
1000
P-0000
1001
TOP
1070
     7
  0
LINE
  5
AAF
330
2
100
AcDbEntity
  8
P-6B6E
  6
Continuous
 62
   144
100
AcDbLine
 10
0.4999999999499778
 20
40.49999999595002
 30
0.0
 11
0.4999999999499778
 21
38.49999999615011
 31
0.0
1001
OrigLayer
1000
P-0000
1001
TOP
1070
     7
  0
ARC
  5
AB0
330
2
100
AcDbEntity
  8
P-6B6E
  6
Continuous
 62
   144
100
AcDbCircle
 10
-0.4999999999499778
 20
29.49999999699958
 30
0.0
 40
0.49999999995
100
AcDbArc
 50
180.0
 51
270.0
1001
OrigLayer
1000
P-0000
1001
TOP
1070
     7
  0
LINE
  5
AB1
330
2
100
AcDbEntity
  8
P-6B6E
  6
Continuous
 62
   144
100
AcDbLine
 10
-1.999999999800095
 20
27.49999999724969
 30
0.0
 11
-2.499999999749888
 21
28.00324924648839
 31
0.0
1001
OrigLayer
1000
P-0000
1001
TOP
1070
     7
  0
LINE
  5
AB2
330
2
100
AcDbEntity
  8
P-6B6E
  6
Continuous
 62
   144
100
AcDbLine
 10
-1.999999999800095
 20
27.49999999724969
 30
0.0
 11
-2.499999999750073
 21
26.9994721775588
 31
0.0
1001
OrigLayer
1000
P-0000
1001
TOP
1070
     7
  0
LINE
  5
AB3
330
2
100
AcDbEntity
  8
P-6B6E
  6
Continuous
 62
   144
100
AcDbLine
 10
-2.499999999750073
 20
28.00324924648839
 30
0.0
 11
-2.499999999750073
 21
33.99999999659986
 31
0.0
1001
OrigLayer
1000
P-0000
1001
TOP
1070
     7
  0
LINE
  5
AB4
330
2
100
AcDbEntity
  8
P-6B6E
  6
Continuous
 62
   144
100
AcDbLine
 10
-0.9999999998999555
 20
33.99999999659986
 30
0.0
 11
-0.9999999998999555
 21
29.49999999699958
 31
0.0
1001
OrigLayer
1000
P-0000
1001
TOP
1070
     7
  0
ARC
  5
AB5
330
2
100
AcDbEntity
  8
P-6B6E
  6
Continuous
 62
   144
100
AcDbCircle
 10
6.499999999349981
 20
33.99999999659986
 30
0.0
 40
8.999999999099999
100
AcDbArc
 50
133.7617426926403
 51
180.0
1001
OrigLayer
1000
P-0000
1001
TOP
1070
     7
  0
ARC
  5
AB6
330
2
100
AcDbEntity
  8
P-6B6E
  6
Continuous
 62
   144
100
AcDbCircle
 10
6.499999999349981
 20
33.99999999659986
 30
0.0
 40
7.499999999249999
100
AcDbArc
 50
143.130102354195
 51
180.0
1001
OrigLayer
1000
P-0000
1001
TOP
1070
     7
  0
LINE
  5
AB7
330
2
100
AcDbEntity
  8
P-6B6E
  6
Continuous
 62
   144
100
AcDbLine
 10
9.999999998999925
 20
25.79999999742995
 30
0.0
 11
9.999999998999925
 21
25.49999999745978
 31
0.0
1001
OrigLayer
1000
P-0000
1001
TOP
1070
     7
  0
LINE
  5
AB8
330
2
100
AcDbEntity
  8
P-6B6E
  6
Continuous
 62
   144
100
AcDbLine
 10
4.999999999499962
 20
25.49999999745978
 30
0.0
 11
4.999999999499962
 21
25.79999999742995
 31
0.0
1001
OrigLayer
1000
P-0000
1001
TOP
1070
     7
  0
LINE
  5
AB9
330
2
100
AcDbEntity
  8
P-6B6E
  6
Continuous
 62
   144
100
AcDbLine
 10
4.999999999499962
 20
25.79999999742995
 30
0.0
 11
9.999999998999925
 21
25.79999999742995
 31
0.0
1001
OrigLayer
1000
P-0000
1001
TOP
1070
     7
  0
ARC
  5
ABA
330
2
100
AcDbEntity
  8
P-6B6E
  6
Continuous
 62
   144
100
AcDbCircle
 10
-0.0000000000100044
 20
24.9999999975098
 30
0.0
 40
0.49999999995
100
AcDbArc
 50
90.0
 51
180.0
1001
OrigLayer
1000
P-0000
1001
TOP
1070
     7
  0
LINE
  5
ABB
330
2
100
AcDbEntity
  8
P-6B6E
  6
Continuous
 62
   144
100
AcDbLine
 10
-0.499999999960167
 20
19.99999999800002
 30
0.0
 11
-0.7999999999300656
 21
19.99999999800002
 31
0.0
1001
OrigLayer
1000
P-0000
1001
TOP
1070
     7
  0
LINE
  5
ABC
330
2
100
AcDbEntity
  8
P-6B6E
  6
Continuous
 62
   144
100
AcDbLine
 10
-0.4999999999601528
 20
24.9999999975098
 30
0.0
 11
-0.499999999960167
 21
19.99999999800002
 31
0.0
1001
OrigLayer
1000
P-0000
1001
TOP
1070
     7
  0
LINE
  5
ABD
330
2
100
AcDbEntity
  8
P-6B6E
  6
Continuous
 62
   144
100
AcDbLine
 10
-0.7999999999300656
 20
14.99999999849979
 30
0.0
 11
-0.499999999960167
 21
14.99999999849979
 31
0.0
1001
OrigLayer
1000
P-0000
1001
TOP
1070
     7
  0
LINE
  5
ABE
330
2
100
AcDbEntity
  8
P-6B6E
  6
Continuous
 62
   144
100
AcDbLine
 10
-0.499999999960167
 20
9.999999998999555
 30
0.0
 11
-0.7999999999300656
 21
9.999999998999555
 31
0.0
1001
OrigLayer
1000
P-0000
1001
TOP
1070
     7
  0
LINE
  5
ABF
330
2
100
AcDbEntity
  8
P-6B6E
  6
Continuous
 62
   144
100
AcDbLine
 10
-0.499999999960167
 20
14.99999999849979
 30
0.0
 11
-0.499999999960167
 21
9.999999998999555
 31
0.0
1001
OrigLayer
1000
P-0000
1001
TOP
1070
     7
  0
LINE
  5
AC0
330
2
100
AcDbEntity
  8
P-6B6E
  6
Continuous
 62
   144
100
AcDbLine
 10
-0.7999999999300656
 20
19.99999999800002
 30
0.0
 11
-0.7999999999300656
 21
14.99999999849979
 31
0.0
1001
OrigLayer
1000
P-0000
1001
TOP
1070
     7
  0
LINE
  5
AC1
330
2
100
AcDbEntity
  8
P-6B6E
  6
Continuous
 62
   144
100
AcDbLine
 10
4.999999999499962
 20
25.49999999745978
 30
0.0
 11
-0.0000000000100044
 21
25.49999999745978
 31
0.0
1001
OrigLayer
1000
P-0000
1001
TOP
1070
     7
  0
LINE
  5
AC2
330
2
100
AcDbEntity
  8
P-6B6E
  6
Continuous
 62
   144
100
AcDbLine
 10
9.999999998999925
 20
25.49999999745978
 30
0.0
 11
14.99999999849997
 21
25.49999999745978
 31
0.0
1001
OrigLayer
1000
P-0000
1001
TOP
1070
     7
  0
LINE
  5
AC3
330
2
100
AcDbEntity
  8
P-6B6E
  6
Continuous
 62
   144
100
AcDbLine
 10
11.99999999880001
 20
35.99999999639976
 30
0.0
 11
10.69999999892998
 21
35.99999999639976
 31
0.0
1001
OrigLayer
1000
P-0000
1001
TOP
1070
     7
  0
LINE
  5
AC4
330
2
100
AcDbEntity
  8
P-6B6E
  6
Continuous
 62
   144
100
AcDbLine
 10
14.39897948412644
 20
37.4999999962497
 30
0.0
 11
10.69999999892998
 21
37.4999999962497
 31
0.0
1001
OrigLayer
1000
P-0000
1001
TOP
1070
     7
  0
LINE
  5
AC5
330
2
100
AcDbEntity
  8
P-6B6E
  6
Continuous
 62
   144
100
AcDbLine
 10
25.49999999745997
 20
4.999999999499777
 30
0.0
 11
25.79999999742995
 21
4.999999999499777
 31
0.0
1001
OrigLayer
1000
P-0000
1001
TOP
1070
     7
  0
LINE
  5
AC6
330
2
100
AcDbEntity
  8
P-6B6E
  6
Continuous
 62
   144
100
AcDbLine
 10
25.49999999745997
 20
-0.0000000000100044
 30
0.0
 11
25.49999999745997
 21
4.999999999499777
 31
0.0
1001
OrigLayer
1000
P-0000
1001
TOP
1070
     7
  0
ARC
  5
AC7
330
2
100
AcDbEntity
  8
P-6B6E
  6
Continuous
 62
   144
100
AcDbCircle
 10
24.99999999749999
 20
0.0
 30
0.0
 40
2.499999999749999
100
AcDbArc
 50
270.0
 51
0.0
1001
OrigLayer
1000
P-0000
1001
TOP
1070
     7
  0
ARC
  5
AC8
330
2
100
AcDbEntity
  8
P-6B6E
  6
Continuous
 62
   144
100
AcDbCircle
 10
24.99999999750999
 20
-0.0000000000100044
 30
0.0
 40
0.49999999995
100
AcDbArc
 50
270.0
 51
0.0
1001
OrigLayer
1000
P-0000
1001
TOP
1070
     7
  0
LINE
  5
AC9
330
2
100
AcDbEntity
  8
P-6B6E
  6
Continuous
 62
   144
100
AcDbLine
 10
19.99999999800002
 20
-0.7999999999301508
 30
0.0
 11
19.99999999800002
 21
-0.4999999999599823
 31
0.0
1001
OrigLayer
1000
P-0000
1001
TOP
1070
     7
  0
LINE
  5
ACA
330
2
100
AcDbEntity
  8
P-6B6E
  6
Continuous
 62
   144
100
AcDbLine
 10
14.99999999849997
 20
-0.4999999999599823
 30
0.0
 11
14.99999999849997
 21
-0.7999999999301508
 31
0.0
1001
OrigLayer
1000
P-0000
1001
TOP
1070
     7
  0
LINE
  5
ACB
330
2
100
AcDbEntity
  8
P-6B6E
  6
Continuous
 62
   144
100
AcDbLine
 10
14.99999999849997
 20
-0.7999999999301508
 30
0.0
 11
19.99999999800002
 21
-0.7999999999301508
 31
0.0
1001
OrigLayer
1000
P-0000
1001
TOP
1070
     7
  0
LINE
  5
ACC
330
2
100
AcDbEntity
  8
P-6B6E
  6
Continuous
 62
   144
100
AcDbLine
 10
19.99999999800002
 20
-0.4999999999599823
 30
0.0
 11
24.99999999750999
 21
-0.4999999999599823
 31
0.0
1001
OrigLayer
1000
P-0000
1001
TOP
1070
     7
  0
LINE
  5
ACD
330
2
100
AcDbEntity
  8
P-6B6E
  6
Continuous
 62
   144
100
AcDbLine
 10
9.999999998999925
 20
-0.7999999999301508
 30
0.0
 11
9.999999998999925
 21
-0.4999999999599823
 31
0.0
1001
OrigLayer
1000
P-0000
1001
TOP
1070
     7
  0
LINE
  5
ACE
330
2
100
AcDbEntity
  8
P-6B6E
  6
Continuous
 62
   144
100
AcDbLine
 10
4.999999999499962
 20
-0.4999999999599823
 30
0.0
 11
4.999999999499962
 21
-0.7999999999301508
 31
0.0
1001
OrigLayer
1000
P-0000
1001
TOP
1070
     7
  0
LINE
  5
ACF
330
2
100
AcDbEntity
  8
P-6B6E
  6
Continuous
 62
   144
100
AcDbLine
 10
4.999999999499962
 20
-0.7999999999301508
 30
0.0
 11
9.999999998999925
 21
-0.7999999999301508
 31
0.0
1001
OrigLayer
1000
P-0000
1001
TOP
1070
     7
  0
LINE
  5
AD0
330
2
100
AcDbEntity
  8
P-6B6E
  6
Continuous
 62
   144
100
AcDbLine
 10
-0.7999999999300656
 20
4.999999999499777
 30
0.0
 11
-0.499999999960167
 21
4.999999999499777
 31
0.0
1001
OrigLayer
1000
P-0000
1001
TOP
1070
     7
  0
LINE
  5
AD1
330
2
100
AcDbEntity
  8
P-6B6E
  6
Continuous
 62
   144
100
AcDbLine
 10
-0.499999999960167
 20
4.999999999499777
 30
0.0
 11
-0.4999999999601812
 21
-0.0000000000100044
 31
0.0
1001
OrigLayer
1000
P-0000
1001
TOP
1070
     7
  0
ARC
  5
AD2
330
2
100
AcDbEntity
  8
P-6B6E
  6
Continuous
 62
   144
100
AcDbCircle
 10
0.0
 20
0.0
 30
0.0
 40
2.499999999749999
100
AcDbArc
 50
180.0
 51
270.0
1001
OrigLayer
1000
P-0000
1001
TOP
1070
     7
  0
ARC
  5
AD3
330
2
100
AcDbEntity
  8
P-6B6E
  6
Continuous
 62
   144
100
AcDbCircle
 10
-0.0000000000100044
 20
-0.0000000000100044
 30
0.0
 40
0.49999999995
100
AcDbArc
 50
180.0
 51
270.0
1001
OrigLayer
1000
P-0000
1001
TOP
1070
     7
  0
LINE
  5
AD4
330
2
100
AcDbEntity
  8
P-6B6E
  6
Continuous
 62
   144
100
AcDbLine
 10
-0.0000000000100044
 20
-0.4999999999599823
 30
0.0
 11
4.999999999499962
 21
-0.4999999999599823
 31
0.0
1001
OrigLayer
1000
P-0000
1001
TOP
1070
     7
  0
LINE
  5
AD5
330
2
100
AcDbEntity
  8
P-6B6E
  6
Continuous
 62
   144
100
AcDbLine
 10
0.0
 20
-2.499999999750116
 30
0.0
 11
24.99999999749999
 21
-2.499999999750116
 31
0.0
1001
OrigLayer
1000
P-0000
1001
TOP
1070
     7
  0
LINE
  5
AD6
330
2
100
AcDbEntity
  8
P-6B6E
  6
Continuous
 62
   144
100
AcDbLine
 10
9.999999998999925
 20
-0.4999999999599823
 30
0.0
 11
14.99999999849997
 21
-0.4999999999599823
 31
0.0
1001
OrigLayer
1000
P-0000
1001
TOP
1070
     7
  0
LINE
  5
AD7
330
2
100
AcDbEntity
  8
P-6B6E
  6
Continuous
 62
   144
100
AcDbLine
 10
25.79999999742995
 20
4.999999999499777
 30
0.0
 11
25.79999999742995
 21
9.999999998999555
 31
0.0
1001
OrigLayer
1000
P-0000
1001
TOP
1070
     7
  0
LINE
  5
AD8
330
2
100
AcDbEntity
  8
P-6B6E
  6
Continuous
 62
   144
100
AcDbLine
 10
-0.7999999999300656
 20
9.999999998999555
 30
0.0
 11
-0.7999999999300656
 21
4.999999999499777
 31
0.0
1001
OrigLayer
1000
P-0000
1001
TOP
1070
     7
  0
LINE
  5
AD9
330
2
100
AcDbEntity
  8
P-6B6E
  6
Continuous
 62
   144
100
AcDbLine
 10
27.49999999724996
 20
0.0
 30
0.0
 11
27.49999999724996
 21
27.49999999724969
 31
0.0
1001
OrigLayer
1000
P-0000
1001
TOP
1070
     7
  0
LINE
  5
ADA
330
2
100
AcDbEntity
  8
P-6B6E
  6
Continuous
 62
   144
100
AcDbLine
 10
-2.499999999750073
 20
26.9994721775588
 30
0.0
 11
-2.499999999750073
 21
0.0
 31
0.0
1001
OrigLayer
1000
P-0000
1001
TOP
1070
     7
  0
ENDSEC
  0
SECTION
  2
OBJECTS
  0
DICTIONARY
  5
1A
330
0
100
AcDbDictionary
281
     1
  3
ACAD_2007HEADERVARS_RT
350
1595
  3
ACAD_COLOR
350
2C5
  3
ACAD_GROUP
350
18
  3
ACAD_LAYOUT
350
45
  3
ACAD_MATERIAL
350
2B0
  3
ACAD_MLEADERSTYLE
350
354
  3
ACAD_MLINESTYLE
350
19
  3
ACAD_PLOTSETTINGS
350
46
  3
ACAD_PLOTSTYLENAME
350
43
  3
ACAD_SCALELIST
350
332
  3
ACAD_TABLESTYLE
350
2C6
  3
ACAD_VISUALSTYLE
350
2B4
  3
ACDB_RECOMPOSE_DATA
350
1593
  3
AcDbVariableDictionary
350
2AA
  3
AEC_PROPERTY_SET_DEFS
350
12B8
  3
DWGPROPS
350
1594
  3
qs_topprt_diz
350
50
  3
QSCATDICT
350
6D9
  3
QsPallStyleDict
350
6EA
  3
QsTop499
350
1557
  3
TopSpotLight
350
6E0
  0
DICTIONARY
  5
300
330
12
100
AcDbDictionary
280
     1
281
     1
  0
DICTIONARY
  5
94F
330
A
100
AcDbDictionary
280
     1
281
     1
  3
ACAD_LAYERSTATES
360
950
  0
DICTIONARY
  5
37B
330
4
100
AcDbDictionary
280
     1
281
     1
  3
ADSK_XREC_LAYER_RECONCILED
360
117C
  0
DICTIONARY
  5
117D
330
6DB
100
AcDbDictionary
280
     1
281
     1
  3
ADSK_XREC_LAYER_RECONCILED
360
117E
  0
DICTIONARY
  5
117F
330
711
100
AcDbDictionary
280
     1
281
     1
  3
ADSK_XREC_LAYER_RECONCILED
360
1180
  0
DICTIONARY
  5
1181
330
712
100
AcDbDictionary
280
     1
281
     1
  3
ADSK_XREC_LAYER_RECONCILED
360
1182
  0
DICTIONARY
  5
1183
330
946
100
AcDbDictionary
280
     1
281
     1
  3
ADSK_XREC_LAYER_RECONCILED
360
1184
  0
DICTIONARY
  5
1185
330
ADE
100
AcDbDictionary
280
     1
281
     1
  3
ADSK_XREC_LAYER_RECONCILED
360
1186
  0
DICTIONARY
  5
A6A
330
951
100
AcDbDictionary
280
     1
281
     1
  3
ACAD_SORTENTS
360
A6B
  0
DICTIONARY
  5
1595
102
{ACAD_REACTORS
330
1A
102
}
330
1A
100
AcDbDictionary
281
     1
  3
INTERFEREVPVS
350
1596
  0
DICTIONARY
  5
2C5
102
{ACAD_REACTORS
330
1A
102
}
330
1A
100
AcDbDictionary
281
     1
  0
DICTIONARY
  5
18
102
{ACAD_REACTORS
330
1A
102
}
330
1A
100
AcDbDictionary
281
     1
  0
DICTIONARY
  5
45
102
{ACAD_REACTORS
330
1A
102
}
330
1A
100
AcDbDictionary
281
     1
  3
Layout1
350
48
  3
Model
350
47
  0
DICTIONARY
  5
2B0
102
{ACAD_REACTORS
330
1A
102
}
330
1A
100
AcDbDictionary
281
     1
  3
ByBlock
350
2B2
  3
ByLayer
350
2B1
  3
Global
350
2B3
  0
DICTIONARY
  5
354
102
{ACAD_REACTORS
330
1A
102
}
330
1A
100
AcDbDictionary
281
     1
  3
Standard
350
355
  0
DICTIONARY
  5
19
102
{ACAD_REACTORS
330
1A
102
}
330
1A
100
AcDbDictionary
281
     1
  3
STANDARD
350
1C
  0
DICTIONARY
  5
46
102
{ACAD_REACTORS
330
1A
102
}
330
1A
100
AcDbDictionary
281
     1
  3
Kyocera_1010 OR
350
14F8
  3
Kyocera_1010 VER
350
14F9
  3
Olivetti_200 A3
350
14FA
  3
Olivetti_200 A4
350
14FB
  3
PLOTTER
350
14FC
  0
ACDBDICTIONARYWDFLT
  5
43
102
{ACAD_REACTORS
330
1A
102
}
330
1A
100
AcDbDictionary
281
     1
  3
Normal
350
44
100
AcDbDictionaryWithDefault
340
44
  0
DICTIONARY
  5
332
102
{ACAD_REACTORS
330
1A
102
}
330
1A
100
AcDbDictionary
281
     1
  3
A0
350
333
  3
A1
350
334
  3
A2
350
335
  3
A3
350
336
  3
A4
350
337
  3
A5
350
338
  3
A6
350
339
  3
A7
350
33A
  3
A8
350
33B
  3
A9
350
33C
  3
B0
350
33D
  3
B1
350
33E
  3
B2
350
33F
  3
B3
350
340
  3
B4
350
341
  3
B5
350
342
  3
B6
350
343
  3
B7
350
344
  3
B8
350
345
  3
B9
350
346
  3
C0
350
347
  3
C1
350
348
  3
C2
350
349
  3
C3
350
34A
  3
C4
350
34B
  3
C5
350
34C
  3
C6
350
34D
  3
C7
350
34E
  3
C8
350
34F
  3
C9
350
350
  3
D0
350
351
  3
D1
350
352
  3
D2
350
353
  0
DICTIONARY
  5
2C6
102
{ACAD_REACTORS
330
1A
102
}
330
1A
100
AcDbDictionary
281
     1
  3
QSTABFORI
350
31A
  3
QSTABREGION
350
2CC
  3
Standard
350
2C7
  0
DICTIONARY
  5
2B4
102
{ACAD_REACTORS
330
1A
102
}
330
1A
100
AcDbDictionary
281
     1
  3
2dWireframe
350
2BA
  3
3D Hidden
350
2BC
  3
3dWireframe
350
2BB
  3
Basic
350
2B9
  3
Brighten
350
2C0
  3
ColorChange
350
2C4
  3
Conceptual
350
2BD
  3
Dim
350
2BF
  3
EdgeColorOff
350
156A
  3
Facepattern
350
2C3
  3
Flat
350
2B5
  3
FlatWithEdges
350
2B6
  3
Gouraud
350
2B7
  3
GouraudWithEdges
350
2B8
  3
Hidden
350
1562
  3
JitterOff
350
1568
  3
Linepattern
350
2C2
  3
OverhangOff
350
1569
  3
Realistic
350
2BE
  3
Shaded
350
1567
  3
Shaded with edges
350
1566
  3
Shades of Gray
350
1563
  3
Sketchy
350
1564
  3
Thicken
350
2C1
  3
Wireframe
350
1561
  3
X-Ray
350
1565
  0
XRECORD
  5
1593
102
{ACAD_REACTORS
330
1A
102
}
330
1A
100
AcDbXrecord
280
     1
 90
        1
330
2C7
330
2CC
330
31A
  0
DICTIONARY
  5
2AA
102
{ACAD_REACTORS
330
1A
102
}
330
1A
100
AcDbDictionary
281
     1
  3
CANNOSCALE
350
36B
  3
CMLEADERSTYLE
350
369
  3
CTABLESTYLE
350
312
  3
DIMASSOC
350
2AB
  3
DRAWORDERCTL
350
133B
  3
INDEXCTL
350
314
  3
LAYEREVAL
350
133D
  3
LAYERNOTIFY
350
133E
  3
LIGHTINGUNITS
350
36C
  3
MLEADERSCALE
350
133C
  3
MSLTSCALE
350
36A
  3
SORTENTS
350
313
  3
XCLIPFRAME
350
158F
  0
DICTIONARY
  5
12B8
102
{ACAD_REACTORS
330
1A
102
}
330
1A
100
AcDbDictionary
281
     1
  0
XRECORD
  5
1594
102
{ACAD_REACTORS
330
1A
102
}
330
1A
100
AcDbXrecord
280
     1
  1
DWGPROPS COOKIE
  2

  3

  4

  6

  7

  8
mpistoia
  9

300
=
301
=
302
=
303
=
304
=
305
=
306
=
307
=
308
=
309
=
 40
0.3285405902777778
 41
2455048.410603657
 42
2455646.457939919
  1

 90
        0
  0
DICTIONARY
  5
50
102
{ACAD_REACTORS
330
1A
102
}
330
1A
100
AcDbDictionary
281
     1
  3
UCNT
350
51
  0
DICTIONARY
  5
6D9
102
{ACAD_REACTORS
330
1A
102
}
330
1A
100
AcDbDictionary
280
     1
281
     1
  3
DEFAULT
360
6DA
  0
DICTIONARY
  5
6EA
102
{ACAD_REACTORS
330
1A
102
}
330
1A
100
AcDbDictionary
281
     1
  3
DEFAULT
350
6EB
  0
DICTIONARY
  5
1557
102
{ACAD_REACTORS
330
1A
102
}
330
1A
100
AcDbDictionary
281
     1
  3
TOP
350
155C
  3
X1ec1
350
155B
  3
X4127
350
1559
  3
X44e1
350
155A
  3
X5793
350
1558
  0
DICTIONARY
  5
6E0
102
{ACAD_REACTORS
330
1A
102
}
330
1A
100
AcDbDictionary
281
     1
  3
colors
350
6E1
  0
DICTIONARY
  5
950
102
{ACAD_REACTORS
330
94F
102
}
330
94F
100
AcDbDictionary
281
     1
  0
XRECORD
  5
117C
102
{ACAD_REACTORS
330
37B
102
}
330
37B
100
AcDbXrecord
280
     1
290
     1
  0
XRECORD
  5
117E
102
{ACAD_REACTORS
330
117D
102
}
330
117D
100
AcDbXrecord
280
     1
290
     1
  0
XRECORD
  5
1180
102
{ACAD_REACTORS
330
117F
102
}
330
117F
100
AcDbXrecord
280
     1
290
     1
  0
XRECORD
  5
1182
102
{ACAD_REACTORS
330
1181
102
}
330
1181
100
AcDbXrecord
280
     1
290
     1
  0
XRECORD
  5
1184
102
{ACAD_REACTORS
330
1183
102
}
330
1183
100
AcDbXrecord
280
     1
290
     1
  0
XRECORD
  5
1186
102
{ACAD_REACTORS
330
1185
102
}
330
1185
100
AcDbXrecord
280
     1
290
     1
  0
SORTENTSTABLE
  5
A6B
102
{ACAD_REACTORS
330
A6A
102
}
330
A6A
100
AcDbSortentsTable
330
951
331
98E
  5
9AF
331
976
  5
992
331
99B
  5
977
331
992
  5
99A
331
97A
  5
996
331
99F
  5
97B
331
996
  5
97E
331
97E
  5
99D
331
9A3
  5
973
331
9A7
  5
96E
331
9AB
  5
967
331
963
  5
981
331
9AF
  5
9AE
331
967
  5
96A
331
953
  5
957
331
96B
  5
987
331
983
  5
9A2
331
957
  5
953
331
96F
  5
98B
331
987
  5
9A6
331
973
  5
98F
331
98B
  5
9AA
331
977
  5
993
331
98F
  5
962
331
998
  5
974
331
97B
  5
997
331
993
  5
99B
331
99C
  5
978
331
97F
  5
99E
331
997
  5
97F
331
9A0
  5
97C
331
9A4
  5
968
331
9A8
  5
96F
331
9AC
  5
966
331
964
  5
982
331
968
  5
96D
331
980
  5
99F
331
96C
  5
989
331
954
  5
958
331
984
  5
9A3
331
988
  5
9A7
331
970
  5
98C
331
958
  5
954
331
98C
  5
9AB
331
974
  5
990
331
978
  5
994
331
990
  5
965
331
999
  5
975
331
994
  5
998
331
97C
  5
999
331
99D
  5
979
331
9A1
  5
971
331
9A5
  5
96B
331
9A9
  5
970
331
9AD
  5
9AC
331
965
  5
983
331
969
  5
986
331
981
  5
9A0
331
96D
  5
988
331
955
  5
959
331
985
  5
9A4
331
989
  5
9A8
331
971
  5
98E
331
959
  5
955
331
98D
  5
9AD
331
975
  5
991
331
99A
  5
976
331
979
  5
995
331
991
  5
969
331
99E
  5
97A
331
97D
  5
99C
331
995
  5
97D
331
9A2
  5
972
331
9A6
  5
96C
331
9AA
  5
964
331
9AE
  5
963
331
962
  5
980
331
966
  5
984
331
96A
  5
985
331
952
  5
956
331
982
  5
9A1
331
96E
  5
98A
331
956
  5
952
331
986
  5
9A5
331
98A
  5
9A9
331
972
  5
98D
  0
XRECORD
  5
1596
102
{ACAD_REACTORS
330
1595
102
}
330
1595
100
AcDbXrecord
280
     1
340
2BB
  0
LAYOUT
  5
48
102
{ACAD_XDICTIONARY
360
1599
102
}
102
{ACAD_REACTORS
330
45
102
}
330
45
100
AcDbPlotSettings
  1

  2
RICOH Aficio 270 PCL 6 A4
  4

  6

 40
0.0
 41
0.0
 42
0.0
 43
0.0
 44
0.0
 45
0.0
 46
0.0
 47
0.0
 48
0.0
 49
0.0
140
0.0
141
0.0
142
1.0
143
1.0
 70
   688
 72
     0
 73
     0
 74
     5
  7
DIERRE BN.ctb
 75
    16
147
1.0
148
0.0
149
0.0
100
AcDbLayout
  1
Layout1
 70
     0
 71
     1
 10
0.0
 20
0.0
 11
12.0
 21
9.0
 12
0.0
 22
0.0
 32
0.0
 14
1.000000000000000E+20
 24
1.000000000000000E+20
 34
1.000000000000000E+20
 15
-1.000000000000000E+20
 25
-1.000000000000000E+20
 35
-1.000000000000000E+20
146
0.0
 13
0.0
 23
0.0
 33
0.0
 16
1.0
 26
0.0
 36
0.0
 17
0.0
 27
1.0
 37
0.0
 76
     0
330
7
  0
LAYOUT
  5
47
102
{ACAD_XDICTIONARY
360
1597
102
}
102
{ACAD_REACTORS
330
45
102
}
330
45
100
AcDbPlotSettings
  1
Olivetti_200 A4
  2
Olivetti_200.pc3
  4
A4
  6

 40
4.984749794006347
 41
5.154074668884277
 42
5.111740112304687
 43
4.9847412109375
 44
210.0156707763672
 45
297.0106506347656
 46
51.67548120477697
 47
0.0
 48
0.0
 49
0.0
140
0.0
141
0.0
142
1.0
143
0.4718508448115938
 70
 11956
 72
     1
 73
     0
 74
     1
  7
DIERRE BN.ctb
 75
     0
147
2.119313785268927
148
-222.4649060220283
149
-239.0808115236937
100
AcDbLayout
  1
Model
 70
     1
 71
     0
 10
0.0
 20
0.0
 11
12.0
 21
9.0
 12
0.0
 22
0.0
 32
0.0
 14
0.0
 24
0.0
 34
0.0
 15
0.0
 25
0.0
 35
0.0
146
0.0
 13
0.0
 23
0.0
 33
0.0
 16
1.0
 26
0.0
 36
0.0
 17
0.0
 27
1.0
 37
0.0
 76
     0
330
2
331
2AE
1001
ACAD_PSEXT
1000
Olivetti_200.pc3
1000
Olivetti d-Copia 200MF KX
1000
IP_192.168.1.151
1000

1070
     0
  0
MATERIAL
  5
2B2
102
{ACAD_XDICTIONARY
360
159D
102
}
102
{ACAD_REACTORS
330
2B0
102
}
330
2B0
100
AcDbMaterial
  1
ByBlock
 73
     1
 78
     1
172
     1
176
     1
270
     1
274
     1
  0
MATERIAL
  5
2B1
102
{ACAD_XDICTIONARY
360
159B
102
}
102
{ACAD_REACTORS
330
2B0
102
}
330
2B0
100
AcDbMaterial
  1
ByLayer
 73
     1
 78
     1
172
     1
176
     1
270
     1
274
     1
  0
MATERIAL
  5
2B3
102
{ACAD_XDICTIONARY
360
159F
102
}
102
{ACAD_REACTORS
330
2B0
102
}
330
2B0
100
AcDbMaterial
  1
Global
 73
     1
 78
     1
172
     1
176
     1
270
     1
274
     1
  0
MLEADERSTYLE
  5
355
102
{ACAD_REACTORS
330
354
102
}
330
354
100
AcDbMLeaderStyle
170
     2
171
     1
172
     0
 90
        2
 40
0.0
 41
0.0
173
     1
 91
-1056964608
340
E
 92
       -2
290
     1
 42
2.0
291
     1
 43
0.36
  3
Standard
 44
4.0
300

342
C
174
     1
178
     6
175
     1
176
     0
 93
-1056964608
 45
4.0
292
     0
297
     0
 46
4.0
 94
-1056964608
 47
1.0
 49
1.0
140
1.0
293
     1
141
0.0
294
     1
177
     0
142
1.0
295
     0
296
     0
143
0.125
1001
ACAD_MLEADERVER
1070
     2
  0
MLINESTYLE
  5
1C
102
{ACAD_REACTORS
330
19
102
}
330
19
100
AcDbMlineStyle
  2
STANDARD
 70
     0
  3

 62
     0
 51
90.0
 52
90.0
 71
     2
 49
0.5
 62
   256
  6
BYLAYER
 49
-0.5
 62
   256
  6
BYLAYER
  0
PLOTSETTINGS
  5
14F8
102
{ACAD_XDICTIONARY
360
15C5
102
}
102
{ACAD_REACTORS
330
46
102
}
330
46
100
AcDbPlotSettings
  1
Kyocera_1010 OR
  2
Kyocera_1010.pc3
  4
A4
  6

 40
4.984749794006347
 41
5.154074668884277
 42
5.111740112304687
 43
4.9847412109375
 44
210.0156707763672
 45
297.0106506347656
 46
0.0
 47
109.7870247470818
 48
0.0
 49
0.0
140
0.0
141
0.0
142
1.0
143
0.6770771918566143
 70
 11956
 72
     1
 73
     1
 74
     1
  7
DIERRE BN.ctb
 75
     0
147
1.476936473458659
148
-222.4649060220283
149
-239.0808115236937
1001
ACAD_PSEXT
1000
Kyocera_1010.pc3
1000
Kyocera Mita FS-1010 KX
1000
\\PC5
1000

1070
     0
  0
PLOTSETTINGS
  5
14F9
102
{ACAD_XDICTIONARY
360
15C7
102
}
102
{ACAD_REACTORS
330
46
102
}
330
46
100
AcDbPlotSettings
  1
Kyocera_1010 VER
  2
Kyocera_1010.pc3
  4
A4
  6

 40
4.984749794006347
 41
5.154074668884277
 42
5.111740112304687
 43
4.9847412109375
 44
210.0156707763672
 45
297.0106506347656
 46
51.67548120477697
 47
0.0
 48
0.0
 49
0.0
140
0.0
141
0.0
142
1.0
143
0.4718508448115938
 70
 11956
 72
     1
 73
     0
 74
     1
  7
DIERRE BN.ctb
 75
     0
147
2.119313785268927
148
-222.4649060220283
149
-239.0808115236937
1001
ACAD_PSEXT
1000
Kyocera_1010.pc3
1000
Kyocera Mita FS-1010 KX
1000
\\PC5
1000

1070
     0
  0
PLOTSETTINGS
  5
14FA
102
{ACAD_XDICTIONARY
360
15C9
102
}
102
{ACAD_REACTORS
330
46
102
}
330
46
100
AcDbPlotSettings
  1
Olivetti_200 A3
  2
Olivetti_200.pc3
  4
A3
  6

 40
4.984749794006347
 41
5.111746788024902
 42
5.154083251953125
 43
4.9847412109375
 44
297.0106506347656
 45
419.9889831542968
 46
0.0
 47
156.6621412366913
 48
0.0
 49
0.0
140
0.0
141
0.0
142
1.0
143
0.4718508730467012
 70
 11956
 72
     1
 73
     1
 74
     1
  7
DIERRE BN.ctb
 75
     0
147
2.119313658451206
148
-222.4649060220283
149
-239.0808115236937
1001
ACAD_PSEXT
1000
Olivetti_200.pc3
1000
Olivetti d-Copia 200MF KX
1000
IP_192.168.1.151
1000

1070
     0
  0
PLOTSETTINGS
  5
14FB
102
{ACAD_XDICTIONARY
360
15CB
102
}
102
{ACAD_REACTORS
330
46
102
}
330
46
100
AcDbPlotSettings
  1
Olivetti_200 A4
  2
Olivetti_200.pc3
  4
A4
  6

 40
4.984749794006347
 41
5.154074668884277
 42
5.111740112304687
 43
4.9847412109375
 44
210.0156707763672
 45
297.0106506347656
 46
51.67548120477697
 47
0.0
 48
0.0
 49
0.0
140
0.0
141
0.0
142
1.0
143
0.4718508448115938
 70
 11956
 72
     1
 73
     0
 74
     1
  7
DIERRE BN.ctb
 75
     0
147
2.119313785268927
148
-222.4649060220283
149
-239.0808115236937
1001
ACAD_PSEXT
1000
Olivetti_200.pc3
1000
Olivetti d-Copia 200MF KX
1000
IP_192.168.1.151
1000

1070
     0
  0
PLOTSETTINGS
  5
14FC
102
{ACAD_XDICTIONARY
360
15CD
102
}
102
{ACAD_REACTORS
330
46
102
}
330
46
100
AcDbPlotSettings
  1
PLOTTER
  2
PLOTTER.pc3
  4
User622
  6

 40
0.0
 41
0.0
 42
0.0
 43
0.0
 44
841.0
 45
1189.0
 46
0.0
 47
0.0
 48
0.0
 49
0.0
140
0.0
141
0.0
142
1.0
143
1.0
 70
 11936
 72
     1
 73
     0
 74
     1
  7
DIERRE BN.ctb
 75
     0
147
2.194137304425714
148
-222.4649060220283
149
-239.0808115236937
1001
ACAD_PSEXT
1000
PLOTTER.pc3
1000
HP DesignJet 430 (E/A0) by HP
1000
\\SERVER2003
1000

1070
     0
  0
ACDBPLACEHOLDER
  5
44
102
{ACAD_REACTORS
330
43
102
}
330
43
  0
SCALE
  5
333
102
{ACAD_REACTORS
330
332
102
}
330
332
100
AcDbScale
 70
     0
300
1:1
140
1.0
141
1.0
290
     1
  0
SCALE
  5
334
102
{ACAD_REACTORS
330
332
102
}
330
332
100
AcDbScale
 70
     0
300
1:2
140
1.0
141
2.0
290
     0
  0
SCALE
  5
335
102
{ACAD_REACTORS
330
332
102
}
330
332
100
AcDbScale
 70
     0
300
1:4
140
1.0
141
4.0
290
     0
  0
SCALE
  5
336
102
{ACAD_REACTORS
330
332
102
}
330
332
100
AcDbScale
 70
     0
300
1:5
140
1.0
141
5.0
290
     0
  0
SCALE
  5
337
102
{ACAD_REACTORS
330
332
102
}
330
332
100
AcDbScale
 70
     0
300
1:8
140
1.0
141
8.0
290
     0
  0
SCALE
  5
338
102
{ACAD_REACTORS
330
332
102
}
330
332
100
AcDbScale
 70
     0
300
1:10
140
1.0
141
10.0
290
     0
  0
SCALE
  5
339
102
{ACAD_REACTORS
330
332
102
}
330
332
100
AcDbScale
 70
     0
300
1:16
140
1.0
141
16.0
290
     0
  0
SCALE
  5
33A
102
{ACAD_REACTORS
330
332
102
}
330
332
100
AcDbScale
 70
     0
300
1:20
140
1.0
141
20.0
290
     0
  0
SCALE
  5
33B
102
{ACAD_REACTORS
330
332
102
}
330
332
100
AcDbScale
 70
     0
300
1:30
140
1.0
141
30.0
290
     0
  0
SCALE
  5
33C
102
{ACAD_REACTORS
330
332
102
}
330
332
100
AcDbScale
 70
     0
300
1:40
140
1.0
141
40.0
290
     0
  0
SCALE
  5
33D
102
{ACAD_REACTORS
330
332
102
}
330
332
100
AcDbScale
 70
     0
300
1:50
140
1.0
141
50.0
290
     0
  0
SCALE
  5
33E
102
{ACAD_REACTORS
330
332
102
}
330
332
100
AcDbScale
 70
     0
300
1:100
140
1.0
141
100.0
290
     0
  0
SCALE
  5
33F
102
{ACAD_REACTORS
330
332
102
}
330
332
100
AcDbScale
 70
     0
300
2:1
140
2.0
141
1.0
290
     0
  0
SCALE
  5
340
102
{ACAD_REACTORS
330
332
102
}
330
332
100
AcDbScale
 70
     0
300
4:1
140
4.0
141
1.0
290
     0
  0
SCALE
  5
341
102
{ACAD_REACTORS
330
332
102
}
330
332
100
AcDbScale
 70
     0
300
8:1
140
8.0
141
1.0
290
     0
  0
SCALE
  5
342
102
{ACAD_REACTORS
330
332
102
}
330
332
100
AcDbScale
 70
     0
300
10:1
140
10.0
141
1.0
290
     0
  0
SCALE
  5
343
102
{ACAD_REACTORS
330
332
102
}
330
332
100
AcDbScale
 70
     0
300
100:1
140
100.0
141
1.0
290
     0
  0
SCALE
  5
344
102
{ACAD_REACTORS
330
332
102
}
330
332
100
AcDbScale
 70
     0
300
1/128" = 1'-0"
140
0.0078125
141
12.0
290
     0
  0
SCALE
  5
345
102
{ACAD_REACTORS
330
332
102
}
330
332
100
AcDbScale
 70
     0
300
1/64" = 1'-0"
140
0.015625
141
12.0
290
     0
  0
SCALE
  5
346
102
{ACAD_REACTORS
330
332
102
}
330
332
100
AcDbScale
 70
     0
300
1/32" = 1'-0"
140
0.03125
141
12.0
290
     0
  0
SCALE
  5
347
102
{ACAD_REACTORS
330
332
102
}
330
332
100
AcDbScale
 70
     0
300
1/16" = 1'-0"
140
0.0625
141
12.0
290
     0
  0
SCALE
  5
348
102
{ACAD_REACTORS
330
332
102
}
330
332
100
AcDbScale
 70
     0
300
3/32" = 1'-0"
140
0.09375
141
12.0
290
     0
  0
SCALE
  5
349
102
{ACAD_REACTORS
330
332
102
}
330
332
100
AcDbScale
 70
     0
300
1/8" = 1'-0"
140
0.125
141
12.0
290
     0
  0
SCALE
  5
34A
102
{ACAD_REACTORS
330
332
102
}
330
332
100
AcDbScale
 70
     0
300
3/16" = 1'-0"
140
0.1875
141
12.0
290
     0
  0
SCALE
  5
34B
102
{ACAD_REACTORS
330
332
102
}
330
332
100
AcDbScale
 70
     0
300
1/4" = 1'-0"
140
0.25
141
12.0
290
     0
  0
SCALE
  5
34C
102
{ACAD_REACTORS
330
332
102
}
330
332
100
AcDbScale
 70
     0
300
3/8" = 1'-0"
140
0.375
141
12.0
290
     0
  0
SCALE
  5
34D
102
{ACAD_REACTORS
330
332
102
}
330
332
100
AcDbScale
 70
     0
300
1/2" = 1'-0"
140
0.5
141
12.0
290
     0
  0
SCALE
  5
34E
102
{ACAD_REACTORS
330
332
102
}
330
332
100
AcDbScale
 70
     0
300
3/4" = 1'-0"
140
0.75
141
12.0
290
     0
  0
SCALE
  5
34F
102
{ACAD_REACTORS
330
332
102
}
330
332
100
AcDbScale
 70
     0
300
1" = 1'-0"
140
1.0
141
12.0
290
     0
  0
SCALE
  5
350
102
{ACAD_REACTORS
330
332
102
}
330
332
100
AcDbScale
 70
     0
300
1-1/2" = 1'-0"
140
1.5
141
12.0
290
     0
  0
SCALE
  5
351
102
{ACAD_REACTORS
330
332
102
}
330
332
100
AcDbScale
 70
     0
300
3" = 1'-0"
140
3.0
141
12.0
290
     0
  0
SCALE
  5
352
102
{ACAD_REACTORS
330
332
102
}
330
332
100
AcDbScale
 70
     0
300
6" = 1'-0"
140
6.0
141
12.0
290
     0
  0
SCALE
  5
353
102
{ACAD_REACTORS
330
332
102
}
330
332
100
AcDbScale
 70
     0
300
1'-0" = 1'-0"
140
12.0
141
12.0
290
     0
  0
TABLESTYLE
  5
31A
102
{ACAD_XDICTIONARY
360
366
102
}
102
{ACAD_REACTORS
330
2C6
102
}
330
2C6
100
AcDbTableStyle
  3
Standard
 70
     1
 71
     0
 40
1.5
 41
1.5
280
     1
281
     0
  7
ROMANS
140
3.0
170
     5
 62
     7
 63
     7
283
     0
274
    -2
284
     1
 64
     0
275
    -2
285
     1
 65
     0
276
    -2
286
     1
 66
     0
277
    -2
287
     1
 67
     0
278
    -2
288
     1
 68
     0
279
    -2
289
     1
 69
     0
  7
ROMANS
140
6.0
170
     5
 62
     1
 63
     7
283
     0
274
    -2
284
     1
 64
     0
275
    -2
285
     1
 65
     0
276
    -2
286
     1
 66
     0
277
    -2
287
     1
 67
     0
278
    -2
288
     1
 68
     0
279
    -2
289
     1
 69
     0
  7
ROMANS
140
3.5
170
     5
 62
     3
 63
     7
283
     0
274
    -2
284
     1
 64
     0
275
    -2
285
     1
 65
     0
276
    -2
286
     1
 66
     0
277
    -2
287
     1
 67
     0
278
    -2
288
     1
 68
     0
279
    -2
289
     1
 69
     0
  0
TABLESTYLE
  5
2CC
102
{ACAD_XDICTIONARY
360
364
102
}
102
{ACAD_REACTORS
330
2C6
102
}
330
2C6
100
AcDbTableStyle
  3
Standard
 70
     0
 71
     0
 40
1.5
 41
1.5
280
     0
281
     0
  7
ROMANS
140
4.5
170
     5
 62
     7
 63
     7
283
     0
274
    -2
284
     1
 64
     0
275
    -2
285
     1
 65
     0
276
    -2
286
     1
 66
     0
277
    -2
287
     1
 67
     0
278
    -2
288
     1
 68
     0
279
    -2
289
     1
 69
     0
  7
ROMANS
140
6.0
170
     5
 62
     1
 63
     7
283
     0
274
    -2
284
     1
 64
     0
275
    -2
285
     1
 65
     0
276
    -2
286
     1
 66
     0
277
    -2
287
     1
 67
     0
278
    -2
288
     1
 68
     0
279
    -2
289
     1
 69
     0
  7
ROMANS
140
5.0
170
     5
 62
     3
 63
     7
283
     0
274
    -2
284
     1
 64
     0
275
    -2
285
     1
 65
     0
276
    -2
286
     1
 66
     0
277
    -2
287
     1
 67
     0
278
    -2
288
     1
 68
     0
279
    -2
289
     1
 69
     0
  0
TABLESTYLE
  5
2C7
102
{ACAD_XDICTIONARY
360
362
102
}
102
{ACAD_REACTORS
330
2C6
102
}
330
2C6
100
AcDbTableStyle
  3
Standard
 70
     0
 71
     0
 40
1.5
 41
1.5
280
     0
281
     0
  7
STANDARD
140
4.5
170
     2
 62
     0
 63
     7
283
     0
274
    -2
284
     1
 64
     0
275
    -2
285
     1
 65
     0
276
    -2
286
     1
 66
     0
277
    -2
287
     1
 67
     0
278
    -2
288
     1
 68
     0
279
    -2
289
     1
 69
     0
  7
STANDARD
140
6.0
170
     5
 62
     0
 63
     7
283
     0
274
    -2
284
     1
 64
     0
275
    -2
285
     1
 65
     0
276
    -2
286
     1
 66
     0
277
    -2
287
     1
 67
     0
278
    -2
288
     1
 68
     0
279
    -2
289
     1
 69
     0
  7
STANDARD
140
4.5
170
     5
 62
     0
 63
     7
283
     0
274
    -2
284
     1
 64
     0
275
    -2
285
     1
 65
     0
276
    -2
286
     1
 66
     0
277
    -2
287
     1
 67
     0
278
    -2
288
     1
 68
     0
279
    -2
289
     1
 69
     0
  0
VISUALSTYLE
  5
2BA
102
{ACAD_XDICTIONARY
360
15AB
102
}
102
{ACAD_REACTORS
330
2B4
102
}
330
2B4
100
AcDbVisualStyle
  2
2dWireframe
 70
     4
 71
     0
 72
     2
 73
     0
 90
        0
 40
-0.6
 41
-30.0
 62
     5
 63
     7
 74
     1
 91
        4
 64
     7
 65
   257
 75
     1
175
     1
 42
1.0
 92
        0
 66
   257
 43
1.0
 76
     1
 77
     6
 78
     2
 67
     7
 79
     5
170
     0
171
     0
290
     0
174
     0
 93
        1
 44
0.0
173
     0
291
     0
 45
0.0
1001
ACAD
1000
AcDbSavedByObjectVersion
1070
     0
  0
VISUALSTYLE
  5
2BC
102
{ACAD_XDICTIONARY
360
15AF
102
}
102
{ACAD_REACTORS
330
2B4
102
}
330
2B4
100
AcDbVisualStyle
  2
3D Hidden
 70
     6
 71
     1
 72
     2
 73
     2
 90
        0
 40
-0.6
 41
-30.0
 62
     5
 63
     7
 74
     2
 91
        2
 64
     7
 65
   257
 75
     2
175
     1
 42
40.0
 92
        0
 66
   257
 43
1.0
 76
     1
 77
     6
 78
     2
 67
     7
 79
     3
170
     0
171
     0
290
     0
174
     0
 93
        1
 44
0.0
173
     0
291
     0
 45
0.0
1001
ACAD
1000
AcDbSavedByObjectVersion
1070
     0
  0
VISUALSTYLE
  5
2BB
102
{ACAD_XDICTIONARY
360
15AD
102
}
102
{ACAD_REACTORS
330
2B4
102
}
330
2B4
100
AcDbVisualStyle
  2
3dWireframe
 70
     5
 71
     0
 72
     2
 73
     0
 90
        0
 40
-0.6
 41
-30.0
 62
     5
 63
     7
 74
     1
 91
        4
 64
     7
 65
   257
 75
     1
175
     1
 42
1.0
 92
        0
 66
   257
 43
1.0
 76
     1
 77
     6
 78
     2
 67
     7
 79
     5
170
     0
171
     0
290
     0
174
     0
 93
        1
 44
0.0
173
     0
291
     0
 45
0.0
1001
ACAD
1000
AcDbSavedByObjectVersion
1070
     0
  0
VISUALSTYLE
  5
2B9
102
{ACAD_XDICTIONARY
360
15A9
102
}
102
{ACAD_REACTORS
330
2B4
102
}
330
2B4
100
AcDbVisualStyle
  2
Basic
 70
     7
 71
     1
 72
     0
 73
     1
 90
        0
 40
-0.6
 41
-30.0
 62
     5
 63
     7
 74
     0
 91
        4
 64
     7
 65
   257
 75
     1
175
     1
 42
1.0
 92
        8
 66
     7
 43
1.0
 76
     1
 77
     6
 78
     2
 67
     7
 79
     5
170
     0
171
     0
290
     0
174
     0
 93
        1
 44
0.0
173
     0
291
     1
 45
0.0
1001
ACAD
1000
AcDbSavedByObjectVersion
1070
     0
  0
VISUALSTYLE
  5
2C0
102
{ACAD_XDICTIONARY
360
15B7
102
}
102
{ACAD_REACTORS
330
2B4
102
}
330
2B4
100
AcDbVisualStyle
  2
Brighten
 70
    12
 71
     2
 72
     2
 73
     0
 90
        0
 40
-0.6
 41
-30.0
 62
     5
 63
     7
 74
     1
 91
        4
 64
     7
 65
   257
 75
     1
175
     1
 42
1.0
 92
        8
 66
     7
 43
1.0
 76
     1
 77
     6
 78
     2
 67
     7
 79
     5
170
     0
171
     0
290
     0
174
     0
 93
        1
 44
50.0
173
     0
291
     1
 45
0.0
1001
ACAD
1000
AcDbSavedByObjectVersion
1070
     0
  0
VISUALSTYLE
  5
2C4
102
{ACAD_XDICTIONARY
360
15BF
102
}
102
{ACAD_REACTORS
330
2B4
102
}
330
2B4
100
AcDbVisualStyle
  2
ColorChange
 70
    16
 71
     2
 72
     2
 73
     3
 90
        0
 40
-0.6
 41
-30.0
 62
     5
 63
     8
 74
     1
 91
        4
 64
     7
 65
   257
 75
     1
175
     1
 42
1.0
 92
        8
 66
     8
 43
1.0
 76
     1
 77
     6
 78
     2
 67
     7
 79
     5
170
     0
171
     0
290
     0
174
     0
 93
        1
 44
0.0
173
     0
291
     1
 45
0.0
1001
ACAD
1000
AcDbSavedByObjectVersion
1070
     0
  0
VISUALSTYLE
  5
2BD
102
{ACAD_XDICTIONARY
360
15B1
102
}
102
{ACAD_REACTORS
330
2B4
102
}
330
2B4
100
AcDbVisualStyle
  2
Conceptual
 70
     9
 71
     3
 72
     2
 73
     0
 90
        0
 40
-0.6
 41
-30.0
 62
     5
 63
     7
 74
     2
 91
        2
 64
     7
 65
   257
 75
     1
175
     1
 42
40.0
 92
        8
 66
     7
 43
1.0
 76
     1
 77
     6
 78
     2
 67
     7
 79
     3
170
     0
171
     0
290
     0
174
     0
 93
        1
 44
0.0
173
     0
291
     0
 45
0.0
1001
ACAD
1000
AcDbSavedByObjectVersion
1070
     0
  0
VISUALSTYLE
  5
2BF
102
{ACAD_XDICTIONARY
360
15B5
102
}
102
{ACAD_REACTORS
330
2B4
102
}
330
2B4
100
AcDbVisualStyle
  2
Dim
 70
    11
 71
     2
 72
     2
 73
     0
 90
        0
 40
-0.6
 41
-30.0
 62
     5
 63
     7
 74
     1
 91
        4
 64
     7
 65
   257
 75
     1
175
     1
 42
1.0
 92
        8
 66
     7
 43
1.0
 76
     1
 77
     6
 78
     2
 67
     7
 79
     5
170
     0
171
     0
290
     0
174
     0
 93
        1
 44
-50.0
173
     0
291
     1
 45
0.0
1001
ACAD
1000
AcDbSavedByObjectVersion
1070
     0
  0
VISUALSTYLE
  5
156A
102
{ACAD_XDICTIONARY
360
15E1
102
}
102
{ACAD_REACTORS
330
2B4
102
}
330
2B4
100
AcDbVisualStyle
  2
EdgeColorOff
 70
    22
 71
     2
 72
     2
 73
     0
 90
        0
 40
-0.6
 41
-30.0
 62
     5
 63
     7
 74
     1
 91
        4
 64
     7
 65
   257
 75
     1
175
     1
 42
1.0
 92
        8
 66
     7
 43
1.0
 76
     1
 77
     6
 78
     2
 67
     7
 79
     5
170
     0
171
     0
290
     0
174
     0
 93
        1
 44
0.0
173
     0
291
     1
 45
0.0
1001
ACAD
1000
AcDbSavedByObjectVersion
1070
     0
  0
VISUALSTYLE
  5
2C3
102
{ACAD_XDICTIONARY
360
15BD
102
}
102
{ACAD_REACTORS
330
2B4
102
}
330
2B4
100
AcDbVisualStyle
  2
Facepattern
 70
    15
 71
     2
 72
     2
 73
     0
 90
        0
 40
-0.6
 41
-30.0
 62
     5
 63
     7
 74
     1
 91
        4
 64
     7
 65
   257
 75
     1
175
     1
 42
1.0
 92
        8
 66
     7
 43
1.0
 76
     1
 77
     6
 78
     2
 67
     7
 79
     5
170
     0
171
     0
290
     0
174
     0
 93
        1
 44
0.0
173
     0
291
     1
 45
0.0
1001
ACAD
1000
AcDbSavedByObjectVersion
1070
     0
  0
VISUALSTYLE
  5
2B5
102
{ACAD_XDICTIONARY
360
15A1
102
}
102
{ACAD_REACTORS
330
2B4
102
}
330
2B4
100
AcDbVisualStyle
  2
Flat
 70
     0
 71
     2
 72
     1
 73
     1
 90
        2
 40
-0.6
 41
30.0
 62
     5
 63
     7
 74
     0
 91
        4
 64
     7
 65
   257
 75
     1
175
     1
 42
1.0
 92
        8
 66
     7
 43
1.0
 76
     1
 77
     6
 78
     2
 67
     7
 79
     5
170
     0
171
     0
290
     0
174
     0
 93
       13
 44
0.0
173
     0
291
     1
 45
0.0
1001
ACAD
1000
AcDbSavedByObjectVersion
1070
     0
  0
VISUALSTYLE
  5
2B6
102
{ACAD_XDICTIONARY
360
15A3
102
}
102
{ACAD_REACTORS
330
2B4
102
}
330
2B4
100
AcDbVisualStyle
  2
FlatWithEdges
 70
     1
 71
     2
 72
     1
 73
     1
 90
        2
 40
-0.6
 41
30.0
 62
     5
 63
     7
 74
     1
 91
        4
 64
     7
 65
   257
 75
     1
175
     1
 42
1.0
 92
        0
 66
   257
 43
1.0
 76
     1
 77
     6
 78
     2
 67
     7
 79
     5
170
     0
171
     0
290
     0
174
     0
 93
       13
 44
0.0
173
     0
291
     1
 45
0.0
1001
ACAD
1000
AcDbSavedByObjectVersion
1070
     0
  0
VISUALSTYLE
  5
2B7
102
{ACAD_XDICTIONARY
360
15A5
102
}
102
{ACAD_REACTORS
330
2B4
102
}
330
2B4
100
AcDbVisualStyle
  2
Gouraud
 70
     2
 71
     2
 72
     2
 73
     1
 90
        2
 40
-0.6
 41
30.0
 62
     5
 63
     7
 74
     0
 91
        4
 64
     7
 65
   257
 75
     1
175
     1
 42
1.0
 92
        0
 66
     7
 43
1.0
 76
     1
 77
     6
 78
     2
 67
     7
 79
     5
170
     0
171
     0
290
     0
174
     0
 93
       13
 44
0.0
173
     0
291
     1
 45
0.0
1001
ACAD
1000
AcDbSavedByObjectVersion
1070
     0
  0
VISUALSTYLE
  5
2B8
102
{ACAD_XDICTIONARY
360
15A7
102
}
102
{ACAD_REACTORS
330
2B4
102
}
330
2B4
100
AcDbVisualStyle
  2
GouraudWithEdges
 70
     3
 71
     2
 72
     2
 73
     1
 90
        2
 40
-0.6
 41
30.0
 62
     5
 63
     7
 74
     1
 91
        4
 64
     7
 65
   257
 75
     1
175
     1
 42
1.0
 92
        0
 66
   257
 43
1.0
 76
     1
 77
     6
 78
     2
 67
     7
 79
     5
170
     0
171
     0
290
     0
174
     0
 93
       13
 44
0.0
173
     0
291
     1
 45
0.0
1001
ACAD
1000
AcDbSavedByObjectVersion
1070
     0
  0
VISUALSTYLE
  5
1562
102
{ACAD_XDICTIONARY
360
15D1
102
}
102
{ACAD_REACTORS
330
2B4
102
}
330
2B4
100
AcDbVisualStyle
  2
Hidden
 70
     6
 71
     1
 72
     2
 73
     2
 90
        0
 40
-0.6
 41
-30.0
 62
     5
 63
     7
 74
     2
 91
        2
 64
     7
 65
   257
 75
     2
175
     1
 42
40.0
 92
        0
 66
   257
 43
1.0
 76
     1
 77
     6
 78
     2
 67
     7
 79
     3
170
     0
171
     0
290
     0
174
     0
 93
        1
 44
0.0
173
     0
291
     0
 45
0.0
1001
ACAD
1000
AcDbSavedByObjectVersion
1070
     0
  0
VISUALSTYLE
  5
1568
102
{ACAD_XDICTIONARY
360
15DD
102
}
102
{ACAD_REACTORS
330
2B4
102
}
330
2B4
100
AcDbVisualStyle
  2
JitterOff
 70
    20
 71
     2
 72
     2
 73
     0
 90
        0
 40
-0.6
 41
-30.0
 62
     5
 63
     7
 74
     1
 91
        4
 64
     7
 65
   257
 75
     1
175
     1
 42
1.0
 92
       10
 66
     7
 43
1.0
 76
     1
 77
     6
 78
     2
 67
     7
 79
     5
170
     0
171
     0
290
     0
174
     0
 93
        1
 44
0.0
173
     0
291
     1
 45
0.0
1001
ACAD
1000
AcDbSavedByObjectVersion
1070
     0
  0
VISUALSTYLE
  5
2C2
102
{ACAD_XDICTIONARY
360
15BB
102
}
102
{ACAD_REACTORS
330
2B4
102
}
330
2B4
100
AcDbVisualStyle
  2
Linepattern
 70
    14
 71
     2
 72
     2
 73
     0
 90
        0
 40
-0.6
 41
-30.0
 62
     5
 63
     7
 74
     1
 91
        4
 64
     7
 65
   257
 75
     7
175
     7
 42
1.0
 92
        8
 66
     7
 43
1.0
 76
     1
 77
     6
 78
     2
 67
     7
 79
     5
170
     0
171
     0
290
     0
174
     0
 93
        1
 44
0.0
173
     0
291
     1
 45
0.0
1001
ACAD
1000
AcDbSavedByObjectVersion
1070
     0
  0
VISUALSTYLE
  5
1569
102
{ACAD_XDICTIONARY
360
15DF
102
}
102
{ACAD_REACTORS
330
2B4
102
}
330
2B4
100
AcDbVisualStyle
  2
OverhangOff
 70
    21
 71
     2
 72
     2
 73
     0
 90
        0
 40
-0.6
 41
-30.0
 62
     5
 63
     7
 74
     1
 91
        4
 64
     7
 65
   257
 75
     1
175
     1
 42
1.0
 92
        9
 66
     7
 43
1.0
 76
     1
 77
     6
 78
     2
 67
     7
 79
     5
170
     0
171
     0
290
     0
174
     0
 93
        1
 44
0.0
173
     0
291
     1
 45
0.0
1001
ACAD
1000
AcDbSavedByObjectVersion
1070
     0
  0
VISUALSTYLE
  5
2BE
102
{ACAD_XDICTIONARY
360
15B3
102
}
102
{ACAD_REACTORS
330
2B4
102
}
330
2B4
100
AcDbVisualStyle
  2
Realistic
 70
     8
 71
     2
 72
     2
 73
     0
 90
        0
 40
-0.6
 41
-30.0
 62
     5
 63
     7
 74
     1
 91
        0
 64
     7
 65
   257
 75
     1
175
     1
 42
1.0
 92
        8
 66
     8
 43
1.0
 76
     1
 77
     6
 78
     2
 67
     7
 79
     5
170
     0
171
     0
290
     0
174
     0
 93
       13
 44
0.0
173
     0
291
     0
 45
0.0
1001
ACAD
1000
AcDbSavedByObjectVersion
1070
     0
  0
VISUALSTYLE
  5
1567
102
{ACAD_XDICTIONARY
360
15DB
102
}
102
{ACAD_REACTORS
330
2B4
102
}
330
2B4
100
AcDbVisualStyle
  2
Shaded
 70
    27
 71
     2
 72
     2
 73
     1
 90
        2
 40
-0.6
 41
30.0
 62
     5
 63
     7
 74
     0
 91
        4
 64
     7
 65
   257
 75
     1
175
     1
 42
1.0
 92
        8
 66
   257
 43
1.0
 76
     1
 77
     6
 78
     2
 67
     8
 79
     3
170
     0
171
     0
290
     0
174
     0
 93
        5
 44
0.0
173
     0
291
     0
 45
0.0
1001
ACAD
1000
AcDbSavedByObjectVersion
1070
     0
  0
VISUALSTYLE
  5
1566
102
{ACAD_XDICTIONARY
360
15D9
102
}
102
{ACAD_REACTORS
330
2B4
102
}
330
2B4
100
AcDbVisualStyle
  2
Shaded with edges
 70
    26
 71
     2
 72
     2
 73
     1
 90
        2
 40
-0.6
 41
30.0
 62
     5
 63
     7
 74
     1
 91
       10
 64
     7
 65
   257
 75
     2
175
     1
 42
1.0
 92
        8
 66
   257
 43
1.0
 76
     1
 77
     6
 78
     2
 67
     7
 79
     3
170
     0
171
     0
290
     0
174
     0
 93
        5
 44
0.0
173
     0
291
     0
 45
0.0
1001
ACAD
1000
AcDbSavedByObjectVersion
1070
     0
  0
VISUALSTYLE
  5
1563
102
{ACAD_XDICTIONARY
360
15D3
102
}
102
{ACAD_REACTORS
330
2B4
102
}
330
2B4
100
AcDbVisualStyle
  2
Shades of Gray
 70
    23
 71
     2
 72
     2
 73
     3
 90
        0
 40
-0.6
 41
-30.0
 62
     5
 63
     7
 74
     2
 91
        2
 64
     7
 65
     7
 75
     1
175
     1
 42
40.0
 92
        8
 66
     7
 43
1.0
 76
     1
 77
     6
 78
     2
 67
     7
 79
     3
170
     0
171
     0
290
     0
174
     0
 93
        1
 44
0.0
173
     0
291
     0
 45
0.0
1001
ACAD
1000
AcDbSavedByObjectVersion
1070
     0
  0
VISUALSTYLE
  5
1564
102
{ACAD_XDICTIONARY
360
15D5
102
}
102
{ACAD_REACTORS
330
2B4
102
}
330
2B4
100
AcDbVisualStyle
  2
Sketchy
 70
    24
 71
     1
 72
     2
 73
     2
 90
        0
 40
-0.6
 41
-30.0
 62
     5
 63
     7
 74
     2
 91
        2
 64
     7
 65
     7
 75
     1
175
     1
 42
40.0
 92
       11
 66
     7
 43
1.0
 76
     1
 77
     6
 78
     2
 67
     7
 79
     6
170
     0
171
     0
290
     0
174
     0
 93
        1
 44
0.0
173
     0
291
     0
 45
0.0
1001
ACAD
1000
AcDbSavedByObjectVersion
1070
     0
  0
VISUALSTYLE
  5
2C1
102
{ACAD_XDICTIONARY
360
15B9
102
}
102
{ACAD_REACTORS
330
2B4
102
}
330
2B4
100
AcDbVisualStyle
  2
Thicken
 70
    13
 71
     2
 72
     2
 73
     0
 90
        0
 40
-0.6
 41
-30.0
 62
     5
 63
     7
 74
     1
 91
        4
 64
     7
 65
   257
 75
     1
175
     1
 42
1.0
 92
       12
 66
     7
 43
1.0
 76
     1
 77
     6
 78
     2
 67
     7
 79
     5
170
     0
171
     0
290
     0
174
     0
 93
        1
 44
0.0
173
     0
291
     1
 45
0.0
1001
ACAD
1000
AcDbSavedByObjectVersion
1070
     0
  0
VISUALSTYLE
  5
1561
102
{ACAD_XDICTIONARY
360
15CF
102
}
102
{ACAD_REACTORS
330
2B4
102
}
330
2B4
100
AcDbVisualStyle
  2
Wireframe
 70
     5
 71
     0
 72
     2
 73
     0
 90
        0
 40
-0.6
 41
-30.0
 62
     5
 63
     7
 74
     1
 91
        4
 64
     7
 65
   257
 75
     1
175
     1
 42
1.0
 92
        0
 66
   257
 43
1.0
 76
     1
 77
     6
 78
     2
 67
     7
 79
     3
170
     0
171
     0
290
     0
174
     0
 93
        1
 44
0.0
173
     0
291
     0
 45
0.0
1001
ACAD
1000
AcDbSavedByObjectVersion
1070
     0
  0
VISUALSTYLE
  5
1565
102
{ACAD_XDICTIONARY
360
15D7
102
}
102
{ACAD_REACTORS
330
2B4
102
}
330
2B4
100
AcDbVisualStyle
  2
X-Ray
 70
    25
 71
     2
 72
     2
 73
     1
 90
        1
 40
0.5
 41
-30.0
 62
     5
 63
     7
 74
     1
 91
        0
 64
     7
 65
   257
 75
     1
175
     1
 42
1.0
 92
        8
 66
     7
 43
1.0
 76
     1
 77
     6
 78
     2
 67
     7
 79
     3
170
     0
171
     0
290
     0
174
     0
 93
       13
 44
0.0
173
     0
291
     0
 45
0.0
1001
ACAD
1000
AcDbSavedByObjectVersion
1070
     0
  0
DICTIONARYVAR
  5
36B
102
{ACAD_REACTORS
330
2AA
102
}
330
2AA
100
DictionaryVariables
280
     0
  1
1:1
  0
DICTIONARYVAR
  5
369
102
{ACAD_REACTORS
330
2AA
102
}
330
2AA
100
DictionaryVariables
280
     0
  1
STANDARD
  0
DICTIONARYVAR
  5
312
102
{ACAD_REACTORS
330
2AA
102
}
330
2AA
100
DictionaryVariables
280
     0
  1
STANDARD
  0
DICTIONARYVAR
  5
2AB
102
{ACAD_REACTORS
330
2AA
102
}
330
2AA
100
DictionaryVariables
280
     0
  1
2
  0
DICTIONARYVAR
  5
133B
102
{ACAD_REACTORS
330
2AA
102
}
330
2AA
100
DictionaryVariables
280
     0
  1
0
  0
DICTIONARYVAR
  5
314
102
{ACAD_REACTORS
330
2AA
102
}
330
2AA
100
DictionaryVariables
280
     0
  1
0
  0
DICTIONARYVAR
  5
133D
102
{ACAD_REACTORS
330
2AA
102
}
330
2AA
100
DictionaryVariables
280
     0
  1
1
  0
DICTIONARYVAR
  5
133E
102
{ACAD_REACTORS
330
2AA
102
}
330
2AA
100
DictionaryVariables
280
     0
  1
15
  0
DICTIONARYVAR
  5
36C
102
{ACAD_REACTORS
330
2AA
102
}
330
2AA
100
DictionaryVariables
280
     0
  1
0
  0
DICTIONARYVAR
  5
133C
102
{ACAD_REACTORS
330
2AA
102
}
330
2AA
100
DictionaryVariables
280
     0
  1
10.000000
  0
DICTIONARYVAR
  5
36A
102
{ACAD_REACTORS
330
2AA
102
}
330
2AA
100
DictionaryVariables
280
     0
  1
0
  0
DICTIONARYVAR
  5
313
102
{ACAD_REACTORS
330
2AA
102
}
330
2AA
100
DictionaryVariables
280
     0
  1
127
  0
DICTIONARYVAR
  5
158F
102
{ACAD_REACTORS
330
2AA
102
}
330
2AA
100
DictionaryVariables
280
     0
  1
0
  0
XRECORD
  5
51
102
{ACAD_REACTORS
330
50
102
}
330
50
100
AcDbXrecord
280
     1
 91
        0
  0
ACAD_PROXY_OBJECT
  5
6DA
102
{ACAD_REACTORS
330
6D9
102
}
330
6D9
100
AcDbProxyObject
 90
      499
 91
      512
 95
  3276827
 70
     0
 93
      153
310
407907440045004600410055004C0054007A00CC
 94
        0
1001
ACAD
1000
AcRTDxfName
1000
ACDBQSCATEGORY
  0
ACAD_PROXY_OBJECT
  5
6EB
102
{ACAD_REACTORS
330
6EA
102
}
330
6EA
100
AcDbProxyObject
 90
      499
 91
      513
 95
  3276827
 70
     0
 93
     2908
310
40B520280D55480A0281203520280A0280C0000000000000A200000000000000448080C00000000000019200000000000000688120280A0280A0E88008A008C008200AA009800A80082280027802980170020E88008A008C008200AA009800A80080A180202860120C86009E008800920086008A008A220024802680228027
310
00298024802780270024802F8022002480268018801680220024802680190024EA2007400B800A200A600BE00A4008A00A8008A00B80082009A00840092008A009C00A8009200B800A8009E00A000BE00880092008A00A400A4008A00B800A8008200840060005C008800AE008E0095A8801D002E00288029802F802900228
310
02A0022802E002080268021002480228027002A0024802E002A00278028002F802200248022802900290022802E002A00278028002F802800208026002600170022002B80238020C86009E008800920086008A0085A200228029802180290024802D00248027802700228050413C
 94
        0
1001
ACAD
1000
AcRTDxfName
1000
ACDBQSPALLSTYLE
  0
XRECORD
  5
155C
102
{ACAD_REACTORS
330
1557
102
}
330
1557
100
AcDbXrecord
280
     1
  9
X5793
  0
XRECORD
  5
155B
102
{ACAD_REACTORS
330
1557
102
}
330
1557
100
AcDbXrecord
280
     1
  2
PROF.Q30 1V  TAMP. ALL.ANOD.ARG
  3
P-5837
  6
X5793
280
     2
310
6465736372697A696F6E650050524F462E513330203156202054414D502E20414C4C2E414E4F442E41524700444154410030362F30382F30390064697365676E61746F7265004D6172636F20412E00717461003100554D004D4C0052455600300044494D3100313030300044494D454E53494F4E495F44494D312D44494D3200313030300024736F7572636500416E61677261666963612047657374696F6E616C6500434F444943450058423235353330005452415454414D454E544900414E4F442E415247454E544F004E4F544500414E5449434F524F44414C204C454741363036302F554E49203930303631004D4154455249414C4500414C4C554D49
311
4E494F0000
 10
1382.417214265208
 20
2048.39553451124
 30
0.0
  0
XRECORD
  5
1559
102
{ACAD_REACTORS
330
1557
102
}
330
1557
100
AcDbXrecord
280
     1
  2
.cart
  3
P-5DA5
  6
X5793
280
     1
310
6465736372697A696F6E65002E6361727400444154410030342F30382F30390064697365676E61746F7265004D6172636F20412E00717461003100554D004E52005245560030005343414C4100313A31300000
 10
0.0
 20
0.0
 30
0.0
  0
XRECORD
  5
155A
102
{ACAD_REACTORS
330
1557
102
}
330
1557
100
AcDbXrecord
280
     1
  2
.1
  3
P-6B6E
  6
X5793
280
     1
310
6465736372697A696F6E65002E3100444154410030342F30382F30390064697365676E61746F7265004D6172636F20412E00717461003100554D004E52005245560030005343414C4100313A310000
 10
0.0
 20
0.0
 30
0.0
  0
XRECORD
  5
1558
102
{ACAD_REACTORS
330
1557
102
}
330
1557
100
AcDbXrecord
280
     1
  2
PROFIL.Q30-1V TAMP./ARG.
  3
P-0000
280
     1
310
6465736372697A696F6E650050524F46494C2E5133302D31562054414D502E2F4152472E00444154410030342F30382F303900554D004D4C0052455600300044495345474E41544F5245004D6172636F20412E005343414C4100313A3130005452415454414D454E544900414E4F442E415247454E544F005154410031004E4F544500414E5449434F524F44414C204C45474120363036302F554E493930303631004D4154455249414C4500414C4C554D494E494F00434F444943450058423235353330002E666D7400340000
 10
0.0
 20
0.0
 30
0.0
  0
XRECORD
  5
6E1
102
{ACAD_REACTORS
330
6E0
102
}
330
6E0
100
AcDbXrecord
280
     1
 90
      202
 91
      144
  0
DICTIONARY
  5
1599
330
48
100
AcDbDictionary
280
     1
281
     1
  3
ACAD_XREC_ROUNDTRIP
360
159A
  0
DICTIONARY
  5
1597
330
47
100
AcDbDictionary
280
     1
281
     1
  3
ACAD_XREC_ROUNDTRIP
360
1598
  0
DICTIONARY
  5
159D
330
2B2
100
AcDbDictionary
280
     1
281
     1
  3
ACAD_XREC_ROUNDTRIP
360
159E
  0
DICTIONARY
  5
159B
330
2B1
100
AcDbDictionary
280
     1
281
     1
  3
ACAD_XREC_ROUNDTRIP
360
159C
  0
DICTIONARY
  5
159F
330
2B3
100
AcDbDictionary
280
     1
281
     1
  3
ACAD_XREC_ROUNDTRIP
360
15A0
  0
DICTIONARY
  5
15C5
330
14F8
100
AcDbDictionary
280
     1
281
     1
  3
ACAD_XREC_ROUNDTRIP
360
15C6
  0
DICTIONARY
  5
15C7
330
14F9
100
AcDbDictionary
280
     1
281
     1
  3
ACAD_XREC_ROUNDTRIP
360
15C8
  0
DICTIONARY
  5
15C9
330
14FA
100
AcDbDictionary
280
     1
281
     1
  3
ACAD_XREC_ROUNDTRIP
360
15CA
  0
DICTIONARY
  5
15CB
330
14FB
100
AcDbDictionary
280
     1
281
     1
  3
ACAD_XREC_ROUNDTRIP
360
15CC
  0
DICTIONARY
  5
15CD
330
14FC
100
AcDbDictionary
280
     1
281
     1
  3
ACAD_XREC_ROUNDTRIP
360
15CE
  0
DICTIONARY
  5
366
330
31A
100
AcDbDictionary
280
     1
281
     1
  3
ACAD_ROUNDTRIP_2008_TABLESTYLE_CELLSTYLEMAP
360
1592
  3
ACAD_XREC_ROUNDTRIP
360
15C3
  0
DICTIONARY
  5
364
330
2CC
100
AcDbDictionary
280
     1
281
     1
  3
ACAD_ROUNDTRIP_2008_TABLESTYLE_CELLSTYLEMAP
360
1591
  3
ACAD_XREC_ROUNDTRIP
360
15C2
  0
DICTIONARY
  5
362
330
2C7
100
AcDbDictionary
280
     1
281
     1
  3
ACAD_ROUNDTRIP_2008_TABLESTYLE_CELLSTYLEMAP
360
1590
  3
ACAD_XREC_ROUNDTRIP
360
15C1
  0
DICTIONARY
  5
15AB
330
2BA
100
AcDbDictionary
280
     1
281
     1
  3
ACAD_XREC_ROUNDTRIP
360
15AC
  0
DICTIONARY
  5
15AF
330
2BC
100
AcDbDictionary
280
     1
281
     1
  3
ACAD_XREC_ROUNDTRIP
360
15B0
  0
DICTIONARY
  5
15AD
330
2BB
100
AcDbDictionary
280
     1
281
     1
  3
ACAD_XREC_ROUNDTRIP
360
15AE
  0
DICTIONARY
  5
15A9
330
2B9
100
AcDbDictionary
280
     1
281
     1
  3
ACAD_XREC_ROUNDTRIP
360
15AA
  0
DICTIONARY
  5
15B7
330
2C0
100
AcDbDictionary
280
     1
281
     1
  3
ACAD_XREC_ROUNDTRIP
360
15B8
  0
DICTIONARY
  5
15BF
330
2C4
100
AcDbDictionary
280
     1
281
     1
  3
ACAD_XREC_ROUNDTRIP
360
15C0
  0
DICTIONARY
  5
15B1
330
2BD
100
AcDbDictionary
280
     1
281
     1
  3
ACAD_XREC_ROUNDTRIP
360
15B2
  0
DICTIONARY
  5
15B5
330
2BF
100
AcDbDictionary
280
     1
281
     1
  3
ACAD_XREC_ROUNDTRIP
360
15B6
  0
DICTIONARY
  5
15E1
330
156A
100
AcDbDictionary
280
     1
281
     1
  3
ACAD_XREC_ROUNDTRIP
360
15E2
  0
DICTIONARY
  5
15BD
330
2C3
100
AcDbDictionary
280
     1
281
     1
  3
ACAD_XREC_ROUNDTRIP
360
15BE
  0
DICTIONARY
  5
15A1
330
2B5
100
AcDbDictionary
280
     1
281
     1
  3
ACAD_XREC_ROUNDTRIP
360
15A2
  0
DICTIONARY
  5
15A3
330
2B6
100
AcDbDictionary
280
     1
281
     1
  3
ACAD_XREC_ROUNDTRIP
360
15A4
  0
DICTIONARY
  5
15A5
330
2B7
100
AcDbDictionary
280
     1
281
     1
  3
ACAD_XREC_ROUNDTRIP
360
15A6
  0
DICTIONARY
  5
15A7
330
2B8
100
AcDbDictionary
280
     1
281
     1
  3
ACAD_XREC_ROUNDTRIP
360
15A8
  0
DICTIONARY
  5
15D1
330
1562
100
AcDbDictionary
280
     1
281
     1
  3
ACAD_XREC_ROUNDTRIP
360
15D2
  0
DICTIONARY
  5
15DD
330
1568
100
AcDbDictionary
280
     1
281
     1
  3
ACAD_XREC_ROUNDTRIP
360
15DE
  0
DICTIONARY
  5
15BB
330
2C2
100
AcDbDictionary
280
     1
281
     1
  3
ACAD_XREC_ROUNDTRIP
360
15BC
  0
DICTIONARY
  5
15DF
330
1569
100
AcDbDictionary
280
     1
281
     1
  3
ACAD_XREC_ROUNDTRIP
360
15E0
  0
DICTIONARY
  5
15B3
330
2BE
100
AcDbDictionary
280
     1
281
     1
  3
ACAD_XREC_ROUNDTRIP
360
15B4
  0
DICTIONARY
  5
15DB
330
1567
100
AcDbDictionary
280
     1
281
     1
  3
ACAD_XREC_ROUNDTRIP
360
15DC
  0
DICTIONARY
  5
15D9
330
1566
100
AcDbDictionary
280
     1
281
     1
  3
ACAD_XREC_ROUNDTRIP
360
15DA
  0
DICTIONARY
  5
15D3
330
1563
100
AcDbDictionary
280
     1
281
     1
  3
ACAD_XREC_ROUNDTRIP
360
15D4
  0
DICTIONARY
  5
15D5
330
1564
100
AcDbDictionary
280
     1
281
     1
  3
ACAD_XREC_ROUNDTRIP
360
15D6
  0
DICTIONARY
  5
15B9
330
2C1
100
AcDbDictionary
280
     1
281
     1
  3
ACAD_XREC_ROUNDTRIP
360
15BA
  0
DICTIONARY
  5
15CF
330
1561
100
AcDbDictionary
280
     1
281
     1
  3
ACAD_XREC_ROUNDTRIP
360
15D0
  0
DICTIONARY
  5
15D7
330
1565
100
AcDbDictionary
280
     1
281
     1
  3
ACAD_XREC_ROUNDTRIP
360
15D8
  0
XRECORD
  5
159A
102
{ACAD_REACTORS
330
1599
102
}
330
1599
100
AcDbXrecord
280
     1
102
SHADEPLOT
 70
     0
102
SHADEPLOTRESLEVEL
 70
     2
102
SHADEPLOTCUSTOMDPI
 70
   300
  0
XRECORD
  5
1598
102
{ACAD_REACTORS
330
1597
102
}
330
1597
100
AcDbXrecord
280
     1
102
SHADEPLOT
 70
     0
102
SHADEPLOTRESLEVEL
 70
     2
102
SHADEPLOTCUSTOMDPI
 70
   300
  0
XRECORD
  5
159E
102
{ACAD_REACTORS
330
159D
102
}
330
159D
100
AcDbXrecord
280
     1
102
MATERIAL
148
0.0
149
0.0
149
0.0
 93
        0
 94
       63
282
     0
 72
     1
 77
     1
171
     1
175
     1
179
     1
273
     0
  0
XRECORD
  5
159C
102
{ACAD_REACTORS
330
159B
102
}
330
159B
100
AcDbXrecord
280
     1
102
MATERIAL
148
0.0
149
0.0
149
0.0
 93
        0
 94
       63
282
     0
 72
     1
 77
     1
171
     1
175
     1
179
     1
273
     0
  0
XRECORD
  5
15A0
102
{ACAD_REACTORS
330
159F
102
}
330
159F
100
AcDbXrecord
280
     1
102
MATERIAL
148
0.0
149
0.0
149
0.0
 93
        0
 94
       63
282
     0
 72
     1
 77
     1
171
     1
175
     1
179
     1
273
     0
  0
XRECORD
  5
15C6
102
{ACAD_REACTORS
330
15C5
102
}
330
15C5
100
AcDbXrecord
280
     1
102
SHADEPLOT
 70
     0
102
SHADEPLOTRESLEVEL
 70
     2
102
SHADEPLOTCUSTOMDPI
 70
   300
  0
XRECORD
  5
15C8
102
{ACAD_REACTORS
330
15C7
102
}
330
15C7
100
AcDbXrecord
280
     1
102
SHADEPLOT
 70
     0
102
SHADEPLOTRESLEVEL
 70
     2
102
SHADEPLOTCUSTOMDPI
 70
   300
  0
XRECORD
  5
15CA
102
{ACAD_REACTORS
330
15C9
102
}
330
15C9
100
AcDbXrecord
280
     1
102
SHADEPLOT
 70
     0
102
SHADEPLOTRESLEVEL
 70
     2
102
SHADEPLOTCUSTOMDPI
 70
   300
  0
XRECORD
  5
15CC
102
{ACAD_REACTORS
330
15CB
102
}
330
15CB
100
AcDbXrecord
280
     1
102
SHADEPLOT
 70
     0
102
SHADEPLOTRESLEVEL
 70
     2
102
SHADEPLOTCUSTOMDPI
 70
   300
  0
XRECORD
  5
15CE
102
{ACAD_REACTORS
330
15CD
102
}
330
15CD
100
AcDbXrecord
280
     1
102
SHADEPLOT
 70
     0
102
SHADEPLOTRESLEVEL
 70
     2
102
SHADEPLOTCUSTOMDPI
 70
   300
  0
CELLSTYLEMAP
  5
1592
102
{ACAD_REACTORS
330
366
102
}
330
366
100
AcDbCellStyleMap
 90
        3
300
CELLSTYLE
  1
TABLEFORMAT_BEGIN
 90
        5
170
     1
 91
        0
 92
    32768
 62
   257
 93
        1
300
CONTENTFORMAT
  1
CONTENTFORMAT_BEGIN
 90
        0
 91
        0
 92
      512
 93
        0
300

 40
0.0
140
1.0
 94
        5
 62
     1
340
1B
144
6.0
309
CONTENTFORMAT_END
171
     1
301
MARGIN
  1
CELLMARGIN_BEGIN
 40
1.5
 40
1.5
 40
1.5
 40
1.5
 40
0.18
 40
0.18
309
CELLMARGIN_END
 94
        6
 95
        1
302
GRIDFORMAT
  1
GRIDFORMAT_BEGIN
 90
        0
 91
        1
 62
     0
 92
       -2
340
0
 93
        0
 40
0.045
309
GRIDFORMAT_END
 95
        2
302
GRIDFORMAT
  1
GRIDFORMAT_BEGIN
 90
        0
 91
        1
 62
     0
 92
       -2
340
0
 93
        0
 40
0.045
309
GRIDFORMAT_END
 95
        4
302
GRIDFORMAT
  1
GRIDFORMAT_BEGIN
 90
        0
 91
        1
 62
     0
 92
       -2
340
0
 93
        0
 40
0.045
309
GRIDFORMAT_END
 95
        8
302
GRIDFORMAT
  1
GRIDFORMAT_BEGIN
 90
        0
 91
        1
 62
     0
 92
       -2
340
0
 93
        0
 40
0.045
309
GRIDFORMAT_END
 95
       16
302
GRIDFORMAT
  1
GRIDFORMAT_BEGIN
 90
        0
 91
        1
 62
     0
 92
       -2
340
0
 93
        0
 40
0.045
309
GRIDFORMAT_END
 95
       32
302
GRIDFORMAT
  1
GRIDFORMAT_BEGIN
 90
        0
 91
        1
 62
     0
 92
       -2
340
0
 93
        0
 40
0.045
309
GRIDFORMAT_END
309
TABLEFORMAT_END
  1
CELLSTYLE_BEGIN
 90
        1
 91
        1
300
_TITLE
309
CELLSTYLE_END
300
CELLSTYLE
  1
TABLEFORMAT_BEGIN
 90
        5
170
     1
 91
        0
 92
        0
 62
   257
 93
        1
300
CONTENTFORMAT
  1
CONTENTFORMAT_BEGIN
 90
        0
 91
        0
 92
      512
 93
        0
300

 40
0.0
140
1.0
 94
        5
 62
     3
340
1B
144
3.5
309
CONTENTFORMAT_END
171
     1
301
MARGIN
  1
CELLMARGIN_BEGIN
 40
1.5
 40
1.5
 40
1.5
 40
1.5
 40
0.18
 40
0.18
309
CELLMARGIN_END
 94
        6
 95
        1
302
GRIDFORMAT
  1
GRIDFORMAT_BEGIN
 90
        0
 91
        1
 62
     0
 92
       -2
340
0
 93
        0
 40
0.045
309
GRIDFORMAT_END
 95
        2
302
GRIDFORMAT
  1
GRIDFORMAT_BEGIN
 90
        0
 91
        1
 62
     0
 92
       -2
340
0
 93
        0
 40
0.045
309
GRIDFORMAT_END
 95
        4
302
GRIDFORMAT
  1
GRIDFORMAT_BEGIN
 90
        0
 91
        1
 62
     0
 92
       -2
340
0
 93
        0
 40
0.045
309
GRIDFORMAT_END
 95
        8
302
GRIDFORMAT
  1
GRIDFORMAT_BEGIN
 90
        0
 91
        1
 62
     0
 92
       -2
340
0
 93
        0
 40
0.045
309
GRIDFORMAT_END
 95
       16
302
GRIDFORMAT
  1
GRIDFORMAT_BEGIN
 90
        0
 91
        1
 62
     0
 92
       -2
340
0
 93
        0
 40
0.045
309
GRIDFORMAT_END
 95
       32
302
GRIDFORMAT
  1
GRIDFORMAT_BEGIN
 90
        0
 91
        1
 62
     0
 92
       -2
340
0
 93
        0
 40
0.045
309
GRIDFORMAT_END
309
TABLEFORMAT_END
  1
CELLSTYLE_BEGIN
 90
        2
 91
        1
300
_HEADER
309
CELLSTYLE_END
300
CELLSTYLE
  1
TABLEFORMAT_BEGIN
 90
        5
170
     1
 91
        0
 92
        0
 62
   257
 93
        1
300
CONTENTFORMAT
  1
CONTENTFORMAT_BEGIN
 90
        0
 91
        0
 92
      512
 93
        0
300

 40
0.0
140
1.0
 94
        5
 62
     7
340
1B
144
3.0
309
CONTENTFORMAT_END
171
     1
301
MARGIN
  1
CELLMARGIN_BEGIN
 40
1.5
 40
1.5
 40
1.5
 40
1.5
 40
0.18
 40
0.18
309
CELLMARGIN_END
 94
        6
 95
        1
302
GRIDFORMAT
  1
GRIDFORMAT_BEGIN
 90
        0
 91
        1
 62
     0
 92
       -2
340
0
 93
        0
 40
0.045
309
GRIDFORMAT_END
 95
        2
302
GRIDFORMAT
  1
GRIDFORMAT_BEGIN
 90
        0
 91
        1
 62
     0
 92
       -2
340
0
 93
        0
 40
0.045
309
GRIDFORMAT_END
 95
        4
302
GRIDFORMAT
  1
GRIDFORMAT_BEGIN
 90
        0
 91
        1
 62
     0
 92
       -2
340
0
 93
        0
 40
0.045
309
GRIDFORMAT_END
 95
        8
302
GRIDFORMAT
  1
GRIDFORMAT_BEGIN
 90
        0
 91
        1
 62
     0
 92
       -2
340
0
 93
        0
 40
0.045
309
GRIDFORMAT_END
 95
       16
302
GRIDFORMAT
  1
GRIDFORMAT_BEGIN
 90
        0
 91
        1
 62
     0
 92
       -2
340
0
 93
        0
 40
0.045
309
GRIDFORMAT_END
 95
       32
302
GRIDFORMAT
  1
GRIDFORMAT_BEGIN
 90
        0
 91
        1
 62
     0
 92
       -2
340
0
 93
        0
 40
0.045
309
GRIDFORMAT_END
309
TABLEFORMAT_END
  1
CELLSTYLE_BEGIN
 90
        3
 91
        2
300
_DATA
309
CELLSTYLE_END
  0
XRECORD
  5
15C3
102
{ACAD_REACTORS
330
366
102
}
330
366
100
AcDbXrecord
280
     1
102
ACAD_ROUNDTRIP_PRE2007_TABLESTYLE
 90
      512
 91
        0
  1

 92
      512
 93
        0
  2

 94
      512
 95
        0
  3

  0
CELLSTYLEMAP
  5
1591
102
{ACAD_REACTORS
330
364
102
}
330
364
100
AcDbCellStyleMap
 90
        3
300
CELLSTYLE
  1
TABLEFORMAT_BEGIN
 90
        5
170
     1
 91
        0
 92
    32768
 62
   257
 93
        1
300
CONTENTFORMAT
  1
CONTENTFORMAT_BEGIN
 90
        0
 91
        0
 92
      512
 93
        0
300

 40
0.0
140
1.0
 94
        5
 62
     1
340
1B
144
6.0
309
CONTENTFORMAT_END
171
     1
301
MARGIN
  1
CELLMARGIN_BEGIN
 40
1.5
 40
1.5
 40
1.5
 40
1.5
 40
0.18
 40
0.18
309
CELLMARGIN_END
 94
        6
 95
        1
302
GRIDFORMAT
  1
GRIDFORMAT_BEGIN
 90
        0
 91
        1
 62
     0
 92
       -2
340
0
 93
        0
 40
0.045
309
GRIDFORMAT_END
 95
        2
302
GRIDFORMAT
  1
GRIDFORMAT_BEGIN
 90
        0
 91
        1
 62
     0
 92
       -2
340
0
 93
        0
 40
0.045
309
GRIDFORMAT_END
 95
        4
302
GRIDFORMAT
  1
GRIDFORMAT_BEGIN
 90
        0
 91
        1
 62
     0
 92
       -2
340
0
 93
        0
 40
0.045
309
GRIDFORMAT_END
 95
        8
302
GRIDFORMAT
  1
GRIDFORMAT_BEGIN
 90
        0
 91
        1
 62
     0
 92
       -2
340
0
 93
        0
 40
0.045
309
GRIDFORMAT_END
 95
       16
302
GRIDFORMAT
  1
GRIDFORMAT_BEGIN
 90
        0
 91
        1
 62
     0
 92
       -2
340
0
 93
        0
 40
0.045
309
GRIDFORMAT_END
 95
       32
302
GRIDFORMAT
  1
GRIDFORMAT_BEGIN
 90
        0
 91
        1
 62
     0
 92
       -2
340
0
 93
        0
 40
0.045
309
GRIDFORMAT_END
309
TABLEFORMAT_END
  1
CELLSTYLE_BEGIN
 90
        1
 91
        1
300
_TITLE
309
CELLSTYLE_END
300
CELLSTYLE
  1
TABLEFORMAT_BEGIN
 90
        5
170
     1
 91
        0
 92
        0
 62
   257
 93
        1
300
CONTENTFORMAT
  1
CONTENTFORMAT_BEGIN
 90
        0
 91
        0
 92
      512
 93
        0
300

 40
0.0
140
1.0
 94
        5
 62
     3
340
1B
144
5.0
309
CONTENTFORMAT_END
171
     1
301
MARGIN
  1
CELLMARGIN_BEGIN
 40
1.5
 40
1.5
 40
1.5
 40
1.5
 40
0.18
 40
0.18
309
CELLMARGIN_END
 94
        6
 95
        1
302
GRIDFORMAT
  1
GRIDFORMAT_BEGIN
 90
        0
 91
        1
 62
     0
 92
       -2
340
0
 93
        0
 40
0.045
309
GRIDFORMAT_END
 95
        2
302
GRIDFORMAT
  1
GRIDFORMAT_BEGIN
 90
        0
 91
        1
 62
     0
 92
       -2
340
0
 93
        0
 40
0.045
309
GRIDFORMAT_END
 95
        4
302
GRIDFORMAT
  1
GRIDFORMAT_BEGIN
 90
        0
 91
        1
 62
     0
 92
       -2
340
0
 93
        0
 40
0.045
309
GRIDFORMAT_END
 95
        8
302
GRIDFORMAT
  1
GRIDFORMAT_BEGIN
 90
        0
 91
        1
 62
     0
 92
       -2
340
0
 93
        0
 40
0.045
309
GRIDFORMAT_END
 95
       16
302
GRIDFORMAT
  1
GRIDFORMAT_BEGIN
 90
        0
 91
        1
 62
     0
 92
       -2
340
0
 93
        0
 40
0.045
309
GRIDFORMAT_END
 95
       32
302
GRIDFORMAT
  1
GRIDFORMAT_BEGIN
 90
        0
 91
        1
 62
     0
 92
       -2
340
0
 93
        0
 40
0.045
309
GRIDFORMAT_END
309
TABLEFORMAT_END
  1
CELLSTYLE_BEGIN
 90
        2
 91
        1
300
_HEADER
309
CELLSTYLE_END
300
CELLSTYLE
  1
TABLEFORMAT_BEGIN
 90
        5
170
     1
 91
        0
 92
        0
 62
   257
 93
        1
300
CONTENTFORMAT
  1
CONTENTFORMAT_BEGIN
 90
        0
 91
        0
 92
      512
 93
        0
300

 40
0.0
140
1.0
 94
        5
 62
     7
340
1B
144
4.5
309
CONTENTFORMAT_END
171
     1
301
MARGIN
  1
CELLMARGIN_BEGIN
 40
1.5
 40
1.5
 40
1.5
 40
1.5
 40
0.18
 40
0.18
309
CELLMARGIN_END
 94
        6
 95
        1
302
GRIDFORMAT
  1
GRIDFORMAT_BEGIN
 90
        0
 91
        1
 62
     0
 92
       -2
340
0
 93
        0
 40
0.045
309
GRIDFORMAT_END
 95
        2
302
GRIDFORMAT
  1
GRIDFORMAT_BEGIN
 90
        0
 91
        1
 62
     0
 92
       -2
340
0
 93
        0
 40
0.045
309
GRIDFORMAT_END
 95
        4
302
GRIDFORMAT
  1
GRIDFORMAT_BEGIN
 90
        0
 91
        1
 62
     0
 92
       -2
340
0
 93
        0
 40
0.045
309
GRIDFORMAT_END
 95
        8
302
GRIDFORMAT
  1
GRIDFORMAT_BEGIN
 90
        0
 91
        1
 62
     0
 92
       -2
340
0
 93
        0
 40
0.045
309
GRIDFORMAT_END
 95
       16
302
GRIDFORMAT
  1
GRIDFORMAT_BEGIN
 90
        0
 91
        1
 62
     0
 92
       -2
340
0
 93
        0
 40
0.045
309
GRIDFORMAT_END
 95
       32
302
GRIDFORMAT
  1
GRIDFORMAT_BEGIN
 90
        0
 91
        1
 62
     0
 92
       -2
340
0
 93
        0
 40
0.045
309
GRIDFORMAT_END
309
TABLEFORMAT_END
  1
CELLSTYLE_BEGIN
 90
        3
 91
        2
300
_DATA
309
CELLSTYLE_END
  0
XRECORD
  5
15C2
102
{ACAD_REACTORS
330
364
102
}
330
364
100
AcDbXrecord
280
     1
102
ACAD_ROUNDTRIP_PRE2007_TABLESTYLE
 90
      512
 91
        0
  1

 92
      512
 93
        0
  2

 94
      512
 95
        0
  3

  0
CELLSTYLEMAP
  5
1590
102
{ACAD_REACTORS
330
362
102
}
330
362
100
AcDbCellStyleMap
 90
        3
300
CELLSTYLE
  1
TABLEFORMAT_BEGIN
 90
        5
170
     1
 91
        0
 92
    32768
 62
   257
 93
        1
300
CONTENTFORMAT
  1
CONTENTFORMAT_BEGIN
 90
        0
 91
        0
 92
      512
 93
        0
300

 40
0.0
140
1.0
 94
        5
 62
     0
340
C
144
6.0
309
CONTENTFORMAT_END
171
     1
301
MARGIN
  1
CELLMARGIN_BEGIN
 40
1.5
 40
1.5
 40
1.5
 40
1.5
 40
0.18
 40
0.18
309
CELLMARGIN_END
 94
        6
 95
        1
302
GRIDFORMAT
  1
GRIDFORMAT_BEGIN
 90
        0
 91
        1
 62
     0
 92
       -2
340
0
 93
        0
 40
0.045
309
GRIDFORMAT_END
 95
        2
302
GRIDFORMAT
  1
GRIDFORMAT_BEGIN
 90
        0
 91
        1
 62
     0
 92
       -2
340
0
 93
        0
 40
0.045
309
GRIDFORMAT_END
 95
        4
302
GRIDFORMAT
  1
GRIDFORMAT_BEGIN
 90
        0
 91
        1
 62
     0
 92
       -2
340
0
 93
        0
 40
0.045
309
GRIDFORMAT_END
 95
        8
302
GRIDFORMAT
  1
GRIDFORMAT_BEGIN
 90
        0
 91
        1
 62
     0
 92
       -2
340
0
 93
        0
 40
0.045
309
GRIDFORMAT_END
 95
       16
302
GRIDFORMAT
  1
GRIDFORMAT_BEGIN
 90
        0
 91
        1
 62
     0
 92
       -2
340
0
 93
        0
 40
0.045
309
GRIDFORMAT_END
 95
       32
302
GRIDFORMAT
  1
GRIDFORMAT_BEGIN
 90
        0
 91
        1
 62
     0
 92
       -2
340
0
 93
        0
 40
0.045
309
GRIDFORMAT_END
309
TABLEFORMAT_END
  1
CELLSTYLE_BEGIN
 90
        1
 91
        1
300
_TITLE
309
CELLSTYLE_END
300
CELLSTYLE
  1
TABLEFORMAT_BEGIN
 90
        5
170
     1
 91
        0
 92
        0
 62
   257
 93
        1
300
CONTENTFORMAT
  1
CONTENTFORMAT_BEGIN
 90
        0
 91
        0
 92
      512
 93
        0
300

 40
0.0
140
1.0
 94
        5
 62
     0
340
C
144
4.5
309
CONTENTFORMAT_END
171
     1
301
MARGIN
  1
CELLMARGIN_BEGIN
 40
1.5
 40
1.5
 40
1.5
 40
1.5
 40
0.18
 40
0.18
309
CELLMARGIN_END
 94
        6
 95
        1
302
GRIDFORMAT
  1
GRIDFORMAT_BEGIN
 90
        0
 91
        1
 62
     0
 92
       -2
340
0
 93
        0
 40
0.045
309
GRIDFORMAT_END
 95
        2
302
GRIDFORMAT
  1
GRIDFORMAT_BEGIN
 90
        0
 91
        1
 62
     0
 92
       -2
340
0
 93
        0
 40
0.045
309
GRIDFORMAT_END
 95
        4
302
GRIDFORMAT
  1
GRIDFORMAT_BEGIN
 90
        0
 91
        1
 62
     0
 92
       -2
340
0
 93
        0
 40
0.045
309
GRIDFORMAT_END
 95
        8
302
GRIDFORMAT
  1
GRIDFORMAT_BEGIN
 90
        0
 91
        1
 62
     0
 92
       -2
340
0
 93
        0
 40
0.045
309
GRIDFORMAT_END
 95
       16
302
GRIDFORMAT
  1
GRIDFORMAT_BEGIN
 90
        0
 91
        1
 62
     0
 92
       -2
340
0
 93
        0
 40
0.045
309
GRIDFORMAT_END
 95
       32
302
GRIDFORMAT
  1
GRIDFORMAT_BEGIN
 90
        0
 91
        1
 62
     0
 92
       -2
340
0
 93
        0
 40
0.045
309
GRIDFORMAT_END
309
TABLEFORMAT_END
  1
CELLSTYLE_BEGIN
 90
        2
 91
        1
300
_HEADER
309
CELLSTYLE_END
300
CELLSTYLE
  1
TABLEFORMAT_BEGIN
 90
        5
170
     1
 91
        0
 92
        0
 62
   257
 93
        1
300
CONTENTFORMAT
  1
CONTENTFORMAT_BEGIN
 90
        0
 91
        0
 92
      512
 93
        0
300

 40
0.0
140
1.0
 94
        2
 62
     0
340
C
144
4.5
309
CONTENTFORMAT_END
171
     1
301
MARGIN
  1
CELLMARGIN_BEGIN
 40
1.5
 40
1.5
 40
1.5
 40
1.5
 40
0.18
 40
0.18
309
CELLMARGIN_END
 94
        6
 95
        1
302
GRIDFORMAT
  1
GRIDFORMAT_BEGIN
 90
        0
 91
        1
 62
     0
 92
       -2
340
0
 93
        0
 40
0.045
309
GRIDFORMAT_END
 95
        2
302
GRIDFORMAT
  1
GRIDFORMAT_BEGIN
 90
        0
 91
        1
 62
     0
 92
       -2
340
0
 93
        0
 40
0.045
309
GRIDFORMAT_END
 95
        4
302
GRIDFORMAT
  1
GRIDFORMAT_BEGIN
 90
        0
 91
        1
 62
     0
 92
       -2
340
0
 93
        0
 40
0.045
309
GRIDFORMAT_END
 95
        8
302
GRIDFORMAT
  1
GRIDFORMAT_BEGIN
 90
        0
 91
        1
 62
     0
 92
       -2
340
0
 93
        0
 40
0.045
309
GRIDFORMAT_END
 95
       16
302
GRIDFORMAT
  1
GRIDFORMAT_BEGIN
 90
        0
 91
        1
 62
     0
 92
       -2
340
0
 93
        0
 40
0.045
309
GRIDFORMAT_END
 95
       32
302
GRIDFORMAT
  1
GRIDFORMAT_BEGIN
 90
        0
 91
        1
 62
     0
 92
       -2
340
0
 93
        0
 40
0.045
309
GRIDFORMAT_END
309
TABLEFORMAT_END
  1
CELLSTYLE_BEGIN
 90
        3
 91
        2
300
_DATA
309
CELLSTYLE_END
  0
XRECORD
  5
15C1
102
{ACAD_REACTORS
330
362
102
}
330
362
100
AcDbXrecord
280
     1
102
ACAD_ROUNDTRIP_PRE2007_TABLESTYLE
 90
      512
 91
        0
  1

 92
      512
 93
        0
  2

 94
      512
 95
        0
  3

  0
XRECORD
  5
15AC
102
{ACAD_REACTORS
330
15AB
102
}
330
15AB
100
AcDbXrecord
280
     1
102
RTVSPropertyOp0
 70
     1
102
RTVSPropertyOp1
 70
     1
102
RTVSPropertyOp2
 70
     1
102
RTVSPropertyOp3
 70
     1
102
RTVSPropertyOp4
 70
     1
102
RTVSPropertyOp5
 70
     1
102
RTVSPropertyOp6
 70
     1
102
RTVSPropertyOp7
 70
     1
102
RTVSPropertyOp8
 70
     1
102
RTVSPropertyOp9
 70
     1
102
RTVSPropertyOp10
 70
     1
102
RTVSPropertyOp11
 70
     1
102
RTVSPropertyOp12
 70
     1
102
RTVSPropertyOp13
 70
     1
102
RTVSPropertyOp14
 70
     1
102
RTVSPropertyOp15
 70
     1
102
RTVSPropertyOp16
 70
     1
102
RTVSPropertyOp17
 70
     1
102
RTVSPropertyOp18
 70
     1
102
RTVSPropertyOp19
 70
     1
102
RTVSPropertyOp20
 70
     1
102
RTVSPropertyOp21
 70
     1
102
RTVSPropertyOp22
 70
     1
102
RTVSPropertyOp23
 70
     1
102
RTVSPropertyOp24
 70
     1
102
RTVSPropertyOp25
 70
     1
102
RTVSPropertyOp26
 70
     1
102
RTVSPropertyOp27
 70
     1
102
RTVSPropertyOp28
 70
     1
102
RTVSPropertyOp29
 70
     1
102
RTVSPropertyOp30
 70
     1
102
RTVSPropertyOp31
 70
     1
102
RTVSPropertyOp32
 70
     1
  0
XRECORD
  5
15B0
102
{ACAD_REACTORS
330
15AF
102
}
330
15AF
100
AcDbXrecord
280
     1
102
RTVSPropertyOp0
 70
     1
102
RTVSPropertyOp1
 70
     1
102
RTVSPropertyOp2
 70
     1
102
RTVSPropertyOp3
 70
     1
102
RTVSPropertyOp4
 70
     1
102
RTVSPropertyOp5
 70
     1
102
RTVSPropertyOp6
 70
     1
102
RTVSPropertyOp7
 70
     1
102
RTVSPropertyOp8
 70
     1
102
RTVSPropertyOp9
 70
     1
102
RTVSPropertyOp10
 70
     1
102
RTVSPropertyOp11
 70
     1
102
RTVSPropertyOp12
 70
     1
102
RTVSPropertyOp13
 70
     1
102
RTVSPropertyOp14
 70
     1
102
RTVSPropertyOp15
 70
     1
102
RTVSPropertyOp16
 70
     1
102
RTVSPropertyOp17
 70
     1
102
RTVSPropertyOp18
 70
     1
102
RTVSPropertyOp19
 70
     1
102
RTVSPropertyOp20
 70
     1
102
RTVSPropertyOp21
 70
     1
102
RTVSPropertyOp22
 70
     1
102
RTVSPropertyOp23
 70
     1
102
RTVSPropertyOp24
 70
     1
102
RTVSPropertyOp25
 70
     1
102
RTVSPropertyOp26
 70
     1
102
RTVSPropertyOp27
 70
     1
102
RTVSPropertyOp28
 70
     1
102
RTVSPropertyOp29
 70
     1
102
RTVSPropertyOp30
 70
     1
102
RTVSPropertyOp31
 70
     1
102
RTVSPropertyOp32
 70
     1
  0
XRECORD
  5
15AE
102
{ACAD_REACTORS
330
15AD
102
}
330
15AD
100
AcDbXrecord
280
     1
102
RTVSPropertyOp0
 70
     1
102
RTVSPropertyOp1
 70
     1
102
RTVSPropertyOp2
 70
     1
102
RTVSPropertyOp3
 70
     1
102
RTVSPropertyOp4
 70
     1
102
RTVSPropertyOp5
 70
     1
102
RTVSPropertyOp6
 70
     1
102
RTVSPropertyOp7
 70
     1
102
RTVSPropertyOp8
 70
     1
102
RTVSPropertyOp9
 70
     1
102
RTVSPropertyOp10
 70
     1
102
RTVSPropertyOp11
 70
     1
102
RTVSPropertyOp12
 70
     1
102
RTVSPropertyOp13
 70
     1
102
RTVSPropertyOp14
 70
     1
102
RTVSPropertyOp15
 70
     1
102
RTVSPropertyOp16
 70
     1
102
RTVSPropertyOp17
 70
     1
102
RTVSPropertyOp18
 70
     1
102
RTVSPropertyOp19
 70
     1
102
RTVSPropertyOp20
 70
     1
102
RTVSPropertyOp21
 70
     1
102
RTVSPropertyOp22
 70
     1
102
RTVSPropertyOp23
 70
     1
102
RTVSPropertyOp24
 70
     1
102
RTVSPropertyOp25
 70
     1
102
RTVSPropertyOp26
 70
     1
102
RTVSPropertyOp27
 70
     1
102
RTVSPropertyOp28
 70
     1
102
RTVSPropertyOp29
 70
     1
102
RTVSPropertyOp30
 70
     1
102
RTVSPropertyOp31
 70
     1
102
RTVSPropertyOp32
 70
     1
  0
XRECORD
  5
15AA
102
{ACAD_REACTORS
330
15A9
102
}
330
15A9
100
AcDbXrecord
280
     1
102
RTVSPropertyOp0
 70
     1
102
RTVSPropertyOp1
 70
     1
102
RTVSPropertyOp2
 70
     1
102
RTVSPropertyOp3
 70
     1
102
RTVSPropertyOp4
 70
     1
102
RTVSPropertyOp5
 70
     1
102
RTVSPropertyOp6
 70
     1
102
RTVSPropertyOp7
 70
     1
102
RTVSPropertyOp8
 70
     1
102
RTVSPropertyOp9
 70
     1
102
RTVSPropertyOp10
 70
     1
102
RTVSPropertyOp11
 70
     1
102
RTVSPropertyOp12
 70
     1
102
RTVSPropertyOp13
 70
     1
102
RTVSPropertyOp14
 70
     1
102
RTVSPropertyOp15
 70
     1
102
RTVSPropertyOp16
 70
     1
102
RTVSPropertyOp17
 70
     1
102
RTVSPropertyOp18
 70
     1
102
RTVSPropertyOp19
 70
     1
102
RTVSPropertyOp20
 70
     1
102
RTVSPropertyOp21
 70
     1
102
RTVSPropertyOp22
 70
     1
102
RTVSPropertyOp23
 70
     1
102
RTVSPropertyOp24
 70
     1
102
RTVSPropertyOp25
 70
     1
102
RTVSPropertyOp26
 70
     1
102
RTVSPropertyOp27
 70
     1
102
RTVSPropertyOp28
 70
     1
102
RTVSPropertyOp29
 70
     1
102
RTVSPropertyOp30
 70
     1
102
RTVSPropertyOp31
 70
     1
102
RTVSPropertyOp32
 70
     1
  0
XRECORD
  5
15B8
102
{ACAD_REACTORS
330
15B7
102
}
330
15B7
100
AcDbXrecord
280
     1
102
RTVSPropertyOp0
 70
     1
102
RTVSPropertyOp1
 70
     1
102
RTVSPropertyOp2
 70
     1
102
RTVSPropertyOp3
 70
     1
102
RTVSPropertyOp4
 70
     1
102
RTVSPropertyOp5
 70
     1
102
RTVSPropertyOp6
 70
     1
102
RTVSPropertyOp7
 70
     1
102
RTVSPropertyOp8
 70
     1
102
RTVSPropertyOp9
 70
     1
102
RTVSPropertyOp10
 70
     1
102
RTVSPropertyOp11
 70
     1
102
RTVSPropertyOp12
 70
     1
102
RTVSPropertyOp13
 70
     1
102
RTVSPropertyOp14
 70
     1
102
RTVSPropertyOp15
 70
     1
102
RTVSPropertyOp16
 70
     1
102
RTVSPropertyOp17
 70
     1
102
RTVSPropertyOp18
 70
     1
102
RTVSPropertyOp19
 70
     1
102
RTVSPropertyOp20
 70
     1
102
RTVSPropertyOp21
 70
     1
102
RTVSPropertyOp22
 70
     1
102
RTVSPropertyOp23
 70
     1
102
RTVSPropertyOp24
 70
     1
102
RTVSPropertyOp25
 70
     1
102
RTVSPropertyOp26
 70
     1
102
RTVSPropertyOp27
 70
     1
102
RTVSPropertyOp28
 70
     1
102
RTVSPropertyOp29
 70
     1
102
RTVSPropertyOp30
 70
     1
102
RTVSPropertyOp31
 70
     1
102
RTVSPropertyOp32
 70
     1
  0
XRECORD
  5
15C0
102
{ACAD_REACTORS
330
15BF
102
}
330
15BF
100
AcDbXrecord
280
     1
102
RTVSPropertyOp0
 70
     1
102
RTVSPropertyOp1
 70
     1
102
RTVSPropertyOp2
 70
     1
102
RTVSPropertyOp3
 70
     1
102
RTVSPropertyOp4
 70
     1
102
RTVSPropertyOp5
 70
     1
102
RTVSPropertyOp6
 70
     1
102
RTVSPropertyOp7
 70
     1
102
RTVSPropertyOp8
 70
     1
102
RTVSPropertyOp9
 70
     1
102
RTVSPropertyOp10
 70
     1
102
RTVSPropertyOp11
 70
     1
102
RTVSPropertyOp12
 70
     1
102
RTVSPropertyOp13
 70
     1
102
RTVSPropertyOp14
 70
     1
102
RTVSPropertyOp15
 70
     1
102
RTVSPropertyOp16
 70
     1
102
RTVSPropertyOp17
 70
     1
102
RTVSPropertyOp18
 70
     1
102
RTVSPropertyOp19
 70
     1
102
RTVSPropertyOp20
 70
     1
102
RTVSPropertyOp21
 70
     1
102
RTVSPropertyOp22
 70
     1
102
RTVSPropertyOp23
 70
     1
102
RTVSPropertyOp24
 70
     1
102
RTVSPropertyOp25
 70
     1
102
RTVSPropertyOp26
 70
     1
102
RTVSPropertyOp27
 70
     1
102
RTVSPropertyOp28
 70
     1
102
RTVSPropertyOp29
 70
     1
102
RTVSPropertyOp30
 70
     1
102
RTVSPropertyOp31
 70
     1
102
RTVSPropertyOp32
 70
     1
  0
XRECORD
  5
15B2
102
{ACAD_REACTORS
330
15B1
102
}
330
15B1
100
AcDbXrecord
280
     1
102
RTVSPropertyOp0
 70
     1
102
RTVSPropertyOp1
 70
     1
102
RTVSPropertyOp2
 70
     1
102
RTVSPropertyOp3
 70
     1
102
RTVSPropertyOp4
 70
     1
102
RTVSPropertyOp5
 70
     1
102
RTVSPropertyOp6
 70
     1
102
RTVSPropertyOp7
 70
     1
102
RTVSPropertyOp8
 70
     1
102
RTVSPropertyOp9
 70
     1
102
RTVSPropertyOp10
 70
     1
102
RTVSPropertyOp11
 70
     1
102
RTVSPropertyOp12
 70
     1
102
RTVSPropertyOp13
 70
     1
102
RTVSPropertyOp14
 70
     1
102
RTVSPropertyOp15
 70
     1
102
RTVSPropertyOp16
 70
     1
102
RTVSPropertyOp17
 70
     1
102
RTVSPropertyOp18
 70
     1
102
RTVSPropertyOp19
 70
     1
102
RTVSPropertyOp20
 70
     1
102
RTVSPropertyOp21
 70
     1
102
RTVSPropertyOp22
 70
     1
102
RTVSPropertyOp23
 70
     1
102
RTVSPropertyOp24
 70
     1
102
RTVSPropertyOp25
 70
     1
102
RTVSPropertyOp26
 70
     1
102
RTVSPropertyOp27
 70
     1
102
RTVSPropertyOp28
 70
     1
102
RTVSPropertyOp29
 70
     1
102
RTVSPropertyOp30
 70
     1
102
RTVSPropertyOp31
 70
     1
102
RTVSPropertyOp32
 70
     1
  0
XRECORD
  5
15B6
102
{ACAD_REACTORS
330
15B5
102
}
330
15B5
100
AcDbXrecord
280
     1
102
RTVSPropertyOp0
 70
     1
102
RTVSPropertyOp1
 70
     1
102
RTVSPropertyOp2
 70
     1
102
RTVSPropertyOp3
 70
     1
102
RTVSPropertyOp4
 70
     1
102
RTVSPropertyOp5
 70
     1
102
RTVSPropertyOp6
 70
     1
102
RTVSPropertyOp7
 70
     1
102
RTVSPropertyOp8
 70
     1
102
RTVSPropertyOp9
 70
     1
102
RTVSPropertyOp10
 70
     1
102
RTVSPropertyOp11
 70
     1
102
RTVSPropertyOp12
 70
     1
102
RTVSPropertyOp13
 70
     1
102
RTVSPropertyOp14
 70
     1
102
RTVSPropertyOp15
 70
     1
102
RTVSPropertyOp16
 70
     1
102
RTVSPropertyOp17
 70
     1
102
RTVSPropertyOp18
 70
     1
102
RTVSPropertyOp19
 70
     1
102
RTVSPropertyOp20
 70
     1
102
RTVSPropertyOp21
 70
     1
102
RTVSPropertyOp22
 70
     1
102
RTVSPropertyOp23
 70
     1
102
RTVSPropertyOp24
 70
     1
102
RTVSPropertyOp25
 70
     1
102
RTVSPropertyOp26
 70
     1
102
RTVSPropertyOp27
 70
     1
102
RTVSPropertyOp28
 70
     1
102
RTVSPropertyOp29
 70
     1
102
RTVSPropertyOp30
 70
     1
102
RTVSPropertyOp31
 70
     1
102
RTVSPropertyOp32
 70
     1
  0
XRECORD
  5
15E2
102
{ACAD_REACTORS
330
15E1
102
}
330
15E1
100
AcDbXrecord
280
     1
102
RTVSPropertyOp0
 70
     0
102
RTVSPropertyOp1
 70
     0
102
RTVSPropertyOp2
 70
     0
102
RTVSPropertyOp3
 70
     0
102
RTVSPropertyOp4
 70
     0
102
RTVSPropertyOp5
 70
     0
102
RTVSPropertyOp6
 70
     0
102
RTVSPropertyOp7
 70
     0
102
RTVSPropertyOp8
 70
     0
102
RTVSPropertyOp9
 70
     0
102
RTVSPropertyOp10
 70
     0
102
RTVSPropertyOp11
 70
     0
102
RTVSPropertyOp12
 70
     0
102
RTVSPropertyOp13
 70
     0
102
RTVSPropertyOp14
 70
     2
102
RTVSPropertyOp15
 70
     0
102
RTVSPropertyOp16
 70
     0
102
RTVSPropertyOp17
 70
     0
102
RTVSPropertyOp18
 70
     0
102
RTVSPropertyOp19
 70
     0
102
RTVSPropertyOp20
 70
     0
102
RTVSPropertyOp21
 70
     0
102
RTVSPropertyOp22
 70
     0
102
RTVSPropertyOp23
 70
     0
102
RTVSPropertyOp24
 70
     0
102
RTVSPropertyOp25
 70
     0
102
RTVSPropertyOp26
 70
     0
102
RTVSPropertyOp27
 70
     0
102
RTVSPropertyOp28
 70
     0
102
RTVSPropertyOp29
 70
     0
102
RTVSPropertyOp30
 70
     0
102
RTVSPropertyOp31
 70
     0
102
RTVSPropertyOp32
 70
     0
  0
XRECORD
  5
15BE
102
{ACAD_REACTORS
330
15BD
102
}
330
15BD
100
AcDbXrecord
280
     1
102
RTVSPropertyOp0
 70
     1
102
RTVSPropertyOp1
 70
     1
102
RTVSPropertyOp2
 70
     1
102
RTVSPropertyOp3
 70
     1
102
RTVSPropertyOp4
 70
     1
102
RTVSPropertyOp5
 70
     1
102
RTVSPropertyOp6
 70
     1
102
RTVSPropertyOp7
 70
     1
102
RTVSPropertyOp8
 70
     1
102
RTVSPropertyOp9
 70
     1
102
RTVSPropertyOp10
 70
     1
102
RTVSPropertyOp11
 70
     1
102
RTVSPropertyOp12
 70
     1
102
RTVSPropertyOp13
 70
     1
102
RTVSPropertyOp14
 70
     1
102
RTVSPropertyOp15
 70
     1
102
RTVSPropertyOp16
 70
     1
102
RTVSPropertyOp17
 70
     1
102
RTVSPropertyOp18
 70
     1
102
RTVSPropertyOp19
 70
     1
102
RTVSPropertyOp20
 70
     1
102
RTVSPropertyOp21
 70
     1
102
RTVSPropertyOp22
 70
     1
102
RTVSPropertyOp23
 70
     1
102
RTVSPropertyOp24
 70
     1
102
RTVSPropertyOp25
 70
     1
102
RTVSPropertyOp26
 70
     1
102
RTVSPropertyOp27
 70
     1
102
RTVSPropertyOp28
 70
     1
102
RTVSPropertyOp29
 70
     1
102
RTVSPropertyOp30
 70
     1
102
RTVSPropertyOp31
 70
     1
102
RTVSPropertyOp32
 70
     1
  0
XRECORD
  5
15A2
102
{ACAD_REACTORS
330
15A1
102
}
330
15A1
100
AcDbXrecord
280
     1
102
RTVSPropertyOp0
 70
     1
102
RTVSPropertyOp1
 70
     1
102
RTVSPropertyOp2
 70
     1
102
RTVSPropertyOp3
 70
     1
102
RTVSPropertyOp4
 70
     1
102
RTVSPropertyOp5
 70
     1
102
RTVSPropertyOp6
 70
     1
102
RTVSPropertyOp7
 70
     1
102
RTVSPropertyOp8
 70
     1
102
RTVSPropertyOp9
 70
     1
102
RTVSPropertyOp10
 70
     1
102
RTVSPropertyOp11
 70
     1
102
RTVSPropertyOp12
 70
     1
102
RTVSPropertyOp13
 70
     1
102
RTVSPropertyOp14
 70
     1
102
RTVSPropertyOp15
 70
     1
102
RTVSPropertyOp16
 70
     1
102
RTVSPropertyOp17
 70
     1
102
RTVSPropertyOp18
 70
     1
102
RTVSPropertyOp19
 70
     1
102
RTVSPropertyOp20
 70
     1
102
RTVSPropertyOp21
 70
     1
102
RTVSPropertyOp22
 70
     1
102
RTVSPropertyOp23
 70
     1
102
RTVSPropertyOp24
 70
     1
102
RTVSPropertyOp25
 70
     1
102
RTVSPropertyOp26
 70
     1
102
RTVSPropertyOp27
 70
     1
102
RTVSPropertyOp28
 70
     1
102
RTVSPropertyOp29
 70
     1
102
RTVSPropertyOp30
 70
     1
102
RTVSPropertyOp31
 70
     1
102
RTVSPropertyOp32
 70
     1
  0
XRECORD
  5
15A4
102
{ACAD_REACTORS
330
15A3
102
}
330
15A3
100
AcDbXrecord
280
     1
102
RTVSPropertyOp0
 70
     1
102
RTVSPropertyOp1
 70
     1
102
RTVSPropertyOp2
 70
     1
102
RTVSPropertyOp3
 70
     1
102
RTVSPropertyOp4
 70
     1
102
RTVSPropertyOp5
 70
     1
102
RTVSPropertyOp6
 70
     1
102
RTVSPropertyOp7
 70
     1
102
RTVSPropertyOp8
 70
     1
102
RTVSPropertyOp9
 70
     1
102
RTVSPropertyOp10
 70
     1
102
RTVSPropertyOp11
 70
     1
102
RTVSPropertyOp12
 70
     1
102
RTVSPropertyOp13
 70
     1
102
RTVSPropertyOp14
 70
     1
102
RTVSPropertyOp15
 70
     1
102
RTVSPropertyOp16
 70
     1
102
RTVSPropertyOp17
 70
     1
102
RTVSPropertyOp18
 70
     1
102
RTVSPropertyOp19
 70
     1
102
RTVSPropertyOp20
 70
     1
102
RTVSPropertyOp21
 70
     1
102
RTVSPropertyOp22
 70
     1
102
RTVSPropertyOp23
 70
     1
102
RTVSPropertyOp24
 70
     1
102
RTVSPropertyOp25
 70
     1
102
RTVSPropertyOp26
 70
     1
102
RTVSPropertyOp27
 70
     1
102
RTVSPropertyOp28
 70
     1
102
RTVSPropertyOp29
 70
     1
102
RTVSPropertyOp30
 70
     1
102
RTVSPropertyOp31
 70
     1
102
RTVSPropertyOp32
 70
     1
  0
XRECORD
  5
15A6
102
{ACAD_REACTORS
330
15A5
102
}
330
15A5
100
AcDbXrecord
280
     1
102
RTVSPropertyOp0
 70
     1
102
RTVSPropertyOp1
 70
     1
102
RTVSPropertyOp2
 70
     1
102
RTVSPropertyOp3
 70
     1
102
RTVSPropertyOp4
 70
     1
102
RTVSPropertyOp5
 70
     1
102
RTVSPropertyOp6
 70
     1
102
RTVSPropertyOp7
 70
     1
102
RTVSPropertyOp8
 70
     1
102
RTVSPropertyOp9
 70
     1
102
RTVSPropertyOp10
 70
     1
102
RTVSPropertyOp11
 70
     1
102
RTVSPropertyOp12
 70
     1
102
RTVSPropertyOp13
 70
     1
102
RTVSPropertyOp14
 70
     1
102
RTVSPropertyOp15
 70
     1
102
RTVSPropertyOp16
 70
     1
102
RTVSPropertyOp17
 70
     1
102
RTVSPropertyOp18
 70
     1
102
RTVSPropertyOp19
 70
     1
102
RTVSPropertyOp20
 70
     1
102
RTVSPropertyOp21
 70
     1
102
RTVSPropertyOp22
 70
     1
102
RTVSPropertyOp23
 70
     1
102
RTVSPropertyOp24
 70
     1
102
RTVSPropertyOp25
 70
     1
102
RTVSPropertyOp26
 70
     1
102
RTVSPropertyOp27
 70
     1
102
RTVSPropertyOp28
 70
     1
102
RTVSPropertyOp29
 70
     1
102
RTVSPropertyOp30
 70
     1
102
RTVSPropertyOp31
 70
     1
102
RTVSPropertyOp32
 70
     1
  0
XRECORD
  5
15A8
102
{ACAD_REACTORS
330
15A7
102
}
330
15A7
100
AcDbXrecord
280
     1
102
RTVSPropertyOp0
 70
     1
102
RTVSPropertyOp1
 70
     1
102
RTVSPropertyOp2
 70
     1
102
RTVSPropertyOp3
 70
     1
102
RTVSPropertyOp4
 70
     1
102
RTVSPropertyOp5
 70
     1
102
RTVSPropertyOp6
 70
     1
102
RTVSPropertyOp7
 70
     1
102
RTVSPropertyOp8
 70
     1
102
RTVSPropertyOp9
 70
     1
102
RTVSPropertyOp10
 70
     1
102
RTVSPropertyOp11
 70
     1
102
RTVSPropertyOp12
 70
     1
102
RTVSPropertyOp13
 70
     1
102
RTVSPropertyOp14
 70
     1
102
RTVSPropertyOp15
 70
     1
102
RTVSPropertyOp16
 70
     1
102
RTVSPropertyOp17
 70
     1
102
RTVSPropertyOp18
 70
     1
102
RTVSPropertyOp19
 70
     1
102
RTVSPropertyOp20
 70
     1
102
RTVSPropertyOp21
 70
     1
102
RTVSPropertyOp22
 70
     1
102
RTVSPropertyOp23
 70
     1
102
RTVSPropertyOp24
 70
     1
102
RTVSPropertyOp25
 70
     1
102
RTVSPropertyOp26
 70
     1
102
RTVSPropertyOp27
 70
     1
102
RTVSPropertyOp28
 70
     1
102
RTVSPropertyOp29
 70
     1
102
RTVSPropertyOp30
 70
     1
102
RTVSPropertyOp31
 70
     1
102
RTVSPropertyOp32
 70
     1
  0
XRECORD
  5
15D2
102
{ACAD_REACTORS
330
15D1
102
}
330
15D1
100
AcDbXrecord
280
     1
102
RTVSPropertyOp0
 70
     1
102
RTVSPropertyOp1
 70
     1
102
RTVSPropertyOp2
 70
     1
102
RTVSPropertyOp3
 70
     1
102
RTVSPropertyOp4
 70
     1
102
RTVSPropertyOp5
 70
     1
102
RTVSPropertyOp6
 70
     1
102
RTVSPropertyOp7
 70
     1
102
RTVSPropertyOp8
 70
     1
102
RTVSPropertyOp9
 70
     1
102
RTVSPropertyOp10
 70
     1
102
RTVSPropertyOp11
 70
     1
102
RTVSPropertyOp12
 70
     1
102
RTVSPropertyOp13
 70
     1
102
RTVSPropertyOp14
 70
     1
102
RTVSPropertyOp15
 70
     1
102
RTVSPropertyOp16
 70
     1
102
RTVSPropertyOp17
 70
     1
102
RTVSPropertyOp18
 70
     1
102
RTVSPropertyOp19
 70
     1
102
RTVSPropertyOp20
 70
     1
102
RTVSPropertyOp21
 70
     1
102
RTVSPropertyOp22
 70
     1
102
RTVSPropertyOp23
 70
     1
102
RTVSPropertyOp24
 70
     1
102
RTVSPropertyOp25
 70
     1
102
RTVSPropertyOp26
 70
     1
102
RTVSPropertyOp27
 70
     1
102
RTVSPropertyOp28
 70
     1
102
RTVSPropertyOp29
 70
     1
102
RTVSPropertyOp30
 70
     1
102
RTVSPropertyOp31
 70
     1
102
RTVSPropertyOp32
 70
     1
  0
XRECORD
  5
15DE
102
{ACAD_REACTORS
330
15DD
102
}
330
15DD
100
AcDbXrecord
280
     1
102
RTVSPropertyOp0
 70
     0
102
RTVSPropertyOp1
 70
     0
102
RTVSPropertyOp2
 70
     0
102
RTVSPropertyOp3
 70
     0
102
RTVSPropertyOp4
 70
     0
102
RTVSPropertyOp5
 70
     0
102
RTVSPropertyOp6
 70
     0
102
RTVSPropertyOp7
 70
     0
102
RTVSPropertyOp8
 70
     0
102
RTVSPropertyOp9
 70
     0
102
RTVSPropertyOp10
 70
     0
102
RTVSPropertyOp11
 70
     0
102
RTVSPropertyOp12
 70
     0
102
RTVSPropertyOp13
 70
     0
102
RTVSPropertyOp14
 70
     2
102
RTVSPropertyOp15
 70
     0
102
RTVSPropertyOp16
 70
     0
102
RTVSPropertyOp17
 70
     0
102
RTVSPropertyOp18
 70
     0
102
RTVSPropertyOp19
 70
     0
102
RTVSPropertyOp20
 70
     0
102
RTVSPropertyOp21
 70
     0
102
RTVSPropertyOp22
 70
     0
102
RTVSPropertyOp23
 70
     0
102
RTVSPropertyOp24
 70
     0
102
RTVSPropertyOp25
 70
     0
102
RTVSPropertyOp26
 70
     0
102
RTVSPropertyOp27
 70
     0
102
RTVSPropertyOp28
 70
     0
102
RTVSPropertyOp29
 70
     0
102
RTVSPropertyOp30
 70
     0
102
RTVSPropertyOp31
 70
     0
102
RTVSPropertyOp32
 70
     0
  0
XRECORD
  5
15BC
102
{ACAD_REACTORS
330
15BB
102
}
330
15BB
100
AcDbXrecord
280
     1
102
RTVSPropertyOp0
 70
     1
102
RTVSPropertyOp1
 70
     1
102
RTVSPropertyOp2
 70
     1
102
RTVSPropertyOp3
 70
     1
102
RTVSPropertyOp4
 70
     1
102
RTVSPropertyOp5
 70
     1
102
RTVSPropertyOp6
 70
     1
102
RTVSPropertyOp7
 70
     1
102
RTVSPropertyOp8
 70
     1
102
RTVSPropertyOp9
 70
     1
102
RTVSPropertyOp10
 70
     1
102
RTVSPropertyOp11
 70
     1
102
RTVSPropertyOp12
 70
     1
102
RTVSPropertyOp13
 70
     1
102
RTVSPropertyOp14
 70
     1
102
RTVSPropertyOp15
 70
     1
102
RTVSPropertyOp16
 70
     1
102
RTVSPropertyOp17
 70
     1
102
RTVSPropertyOp18
 70
     1
102
RTVSPropertyOp19
 70
     1
102
RTVSPropertyOp20
 70
     1
102
RTVSPropertyOp21
 70
     1
102
RTVSPropertyOp22
 70
     1
102
RTVSPropertyOp23
 70
     1
102
RTVSPropertyOp24
 70
     1
102
RTVSPropertyOp25
 70
     1
102
RTVSPropertyOp26
 70
     1
102
RTVSPropertyOp27
 70
     1
102
RTVSPropertyOp28
 70
     1
102
RTVSPropertyOp29
 70
     1
102
RTVSPropertyOp30
 70
     1
102
RTVSPropertyOp31
 70
     1
102
RTVSPropertyOp32
 70
     1
  0
XRECORD
  5
15E0
102
{ACAD_REACTORS
330
15DF
102
}
330
15DF
100
AcDbXrecord
280
     1
102
RTVSPropertyOp0
 70
     0
102
RTVSPropertyOp1
 70
     0
102
RTVSPropertyOp2
 70
     0
102
RTVSPropertyOp3
 70
     0
102
RTVSPropertyOp4
 70
     0
102
RTVSPropertyOp5
 70
     0
102
RTVSPropertyOp6
 70
     0
102
RTVSPropertyOp7
 70
     0
102
RTVSPropertyOp8
 70
     0
102
RTVSPropertyOp9
 70
     0
102
RTVSPropertyOp10
 70
     0
102
RTVSPropertyOp11
 70
     0
102
RTVSPropertyOp12
 70
     0
102
RTVSPropertyOp13
 70
     0
102
RTVSPropertyOp14
 70
     2
102
RTVSPropertyOp15
 70
     0
102
RTVSPropertyOp16
 70
     0
102
RTVSPropertyOp17
 70
     0
102
RTVSPropertyOp18
 70
     0
102
RTVSPropertyOp19
 70
     0
102
RTVSPropertyOp20
 70
     0
102
RTVSPropertyOp21
 70
     0
102
RTVSPropertyOp22
 70
     0
102
RTVSPropertyOp23
 70
     0
102
RTVSPropertyOp24
 70
     0
102
RTVSPropertyOp25
 70
     0
102
RTVSPropertyOp26
 70
     0
102
RTVSPropertyOp27
 70
     0
102
RTVSPropertyOp28
 70
     0
102
RTVSPropertyOp29
 70
     0
102
RTVSPropertyOp30
 70
     0
102
RTVSPropertyOp31
 70
     0
102
RTVSPropertyOp32
 70
     0
  0
XRECORD
  5
15B4
102
{ACAD_REACTORS
330
15B3
102
}
330
15B3
100
AcDbXrecord
280
     1
102
RTVSPropertyOp0
 70
     1
102
RTVSPropertyOp1
 70
     1
102
RTVSPropertyOp2
 70
     1
102
RTVSPropertyOp3
 70
     1
102
RTVSPropertyOp4
 70
     1
102
RTVSPropertyOp5
 70
     1
102
RTVSPropertyOp6
 70
     1
102
RTVSPropertyOp7
 70
     1
102
RTVSPropertyOp8
 70
     1
102
RTVSPropertyOp9
 70
     1
102
RTVSPropertyOp10
 70
     1
102
RTVSPropertyOp11
 70
     1
102
RTVSPropertyOp12
 70
     1
102
RTVSPropertyOp13
 70
     1
102
RTVSPropertyOp14
 70
     1
102
RTVSPropertyOp15
 70
     1
102
RTVSPropertyOp16
 70
     1
102
RTVSPropertyOp17
 70
     1
102
RTVSPropertyOp18
 70
     1
102
RTVSPropertyOp19
 70
     1
102
RTVSPropertyOp20
 70
     1
102
RTVSPropertyOp21
 70
     1
102
RTVSPropertyOp22
 70
     1
102
RTVSPropertyOp23
 70
     1
102
RTVSPropertyOp24
 70
     1
102
RTVSPropertyOp25
 70
     1
102
RTVSPropertyOp26
 70
     1
102
RTVSPropertyOp27
 70
     1
102
RTVSPropertyOp28
 70
     1
102
RTVSPropertyOp29
 70
     1
102
RTVSPropertyOp30
 70
     1
102
RTVSPropertyOp31
 70
     1
102
RTVSPropertyOp32
 70
     1
  0
XRECORD
  5
15DC
102
{ACAD_REACTORS
330
15DB
102
}
330
15DB
100
AcDbXrecord
280
     1
102
RTVSPropertyOp0
 70
     1
102
RTVSPropertyOp1
 70
     1
102
RTVSPropertyOp2
 70
     1
102
RTVSPropertyOp3
 70
     1
102
RTVSPropertyOp4
 70
     1
102
RTVSPropertyOp5
 70
     1
102
RTVSPropertyOp6
 70
     1
102
RTVSPropertyOp7
 70
     1
102
RTVSPropertyOp8
 70
     1
102
RTVSPropertyOp9
 70
     1
102
RTVSPropertyOp10
 70
     1
102
RTVSPropertyOp11
 70
     1
102
RTVSPropertyOp12
 70
     1
102
RTVSPropertyOp13
 70
     1
102
RTVSPropertyOp14
 70
     1
102
RTVSPropertyOp15
 70
     1
102
RTVSPropertyOp16
 70
     1
102
RTVSPropertyOp17
 70
     1
102
RTVSPropertyOp18
 70
     1
102
RTVSPropertyOp19
 70
     1
102
RTVSPropertyOp20
 70
     1
102
RTVSPropertyOp21
 70
     1
102
RTVSPropertyOp22
 70
     1
102
RTVSPropertyOp23
 70
     1
102
RTVSPropertyOp24
 70
     1
102
RTVSPropertyOp25
 70
     1
102
RTVSPropertyOp26
 70
     1
102
RTVSPropertyOp27
 70
     1
102
RTVSPropertyOp28
 70
     1
102
RTVSPropertyOp29
 70
     1
102
RTVSPropertyOp30
 70
     1
102
RTVSPropertyOp31
 70
     1
102
RTVSPropertyOp32
 70
     1
  0
XRECORD
  5
15DA
102
{ACAD_REACTORS
330
15D9
102
}
330
15D9
100
AcDbXrecord
280
     1
102
RTVSPropertyOp0
 70
     1
102
RTVSPropertyOp1
 70
     1
102
RTVSPropertyOp2
 70
     1
102
RTVSPropertyOp3
 70
     1
102
RTVSPropertyOp4
 70
     1
102
RTVSPropertyOp5
 70
     1
102
RTVSPropertyOp6
 70
     1
102
RTVSPropertyOp7
 70
     1
102
RTVSPropertyOp8
 70
     1
102
RTVSPropertyOp9
 70
     1
102
RTVSPropertyOp10
 70
     1
102
RTVSPropertyOp11
 70
     1
102
RTVSPropertyOp12
 70
     1
102
RTVSPropertyOp13
 70
     1
102
RTVSPropertyOp14
 70
     1
102
RTVSPropertyOp15
 70
     1
102
RTVSPropertyOp16
 70
     1
102
RTVSPropertyOp17
 70
     1
102
RTVSPropertyOp18
 70
     1
102
RTVSPropertyOp19
 70
     1
102
RTVSPropertyOp20
 70
     1
102
RTVSPropertyOp21
 70
     1
102
RTVSPropertyOp22
 70
     1
102
RTVSPropertyOp23
 70
     1
102
RTVSPropertyOp24
 70
     1
102
RTVSPropertyOp25
 70
     1
102
RTVSPropertyOp26
 70
     1
102
RTVSPropertyOp27
 70
     1
102
RTVSPropertyOp28
 70
     1
102
RTVSPropertyOp29
 70
     1
102
RTVSPropertyOp30
 70
     1
102
RTVSPropertyOp31
 70
     1
102
RTVSPropertyOp32
 70
     1
  0
XRECORD
  5
15D4
102
{ACAD_REACTORS
330
15D3
102
}
330
15D3
100
AcDbXrecord
280
     1
102
RTVSPropertyOp0
 70
     1
102
RTVSPropertyOp1
 70
     1
102
RTVSPropertyOp2
 70
     1
102
RTVSPropertyOp3
 70
     1
102
RTVSPropertyOp4
 70
     1
102
RTVSPropertyOp5
 70
     1
102
RTVSPropertyOp6
 70
     1
102
RTVSPropertyOp7
 70
     1
102
RTVSPropertyOp8
 70
     1
102
RTVSPropertyOp9
 70
     1
102
RTVSPropertyOp10
 70
     1
102
RTVSPropertyOp11
 70
     1
102
RTVSPropertyOp12
 70
     1
102
RTVSPropertyOp13
 70
     1
102
RTVSPropertyOp14
 70
     1
102
RTVSPropertyOp15
 70
     1
102
RTVSPropertyOp16
 70
     1
102
RTVSPropertyOp17
 70
     1
102
RTVSPropertyOp18
 70
     1
102
RTVSPropertyOp19
 70
     1
102
RTVSPropertyOp20
 70
     1
102
RTVSPropertyOp21
 70
     1
102
RTVSPropertyOp22
 70
     1
102
RTVSPropertyOp23
 70
     1
102
RTVSPropertyOp24
 70
     1
102
RTVSPropertyOp25
 70
     1
102
RTVSPropertyOp26
 70
     1
102
RTVSPropertyOp27
 70
     1
102
RTVSPropertyOp28
 70
     1
102
RTVSPropertyOp29
 70
     1
102
RTVSPropertyOp30
 70
     1
102
RTVSPropertyOp31
 70
     1
102
RTVSPropertyOp32
 70
     1
  0
XRECORD
  5
15D6
102
{ACAD_REACTORS
330
15D5
102
}
330
15D5
100
AcDbXrecord
280
     1
102
RTVSPropertyOp0
 70
     1
102
RTVSPropertyOp1
 70
     1
102
RTVSPropertyOp2
 70
     1
102
RTVSPropertyOp3
 70
     1
102
RTVSPropertyOp4
 70
     1
102
RTVSPropertyOp5
 70
     1
102
RTVSPropertyOp6
 70
     1
102
RTVSPropertyOp7
 70
     1
102
RTVSPropertyOp8
 70
     1
102
RTVSPropertyOp9
 70
     1
102
RTVSPropertyOp10
 70
     1
102
RTVSPropertyOp11
 70
     1
102
RTVSPropertyOp12
 70
     1
102
RTVSPropertyOp13
 70
     1
102
RTVSPropertyOp14
 70
     1
102
RTVSPropertyOp15
 70
     1
102
RTVSPropertyOp16
 70
     1
102
RTVSPropertyOp17
 70
     1
102
RTVSPropertyOp18
 70
     1
102
RTVSPropertyOp19
 70
     1
102
RTVSPropertyOp20
 70
     1
102
RTVSPropertyOp21
 70
     1
102
RTVSPropertyOp22
 70
     1
102
RTVSPropertyOp23
 70
     1
102
RTVSPropertyOp24
 70
     1
102
RTVSPropertyOp25
 70
     1
102
RTVSPropertyOp26
 70
     1
102
RTVSPropertyOp27
 70
     1
102
RTVSPropertyOp28
 70
     1
102
RTVSPropertyOp29
 70
     1
102
RTVSPropertyOp30
 70
     1
102
RTVSPropertyOp31
 70
     1
102
RTVSPropertyOp32
 70
     1
  0
XRECORD
  5
15BA
102
{ACAD_REACTORS
330
15B9
102
}
330
15B9
100
AcDbXrecord
280
     1
102
RTVSPropertyOp0
 70
     1
102
RTVSPropertyOp1
 70
     1
102
RTVSPropertyOp2
 70
     1
102
RTVSPropertyOp3
 70
     1
102
RTVSPropertyOp4
 70
     1
102
RTVSPropertyOp5
 70
     1
102
RTVSPropertyOp6
 70
     1
102
RTVSPropertyOp7
 70
     1
102
RTVSPropertyOp8
 70
     1
102
RTVSPropertyOp9
 70
     1
102
RTVSPropertyOp10
 70
     1
102
RTVSPropertyOp11
 70
     1
102
RTVSPropertyOp12
 70
     1
102
RTVSPropertyOp13
 70
     1
102
RTVSPropertyOp14
 70
     1
102
RTVSPropertyOp15
 70
     1
102
RTVSPropertyOp16
 70
     1
102
RTVSPropertyOp17
 70
     1
102
RTVSPropertyOp18
 70
     1
102
RTVSPropertyOp19
 70
     1
102
RTVSPropertyOp20
 70
     1
102
RTVSPropertyOp21
 70
     1
102
RTVSPropertyOp22
 70
     1
102
RTVSPropertyOp23
 70
     1
102
RTVSPropertyOp24
 70
     1
102
RTVSPropertyOp25
 70
     1
102
RTVSPropertyOp26
 70
     1
102
RTVSPropertyOp27
 70
     1
102
RTVSPropertyOp28
 70
     1
102
RTVSPropertyOp29
 70
     1
102
RTVSPropertyOp30
 70
     1
102
RTVSPropertyOp31
 70
     1
102
RTVSPropertyOp32
 70
     1
  0
XRECORD
  5
15D0
102
{ACAD_REACTORS
330
15CF
102
}
330
15CF
100
AcDbXrecord
280
     1
102
RTVSPropertyOp0
 70
     1
102
RTVSPropertyOp1
 70
     1
102
RTVSPropertyOp2
 70
     1
102
RTVSPropertyOp3
 70
     1
102
RTVSPropertyOp4
 70
     1
102
RTVSPropertyOp5
 70
     1
102
RTVSPropertyOp6
 70
     1
102
RTVSPropertyOp7
 70
     1
102
RTVSPropertyOp8
 70
     1
102
RTVSPropertyOp9
 70
     1
102
RTVSPropertyOp10
 70
     1
102
RTVSPropertyOp11
 70
     1
102
RTVSPropertyOp12
 70
     1
102
RTVSPropertyOp13
 70
     1
102
RTVSPropertyOp14
 70
     1
102
RTVSPropertyOp15
 70
     1
102
RTVSPropertyOp16
 70
     1
102
RTVSPropertyOp17
 70
     1
102
RTVSPropertyOp18
 70
     1
102
RTVSPropertyOp19
 70
     1
102
RTVSPropertyOp20
 70
     1
102
RTVSPropertyOp21
 70
     1
102
RTVSPropertyOp22
 70
     1
102
RTVSPropertyOp23
 70
     1
102
RTVSPropertyOp24
 70
     1
102
RTVSPropertyOp25
 70
     1
102
RTVSPropertyOp26
 70
     1
102
RTVSPropertyOp27
 70
     1
102
RTVSPropertyOp28
 70
     1
102
RTVSPropertyOp29
 70
     1
102
RTVSPropertyOp30
 70
     1
102
RTVSPropertyOp31
 70
     1
102
RTVSPropertyOp32
 70
     1
  0
XRECORD
  5
15D8
102
{ACAD_REACTORS
330
15D7
102
}
330
15D7
100
AcDbXrecord
280
     1
102
RTVSPropertyOp0
 70
     1
102
RTVSPropertyOp1
 70
     1
102
RTVSPropertyOp2
 70
     1
102
RTVSPropertyOp3
 70
     1
102
RTVSPropertyOp4
 70
     1
102
RTVSPropertyOp5
 70
     1
102
RTVSPropertyOp6
 70
     1
102
RTVSPropertyOp7
 70
     1
102
RTVSPropertyOp8
 70
     1
102
RTVSPropertyOp9
 70
     1
102
RTVSPropertyOp10
 70
     1
102
RTVSPropertyOp11
 70
     1
102
RTVSPropertyOp12
 70
     1
102
RTVSPropertyOp13
 70
     1
102
RTVSPropertyOp14
 70
     1
102
RTVSPropertyOp15
 70
     1
102
RTVSPropertyOp16
 70
     1
102
RTVSPropertyOp17
 70
     1
102
RTVSPropertyOp18
 70
     1
102
RTVSPropertyOp19
 70
     1
102
RTVSPropertyOp20
 70
     1
102
RTVSPropertyOp21
 70
     1
102
RTVSPropertyOp22
 70
     1
102
RTVSPropertyOp23
 70
     1
102
RTVSPropertyOp24
 70
     1
102
RTVSPropertyOp25
 70
     1
102
RTVSPropertyOp26
 70
     1
102
RTVSPropertyOp27
 70
     1
102
RTVSPropertyOp28
 70
     1
102
RTVSPropertyOp29
 70
     1
102
RTVSPropertyOp30
 70
     1
102
RTVSPropertyOp31
 70
     1
102
RTVSPropertyOp32
 70
     1
  0
ENDSEC
  0
EOF
