  0
SECTION
  2
HEADER
  9
$ACADVER
  1
AC1015
  9
$ACADMAINTVER
 70
    20
  9
$DWGCODEPAGE
  3
ANSI_1252
  9
$INSBASE
 10
0.0
 20
0.0
 30
0.0
  9
$EXTMIN
 10
-2.286188244610457
 20
-2.316416875436516
 30
-0.0000000232798671
  9
$EXTMAX
 10
35.81708344355047
 20
36.01490218634172
 30
0.0000000349233531
  9
$LIMMIN
 10
0.0
 20
0.0
  9
$LIMMAX
 10
420.0
 20
300.0
  9
$ORTHOMODE
 70
     0
  9
$REGENMODE
 70
     1
  9
$FILLMODE
 70
     1
  9
$QTEXTMODE
 70
     0
  9
$MIRRTEXT
 70
     0
  9
$LTSCALE
 40
10.0
  9
$ATTMODE
 70
     1
  9
$TEXTSIZE
 40
3.0
  9
$TRACEWID
 40
0.05
  9
$TEXTSTYLE
  7
ROMANS
  9
$CLAYER
  8
P-0000
  9
$CELTYPE
  6
CONTINUOUS
  9
$CECOLOR
 62
     7
  9
$CELTSCALE
 40
1.0
  9
$DISPSILH
 70
     0
  9
$DIMSCALE
 40
10.0
  9
$DIMASZ
 40
2.0
  9
$DIMEXO
 40
1.0
  9
$DIMDLI
 40
10.0
  9
$DIMRND
 40
0.0
  9
$DIMDLE
 40
0.0
  9
$DIMEXE
 40
1.5
  9
$DIMTP
 40
0.0
  9
$DIMTM
 40
0.0
  9
$DIMTXT
 40
2.0
  9
$DIMCEN
 40
2.0
  9
$DIMTSZ
 40
0.0
  9
$DIMTOL
 70
     0
  9
$DIMLIM
 70
     0
  9
$DIMTIH
 70
     0
  9
$DIMTOH
 70
     0
  9
$DIMSE1
 70
     0
  9
$DIMSE2
 70
     0
  9
$DIMTAD
 70
     1
  9
$DIMZIN
 70
     8
  9
$DIMBLK
  1

  9
$DIMASO
 70
     1
  9
$DIMSHO
 70
     1
  9
$DIMPOST
  1

  9
$DIMAPOST
  1

  9
$DIMALT
 70
     0
  9
$DIMALTD
 70
     2
  9
$DIMALTF
 40
25.4
  9
$DIMLFAC
 40
1.0
  9
$DIMTOFL
 70
     1
  9
$DIMTVP
 40
0.0
  9
$DIMTIX
 70
     0
  9
$DIMSOXD
 70
     0
  9
$DIMSAH
 70
     0
  9
$DIMBLK1
  1

  9
$DIMBLK2
  1

  9
$DIMSTYLE
  2
ACADTOP
  9
$DIMCLRD
 70
     2
  9
$DIMCLRE
 70
     2
  9
$DIMCLRT
 70
     1
  9
$DIMTFAC
 40
0.6
  9
$DIMGAP
 40
1.0
  9
$DIMJUST
 70
     0
  9
$DIMSD1
 70
     0
  9
$DIMSD2
 70
     0
  9
$DIMTOLJ
 70
     1
  9
$DIMTZIN
 70
     8
  9
$DIMALTZ
 70
     0
  9
$DIMALTTZ
 70
     0
  9
$DIMUPT
 70
     0
  9
$DIMDEC
 70
     2
  9
$DIMTDEC
 70
     2
  9
$DIMALTU
 70
     2
  9
$DIMALTTD
 70
     2
  9
$DIMTXSTY
  7
Stile_Quota
  9
$DIMAUNIT
 70
     0
  9
$DIMADEC
 70
     1
  9
$DIMALTRND
 40
0.0
  9
$DIMAZIN
 70
     2
  9
$DIMDSEP
 70
    46
  9
$DIMATFIT
 70
     0
  9
$DIMFRAC
 70
     0
  9
$DIMLDRBLK
  1

  9
$DIMLUNIT
 70
     2
  9
$DIMLWD
 70
    -2
  9
$DIMLWE
 70
    -2
  9
$DIMTMOVE
 70
     0
  9
$LUNITS
 70
     2
  9
$LUPREC
 70
     3
  9
$SKETCHINC
 40
0.1
  9
$FILLETRAD
 40
0.0
  9
$AUNITS
 70
     0
  9
$AUPREC
 70
     3
  9
$MENU
  1
.
  9
$ELEVATION
 40
0.0
  9
$PELEVATION
 40
0.0
  9
$THICKNESS
 40
0.0
  9
$LIMCHECK
 70
     0
  9
$CHAMFERA
 40
0.5
  9
$CHAMFERB
 40
0.5
  9
$CHAMFERC
 40
1.0
  9
$CHAMFERD
 40
0.0
  9
$SKPOLY
 70
     1
  9
$TDCREATE
 40
2455047.282051505
  9
$TDUCREATE
 40
2455047.240384838
  9
$TDUPDATE
 40
2455646.411502315
  9
$TDUUPDATE
 40
2455646.369835648
  9
$TDINDWG
 40
0.1958541088
  9
$TDUSRTIMER
 40
0.1958530208
  9
$USRTIMER
 70
     1
  9
$ANGBASE
 50
0.0
  9
$ANGDIR
 70
     0
  9
$PDMODE
 70
     0
  9
$PDSIZE
 40
0.0
  9
$PLINEWID
 40
0.0
  9
$SPLFRAME
 70
     0
  9
$SPLINETYPE
 70
     6
  9
$SPLINESEGS
 70
     8
  9
$HANDSEED
  5
211D
  9
$SURFTAB1
 70
     6
  9
$SURFTAB2
 70
     6
  9
$SURFTYPE
 70
     6
  9
$SURFU
 70
     6
  9
$SURFV
 70
     6
  9
$UCSBASE
  2

  9
$UCSNAME
  2

  9
$UCSORG
 10
0.0
 20
0.0
 30
0.0
  9
$UCSXDIR
 10
1.0
 20
0.0
 30
0.0
  9
$UCSYDIR
 10
0.0
 20
1.0
 30
0.0
  9
$UCSORTHOREF
  2

  9
$UCSORTHOVIEW
 70
     0
  9
$UCSORGTOP
 10
0.0
 20
0.0
 30
0.0
  9
$UCSORGBOTTOM
 10
0.0
 20
0.0
 30
0.0
  9
$UCSORGLEFT
 10
0.0
 20
0.0
 30
0.0
  9
$UCSORGRIGHT
 10
0.0
 20
0.0
 30
0.0
  9
$UCSORGFRONT
 10
0.0
 20
0.0
 30
0.0
  9
$UCSORGBACK
 10
0.0
 20
0.0
 30
0.0
  9
$PUCSBASE
  2

  9
$PUCSNAME
  2

  9
$PUCSORG
 10
0.0
 20
0.0
 30
0.0
  9
$PUCSXDIR
 10
1.0
 20
0.0
 30
0.0
  9
$PUCSYDIR
 10
0.0
 20
1.0
 30
0.0
  9
$PUCSORTHOREF
  2

  9
$PUCSORTHOVIEW
 70
     0
  9
$PUCSORGTOP
 10
0.0
 20
0.0
 30
0.0
  9
$PUCSORGBOTTOM
 10
0.0
 20
0.0
 30
0.0
  9
$PUCSORGLEFT
 10
0.0
 20
0.0
 30
0.0
  9
$PUCSORGRIGHT
 10
0.0
 20
0.0
 30
0.0
  9
$PUCSORGFRONT
 10
0.0
 20
0.0
 30
0.0
  9
$PUCSORGBACK
 10
0.0
 20
0.0
 30
0.0
  9
$USERI1
 70
     0
  9
$USERI2
 70
     0
  9
$USERI3
 70
     0
  9
$USERI4
 70
     0
  9
$USERI5
 70
     0
  9
$USERR1
 40
0.0
  9
$USERR2
 40
0.0
  9
$USERR3
 40
0.0
  9
$USERR4
 40
0.0
  9
$USERR5
 40
0.0
  9
$WORLDVIEW
 70
     1
  9
$SHADEDGE
 70
     3
  9
$SHADEDIF
 70
    70
  9
$TILEMODE
 70
     1
  9
$MAXACTVP
 70
    48
  9
$PINSBASE
 10
0.0
 20
0.0
 30
0.0
  9
$PLIMCHECK
 70
     0
  9
$PEXTMIN
 10
1.000000000000000E+20
 20
1.000000000000000E+20
 30
1.000000000000000E+20
  9
$PEXTMAX
 10
-1.000000000000000E+20
 20
-1.000000000000000E+20
 30
-1.000000000000000E+20
  9
$PLIMMIN
 10
0.0
 20
0.0
  9
$PLIMMAX
 10
12.0
 20
9.0
  9
$UNITMODE
 70
     0
  9
$VISRETAIN
 70
     1
  9
$PLINEGEN
 70
     0
  9
$PSLTSCALE
 70
     0
  9
$TREEDEPTH
 70
  3020
  9
$CMLSTYLE
  2
STANDARD
  9
$CMLJUST
 70
     0
  9
$CMLSCALE
 40
1.0
  9
$PROXYGRAPHICS
 70
     1
  9
$MEASUREMENT
 70
     1
  9
$CELWEIGHT
370
    -1
  9
$ENDCAPS
280
     0
  9
$JOINSTYLE
280
     0
  9
$LWDISPLAY
290
     0
  9
$INSUNITS
 70
     0
  9
$HYPERLINKBASE
  1

  9
$STYLESHEET
  1

  9
$XEDIT
290
     1
  9
$CEPSNTYPE
380
     0
  9
$PSTYLEMODE
290
     1
  9
$FINGERPRINTGUID
  2
{CB357DF4-1DAE-4E09-B4A8-A0D759B6E49D}
  9
$VERSIONGUID
  2
{CC622F58-C4AD-4956-BA62-E96FD566E405}
  9
$EXTNAMES
290
     1
  9
$PSVPSCALE
 40
0.0
  9
$OLESTARTUP
290
     0
  0
ENDSEC
  0
SECTION
  2
CLASSES
  0
CLASS
  1
DICTIONARYVAR
  2
AcDbDictionaryVar
  3
ObjectDBX Classes
 90
        0
280
     0
281
     0
  0
CLASS
  1
ACDBDICTIONARYWDFLT
  2
AcDbDictionaryWithDefault
  3
ObjectDBX Classes
 90
        0
280
     0
281
     0
  0
CLASS
  1
ACDBPLACEHOLDER
  2
AcDbPlaceHolder
  3
ObjectDBX Classes
 90
        0
280
     0
281
     0
  0
CLASS
  1
LAYOUT
  2
AcDbLayout
  3
ObjectDBX Classes
 90
        0
280
     0
281
     0
  0
CLASS
  1
PLOTSETTINGS
  2
AcDbPlotSettings
  3
ObjectDBX Classes
 90
        0
280
     0
281
     0
  0
CLASS
  1
MATERIAL
  2
AcDbMaterial
  3
ObjectDBX Classes
 90
     1153
280
     0
281
     0
  0
CLASS
  1
VISUALSTYLE
  2
AcDbVisualStyle
  3
ObjectDBX Classes
 90
     4095
280
     0
281
     0
  0
CLASS
  1
TABLESTYLE
  2
AcDbTableStyle
  3
ObjectDBX Classes
 90
     4095
280
     0
281
     0
  0
CLASS
  1
SCALE
  2
AcDbScale
  3
ObjectDBX Classes
 90
     1153
280
     0
281
     0
  0
CLASS
  1
MLEADERSTYLE
  2
AcDbMLeaderStyle
  3
ACDB_MLEADERSTYLE_CLASS
 90
     4095
280
     0
281
     0
  0
CLASS
  1
CELLSTYLEMAP
  2
AcDbCellStyleMap
  3
ObjectDBX Classes
 90
     1152
280
     0
281
     0
  0
CLASS
  1
DIMASSOC
  2
AcDbDimAssoc
  3
"AcDbDimAssoc|Product Desc:     AcDim ARX App For Dimension|Company:          Autodesk, Inc.|WEB Address:      www.autodesk.com"
 90
        0
280
     0
281
     0
  0
CLASS
  1
ACDBQSCATEGORY
  2
AcQsCategory
  3
categories
 90
     1024
280
     0
281
     0
  0
CLASS
  1
AEC_REFEDIT_STATUS_TRACKER
  2
AecDbRefEditStatusTracker
  3
AecArchBase60|Product Desc: Autodesk Architectural Desktop 2007 |Company: Autodesk,Inc. |WEB Address: www.autodesk.com
 90
    32897
280
     0
281
     0
  0
CLASS
  1
NPOCOLLECTION
  2
AcDbImpNonPersistentObjectsCollection
  3
ObjectDBX Classes
 90
    33921
280
     0
281
     0
  0
CLASS
  1
ACDBQSPALLSTYLE
  2
AcQsPallStyle
  3
pallcart
 90
     1024
280
     0
281
     0
  0
CLASS
  1
SORTENTSTABLE
  2
AcDbSortentsTable
  3
ObjectDBX Classes
 90
        0
280
     0
281
     0
  0
ENDSEC
  0
SECTION
  2
TABLES
  0
TABLE
  2
VPORT
  5
12
102
{ACAD_XDICTIONARY
360
300
102
}
330
0
100
AcDbSymbolTable
 70
     1
  0
VPORT
  5
2AE
330
12
100
AcDbSymbolTableRecord
100
AcDbViewportTableRecord
  2
*Active
 70
     0
 10
0.0
 20
0.0
 11
1.0
 21
1.0
 12
16.76544759947001
 22
16.8492426554526
 13
0.0
 23
0.0
 14
1.0
 24
1.0
 15
1.0
 25
1.0
 16
0.0
 26
0.0
 36
1.0
 17
0.0
 27
0.0
 37
0.0
 40
38.61282201694429
 41
2.251225490196078
 42
50.0
 43
0.0
 44
0.0
 50
0.0
 51
0.0
 71
     0
 72
   100
 73
     1
 74
     0
 75
     0
 76
     0
 77
     0
 78
     0
281
     0
 65
     1
110
0.0
120
0.0
130
0.0
111
1.0
121
0.0
131
0.0
112
0.0
122
1.0
132
0.0
 79
     0
146
0.0
  0
ENDTAB
  0
TABLE
  2
LTYPE
  5
D
330
0
100
AcDbSymbolTable
 70
     7
  0
LTYPE
  5
E
330
D
100
AcDbSymbolTableRecord
100
AcDbLinetypeTableRecord
  2
BYBLOCK
 70
     0
  3

 72
    65
 73
     0
 40
0.0
  0
LTYPE
  5
F
330
D
100
AcDbSymbolTableRecord
100
AcDbLinetypeTableRecord
  2
BYLAYER
 70
     0
  3

 72
    65
 73
     0
 40
0.0
  0
LTYPE
  5
5
330
D
100
AcDbSymbolTableRecord
100
AcDbLinetypeTableRecord
  2
CONTINUOUS
 70
     0
  3
Solid line
 72
    65
 73
     0
 40
0.0
  0
LTYPE
  5
3E
330
D
100
AcDbSymbolTableRecord
100
AcDbLinetypeTableRecord
  2
ASSI
 70
     0
  3
-.-.-.-.-.-.-.-.-.-.-.-.-.-.-.-.-.-.-.-.-.-.-.-
 72
    65
 73
     4
 40
16.0
 49
10.0
 74
     0
 49
-2.0
 74
     0
 49
2.0
 74
     0
 49
-2.0
 74
     0
  0
LTYPE
  5
3F
330
D
100
AcDbSymbolTableRecord
100
AcDbLinetypeTableRecord
  2
INGOMBRI
 70
     0
  3
--..--..--..--..--..--..--..--..--..--..--..--
 72
    65
 73
     6
 40
20.0
 49
10.0
 74
     0
 49
-2.0
 74
     0
 49
2.0
 74
     0
 49
-2.0
 74
     0
 49
2.0
 74
     0
 49
-2.0
 74
     0
  0
LTYPE
  5
40
330
D
100
AcDbSymbolTableRecord
100
AcDbLinetypeTableRecord
  2
TRATTEGGIO
 70
     0
  3
- - - - - - - - - - - - - - - - - - - - - -
 72
    65
 73
     2
 40
5.5
 49
4.0
 74
     0
 49
-1.5
 74
     0
  0
LTYPE
  5
277
330
D
100
AcDbSymbolTableRecord
100
AcDbLinetypeTableRecord
  2
PUNTO
 70
     0
  3
Punto . . . . . . . . . . . . . . . . . . . . .
 72
    65
 73
     2
 40
6.349999999999999
 49
0.0
 74
     0
 49
-6.349999999999999
 74
     0
  0
LTYPE
  5
B55
330
D
100
AcDbSymbolTableRecord
100
AcDbLinetypeTableRecord
  2
DASHDOT2
 70
     0
  3
_._._._._._._._._._._._._._._._._._._._._._._._
 72
    65
 73
     4
 40
0.5
 49
0.25
 74
     0
 49
-0.125
 74
     0
 49
0.0
 74
     0
 49
-0.125
 74
     0
  0
LTYPE
  5
B56
330
D
100
AcDbSymbolTableRecord
100
AcDbLinetypeTableRecord
  2
HIDDEN
 70
     0
  3
__ __ __ __ __ __ __ __ __ __ __ __ __ __ __ __
 72
    65
 73
     2
 40
0.375
 49
0.25
 74
     0
 49
-0.125
 74
     0
  0
ENDTAB
  0
TABLE
  2
LAYER
  5
A
102
{ACAD_XDICTIONARY
360
F5E
102
}
330
0
100
AcDbSymbolTable
 70
    13
  0
LAYER
  5
4
102
{ACAD_XDICTIONARY
360
37B
102
}
330
A
100
AcDbSymbolTableRecord
100
AcDbLayerTableRecord
  2
0
 70
     0
 62
     7
  6
CONTINUOUS
370
    -3
390
44
  0
LAYER
  5
118
330
A
100
AcDbSymbolTableRecord
100
AcDbLayerTableRecord
  2
Defpoints
 70
     0
 62
     7
  6
CONTINUOUS
290
     0
370
    -3
390
44
  0
LAYER
  5
6DB
102
{ACAD_XDICTIONARY
360
1BF5
102
}
330
A
100
AcDbSymbolTableRecord
100
AcDbLayerTableRecord
  2
P-0000
 70
     0
 62
     7
  6
CONTINUOUS
370
    -3
390
44
1001
AcAecLayerStandard
1000

1000
PROFIL.Q25-2VA TAMP./ARG.
  0
LAYER
  5
710
102
{ACAD_XDICTIONARY
360
711
102
}
330
A
100
AcDbSymbolTableRecord
100
AcDbLayerTableRecord
  2
PROFILOQ30
 70
     0
 62
     2
  6
CONTINUOUS
370
    -3
390
44
  0
LAYER
  5
712
102
{ACAD_XDICTIONARY
360
713
102
}
330
A
100
AcDbSymbolTableRecord
100
AcDbLayerTableRecord
  2
DIMENSIONI
 70
     0
 62
     7
  6
CONTINUOUS
370
    -3
390
44
  0
LAYER
  5
714
102
{ACAD_XDICTIONARY
360
715
102
}
330
A
100
AcDbSymbolTableRecord
100
AcDbLayerTableRecord
  2
2
 70
     0
 62
     2
  6
CONTINUOUS
370
    -3
390
44
  0
LAYER
  5
B57
102
{ACAD_XDICTIONARY
360
1BFA
102
}
330
A
100
AcDbSymbolTableRecord
100
AcDbLayerTableRecord
  2
SOTTILI
 70
     0
 62
     3
  6
CONTINUOUS
370
    -3
390
44
  0
LAYER
  5
B58
102
{ACAD_XDICTIONARY
360
1BFC
102
}
330
A
100
AcDbSymbolTableRecord
100
AcDbLayerTableRecord
  2
ESTERNO
 70
     0
 62
     1
  6
HIDDEN
370
    -3
390
44
  0
LAYER
  5
F56
102
{ACAD_XDICTIONARY
360
1BFE
102
}
330
A
100
AcDbSymbolTableRecord
100
AcDbLayerTableRecord
  2
P-13E7
 70
     0
 62
     7
  6
CONTINUOUS
370
    -3
390
44
1001
AcAecLayerStandard
1000

1000
.cart
  0
LAYER
  5
113E
102
{ACAD_XDICTIONARY
360
1C00
102
}
330
A
100
AcDbSymbolTableRecord
100
AcDbLayerTableRecord
  2
P-7064
 70
     0
 62
     7
  6
CONTINUOUS
370
    -3
390
44
1001
AcAecLayerStandard
1000

1000
.1
  0
LAYER
  5
19D8
102
{ACAD_XDICTIONARY
360
19D9
102
}
330
A
100
AcDbSymbolTableRecord
100
AcDbLayerTableRecord
  2
3
 70
     0
 62
     4
  6
CONTINUOUS
370
    -3
390
44
  0
LAYER
  5
1BC4
102
{ACAD_XDICTIONARY
360
1BC5
102
}
330
A
100
AcDbSymbolTableRecord
100
AcDbLayerTableRecord
  2
P-751A
 70
     0
 62
     7
  6
CONTINUOUS
370
    -3
390
44
1001
AcAecLayerStandard
1000

1000
.1
  0
LAYER
  5
1E08
330
A
100
AcDbSymbolTableRecord
100
AcDbLayerTableRecord
  2
P-62DD
 70
     0
 62
     7
  6
CONTINUOUS
370
    -3
390
44
1001
AcAecLayerStandard
1000

1000
PROF.Q25 2VA TAMP. ALL.ANOD.ARG.
  0
ENDTAB
  0
TABLE
  2
STYLE
  5
B
330
0
100
AcDbSymbolTable
 70
    10
  0
STYLE
  5
C
330
B
100
AcDbSymbolTableRecord
100
AcDbTextStyleTableRecord
  2
STANDARD
 70
     0
 40
0.0
 41
0.8
 50
0.0
 71
     0
 42
0.2
  3
romans.shx
  4

  0
STYLE
  5
1B
330
B
100
AcDbSymbolTableRecord
100
AcDbTextStyleTableRecord
  2
ROMANS
 70
     0
 40
0.0
 41
0.8
 50
0.0
 71
     0
 42
3.0
  3
ROMANS.shx
  4

  0
STYLE
  5
25
330
B
100
AcDbSymbolTableRecord
100
AcDbTextStyleTableRecord
  2

 70
     1
 40
0.0
 41
1.0
 50
0.0
 71
     0
 42
0.2
  3
ltypeshp.shx
  4

  0
STYLE
  5
35C
330
B
100
AcDbSymbolTableRecord
100
AcDbTextStyleTableRecord
  2
Stile_Quota
 70
     0
 40
0.0
 41
1.0
 50
0.0
 71
     0
 42
3.0
  3
BOD_I.TTF
  4

1001
ACAD
1000
Bodoni MT
1071
 16777234
  0
STYLE
  5
635
330
B
100
AcDbSymbolTableRecord
100
AcDbTextStyleTableRecord
  2
Stile_Quota_FISSO
 70
     0
 40
20.0
 41
1.0
 50
0.0
 71
     0
 42
3.0
  3
BOD_I.TTF
  4

1001
ACAD
1000
Bodoni MT
1071
 16777234
  0
STYLE
  5
B59
330
B
100
AcDbSymbolTableRecord
100
AcDbTextStyleTableRecord
  2
SIMPLEX
 70
     0
 40
0.0
 41
1.0
 50
0.0
 71
     0
 42
0.2
  3
SIMPLEX.shx
  4

  0
STYLE
  5
F58
330
B
100
AcDbSymbolTableRecord
100
AcDbTextStyleTableRecord
  2
STYLE1
 70
     0
 40
0.0
 41
1.0
 50
0.0
 71
     0
 42
3.0
  3
eurr____.ttf
  4

1001
ACAD
1000
EuroRoman
1071
      514
  0
STYLE
  5
F59
330
B
100
AcDbSymbolTableRecord
100
AcDbTextStyleTableRecord
  2
arial_ttf
 70
     0
 40
0.0
 41
1.0
 50
0.0
 71
     0
 42
0.2
  3
ARIAL.TTF
  4

1001
ACAD
1000
Arial
1071
        2
  0
STYLE
  5
F5A
330
B
100
AcDbSymbolTableRecord
100
AcDbTextStyleTableRecord
  2
seansi_ttf
 70
     0
 40
0.0
 41
1.0
 50
0.0
 71
     0
 42
0.2
  3
seansi.ttf
  4

  0
STYLE
  5
F5B
330
B
100
AcDbSymbolTableRecord
100
AcDbTextStyleTableRecord
  2
Stile_Cart
 70
     0
 40
0.0
 41
1.0
 50
0.0
 71
     0
 42
1.5
  3
TIMES.TTF
  4

1001
ACAD
1000
Times New Roman
1071
       18
  0
ENDTAB
  0
TABLE
  2
VIEW
  5
10
330
0
100
AcDbSymbolTable
 70
     0
  0
ENDTAB
  0
TABLE
  2
UCS
  5
11
330
0
100
AcDbSymbolTable
 70
     0
  0
ENDTAB
  0
TABLE
  2
APPID
  5
14
330
0
100
AcDbSymbolTable
 70
    14
  0
APPID
  5
15
330
14
100
AcDbSymbolTableRecord
100
AcDbRegAppTableRecord
  2
ACAD
 70
     0
  0
APPID
  5
53
330
14
100
AcDbSymbolTableRecord
100
AcDbRegAppTableRecord
  2
TOP
 70
     0
  0
APPID
  5
356
330
14
100
AcDbSymbolTableRecord
100
AcDbRegAppTableRecord
  2
ACAD_MLEADERVER
 70
     0
  0
APPID
  5
35A
330
14
100
AcDbSymbolTableRecord
100
AcDbRegAppTableRecord
  2
ACAD_DSTYLE_DIMJAG
 70
     0
  0
APPID
  5
35B
330
14
100
AcDbSymbolTableRecord
100
AcDbRegAppTableRecord
  2
ACAD_DSTYLE_DIMTALN
 70
     0
  0
APPID
  5
35D
330
14
100
AcDbSymbolTableRecord
100
AcDbRegAppTableRecord
  2
AcadAnnoPO
 70
     0
  0
APPID
  5
374
330
14
100
AcDbSymbolTableRecord
100
AcDbRegAppTableRecord
  2
ACAD_EXEMPT_FROM_CAD_STANDARDS
 70
     0
  0
APPID
  5
38F
330
14
100
AcDbSymbolTableRecord
100
AcDbRegAppTableRecord
  2
ACAD_PSEXT
 70
     0
  0
APPID
  5
3BC
330
14
100
AcDbSymbolTableRecord
100
AcDbRegAppTableRecord
  2
ACAD_DSTYLE_DIMBREAK
 70
     0
  0
APPID
  5
6DC
330
14
100
AcDbSymbolTableRecord
100
AcDbRegAppTableRecord
  2
AcAecLayerStandard
 70
     0
  0
APPID
  5
10A3
330
14
100
AcDbSymbolTableRecord
100
AcDbRegAppTableRecord
  2
Bound
 70
     0
  0
APPID
  5
10A6
330
14
100
AcDbSymbolTableRecord
100
AcDbRegAppTableRecord
  2
OrigLayer
 70
     0
  0
APPID
  5
139F
330
14
100
AcDbSymbolTableRecord
100
AcDbRegAppTableRecord
  2
ACAD_DSTYLE_DIMRADIAL_EXTENSION
 70
     0
  0
APPID
  5
20FE
330
14
100
AcDbSymbolTableRecord
100
AcDbRegAppTableRecord
  2
ACAD_DSTYLE_DIMJOGGED_JOGANGLE_SYMBOL
 70
     0
  0
ENDTAB
  0
TABLE
  2
DIMSTYLE
  5
16
330
0
100
AcDbSymbolTable
 70
     8
100
AcDbDimStyleTable
 71
     5
340
1D
340
1140
340
F5D
340
F5C
340
B5A
  0
DIMSTYLE
105
1D
330
16
100
AcDbSymbolTableRecord
100
AcDbDimStyleTableRecord
  2
ACADTOP
 70
     0
 40
10.0
 41
2.0
 42
1.0
 43
10.0
 44
1.5
 73
     0
 74
     0
 77
     1
 78
     8
 79
     2
140
2.0
141
2.0
146
0.6
147
1.0
172
     1
176
     2
177
     2
178
     1
179
     1
271
     2
272
     2
284
     8
289
     0
340
35C
1001
ACAD_DSTYLE_DIMJAG
1070
   388
1040
1.5
1001
ACAD_DSTYLE_DIMTALN
1070
   392
1070
     0
  0
DIMSTYLE
105
3BD
330
16
100
AcDbSymbolTableRecord
100
AcDbDimStyleTableRecord
  2
DIERRE_LUNG-ALT
 70
     0
 40
10.0
 41
3.0
 42
1.0
 43
10.0
 44
1.5
 73
     0
 74
     0
 75
     1
 76
     1
 78
     8
 79
     2
140
20.0
141
2.0
146
0.6
147
1.0
172
     1
176
     3
177
     3
178
    30
179
     1
271
     1
272
     1
281
     1
282
     1
284
     8
340
635
1001
ACAD_DSTYLE_DIMBREAK
1070
   391
1040
3.75
1001
ACAD_DSTYLE_DIMJAG
1070
   388
1040
1.5
1001
ACAD_DSTYLE_DIMTALN
1070
   392
1070
     0
  0
DIMSTYLE
105
3BE
330
16
100
AcDbSymbolTableRecord
100
AcDbDimStyleTableRecord
  2
DIERRE_LARG
 70
     0
 40
10.0
 41
3.0
 42
1.0
 43
10.0
 44
1.5
 73
     0
 74
     0
 75
     1
 76
     1
 78
     8
 79
     2
140
20.0
141
2.0
146
0.6
147
1.0
172
     1
176
     4
177
     4
178
     4
179
     1
271
     1
272
     1
281
     1
282
     1
284
     8
340
635
1001
ACAD_DSTYLE_DIMBREAK
1070
   391
1040
3.75
1001
ACAD_DSTYLE_DIMJAG
1070
   388
1040
1.5
1001
ACAD_DSTYLE_DIMTALN
1070
   392
1070
     0
  0
DIMSTYLE
105
716
330
16
100
AcDbSymbolTableRecord
100
AcDbDimStyleTableRecord
  2
MAURO
 70
     0
 40
10.0
 41
20.0
 42
20.0
 73
     0
 74
     0
 77
     1
140
10.0
147
2.2
172
     1
271
     1
272
     1
279
     2
340
1B
  0
DIMSTYLE
105
B5A
330
16
100
AcDbSymbolTableRecord
100
AcDbDimStyleTableRecord
  2
MECC
 70
     0
 40
10.0
 41
25.0
 42
30.0
 44
5.0
 73
     0
 74
     0
 77
     1
 78
     8
140
25.0
146
0.0072
147
8.0
172
     1
271
     2
272
     2
279
     2
284
     8
285
     8
286
     8
340
B59
  0
DIMSTYLE
105
F5C
330
16
100
AcDbSymbolTableRecord
100
AcDbDimStyleTableRecord
  2
STANDARD
 70
     0
340
C
  0
DIMSTYLE
105
F5D
330
16
100
AcDbSymbolTableRecord
100
AcDbDimStyleTableRecord
  2
ISO-25
 70
     0
 41
2.5
 42
0.625
 43
3.75
 44
1.25
 73
     0
 74
     0
 77
     1
 78
     8
140
2.5
141
2.5
143
0.03937007874016
147
0.625
171
     3
172
     1
271
     2
272
     2
274
     3
278
    44
283
     0
284
     8
340
C
1001
ACAD_DSTYLE_DIMJOGGED_JOGANGLE_SYMBOL
1070
   384
1040
1.570796326794896
  0
DIMSTYLE
105
1140
330
16
100
AcDbSymbolTableRecord
100
AcDbDimStyleTableRecord
  2
ACADTOP10_0_0_10
 70
     0
 40
10.0
 41
2.0
 42
1.0
 43
10.0
 44
1.5
 73
     0
 74
     0
 77
     1
 78
     8
 79
     2
140
2.0
141
2.0
144
0.1
146
0.6
147
1.0
172
     1
176
     2
177
     2
178
     1
179
     1
271
     2
272
     2
284
     8
289
     0
340
35C
  0
ENDTAB
  0
TABLE
  2
BLOCK_RECORD
  5
1
330
0
100
AcDbSymbolTable
 70
    50
  0
BLOCK_RECORD
  5
2
330
1
100
AcDbSymbolTableRecord
100
AcDbBlockTableRecord
  2
*MODEL_SPACE
340
47
  0
BLOCK_RECORD
  5
7
330
1
100
AcDbSymbolTableRecord
100
AcDbBlockTableRecord
  2
*PAPER_SPACE
340
48
  0
BLOCK_RECORD
  5
F60
102
{ACAD_XDICTIONARY
360
1079
102
}
330
1
100
AcDbSymbolTableRecord
100
AcDbBlockTableRecord
  2
TAB-A4
340
0
  0
BLOCK_RECORD
  5
1142
330
1
100
AcDbSymbolTableRecord
100
AcDbBlockTableRecord
  2
*D1
340
0
  0
BLOCK_RECORD
  5
1166
330
1
100
AcDbSymbolTableRecord
100
AcDbBlockTableRecord
  2
*D2
340
0
  0
BLOCK_RECORD
  5
117E
330
1
100
AcDbSymbolTableRecord
100
AcDbBlockTableRecord
  2
*D3
340
0
  0
BLOCK_RECORD
  5
1196
330
1
100
AcDbSymbolTableRecord
100
AcDbBlockTableRecord
  2
*D4
340
0
  0
BLOCK_RECORD
  5
11B2
330
1
100
AcDbSymbolTableRecord
100
AcDbBlockTableRecord
  2
*D5
340
0
  0
BLOCK_RECORD
  5
11CA
330
1
100
AcDbSymbolTableRecord
100
AcDbBlockTableRecord
  2
*D6
340
0
  0
BLOCK_RECORD
  5
11E2
330
1
100
AcDbSymbolTableRecord
100
AcDbBlockTableRecord
  2
*D7
340
0
  0
BLOCK_RECORD
  5
11FA
330
1
100
AcDbSymbolTableRecord
100
AcDbBlockTableRecord
  2
*D8
340
0
  0
BLOCK_RECORD
  5
1216
330
1
100
AcDbSymbolTableRecord
100
AcDbBlockTableRecord
  2
*D9
340
0
  0
BLOCK_RECORD
  5
122E
330
1
100
AcDbSymbolTableRecord
100
AcDbBlockTableRecord
  2
*D10
340
0
  0
BLOCK_RECORD
  5
124A
330
1
100
AcDbSymbolTableRecord
100
AcDbBlockTableRecord
  2
*D11
340
0
  0
BLOCK_RECORD
  5
1266
330
1
100
AcDbSymbolTableRecord
100
AcDbBlockTableRecord
  2
*D12
340
0
  0
BLOCK_RECORD
  5
129A
330
1
100
AcDbSymbolTableRecord
100
AcDbBlockTableRecord
  2
*D13
340
0
  0
BLOCK_RECORD
  5
12B4
330
1
100
AcDbSymbolTableRecord
100
AcDbBlockTableRecord
  2
*D14
340
0
  0
BLOCK_RECORD
  5
13A1
330
1
100
AcDbSymbolTableRecord
100
AcDbBlockTableRecord
  2
*D15
340
0
  0
BLOCK_RECORD
  5
146C
330
1
100
AcDbSymbolTableRecord
100
AcDbBlockTableRecord
  2
*D16
340
0
  0
BLOCK_RECORD
  5
1488
330
1
100
AcDbSymbolTableRecord
100
AcDbBlockTableRecord
  2
*D17
340
0
  0
BLOCK_RECORD
  5
14A0
330
1
100
AcDbSymbolTableRecord
100
AcDbBlockTableRecord
  2
*D18
340
0
  0
BLOCK_RECORD
  5
14BC
330
1
100
AcDbSymbolTableRecord
100
AcDbBlockTableRecord
  2
*D19
340
0
  0
BLOCK_RECORD
  5
14EE
330
1
100
AcDbSymbolTableRecord
100
AcDbBlockTableRecord
  2
*D20
340
0
  0
BLOCK_RECORD
  5
1526
330
1
100
AcDbSymbolTableRecord
100
AcDbBlockTableRecord
  2
*D21
340
0
  0
BLOCK_RECORD
  5
1591
330
1
100
AcDbSymbolTableRecord
100
AcDbBlockTableRecord
  2
*D22
340
0
  0
BLOCK_RECORD
  5
15AB
330
1
100
AcDbSymbolTableRecord
100
AcDbBlockTableRecord
  2
*D23
340
0
  0
BLOCK_RECORD
  5
15C3
330
1
100
AcDbSymbolTableRecord
100
AcDbBlockTableRecord
  2
*D24
340
0
  0
BLOCK_RECORD
  5
15DB
330
1
100
AcDbSymbolTableRecord
100
AcDbBlockTableRecord
  2
*D25
340
0
  0
BLOCK_RECORD
  5
15F3
330
1
100
AcDbSymbolTableRecord
100
AcDbBlockTableRecord
  2
*D26
340
0
  0
BLOCK_RECORD
  5
1615
330
1
100
AcDbSymbolTableRecord
100
AcDbBlockTableRecord
  2
*D27
340
0
  0
BLOCK_RECORD
  5
1652
330
1
100
AcDbSymbolTableRecord
100
AcDbBlockTableRecord
  2
*D28
340
0
  0
BLOCK_RECORD
  5
169A
330
1
100
AcDbSymbolTableRecord
100
AcDbBlockTableRecord
  2
*D29
340
0
  0
BLOCK_RECORD
  5
16BC
330
1
100
AcDbSymbolTableRecord
100
AcDbBlockTableRecord
  2
*D30
340
0
  0
BLOCK_RECORD
  5
16D4
330
1
100
AcDbSymbolTableRecord
100
AcDbBlockTableRecord
  2
*D31
340
0
  0
BLOCK_RECORD
  5
16F0
330
1
100
AcDbSymbolTableRecord
100
AcDbBlockTableRecord
  2
*D32
340
0
  0
BLOCK_RECORD
  5
1708
330
1
100
AcDbSymbolTableRecord
100
AcDbBlockTableRecord
  2
*D33
340
0
  0
BLOCK_RECORD
  5
1720
330
1
100
AcDbSymbolTableRecord
100
AcDbBlockTableRecord
  2
*D34
340
0
  0
BLOCK_RECORD
  5
173C
330
1
100
AcDbSymbolTableRecord
100
AcDbBlockTableRecord
  2
*D35
340
0
  0
BLOCK_RECORD
  5
1758
330
1
100
AcDbSymbolTableRecord
100
AcDbBlockTableRecord
  2
*D36
340
0
  0
BLOCK_RECORD
  5
17D1
330
1
100
AcDbSymbolTableRecord
100
AcDbBlockTableRecord
  2
*D37
340
0
  0
BLOCK_RECORD
  5
17E3
330
1
100
AcDbSymbolTableRecord
100
AcDbBlockTableRecord
  2
*D38
340
0
  0
BLOCK_RECORD
  5
1817
330
1
100
AcDbSymbolTableRecord
100
AcDbBlockTableRecord
  2
*D39
340
0
  0
BLOCK_RECORD
  5
1845
330
1
100
AcDbSymbolTableRecord
100
AcDbBlockTableRecord
  2
*D40
340
0
  0
BLOCK_RECORD
  5
185D
330
1
100
AcDbSymbolTableRecord
100
AcDbBlockTableRecord
  2
*D41
340
0
  0
BLOCK_RECORD
  5
1875
330
1
100
AcDbSymbolTableRecord
100
AcDbBlockTableRecord
  2
*D42
340
0
  0
BLOCK_RECORD
  5
1898
330
1
100
AcDbSymbolTableRecord
100
AcDbBlockTableRecord
  2
*D43
340
0
  0
BLOCK_RECORD
  5
18C0
330
1
100
AcDbSymbolTableRecord
100
AcDbBlockTableRecord
  2
*D44
340
0
  0
BLOCK_RECORD
  5
18DC
330
1
100
AcDbSymbolTableRecord
100
AcDbBlockTableRecord
  2
*D45
340
0
  0
BLOCK_RECORD
  5
1BD9
330
1
100
AcDbSymbolTableRecord
100
AcDbBlockTableRecord
  2
*D46
340
0
  0
BLOCK_RECORD
  5
1F28
330
1
100
AcDbSymbolTableRecord
100
AcDbBlockTableRecord
  2
*D48
340
0
  0
BLOCK_RECORD
  5
1F6E
330
1
100
AcDbSymbolTableRecord
100
AcDbBlockTableRecord
  2
*D49
340
0
  0
ENDTAB
  0
ENDSEC
  0
SECTION
  2
BLOCKS
  0
BLOCK
  5
3
330
2
100
AcDbEntity
  8
0
100
AcDbBlockBegin
  2
*MODEL_SPACE
 70
     0
 10
0.0
 20
0.0
 30
0.0
  3
*MODEL_SPACE
  1

  0
ENDBLK
  5
6
330
2
100
AcDbEntity
  8
0
100
AcDbBlockEnd
  0
BLOCK
  5
8
330
7
100
AcDbEntity
 67
     1
  8
0
100
AcDbBlockBegin
  2
*PAPER_SPACE
 70
     0
 10
0.0
 20
0.0
 30
0.0
  3
*PAPER_SPACE
  1

  0
ENDBLK
  5
9
330
7
100
AcDbEntity
 67
     1
  8
0
100
AcDbBlockEnd
  0
BLOCK
  5
107B
330
F60
100
AcDbEntity
  8
0
 62
     7
100
AcDbBlockBegin
  2
TAB-A4
 70
     2
 10
0.0
 20
0.0
 30
0.0
  3
TAB-A4
  1

  0
LINE
  5
F61
330
F60
100
AcDbEntity
  8
0
  6
Continuous
 62
     0
100
AcDbLine
 10
100.0
 20
143.5
 30
0.0
 11
-100.0
 21
143.5
 31
0.0
1001
TOP
1070
     7
  0
LINE
  5
F62
330
F60
100
AcDbEntity
  8
0
  6
Continuous
 62
     0
100
AcDbLine
 10
-100.0
 20
143.5
 30
0.0
 11
-100.0
 21
-143.5
 31
0.0
1001
TOP
1070
     7
  0
LINE
  5
F63
330
F60
100
AcDbEntity
  8
0
  6
Continuous
 62
     0
100
AcDbLine
 10
-100.0
 20
-143.5
 30
0.0
 11
100.0
 21
-143.5
 31
0.0
1001
TOP
1070
     7
  0
LINE
  5
F64
330
F60
100
AcDbEntity
  8
0
  6
Continuous
 62
     0
100
AcDbLine
 10
100.0
 20
-143.5
 30
0.0
 11
100.0
 21
143.5
 31
0.0
1001
TOP
1070
     7
  0
LINE
  5
F65
330
F60
100
AcDbEntity
  8
0
  6
Continuous
 62
     0
100
AcDbLine
 10
105.0
 20
148.5
 30
0.0
 11
-105.0
 21
148.5
 31
0.0
1001
TOP
1070
     3
  0
LINE
  5
F66
330
F60
100
AcDbEntity
  8
0
  6
Continuous
 62
     0
100
AcDbLine
 10
-105.0
 20
148.5
 30
0.0
 11
-105.0
 21
-148.5
 31
0.0
1001
TOP
1070
     3
  0
LINE
  5
F67
330
F60
100
AcDbEntity
  8
0
  6
Continuous
 62
     0
100
AcDbLine
 10
-105.0
 20
-148.5
 30
0.0
 11
105.0
 21
-148.5
 31
0.0
1001
TOP
1070
     3
  0
LINE
  5
F68
330
F60
100
AcDbEntity
  8
0
  6
Continuous
 62
     0
100
AcDbLine
 10
105.0
 20
-148.5
 30
0.0
 11
105.0
 21
148.5
 31
0.0
1001
TOP
1070
     3
  0
ATTDEF
  5
F69
330
F60
100
AcDbEntity
  8
0
 62
     0
 48
35.0
100
AcDbText
 10
-76.25989897767704
 20
-84.74999999999999
 30
0.0
 40
2.5
  1

  7
Stile_Cart
 11
-76.25989897767704
 21
-83.49999999999999
 31
0.0
100
AcDbAttributeDefinition
  3

  2
DESCRIZIONE
 70
     4
 74
     2
1001
TOP
1070
     7
  0
LINE
  5
F6A
330
F60
100
AcDbEntity
  8
0
 62
     0
 48
35.0
100
AcDbLine
 10
100.0
 20
-138.5
 30
0.0
 11
-100.0
 21
-138.5
 31
0.0
1001
TOP
1070
     3
  0
MTEXT
  5
F6B
330
F60
100
AcDbEntity
  8
0
 62
     0
 48
35.0
100
AcDbMText
 10
0.0
 20
-141.0
 30
0.0
 40
1.499624999999999
 41
190.3973187722231
 71
     5
 72
     1
  1
{\C256;SI VIETA L'USO E LA RIPRODUZIONE O LA VISIONE A TERZI DEL PRESENTE DISEGNO SENZA ESPLICITA AUTORIZZAZIONE, \H1.333x;Dierre \H0.75x;TUTELERA' I PROPRI DIRITTI A NORMA DI LEGGE}
  7
Stile_Cart
 73
     1
 44
1.0
1001
TOP
1070
     3
1001
ACAD
1000
MTEXTBEGIN
1070
    73
1070
     1
1070
    44
1040
1.0
1070
    74
1070
     0
1000
MTEXTEND
  0
LINE
  5
F6C
330
F60
100
AcDbEntity
  8
0
 62
     0
 48
35.0
100
AcDbLine
 10
-100.0
 20
-78.5
 30
0.0
 11
100.0
 21
-78.49999999999988
 31
0.0
1001
TOP
1070
     3
  0
LINE
  5
F6D
330
F60
100
AcDbEntity
  8
0
 62
     0
 48
35.0
100
AcDbLine
 10
35.0
 20
-78.5
 30
0.0
 11
35.0
 21
-138.5
 31
0.0
1001
TOP
1070
     3
  0
LINE
  5
F6E
330
F60
100
AcDbEntity
  8
0
 62
     0
 48
35.0
100
AcDbLine
 10
-100.0
 20
-130.5
 30
0.0
 11
35.0
 21
-130.5
 31
0.0
1001
TOP
1070
     1
  0
LINE
  5
F6F
330
F60
100
AcDbEntity
  8
0
 62
     0
 48
35.0
100
AcDbLine
 10
-100.0
 20
-108.5
 30
0.0
 11
35.0
 21
-108.5
 31
0.0
1001
TOP
1070
     1
  0
LINE
  5
F70
330
F60
100
AcDbEntity
  8
0
 62
     0
 48
35.0
100
AcDbLine
 10
-66.25
 20
-130.5
 30
0.0
 11
-66.25
 21
-138.5
 31
0.0
1001
TOP
1070
     7
  0
LINE
  5
F71
330
F60
100
AcDbEntity
  8
0
 62
     0
 48
35.0
100
AcDbLine
 10
-100.0
 20
-98.50000000000001
 30
0.0
 11
35.0
 21
-98.50000000000001
 31
0.0
1001
TOP
1070
     1
  0
LINE
  5
F72
330
F60
100
AcDbEntity
  8
0
 62
     0
 48
35.0
100
AcDbLine
 10
-27.5
 20
-98.50000000000001
 30
0.0
 11
-27.5
 21
-108.5
 31
0.0
1001
TOP
1070
     1
  0
TEXT
  5
F73
330
F60
100
AcDbEntity
  8
0
 62
     0
 48
35.0
100
AcDbText
 10
-99.24333629514059
 20
-84.74999999999999
 30
0.0
 40
1.6
  1
DENOMINAZIONE:
  7
STYLE1
100
AcDbText
1001
TOP
1070
     1
  0
TEXT
  5
F74
330
F60
100
AcDbEntity
  8
0
 62
     0
 48
35.0
100
AcDbText
 10
-99.24333629514059
 20
-105.5
 30
0.0
 40
1.6
  1
CLIENTE:
  7
STYLE1
100
AcDbText
1001
TOP
1070
     1
  0
LINE
  5
F75
330
F60
100
AcDbEntity
  8
0
 62
     0
 48
35.0
100
AcDbLine
 10
-27.5
 20
-103.5
 30
0.0
 11
35.00000000000091
 21
-103.5
 31
0.0
1001
TOP
1070
     1
  0
TEXT
  5
F76
330
F60
100
AcDbEntity
  8
0
 62
     0
 48
35.0
100
AcDbText
 10
-26.74333629514058
 20
-102.25
 30
0.0
 40
1.6
  1
COD. CLIENTE:
  7
STYLE1
100
AcDbText
1001
TOP
1070
     1
  0
TEXT
  5
F77
330
F60
100
AcDbEntity
  8
0
 62
     0
 48
35.0
100
AcDbText
 10
-26.74333629514058
 20
-107.25
 30
0.0
 40
1.6
  1
CC CLIENTE:
  7
STYLE1
100
AcDbText
1001
TOP
1070
     1
  0
LINE
  5
F78
330
F60
100
AcDbEntity
  8
0
 62
     0
 48
35.0
100
AcDbLine
 10
35.0
 20
-85.99999999999988
 30
0.0
 11
100.0
 21
-85.99999999999988
 31
0.0
1001
TOP
1070
     7
  0
LINE
  5
F79
330
F60
100
AcDbEntity
  8
0
 62
     0
 48
35.0
100
AcDbLine
 10
35.0
 20
-93.49999999999988
 30
0.0
 11
100.0
 21
-93.49999999999988
 31
0.0
1001
TOP
1070
     7
  0
LINE
  5
F7A
330
F60
100
AcDbEntity
  8
0
 62
     0
 48
35.0
100
AcDbLine
 10
35.0
 20
-100.9999999999999
 30
0.0
 11
100.0
 21
-100.9999999999999
 31
0.0
1001
TOP
1070
     7
  0
TEXT
  5
F7B
330
F60
100
AcDbEntity
  8
0
 62
     0
 48
35.0
100
AcDbText
 10
35.75666370485942
 20
-83.99999999999989
 30
0.0
 40
1.6
  1
Data:
  7
STYLE1
100
AcDbText
1001
TOP
1070
     1
  0
TEXT
  5
F7C
330
F60
100
AcDbEntity
  8
0
 62
     0
 48
35.0
100
AcDbText
 10
35.75666370485942
 20
-90.74999999999988
 30
0.0
 40
1.6
  1
Diseg.:        
  7
STYLE1
100
AcDbText
1001
TOP
1070
     1
  0
TEXT
  5
F7D
330
F60
100
AcDbEntity
  8
0
 62
     0
 48
35.0
100
AcDbText
 10
35.75666370485942
 20
-98.49999999999988
 30
0.0
 40
1.6
  1
Rifer. ordine:
  7
STYLE1
100
AcDbText
1001
TOP
1070
     1
  0
LINE
  5
F7E
330
F60
100
AcDbEntity
  8
0
 62
     0
 48
35.0
100
AcDbLine
 10
72.0
 20
-78.49999999999988
 30
0.0
 11
72.0
 21
-93.49999999999999
 31
0.0
  0
TEXT
  5
F7F
330
F60
100
AcDbEntity
  8
0
 62
     0
 48
35.0
100
AcDbText
 10
72.75666370485942
 20
-83.99999999999989
 30
0.0
 40
1.6
  1
Scala:
  7
STYLE1
100
AcDbText
1001
TOP
1070
     1
  0
TEXT
  5
F80
330
F60
100
AcDbEntity
  8
0
 62
     0
 48
35.0
100
AcDbText
 10
72.75666370485942
 20
-91.49999999999989
 30
0.0
 40
1.6
  1
Q.ta:
  7
STYLE1
100
AcDbText
1001
TOP
1070
     1
  0
TEXT
  5
F81
330
F60
100
AcDbEntity
  8
0
 62
     0
 48
35.0
100
AcDbText
 10
35.85819235127565
 20
-110.1249999999999
 30
0.0
 40
1.76
  1
Codice N
  7
STYLE1
100
AcDbText
1001
TOP
1070
     1
  0
LINE
  5
F82
330
F60
100
AcDbEntity
  8
0
 62
     0
 48
35.0
100
AcDbLine
 10
35.0
 20
-114.7499999999999
 30
0.0
 11
100.0
 21
-114.7499999999999
 31
0.0
1001
TOP
1070
     7
  0
LINE
  5
F83
330
F60
100
AcDbEntity
  8
0
 62
     0
 48
35.0
100
AcDbLine
 10
35.0
 20
-124.7499999999999
 30
0.0
 11
100.0
 21
-124.7499999999999
 31
0.0
1001
TOP
1070
     7
  0
LINE
  5
F84
330
F60
100
AcDbEntity
  8
0
 62
     0
 48
35.0
100
AcDbLine
 10
35.0
 20
-130.5
 30
0.0
 11
100.0
 21
-130.5
 31
0.0
1001
TOP
1070
     7
  0
CIRCLE
  5
F85
330
F60
100
AcDbEntity
  8
0
  6
Continuous
 62
     0
100
AcDbCircle
 10
94.1449550471707
 20
-134.5409172698267
 30
0.0
 40
3.0
1001
TOP
1070
     2
  0
LINE
  5
F86
330
F60
100
AcDbEntity
  8
0
  6
DASHDOT2
 62
     0
100
AcDbLine
 10
94.1449550471707
 20
-131.5409172698267
 30
0.0
 11
94.1449550471707
 21
-137.5409172698267
 31
0.0
1001
TOP
1070
     2
  0
CIRCLE
  5
F87
330
F60
100
AcDbEntity
  8
0
  6
Continuous
 62
     0
100
AcDbCircle
 10
94.1449550471707
 20
-134.5409172698267
 30
0.0
 40
1.5
1001
TOP
1070
     2
  0
LINE
  5
F88
330
F60
100
AcDbEntity
  8
0
  6
DASHDOT2
 62
     0
100
AcDbLine
 10
81.35716881113784
 20
-134.5409172698267
 30
0.0
 11
97.14495504717071
 21
-134.5409172698267
 31
0.0
1001
TOP
1070
     2
  0
LINE
  5
F89
330
F60
100
AcDbEntity
  8
0
  6
Continuous
 62
     0
100
AcDbLine
 10
88.51173788868619
 20
-131.5409172698267
 30
0.0
 11
88.51173788868619
 21
-137.8298833532369
 31
0.0
1001
TOP
1070
     2
  0
LINE
  5
F8A
330
F60
100
AcDbEntity
  8
0
  6
Continuous
 62
     0
100
AcDbLine
 10
81.35716881113784
 20
-133.0409172698267
 30
0.0
 11
81.35716881113784
 21
-136.0409172698267
 31
0.0
1001
TOP
1070
     2
  0
LINE
  5
F8B
330
F60
100
AcDbEntity
  8
0
  6
Continuous
 62
     0
100
AcDbLine
 10
81.35716881113784
 20
-136.0409172698267
 30
0.0
 11
88.51173788868619
 21
-137.8298833532369
 31
0.0
1001
TOP
1070
     2
  0
LINE
  5
F8C
330
F60
100
AcDbEntity
  8
0
  6
Continuous
 62
     0
100
AcDbLine
 10
88.51173788868619
 20
-131.5409172698267
 30
0.0
 11
81.35716881113784
 21
-133.0409172698267
 31
0.0
1001
TOP
1070
     2
  0
LINE
  5
F8D
330
F60
100
AcDbEntity
  8
0
 62
     0
 48
35.0
100
AcDbLine
 10
78.5
 20
-138.5
 30
0.0
 11
78.5
 21
-130.5
 31
0.0
  0
MTEXT
  5
F8E
330
F60
100
AcDbEntity
  8
0
 62
     0
 48
35.0
100
AcDbMText
 10
36.70159610234714
 20
-116.147829675845
 30
0.0
 40
2.0
 41
187.0802
 71
     1
 72
     5
  1
{\C256;LE TOLLERANZE SI INTENDONO SU PEZZO\PFINITO COMPLETO DI ZINCATURA}
  7
Stile_Cart
 73
     1
 44
1.0
1001
TOP
1070
     3
1001
ACAD
1000
MTEXTBEGIN
1070
    73
1070
     1
1070
    44
1040
1.0
1070
    74
1070
     0
1000
MTEXTEND
  0
LINE
  5
F8F
330
F60
100
AcDbEntity
  8
0
 62
     0
100
AcDbLine
 10
-100.0
 20
-71.0
 30
0.0
 11
99.99999999999909
 21
-71.00000000000012
 31
0.0
1001
TOP
1070
     3
  0
LINE
  5
F90
330
F60
100
AcDbEntity
  8
0
 62
     0
100
AcDbLine
 10
-100.0
 20
-67.0
 30
0.0
 11
99.99999999999909
 21
-67.0
 31
0.0
1001
TOP
1070
     3
  0
LINE
  5
F91
330
F60
100
AcDbEntity
  8
0
 62
     0
100
AcDbLine
 10
-100.0
 20
-62.0
 30
0.0
 11
99.99999999999909
 21
-61.99999999999988
 31
0.0
1001
TOP
1070
     3
  0
LINE
  5
F92
330
F60
100
AcDbEntity
  8
0
 62
     0
 48
35.0
100
AcDbLine
 10
-85.0
 20
-61.99999999999999
 30
0.0
 11
-85.0
 21
-78.5
 31
0.0
1001
TOP
1070
     1
  0
TEXT
  5
F93
330
F60
100
AcDbEntity
  8
0
 62
     0
 48
35.0
100
AcDbText
 10
-99.24333629514149
 20
-76.0
 30
0.0
 40
1.6
  1
POS.
  7
STYLE1
100
AcDbText
1001
TOP
1070
     1
  0
TEXT
  5
F94
330
F60
100
AcDbEntity
  8
0
 62
     0
 48
35.0
100
AcDbText
 10
-84.2433362951424
 20
-76.0
 30
0.0
 40
1.6
  1
MATERIALE:
  7
STYLE1
100
AcDbText
1001
TOP
1070
     1
  0
LINE
  5
F95
330
F60
100
AcDbEntity
  8
0
 62
     0
 48
35.0
100
AcDbLine
 10
14.99999999999909
 20
-71.00000000000022
 30
0.0
 11
15.0
 21
-78.5
 31
0.0
1001
TOP
1070
     1
  0
TEXT
  5
F96
330
F60
100
AcDbEntity
  8
0
 62
     0
 48
35.0
100
AcDbText
 10
15.75666370485669
 20
-76.0
 30
0.0
 40
1.6
  1
TRATTAMENTI:
  7
STYLE1
100
AcDbText
1001
TOP
1070
     1
  0
TEXT
  5
F97
330
F60
100
AcDbEntity
  8
0
 62
     0
 48
35.0
100
AcDbText
 10
-94.94297836942587
 20
-69.79763860700177
 30
0.0
 40
1.6
  1
Rev.
  7
STYLE1
100
AcDbText
1001
TOP
1070
     1
  0
LINE
  5
F98
330
F60
100
AcDbEntity
  8
0
 62
     0
 48
35.0
100
AcDbLine
 10
80.0
 20
-61.9999999999999
 30
0.0
 11
80.0000000000009
 21
-71.00000000000012
 31
0.0
1001
TOP
1070
     1
  0
LINE
  5
F99
330
F60
100
AcDbEntity
  8
0
 62
     0
 48
35.0
100
AcDbLine
 10
65.00000000000032
 20
-61.99999999999991
 30
0.0
 11
65.00000000000091
 21
-71.00000000000114
 31
0.0
1001
TOP
1070
     1
  0
TEXT
  5
F9A
330
F60
100
AcDbEntity
  8
0
 62
     0
 48
35.0
100
AcDbText
 10
70.05702163057503
 20
-69.79763860700177
 30
0.0
 40
1.6
  1
Data
  7
STYLE1
100
AcDbText
1001
TOP
1070
     1
  0
TEXT
  5
F9B
330
F60
100
AcDbEntity
  8
0
 62
     0
 48
35.0
100
AcDbText
 10
87.79240430569643
 20
-69.79763860700177
 30
0.0
 40
1.6
  1
Diseg.
  7
STYLE1
100
AcDbText
1001
TOP
1070
     1
  0
LINE
  5
F9C
330
F60
100
AcDbEntity
  8
0
 62
     0
 48
35.0
100
AcDbLine
 10
-32.5
 20
-130.5
 30
0.0
 11
-32.5
 21
-138.5
 31
0.0
1001
TOP
1070
     7
  0
LINE
  5
F9D
330
F60
100
AcDbEntity
  8
0
 62
     0
 48
35.0
100
AcDbLine
 10
1.25
 20
-130.5
 30
0.0
 11
1.25
 21
-138.5
 31
0.0
1001
TOP
1070
     7
  0
LINE
  5
F9E
330
F60
100
AcDbEntity
  8
0
  6
Continuous
 62
     0
100
AcDbLine
 10
-84.625
 20
-135.2853677388285
 30
0.0
 11
-83.125
 21
-138.2853677388285
 31
0.0
1001
TOP
1070
     2
  0
LINE
  5
F9F
330
F60
100
AcDbEntity
  8
0
  6
Continuous
 62
     0
100
AcDbLine
 10
-83.125
 20
-138.2853677388285
 30
0.0
 11
-80.12500000000001
 21
-132.2853677388285
 31
0.0
1001
TOP
1070
     2
  0
CIRCLE
  5
FA0
330
F60
100
AcDbEntity
  8
0
  6
Continuous
 62
     0
100
AcDbCircle
 10
-83.125
 20
-136.1513931426129
 30
0.0
 40
0.8660254037843873
1001
TOP
1070
     2
  0
TEXT
  5
FA1
330
F60
100
AcDbEntity
  8
0
  6
Continuous
 62
     0
100
AcDbText
 10
36.65725579953532
 20
-127.6856811538551
 30
0.0
 40
1.5
  1
Le QUOTE senza tolleranze si intendono h 11 / H 11
  7
Stile_Cart
100
AcDbText
1001
TOP
1070
     7
  0
TEXT
  5
FA2
330
F60
100
AcDbEntity
  8
0
  6
Continuous
 62
     0
100
AcDbText
 10
36.56316783991022
 20
-136.7809056532263
 30
0.0
 40
1.5
  1
Smussi e raggi non quotati = 1 mm
  7
Stile_Cart
100
AcDbText
1001
TOP
1070
     7
  0
TEXT
  5
FA3
330
F60
100
AcDbEntity
  8
0
  6
Continuous
 62
     0
100
AcDbText
 10
36.70159610234714
 20
-133.4356811538553
 30
0.0
 40
1.5
  1
Negli spigoli non quotati smussi 0,5 x 45°
  7
Stile_Cart
100
AcDbText
1001
TOP
1070
     7
  0
LINE
  5
FA4
330
F60
100
AcDbEntity
  8
0
  6
Continuous
 62
     0
100
AcDbLine
 10
22.04910490551336
 20
-135.2267571184318
 30
0.0
 11
23.54910490551336
 21
-138.2267571184318
 31
0.0
1001
TOP
1070
     2
  0
LINE
  5
FA5
330
F60
100
AcDbEntity
  8
0
  6
Continuous
 62
     0
100
AcDbLine
 10
23.54910490551336
 20
-138.2267571184318
 30
0.0
 11
26.54910490551336
 21
-132.2267571184318
 31
0.0
1001
TOP
1070
     2
  0
TEXT
  5
FA6
330
F60
100
AcDbEntity
  8
0
  6
Continuous
 62
     0
100
AcDbText
 10
21.21024234627165
 20
-134.7267571184318
 30
0.0
 40
2.0
  1
0,8
  7
seansi_ttf
 11
21.21024234627165
 21
-132.7267571184318
 31
0.0
100
AcDbText
 73
     3
1001
TOP
1070
     2
  0
LINE
  5
FA7
330
F60
100
AcDbEntity
  8
0
  6
Continuous
 62
     0
100
AcDbLine
 10
14.18630267108197
 20
-135.2559419652411
 30
0.0
 11
15.68630267108197
 21
-138.2559419652411
 31
0.0
1001
TOP
1070
     2
  0
LINE
  5
FA8
330
F60
100
AcDbEntity
  8
0
  6
Continuous
 62
     0
100
AcDbLine
 10
15.68630267108197
 20
-138.2559419652411
 30
0.0
 11
17.18630267108197
 21
-135.2559419652411
 31
0.0
1001
TOP
1070
     2
  0
LINE
  5
FA9
330
F60
100
AcDbEntity
  8
0
  6
Continuous
 62
     0
100
AcDbLine
 10
17.18630267108197
 20
-135.2559419652411
 30
0.0
 11
14.18630267108197
 21
-135.2559419652411
 31
0.0
1001
TOP
1070
     2
  0
LINE
  5
FAA
330
F60
100
AcDbEntity
  8
0
  6
Continuous
 62
     0
100
AcDbLine
 10
14.18630267108197
 20
-135.2559419652411
 30
0.0
 11
12.68630267108197
 21
-138.2559419652411
 31
0.0
1001
TOP
1070
     2
  0
LINE
  5
FAB
330
F60
100
AcDbEntity
  8
0
  6
Continuous
 62
     0
100
AcDbLine
 10
12.68630267108197
 20
-138.2559419652411
 30
0.0
 11
11.18630267108197
 21
-135.2559419652411
 31
0.0
1001
TOP
1070
     2
  0
LINE
  5
FAC
330
F60
100
AcDbEntity
  8
0
  6
Continuous
 62
     0
100
AcDbLine
 10
11.18630267108197
 20
-135.2559419652411
 30
0.0
 11
14.18630267108197
 21
-135.2559419652411
 31
0.0
1001
TOP
1070
     2
  0
LINE
  5
FAD
330
F60
100
AcDbEntity
  8
0
  6
Continuous
 62
     0
100
AcDbLine
 10
11.18630267108197
 20
-135.2559419652411
 30
0.0
 11
9.686302671081968
 21
-138.2559419652411
 31
0.0
1001
TOP
1070
     2
  0
LINE
  5
FAE
330
F60
100
AcDbEntity
  8
0
  6
Continuous
 62
     0
100
AcDbLine
 10
9.686302671081968
 20
-138.2559419652411
 30
0.0
 11
8.186302671081968
 21
-135.2559419652411
 31
0.0
1001
TOP
1070
     2
  0
LINE
  5
FAF
330
F60
100
AcDbEntity
  8
0
  6
Continuous
 62
     0
100
AcDbLine
 10
8.186302671081968
 20
-135.2559419652411
 30
0.0
 11
11.18630267108197
 21
-135.2559419652411
 31
0.0
1001
TOP
1070
     2
  0
LINE
  5
FB0
330
F60
100
AcDbEntity
  8
0
  6
Continuous
 62
     0
100
AcDbLine
 10
-11.09407416882067
 20
-135.2999430320282
 30
0.0
 11
-9.594074168820668
 21
-138.2999430320282
 31
0.0
1001
TOP
1070
     2
  0
LINE
  5
FB1
330
F60
100
AcDbEntity
  8
0
  6
Continuous
 62
     0
100
AcDbLine
 10
-9.594074168820668
 20
-138.2999430320282
 30
0.0
 11
-6.594074168820668
 21
-132.2999430320282
 31
0.0
1001
TOP
1070
     2
  0
TEXT
  5
FB2
330
F60
100
AcDbEntity
  8
0
  6
Continuous
 62
     0
100
AcDbText
 10
-11.93293672806237
 20
-134.7999430320282
 30
0.0
 40
2.0
  1
1,6
  7
seansi_ttf
 11
-11.93293672806237
 21
-132.7999430320282
 31
0.0
100
AcDbText
 73
     3
1001
TOP
1070
     2
  0
LINE
  5
FB3
330
F60
100
AcDbEntity
  8
0
  6
Continuous
 62
     0
100
AcDbLine
 10
-21.65592583117933
 20
-135.2999430320282
 30
0.0
 11
-20.15592583117933
 21
-138.2999430320282
 31
0.0
1001
TOP
1070
     2
  0
LINE
  5
FB4
330
F60
100
AcDbEntity
  8
0
  6
Continuous
 62
     0
100
AcDbLine
 10
-20.15592583117933
 20
-138.2999430320282
 30
0.0
 11
-18.65592583117933
 21
-135.2999430320282
 31
0.0
1001
TOP
1070
     2
  0
LINE
  5
FB5
330
F60
100
AcDbEntity
  8
0
  6
Continuous
 62
     0
100
AcDbLine
 10
-18.65592583117933
 20
-135.2999430320282
 30
0.0
 11
-21.65592583117933
 21
-135.2999430320282
 31
0.0
1001
TOP
1070
     2
  0
LINE
  5
FB6
330
F60
100
AcDbEntity
  8
0
  6
Continuous
 62
     0
100
AcDbLine
 10
-21.65592583117933
 20
-135.2999430320282
 30
0.0
 11
-23.15592583117933
 21
-138.2999430320282
 31
0.0
1001
TOP
1070
     2
  0
LINE
  5
FB7
330
F60
100
AcDbEntity
  8
0
  6
Continuous
 62
     0
100
AcDbLine
 10
-23.15592583117933
 20
-138.2999430320282
 30
0.0
 11
-24.65592583117933
 21
-135.2999430320282
 31
0.0
1001
TOP
1070
     2
  0
LINE
  5
FB8
330
F60
100
AcDbEntity
  8
0
  6
Continuous
 62
     0
100
AcDbLine
 10
-24.65592583117933
 20
-135.2999430320282
 30
0.0
 11
-21.65592583117933
 21
-135.2999430320282
 31
0.0
1001
TOP
1070
     2
  0
LINE
  5
FB9
330
F60
100
AcDbEntity
  8
0
  6
Continuous
 62
     0
100
AcDbLine
 10
-58.06883755106941
 20
-135.3397943988076
 30
0.0
 11
-56.56883755106941
 21
-138.3397943988076
 31
0.0
1001
TOP
1070
     2
  0
LINE
  5
FBA
330
F60
100
AcDbEntity
  8
0
  6
Continuous
 62
     0
100
AcDbLine
 10
-56.56883755106941
 20
-138.3397943988076
 30
0.0
 11
-55.0688375510694
 21
-135.3397943988076
 31
0.0
1001
TOP
1070
     2
  0
LINE
  5
FBB
330
F60
100
AcDbEntity
  8
0
  6
Continuous
 62
     0
100
AcDbLine
 10
-55.0688375510694
 20
-135.3397943988076
 30
0.0
 11
-58.06883755106941
 21
-135.3397943988076
 31
0.0
1001
TOP
1070
     2
  0
LINE
  5
FBC
330
F60
100
AcDbEntity
  8
0
  6
Continuous
 62
     0
100
AcDbLine
 10
-43.68116244893059
 20
-135.3397943988076
 30
0.0
 11
-42.18116244893059
 21
-138.3397943988076
 31
0.0
1001
TOP
1070
     2
  0
LINE
  5
FBD
330
F60
100
AcDbEntity
  8
0
  6
Continuous
 62
     0
100
AcDbLine
 10
-42.18116244893059
 20
-138.3397943988076
 30
0.0
 11
-39.18116244893059
 21
-132.3397943988076
 31
0.0
1001
TOP
1070
     2
  0
TEXT
  5
FBE
330
F60
100
AcDbEntity
  8
0
  6
Continuous
 62
     0
100
AcDbText
 10
-44.52002500817229
 20
-134.8397943988076
 30
0.0
 40
2.0
  1
6,3
  7
seansi_ttf
 11
-44.52002500817229
 21
-132.8397943988076
 31
0.0
100
AcDbText
 73
     3
1001
TOP
1070
     2
  0
ATTDEF
  5
FBF
330
F60
100
AcDbEntity
  8
0
 62
     0
 48
35.0
100
AcDbText
 10
-76.25989897767704
 20
-89.74999999999999
 30
0.0
 40
2.5
  1

  7
Stile_Cart
 11
-76.25989897767704
 21
-88.49999999999999
 31
0.0
100
AcDbAttributeDefinition
  3

  2
DESCRIZIONE2
 70
     4
 74
     2
1001
TOP
1070
     7
  0
ATTDEF
  5
FC0
330
F60
100
AcDbEntity
  8
0
 62
     0
 48
35.0
100
AcDbText
 10
-76.25989897767704
 20
-94.74999999999999
 30
0.0
 40
2.5
  1

  7
Stile_Cart
 11
-76.25989897767704
 21
-93.49999999999999
 31
0.0
100
AcDbAttributeDefinition
  3

  2
DESCRIZIONE3
 70
     4
 74
     2
1001
TOP
1070
     7
  0
ATTDEF
  5
FC1
330
F60
100
AcDbEntity
  8
0
 62
     0
 48
35.0
100
AcDbText
 10
42.76829842361894
 20
-83.99999999999989
 30
0.0
 40
3.5
  1

  7
Stile_Cart
 11
42.76829842361894
 21
-82.2499999999999
 31
0.0
100
AcDbAttributeDefinition
  3

  2
DATA
 70
     4
 74
     2
1001
TOP
1070
     7
  0
ATTDEF
  5
FC2
330
F60
100
AcDbEntity
  8
0
 62
     0
 48
35.0
100
AcDbText
 10
79.15321575123653
 20
-83.99999999999989
 30
0.0
 40
3.5
  1

  7
Stile_Cart
 11
79.15321575123653
 21
-82.24999999999988
 31
0.0
100
AcDbAttributeDefinition
  3

  2
SCALA
 70
     4
 74
     2
1001
TOP
1070
     7
  0
ATTDEF
  5
FC3
330
F60
100
AcDbEntity
  8
0
 62
     0
 48
35.0
100
AcDbText
 10
79.15321575123653
 20
-91.49999999999989
 30
0.0
 40
3.5
  1

  7
Stile_Cart
 11
79.15321575123653
 21
-89.74999999999988
 31
0.0
100
AcDbAttributeDefinition
  3

  2
QTA
 70
     4
 74
     2
1001
TOP
1070
     7
  0
ATTDEF
  5
FC4
330
F60
100
AcDbEntity
  8
0
 62
     0
 48
35.0
100
AcDbText
 10
42.76829842361894
 20
-90.74999999999988
 30
0.0
 40
2.0
  1

  7
Stile_Cart
 11
42.76829842361894
 21
-89.74999999999988
 31
0.0
100
AcDbAttributeDefinition
  3

  2
DISEGNATORE
 70
     4
 74
     2
1001
TOP
1070
     7
  0
ATTDEF
  5
FC5
330
F60
100
AcDbEntity
  8
0
 62
     0
 48
35.0
100
AcDbText
 10
51.64776592404542
 20
-98.49999999999988
 30
0.0
 40
2.5
  1

  7
Stile_Cart
 11
51.64776592404542
 21
-97.24999999999988
 31
0.0
100
AcDbAttributeDefinition
  3

  2
RIF_ORDINE
 70
     4
 74
     2
1001
TOP
1070
     7
  0
ATTDEF
  5
FC6
330
F60
100
AcDbEntity
  8
0
 62
     0
 48
35.0
100
AcDbText
 10
50.29007657152305
 20
-110.1249999999999
 30
0.0
 40
4.5
  1

  7
Stile_Cart
 11
50.29007657152305
 21
-107.8749999999999
 31
0.0
100
AcDbAttributeDefinition
  3

  2
CODICE
 70
     4
 74
     2
1001
TOP
1070
     7
  0
ATTDEF
  5
FC7
330
F60
100
AcDbEntity
  8
0
 62
     0
 48
35.0
100
AcDbText
 10
-10.1983793647978
 20
-102.25
 30
0.0
 40
2.5
  1

  7
Stile_Cart
 11
-10.1983793647978
 21
-101.0
 31
0.0
100
AcDbAttributeDefinition
  3

  2
COD_CLIENTE
 70
     4
 74
     2
1001
TOP
1070
     7
  0
ATTDEF
  5
FC8
330
F60
100
AcDbEntity
  8
0
 62
     0
 48
35.0
100
AcDbText
 10
-10.18785708582345
 20
-107.25
 30
0.0
 40
2.5
  1

  7
Stile_Cart
 11
-10.18785708582345
 21
-106.0
 31
0.0
100
AcDbAttributeDefinition
  3

  2
COMMESSA
 70
     4
 74
     2
1001
TOP
1070
     7
  0
ATTDEF
  5
FC9
330
F60
100
AcDbEntity
  8
0
 62
     0
 48
35.0
100
AcDbText
 10
-87.23964845993032
 20
-105.5
 30
0.0
 40
4.0
  1

  7
Stile_Cart
 11
-87.23964845993032
 21
-103.5
 31
0.0
100
AcDbAttributeDefinition
  3

  2
CLIENTE
 70
     4
 74
     2
1001
TOP
1070
     7
  0
ATTDEF
  5
FCA
330
F60
100
AcDbEntity
  8
0
 62
     0
 48
35.0
100
AcDbText
 10
-67.95452598552799
 20
-76.0
 30
0.0
 40
2.5
  1

  7
Stile_Cart
 11
-67.95452598552799
 21
-74.75
 31
0.0
100
AcDbAttributeDefinition
  3

  2
MATERIALE
 70
     4
 74
     2
1001
TOP
1070
     7
  0
ATTDEF
  5
FCB
330
F60
100
AcDbEntity
  8
0
 62
     0
 48
35.0
100
AcDbText
 10
35.56280592835867
 20
-76.0
 30
0.0
 40
2.5
  1

  7
Stile_Cart
 11
35.56280592835867
 21
-74.75
 31
0.0
100
AcDbAttributeDefinition
  3

  2
TRATTAMENTI
 70
     4
 74
     2
1001
TOP
1070
     7
  0
ATTDEF
  5
FCC
330
F60
100
AcDbEntity
  8
0
 62
     0
 48
35.0
100
AcDbText
 10
-89.96922082042067
 20
-76.0
 30
0.0
 40
2.5
  1

  7
Stile_Cart
 72
     1
 11
-89.96922082042067
 21
-74.75
 31
0.0
100
AcDbAttributeDefinition
  3

  2
POS.
 70
     4
 74
     2
1001
TOP
1070
     7
  0
ATTDEF
  5
FCD
330
F60
100
AcDbEntity
  8
0
 62
     0
 48
35.0
100
AcDbText
 10
-92.5
 20
-65.75
 30
0.0
 40
2.5
  1

  7
Stile_Cart
 72
     1
 11
-92.5
 21
-64.5
 31
0.0
100
AcDbAttributeDefinition
  3

  2
REV
 70
     4
 74
     2
1001
TOP
1070
     7
  0
ATTDEF
  5
FCE
330
F60
100
AcDbEntity
  8
0
 62
     0
 48
35.0
100
AcDbText
 10
-83.0
 20
-65.75
 30
0.0
 40
2.5
  1

  7
Stile_Cart
 11
-83.0
 21
-64.5
 31
0.0
100
AcDbAttributeDefinition
  3

  2
MOD_REV
 70
     4
 74
     2
1001
TOP
1070
     7
  0
ATTDEF
  5
FCF
330
F60
100
AcDbEntity
  8
0
 62
     0
 48
35.0
100
AcDbText
 10
72.50000000000032
 20
-65.74999999999994
 30
0.0
 40
2.5
  1

  7
Stile_Cart
 72
     1
 11
72.50000000000032
 21
-64.49999999999994
 31
0.0
100
AcDbAttributeDefinition
  3

  2
DATA_REV
 70
     4
 74
     2
1001
TOP
1070
     7
  0
ATTDEF
  5
FD0
330
F60
100
AcDbEntity
  8
0
 62
     0
 48
35.0
100
AcDbText
 10
89.96023144605638
 20
-65.49999999999994
 30
0.0
 40
2.0
  1

 41
0.8
  7
Stile_Cart
 72
     1
 11
89.96023144605638
 21
-64.49999999999994
 31
0.0
100
AcDbAttributeDefinition
  3

  2
DISEGN_REV
 70
     4
 74
     2
1001
TOP
1070
     7
  0
TEXT
  5
FD1
330
F60
100
AcDbEntity
  8
P-0000
  6
Continuous
 62
     0
 48
35.0
100
AcDbText
 10
-46.28135167661025
 20
-113.3527525052883
 30
0.0
 40
1.846799999999999
  1
Sedi operative: Fiorano Circ.le S. Giovanni Ev.,23   41042 Spezzano (MO)
  7
STYLE1
100
AcDbText
1001
TOP
1070
     7
  0
TEXT
  5
FD2
330
F60
100
AcDbEntity
  8
P-0000
  6
Continuous
 62
     0
 48
35.0
100
AcDbText
 10
-6.340918626483258
 20
-117.0692022869476
 30
0.0
 40
1.846799999999999
  1
Tel. 0536 921322  Fax 0536 921218
  7
STYLE1
100
AcDbText
1001
TOP
1070
     7
  0
TEXT
  5
FD3
330
F60
100
AcDbEntity
  8
P-0000
  6
Continuous
 62
     0
 48
35.0
100
AcDbText
 10
-29.75490795040492
 20
-120.7856520686069
 30
0.0
 40
1.846799999999999
  1
Bologna Via Del Selciatore, 12   40127 (BO) 
  7
STYLE1
100
AcDbText
1001
TOP
1070
     7
  0
TEXT
  5
FD4
330
F60
100
AcDbEntity
  8
P-0000
  6
Continuous
 62
     0
 48
35.0
100
AcDbText
 10
-3.770224758554846
 20
-124.5021018502664
 30
0.0
 40
1.846799999999999
  1
Tel. 051 535318  Fax 051 531297
  7
STYLE1
100
AcDbText
1001
TOP
1070
     7
  0
TEXT
  5
FD5
330
F60
100
AcDbEntity
  8
P-0000
  6
Continuous
 62
     0
 48
35.0
100
AcDbText
 10
-29.75453034516
 20
-128.1147363829751
 30
0.0
 40
1.5
  1
www.dierremacap.com . tecnico@dierreprotezioni.com  
  7
STYLE1
100
AcDbText
1001
TOP
1070
     7
  0
ARC
  5
FD6
330
F60
100
AcDbEntity
  8
P-0000
  6
Continuous
 62
     0
370
     0
100
AcDbCircle
 10
-87.55587540093328
 20
-119.8343908033039
 30
0.0
 40
7.264056604142308
100
AcDbArc
 50
54.62314853322836
 51
125.3768514667716
1001
TOP
1070
    85
  0
ARC
  5
FD7
330
F60
100
AcDbEntity
  8
P-0000
  6
Continuous
 62
     0
370
     0
100
AcDbCircle
 10
-88.37772146816295
 20
-119.8661633216503
 30
0.0
 40
7.793069759999999
100
AcDbArc
 50
49.82610094250764
 51
223.428751725223
1001
TOP
1070
    85
  0
ARC
  5
FD8
330
F60
100
AcDbEntity
  8
P-0000
  6
Continuous
 62
     0
370
     0
100
AcDbCircle
 10
-87.77383862674813
 20
-119.1102130429075
 30
0.0
 40
4.056769053873
100
AcDbArc
 50
51.09712919102834
 51
223.6094645412326
1001
TOP
1070
    85
  0
ARC
  5
FD9
330
F60
100
AcDbEntity
  8
P-0000
  6
Continuous
 62
     0
370
     0
100
AcDbCircle
 10
-88.42266163376624
 20
-119.4851385567151
 30
0.0
 40
4.763630338834137
100
AcDbArc
 50
47.85430720588668
 51
226.8522865263435
1001
TOP
1070
    85
  0
ARC
  5
FDA
330
F60
100
AcDbEntity
  8
P-0000
  6
Continuous
 62
     0
370
     0
100
AcDbCircle
 10
-88.82997178899747
 20
-120.0817487520743
 30
0.0
 40
4.056769053873
100
AcDbArc
 50
231.0971291910283
 51
43.60946454123257
1001
TOP
1070
    85
  0
ARC
  5
FDB
330
F60
100
AcDbEntity
  8
P-0000
  6
Continuous
 62
     0
370
     0
100
AcDbCircle
 10
-88.18114878197755
 20
-119.7068232382669
 30
0.0
 40
4.763630338834137
100
AcDbArc
 50
227.8543072058867
 51
46.85228652634355
1001
TOP
1070
    85
  0
ARC
  5
FDC
330
F60
100
AcDbEntity
  8
P-0000
  6
Continuous
 62
     0
370
     0
100
AcDbCircle
 10
-88.37772146816295
 20
-119.8661633216503
 30
0.0
 40
7.793069759999999
100
AcDbArc
 50
230.1466606584018
 51
45.36258570986113
1001
TOP
1070
    85
  0
ARC
  5
FDD
330
F60
100
AcDbEntity
  8
P-0000
  6
Continuous
 62
     0
370
     0
100
AcDbCircle
 10
-89.52593793590565
 20
-119.7374591014475
 30
0.0
 40
7.220700683144739
100
AcDbArc
 50
237.8184274609863
 51
321.1976420062348
1001
TOP
1070
    85
  0
ARC
  5
FDE
330
F60
100
AcDbEntity
  8
P-0000
  6
Continuous
 62
     0
370
     0
100
AcDbCircle
 10
-88.50216480330599
 20
-119.1656258049447
 30
0.0
 40
5.663278842528495
100
AcDbArc
 50
171.3036725542784
 51
228.0269063594487
1001
TOP
1070
    85
  0
LINE
  5
FDF
330
F60
100
AcDbEntity
  8
P-0000
  6
Continuous
 62
     0
370
     0
100
AcDbLine
 10
-92.28966119657778
 20
-123.3760412617837
 30
0.0
 11
-94.03728088778988
 21
-125.2235249353502
 31
0.0
1001
TOP
1070
    85
  0
LINE
  5
FE0
330
F60
100
AcDbEntity
  8
P-0000
  6
Continuous
 62
     0
370
     0
100
AcDbLine
 10
-90.71117445104736
 20
-121.9083255159412
 30
0.0
 11
-91.68042069830406
 21
-122.9606500129607
 31
0.0
1001
TOP
1070
    85
  0
ARC
  5
FE1
330
F60
100
AcDbEntity
  8
P-0000
  6
Continuous
 62
     0
370
     0
100
AcDbCircle
 10
-88.54309328048001
 20
-118.4440510223681
 30
0.0
 40
5.558875133404746
100
AcDbArc
 50
125.3768514667716
 51
178.611514748478
1001
TOP
1070
    85
  0
LINE
  5
FE2
330
F60
100
AcDbEntity
  8
P-0000
  6
Continuous
 62
     0
370
     0
100
AcDbLine
 10
-53.65438013237113
 20
-115.6426918998433
 30
0.0
 11
-52.51302380375555
 21
-115.6426918998433
 31
0.0
1001
TOP
1070
     7
  0
ARC
  5
FE3
330
F60
100
AcDbEntity
  8
P-0000
  6
Continuous
 62
     0
370
     0
100
AcDbCircle
 10
-54.83784997234598
 20
-114.9033114623533
 30
0.0
 40
2.439569664000001
100
AcDbArc
 50
354.0835439993975
 51
342.3574175336751
1001
TOP
1070
     7
  0
LINE
  5
FE4
330
F60
100
AcDbEntity
  8
P-0000
  6
Continuous
 62
     0
370
     0
100
AcDbLine
 10
-56.253151669302
 20
-115.1547779670433
 30
0.0
 11
-52.39829186638807
 21
-115.1547779670433
 31
0.0
1001
TOP
1070
     7
  0
ARC
  5
FE5
330
F60
100
AcDbEntity
  8
P-0000
  6
Continuous
 62
     0
370
     0
100
AcDbCircle
 10
-67.13328107890589
 20
-114.9033114623533
 30
0.0
 40
2.439569664000001
100
AcDbArc
 50
354.0835439993975
 51
342.3574175336751
1001
TOP
1070
     7
  0
LINE
  5
FE6
330
F60
100
AcDbEntity
  8
P-0000
  6
Continuous
 62
     0
370
     0
100
AcDbLine
 10
-77.50234959180421
 20
-117.3428811263534
 30
0.0
 11
-74.57486599500507
 21
-117.3428811263534
 31
0.0
1001
TOP
1070
     7
  0
LINE
  5
FE7
330
F60
100
AcDbEntity
  8
P-0000
  6
Continuous
 62
     0
370
     0
100
AcDbLine
 10
-74.57486599500507
 20
-110.9999999999532
 30
0.0
 11
-77.50234959180421
 21
-110.9999999999532
 31
0.0
1001
TOP
1070
     7
  0
LINE
  5
FE8
330
F60
100
AcDbEntity
  8
P-0000
  6
Continuous
 62
     0
370
     0
100
AcDbLine
 10
-82.90217148550416
 20
-114.320869039862
 30
0.0
 11
-84.48030571869711
 21
-115.9543842828061
 31
0.0
1001
TOP
1070
    85
  0
ARC
  5
FE9
330
F60
100
AcDbEntity
  8
P-0000
  6
Continuous
 62
     0
370
     0
100
AcDbCircle
 10
-89.02722975211579
 20
-120.4469356245718
 30
0.0
 40
6.391989965892938
100
AcDbArc
 50
323.352977406186
 51
44.65536847523573
1001
TOP
1070
    85
  0
LINE
  5
FEA
330
F60
100
AcDbEntity
  8
P-0000
  6
Continuous
 62
     0
370
     0
100
AcDbLine
 10
-85.89263596469553
 20
-117.283636279041
 30
0.0
 11
-84.92338971744155
 21
-116.2313117820216
 31
0.0
1001
TOP
1070
    85
  0
LINE
  5
FEB
330
F60
100
AcDbEntity
  8
P-0000
  6
Continuous
 62
     0
370
     0
100
AcDbLine
 10
-77.50234959180421
 20
-110.9999999999532
 30
0.0
 11
-77.50234959180421
 21
-117.3428811263534
 31
0.0
1001
TOP
1070
     7
  0
ARC
  5
FEC
330
F60
100
AcDbEntity
  8
P-0000
  6
Continuous
 62
     0
370
     0
100
AcDbCircle
 10
-74.81882296140435
 20
-113.6835266303536
 30
0.0
 40
1.5857202816
100
AcDbArc
 50
0.0
 51
90.0
1001
TOP
1070
     7
  0
ARC
  5
FED
330
F60
100
AcDbEntity
  8
P-0000
  6
Continuous
 62
     0
370
     0
100
AcDbCircle
 10
-74.81882296140435
 20
-114.6593544959532
 30
0.0
 40
1.5857202816
100
AcDbArc
 50
270.0
 51
0.0
1001
TOP
1070
     7
  0
ARC
  5
FEE
330
F60
100
AcDbEntity
  8
P-0000
  6
Continuous
 62
     0
370
     0
100
AcDbCircle
 10
-74.57486599500507
 20
-114.9033114623533
 30
0.0
 40
2.439569663999999
100
AcDbArc
 50
270.0
 51
0.0
1001
TOP
1070
     7
  0
ARC
  5
FEF
330
F60
100
AcDbEntity
  8
P-0000
  6
Continuous
 62
     0
370
     0
100
AcDbCircle
 10
-74.57486599500507
 20
-113.4395696639535
 30
0.0
 40
2.439569663999999
100
AcDbArc
 50
0.0
 51
90.0
1001
TOP
1070
     7
  0
LINE
  5
FF0
330
F60
100
AcDbEntity
  8
P-0000
  6
Continuous
 62
     0
370
     0
100
AcDbLine
 10
-76.40454324300486
 20
-112.0978063487534
 30
0.0
 11
-76.40454324300486
 21
-116.2450747775533
 31
0.0
1001
TOP
1070
     7
  0
LINE
  5
FF1
330
F60
100
AcDbEntity
  8
P-0000
  6
Continuous
 62
     0
370
     0
100
AcDbLine
 10
-76.40454324300486
 20
-116.2450747775533
 30
0.0
 11
-74.81882296140435
 21
-116.2450747775533
 31
0.0
1001
TOP
1070
     7
  0
LINE
  5
FF2
330
F60
100
AcDbEntity
  8
P-0000
  6
Continuous
 62
     0
370
     0
100
AcDbLine
 10
-74.81882296140435
 20
-112.0978063487534
 30
0.0
 11
-76.40454324300486
 21
-112.0978063487534
 31
0.0
1001
TOP
1070
     7
  0
LINE
  5
FF3
330
F60
100
AcDbEntity
  8
P-0000
  6
Continuous
 62
     0
370
     0
100
AcDbLine
 10
-70.30472164210562
 20
-117.3428811263534
 30
0.0
 11
-70.30472164210562
 21
-112.4637417983535
 31
0.0
1001
TOP
1070
     7
  0
LINE
  5
FF4
330
F60
100
AcDbEntity
  8
P-0000
  6
Continuous
 62
     0
370
     0
100
AcDbLine
 10
-71.4025279909076
 20
-112.4637417983535
 30
0.0
 11
-71.4025279909076
 21
-117.3428811263534
 31
0.0
1001
TOP
1070
     7
  0
LINE
  5
FF5
330
F60
100
AcDbEntity
  8
P-0000
  6
Continuous
 62
     0
370
     0
100
AcDbLine
 10
-71.4025279909076
 20
-117.3428811263534
 30
0.0
 11
-70.30472164210562
 21
-117.3428811263534
 31
0.0
1001
TOP
1070
     7
  0
LINE
  5
FF6
330
F60
100
AcDbEntity
  8
P-0000
  6
Continuous
 62
     0
370
     0
100
AcDbLine
 10
-71.4025279909076
 20
-111.9758278655534
 30
0.0
 11
-70.30472164210562
 21
-111.9758278655534
 31
0.0
1001
TOP
1070
     7
  0
LINE
  5
FF7
330
F60
100
AcDbEntity
  8
P-0000
  6
Continuous
 62
     0
370
     0
100
AcDbLine
 10
-70.30472164210562
 20
-110.9999999999532
 30
0.0
 11
-71.4025279909076
 21
-110.9999999999532
 31
0.0
1001
TOP
1070
     7
  0
HATCH
  5
FF8
330
F60
100
AcDbEntity
  8
P-0000
  6
Continuous
 62
     0
100
AcDbHatch
 10
0.0
 20
0.0
 30
0.0
210
0.0
220
0.0
230
1.0
  2
SOLID
 70
     1
 71
     0
 91
        1
 92
        1
 93
        4
 72
     1
 10
-70.30472164210627
 20
-110.9999999999534
 11
-71.40252799090693
 21
-110.9999999999534
 72
     1
 10
-71.40252799090564
 20
-110.9999999999534
 11
-71.40252799090564
 21
-111.9758278655534
 72
     1
 10
-71.40252799090564
 20
-111.9758278655535
 11
-70.30472164210498
 21
-111.9758278655535
 72
     1
 10
-70.30472164210627
 20
-111.9758278655535
 11
-70.30472164210627
 21
-110.9999999999535
 97
        0
 75
     0
 76
     1
 98
        1
 10
-136.4839087803873
 20
-204.8924935638848
1001
TOP
1070
     3
  0
LINE
  5
FF9
330
F60
100
AcDbEntity
  8
P-0000
  6
Continuous
 62
     0
370
     0
100
AcDbLine
 10
-70.30472164210562
 20
-112.4637417983535
 30
0.0
 11
-71.4025279909076
 21
-112.4637417983535
 31
0.0
1001
TOP
1070
     7
  0
LINE
  5
FFA
330
F60
100
AcDbEntity
  8
P-0000
  6
Continuous
 62
     0
370
     0
100
AcDbLine
 10
-73.23310267980318
 20
-114.6593544959532
 30
0.0
 11
-73.23310267980318
 21
-113.6835266303536
 31
0.0
1001
TOP
1070
     7
  0
LINE
  5
FFB
330
F60
100
AcDbEntity
  8
P-0000
  6
Continuous
 62
     0
370
     0
100
AcDbLine
 10
-72.13529633100447
 20
-114.9033114623533
 30
0.0
 11
-72.13529633100447
 21
-113.4395696639535
 31
0.0
1001
TOP
1070
     7
  0
LINE
  5
FFC
330
F60
100
AcDbEntity
  8
P-0000
  6
Continuous
 62
     0
370
     0
100
AcDbLine
 10
-71.4025279909076
 20
-110.9999999999532
 30
0.0
 11
-71.4025279909076
 21
-111.9758278655534
 31
0.0
1001
TOP
1070
     7
  0
LINE
  5
FFD
330
F60
100
AcDbEntity
  8
P-0000
  6
Continuous
 62
     0
370
     0
100
AcDbLine
 10
-70.30472164210562
 20
-111.9758278655534
 30
0.0
 11
-70.30472164210562
 21
-110.9999999999532
 31
0.0
1001
TOP
1070
     7
  0
LINE
  5
FFE
330
F60
100
AcDbEntity
  8
P-0000
  6
Continuous
 62
     0
370
     0
100
AcDbLine
 10
-61.67972155649409
 20
-112.4637417983535
 30
0.0
 11
-61.22362894667041
 21
-112.4637417983535
 31
0.0
1001
TOP
1070
     7
  0
ARC
  5
FFF
330
F60
100
AcDbEntity
  8
P-0000
  6
Continuous
 62
     0
370
     0
100
AcDbCircle
 10
-61.22455238416592
 20
-115.7450893416161
 30
0.0
 40
2.30551986259622
100
AcDbArc
 50
89.97705113130741
 51
144.7782320142388
1001
TOP
1070
     7
  0
LINE
  5
1000
330
F60
100
AcDbEntity
  8
P-0000
  6
Continuous
 62
     0
370
     0
100
AcDbLine
 10
-65.94981123893105
 20
-115.6426918998433
 30
0.0
 11
-64.80845491031482
 21
-115.6426918998433
 31
0.0
1001
TOP
1070
     7
  0
LINE
  5
1001
330
F60
100
AcDbEntity
  8
P-0000
  6
Continuous
 62
     0
370
     0
100
AcDbLine
 10
-68.54858277585996
 20
-115.1547779670433
 30
0.0
 11
-64.69372297294865
 21
-115.1547779670433
 31
0.0
1001
TOP
1070
     7
  0
ARC
  5
1002
330
F60
100
AcDbEntity
  8
P-0000
  6
Continuous
 62
     0
370
     0
100
AcDbCircle
 10
-67.13328107890589
 20
-114.7813329791535
 30
0.0
 40
1.463741798400002
100
AcDbArc
 50
194.7813103722914
 51
323.9519363800095
1001
TOP
1070
     7
  0
ARC
  5
1003
330
F60
100
AcDbEntity
  8
P-0000
  6
Continuous
 62
     0
370
     0
100
AcDbCircle
 10
-67.13315394981435
 20
-114.7246775057507
 30
0.0
 40
1.309503544180366
100
AcDbArc
 50
23.46032899247153
 51
156.5396710075285
1001
TOP
1070
     7
  0
LINE
  5
1004
330
F60
100
AcDbEntity
  8
P-0000
  6
Continuous
 62
     0
370
     0
100
AcDbLine
 10
-68.33440862006644
 20
-114.2033457980831
 30
0.0
 11
-65.93189927956226
 21
-114.2033457980831
 31
0.0
1001
TOP
1070
     7
  0
LINE
  5
1005
330
F60
100
AcDbEntity
  8
P-0000
  6
Continuous
 62
     0
370
     0
100
AcDbLine
 10
-63.1079911333061
 20
-117.3428811263534
 30
0.0
 11
-63.1079911333061
 21
-114.4153975295534
 31
0.0
1001
TOP
1070
     7
  0
LINE
  5
1006
330
F60
100
AcDbEntity
  8
P-0000
  6
Continuous
 62
     0
370
     0
100
AcDbLine
 10
-64.2057974821061
 20
-112.4637417983535
 30
0.0
 11
-64.2057974821061
 21
-117.3428811263534
 31
0.0
1001
TOP
1070
     7
  0
LINE
  5
1007
330
F60
100
AcDbEntity
  8
P-0000
  6
Continuous
 62
     0
370
     0
100
AcDbLine
 10
-64.2057974821061
 20
-117.3428811263534
 30
0.0
 11
-63.1079911333061
 21
-117.3428811263534
 31
0.0
1001
TOP
1070
     7
  0
LINE
  5
1008
330
F60
100
AcDbEntity
  8
P-0000
  6
Continuous
 62
     0
370
     0
100
AcDbLine
 10
-63.1079911333061
 20
-112.4637417983535
 30
0.0
 11
-64.2057974821061
 21
-112.4637417983535
 31
0.0
1001
TOP
1070
     7
  0
ARC
  5
1009
330
F60
100
AcDbEntity
  8
P-0000
  6
Continuous
 62
     0
370
     0
100
AcDbCircle
 10
-61.5678898700862
 20
-114.1605808182826
 30
0.0
 40
1.700520210299701
100
AcDbArc
 50
93.77067625261986
 51
154.9129671807329
1001
TOP
1070
     7
  0
LINE
  5
100A
330
F60
100
AcDbEntity
  8
P-0000
  6
Continuous
 62
     0
370
     0
100
AcDbLine
 10
-63.1079911333061
 20
-113.4395696639535
 30
0.0
 11
-63.1079911333061
 21
-112.4637417983535
 31
0.0
1001
TOP
1070
     7
  0
LINE
  5
100B
330
F60
100
AcDbEntity
  8
P-0000
  6
Continuous
 62
     0
370
     0
100
AcDbLine
 10
-63.1079911333061
 20
-112.4637417983535
 30
0.0
 11
-63.1079911333061
 21
-113.4395696639535
 31
0.0
1001
TOP
1070
     7
  0
LINE
  5
100C
330
F60
100
AcDbEntity
  8
P-0000
  6
Continuous
 62
     0
370
     0
100
AcDbLine
 10
-59.39496610469735
 20
-117.3428811263534
 30
0.0
 11
-59.39496610469735
 21
-114.4153975295534
 31
0.0
1001
TOP
1070
     7
  0
LINE
  5
100D
330
F60
100
AcDbEntity
  8
P-0000
  6
Continuous
 62
     0
370
     0
100
AcDbLine
 10
-60.49277245349801
 20
-112.4637417983535
 30
0.0
 11
-60.49277245349801
 21
-117.3428811263534
 31
0.0
1001
TOP
1070
     7
  0
LINE
  5
100E
330
F60
100
AcDbEntity
  8
P-0000
  6
Continuous
 62
     0
370
     0
100
AcDbLine
 10
-60.49277245349801
 20
-117.3428811263534
 30
0.0
 11
-59.39496610469735
 21
-117.3428811263534
 31
0.0
1001
TOP
1070
     7
  0
ARC
  5
100F
330
F60
100
AcDbEntity
  8
P-0000
  6
Continuous
 62
     0
370
     0
100
AcDbCircle
 10
-57.8548648414781
 20
-114.1605808182826
 30
0.0
 40
1.700520210299701
100
AcDbArc
 50
93.77067625261986
 51
154.9129671807329
1001
TOP
1070
     7
  0
ARC
  5
1010
330
F60
100
AcDbEntity
  8
P-0000
  6
Continuous
 62
     0
370
     0
100
AcDbCircle
 10
-57.51152735555913
 20
-115.7450893416161
 30
0.0
 40
2.30551986259622
100
AcDbArc
 50
89.97705113130741
 51
144.7782320142388
1001
TOP
1070
     7
  0
LINE
  5
1011
330
F60
100
AcDbEntity
  8
P-0000
  6
Continuous
 62
     0
370
     0
100
AcDbLine
 10
-59.39496610469735
 20
-113.4395696639535
 30
0.0
 11
-59.39496610469735
 21
-112.4637417983535
 31
0.0
1001
TOP
1070
     7
  0
LINE
  5
1012
330
F60
100
AcDbEntity
  8
P-0000
  6
Continuous
 62
     0
370
     0
100
AcDbLine
 10
-61.22362894667041
 20
-113.4395696639535
 30
0.0
 11
-61.22362894667041
 21
-112.4637417983535
 31
0.0
1001
TOP
1070
     7
  0
LINE
  5
1013
330
F60
100
AcDbEntity
  8
P-0000
  6
Continuous
 62
     0
370
     0
100
AcDbLine
 10
-59.39496610469735
 20
-112.4637417983535
 30
0.0
 11
-59.39496610469735
 21
-113.4395696639535
 31
0.0
1001
TOP
1070
     7
  0
LINE
  5
1014
330
F60
100
AcDbEntity
  8
P-0000
  6
Continuous
 62
     0
370
     0
100
AcDbLine
 10
-59.39496610469735
 20
-112.4637417983535
 30
0.0
 11
-60.49277245349801
 21
-112.4637417983535
 31
0.0
1001
TOP
1070
     7
  0
LINE
  5
1015
330
F60
100
AcDbEntity
  8
P-0000
  6
Continuous
 62
     0
370
     0
100
AcDbLine
 10
-57.5106039180623
 20
-113.4395696639535
 30
0.0
 11
-57.5106039180623
 21
-112.4637417983535
 31
0.0
1001
TOP
1070
     7
  0
LINE
  5
1016
330
F60
100
AcDbEntity
  8
P-0000
  6
Continuous
 62
     0
370
     0
100
AcDbLine
 10
-57.96669652788599
 20
-112.4637417983535
 30
0.0
 11
-57.5106039180623
 21
-112.4637417983535
 31
0.0
1001
TOP
1070
     7
  0
ARC
  5
1017
330
F60
100
AcDbEntity
  8
P-0000
  6
Continuous
 62
     0
370
     0
100
AcDbCircle
 10
-54.83784997234598
 20
-114.7813329791535
 30
0.0
 40
1.463741798400002
100
AcDbArc
 50
194.7813103722914
 51
323.9519363800095
1001
TOP
1070
     7
  0
ARC
  5
1018
330
F60
100
AcDbEntity
  8
P-0000
  6
Continuous
 62
     0
370
     0
100
AcDbCircle
 10
-54.83772284325443
 20
-114.7246775057507
 30
0.0
 40
1.309503544180366
100
AcDbArc
 50
23.46032899247153
 51
156.5396710075285
1001
TOP
1070
     7
  0
LINE
  5
1019
330
F60
100
AcDbEntity
  8
P-0000
  6
Continuous
 62
     0
370
     0
100
AcDbLine
 10
-56.03897751350586
 20
-114.2033457980831
 30
0.0
 11
-53.63646817300168
 21
-114.2033457980831
 31
0.0
1001
TOP
1070
     7
  0
HATCH
  5
101A
330
F60
100
AcDbEntity
  8
P-0000
  6
Continuous
 62
     0
 48
35.0
100
AcDbHatch
 10
0.0
 20
0.0
 30
0.0
210
0.0
220
0.0
230
1.0
  2
SOLID
 70
     1
 71
     0
 91
        4
 92
        7
 72
     1
 73
     1
 93
        5
 10
-94.03728088778988
 20
-125.2235249353502
 42
0.0
 10
-92.28966119657778
 20
-123.3760412617837
 42
-0.2526825286644691
 10
-94.10033621549056
 20
-118.3093524326913
 42
-0.2365496875282557
 10
-91.7614140375581
 20
-113.911556758355
 42
-0.3189181398811662
 10
-83.35033676430748
 20
-113.9115567583528
 42
0.9456749006874259
 97
        0
 92
       23
 72
     1
 73
     1
 93
        3
 10
-91.68042069830406
 20
-122.9606500129607
 42
0.0
 10
-90.71117445104736
 20
-121.9083255159412
 42
-0.9367032511192487
 10
-85.2261793413445
 20
-115.9531879682591
 42
0.991293729556146
 97
        0
 92
       23
 72
     1
 73
     1
 93
        3
 10
-91.37763107440111
 20
-123.2387738267226
 42
0.9912937295513184
 10
-84.92338971744155
 20
-116.2313117820216
 42
0.0
 10
-85.89263596469553
 20
-117.283636279041
 42
-0.9367032511219315
 97
        0
 92
        7
 72
     1
 73
     1
 93
        4
 10
-83.89875797035076
 20
-124.2622092592821
 42
-0.3807594385329842
 10
-93.37171269560638
 20
-125.8488038677993
 42
0.9590989174885454
 10
-82.90217148550416
 20
-114.320869039862
 42
0.0
 10
-84.48030571869711
 20
-115.9543842828061
 42
-0.3704192144445529
 97
        0
 75
     0
 76
     1
 47
0.0537802133905057
 98
        4
 10
-95.28899908413293
 20
-117.9121948253558
 10
-92.51811574438377
 20
-119.1148667670212
 10
-84.53359595731015
 20
-120.3175387086872
 10
-82.20022029262763
 20
-118.4953086011877
1001
TOP
1070
     3
  0
HATCH
  5
101B
330
F60
100
AcDbEntity
  8
P-0000
  6
Continuous
 62
     0
 48
35.0
100
AcDbHatch
 10
0.0
 20
0.0
 30
0.0
210
0.0
220
0.0
230
1.0
  2
SOLID
 70
     1
 71
     0
 91
        9
 92
        7
 72
     1
 73
     1
 93
        6
 10
-74.57486599500573
 20
-110.9999999999531
 42
0.0
 10
-77.50234959180421
 20
-110.9999999999531
 42
0.0
 10
-77.50234959180485
 20
-117.3428811263533
 42
0.0
 10
-74.57486599500573
 20
-117.3428811263533
 42
0.4142135623732426
 10
-72.13529633100447
 20
-114.9033114623533
 42
0.0
 10
-72.13529633100447
 20
-113.4395696639534
 42
0.4142135623732917
 97
        0
 92
       22
 72
     1
 73
     1
 93
        6
 10
-76.40454324300486
 20
-112.0978063487534
 42
0.0
 10
-74.81882296140435
 20
-112.0978063487534
 42
-0.4142135623733217
 10
-73.23310267980318
 20
-113.6835266303533
 42
0.0
 10
-73.23310267980318
 20
-114.6593544959533
 42
-0.4142135623732008
 10
-74.81882296140369
 20
-116.2450747775532
 42
0.0
 10
-76.40454324300486
 20
-116.2450747775532
 42
0.0
 97
        0
 92
        7
 72
     0
 73
     1
 93
        4
 10
-71.40252799090825
 20
-117.3428811263533
 10
-70.30472164210562
 20
-117.3428811263534
 10
-70.30472164210562
 20
-112.4637417983535
 10
-71.4025279909076
 20
-112.4637417983534
 97
        0
 92
        7
 72
     1
 73
     1
 93
        4
 10
-68.5485827758606
 20
-115.1547779670432
 42
0.0
 10
-64.70670638553077
 20
-115.1547779670432
 42
19.52759892169242
 10
-64.80845491031548
 20
-115.6426918998433
 42
0.0
 10
-65.94981123892972
 20
-115.6426918998433
 42
-0.6319943824460191
 97
        0
 92
       22
 72
     1
 73
     1
 93
        2
 10
-68.33440862006513
 20
-114.2033457980811
 42
-0.6561238478654379
 10
-65.93189927956356
 20
-114.2033457980831
 42
0.0
 97
        0
 92
        7
 72
     1
 73
     1
 93
        9
 10
-63.1079911333061
 20
-114.4153975295551
 42
-0.2437791817823871
 10
-61.22362894667041
 20
-113.4395696639536
 42
0.0
 10
-61.22362894667041
 20
-112.4637417983535
 42
0.0
 10
-61.6797215564895
 20
-112.4637417983534
 42
0.2732984134248683
 10
-63.1079911333061
 20
-113.4395696639525
 42
0.0
 10
-63.1079911333061
 20
-112.4637417983534
 42
0.0
 10
-64.20579748210546
 20
-112.4637417983534
 42
0.0
 10
-64.2057974821061
 20
-117.3428811263532
 42
0.0
 10
-63.10799113330676
 20
-117.3428811263532
 42
0.0
 97
        0
 92
        7
 72
     1
 73
     1
 93
        9
 10
-60.49277245349736
 20
-117.3428811263533
 42
0.0
 10
-59.3949661046967
 20
-117.3428811263534
 42
0.0
 10
-59.39496610469735
 20
-114.4153975295523
 42
-0.2437791817821463
 10
-57.5106039180623
 20
-113.4395696639536
 42
0.0
 10
-57.5106039180623
 20
-112.4637417983535
 42
0.0
 10
-57.9666965278814
 20
-112.4637417983534
 42
0.2732984134246251
 10
-59.39496610469735
 20
-113.4395696639511
 42
0.0
 10
-59.39496610469735
 20
-112.4637417983534
 42
0.0
 10
-60.49277245349801
 20
-112.4637417983535
 42
0.0
 97
        0
 92
        7
 72
     1
 73
     1
 93
        4
 10
-52.41127527897084
 20
-115.1547779670432
 42
19.52759892169242
 10
-52.51302380375555
 20
-115.6426918998433
 42
0.0
 10
-53.65438013237048
 20
-115.6426918998433
 42
-0.631994382445661
 10
-56.25315166930069
 20
-115.1547779670432
 42
0.0
 97
        0
 92
       22
 72
     1
 73
     1
 93
        2
 10
-56.03897751350586
 20
-114.2033457980832
 42
-0.6561238478663365
 10
-53.63646817300299
 20
-114.2033457980831
 42
0.0
 97
        0
 75
     0
 76
     1
 47
0.1054092179442032
 98
        9
 10
-77.30509361450609
 20
-111.652214293695
 10
-77.30509361450609
 20
-111.652214293695
 10
-70.92517770860029
 20
-114.0180230722183
 10
-68.97004263540313
 20
-114.9952049659171
 10
-68.97004263540313
 20
-114.9952049659171
 10
-63.41334181494616
 20
-115.2523580455926
 10
-60.12048197631124
 20
-115.1494968773671
 10
-55.90150541812637
 20
-114.429468063343
 10
-55.90150541812637
 20
-114.429468063343
1001
TOP
1070
     5
  0
MTEXT
  5
101C
330
F60
100
AcDbEntity
  8
P-0000
  6
Continuous
 62
     0
100
AcDbMText
 10
-77.50752909622914
 20
-125.390962447158
 30
0.0
 40
1.5
 41
15.89275572328779
 71
     1
 72
     5
  1
{\f@Arial Unicode MS|b0|i0|c0|p34;\H2x;Group\H0.5x; srl}
  7
ROMANS
 73
     1
 44
1.0
1001
TOP
1070
     7
1001
ACAD
1000
MTEXTBEGIN
1070
    73
1070
     1
1070
    44
1040
1.0
1070
    74
1070
     0
1000
MTEXTEND
  0
LINE
  5
101D
330
F60
100
AcDbEntity
  8
P-0000
  6
Continuous
 62
     0
100
AcDbLine
 10
-60.31400746853627
 20
-118.6190131723036
 30
0.0
 11
-65.10163245619105
 21
-118.6190131723036
 31
0.0
1001
TOP
1070
     7
  0
LINE
  5
101E
330
F60
100
AcDbEntity
  8
P-0000
  6
Continuous
 62
     0
100
AcDbLine
 10
-65.10163245619105
 20
-118.6190131723036
 30
0.0
 11
-60.31400746853627
 21
-118.6190131723036
 31
0.0
1001
TOP
1070
     7
  0
LINE
  5
101F
330
F60
100
AcDbEntity
  8
P-0000
  6
Continuous
 62
     0
100
AcDbLine
 10
-60.60899754084211
 20
-122.4817401737899
 30
0.0
 11
-59.78513540320495
 21
-121.2719230596353
 31
0.0
1001
TOP
1070
     7
  0
LINE
  5
1020
330
F60
100
AcDbEntity
  8
P-0000
  6
Continuous
 62
     0
100
AcDbLine
 10
-60.60899754084211
 20
-122.4817401737899
 30
0.0
 11
-59.78513540320495
 21
-121.2719230596353
 31
0.0
1001
TOP
1070
     7
  0
LINE
  5
1021
330
F60
100
AcDbEntity
  8
P-0000
  6
Continuous
 62
     0
100
AcDbLine
 10
-60.60899754084211
 20
-122.4817401737899
 30
0.0
 11
-58.9612732655678
 21
-122.4817401737899
 31
0.0
1001
TOP
1070
     7
  0
LINE
  5
1022
330
F60
100
AcDbEntity
  8
P-0000
  6
Continuous
 62
     0
100
AcDbLine
 10
-58.9612732655678
 20
-122.4817401737899
 30
0.0
 11
-60.60899754084211
 21
-122.4817401737899
 31
0.0
1001
TOP
1070
     7
  0
LINE
  5
1023
330
F60
100
AcDbEntity
  8
P-0000
  6
Continuous
 62
     0
100
AcDbLine
 10
-63.4872398605242
 20
-124.055443766988
 30
0.0
 11
-56.08303094588571
 21
-124.055443766988
 31
0.0
1001
TOP
1070
     7
  0
LINE
  5
1024
330
F60
100
AcDbEntity
  8
P-0000
  6
Continuous
 62
     0
100
AcDbLine
 10
-63.4872398605242
 20
-124.055443766988
 30
0.0
 11
-56.08303094588571
 21
-124.055443766988
 31
0.0
1001
TOP
1070
     7
  0
LINE
  5
1025
330
F60
100
AcDbEntity
  8
P-0000
  6
Continuous
 62
     0
100
AcDbLine
 10
-61.88263947056615
 20
-120.9225027431548
 30
0.0
 11
-60.31400746853627
 21
-118.6190131723036
 31
0.0
1001
TOP
1070
     7
  0
LINE
  5
1026
330
F60
100
AcDbEntity
  8
P-0000
  6
Continuous
 62
     0
100
AcDbLine
 10
-61.88263947056615
 20
-120.9225027431548
 30
0.0
 11
-60.31400746853627
 21
-118.6190131723036
 31
0.0
1001
TOP
1070
     7
  0
LINE
  5
1027
330
F60
100
AcDbEntity
  8
P-0000
  6
Continuous
 62
     0
100
AcDbLine
 10
-63.4872398605242
 20
-124.055443766988
 30
0.0
 11
-59.78513540320495
 21
-118.6190131723036
 31
0.0
1001
TOP
1070
     7
  0
LINE
  5
1028
330
F60
100
AcDbEntity
  8
P-0000
  6
Continuous
 62
     0
100
AcDbLine
 10
-59.78513540320495
 20
-118.6190131723036
 30
0.0
 11
-63.4872398605242
 21
-124.055443766988
 31
0.0
1001
TOP
1070
     7
  0
LINE
  5
1029
330
F60
100
AcDbEntity
  8
P-0000
  6
Continuous
 62
     0
100
AcDbLine
 10
-72.47806497115667
 20
-118.6190131723036
 30
0.0
 11
-68.77596051383742
 21
-118.6190131723036
 31
0.0
1001
TOP
1070
     7
  0
LINE
  5
102A
330
F60
100
AcDbEntity
  8
P-0000
  6
Continuous
 62
     0
100
AcDbLine
 10
-72.47806497115667
 20
-118.6190131723036
 30
0.0
 11
-68.77596051383742
 21
-118.6190131723036
 31
0.0
1001
TOP
1070
     7
  0
LINE
  5
102B
330
F60
100
AcDbEntity
  8
P-0000
  6
Continuous
 62
     0
100
AcDbLine
 10
-71.94919290582532
 20
-124.055443766988
 30
0.0
 11
-68.24708844850608
 21
-118.6190131723036
 31
0.0
1001
TOP
1070
     7
  0
LINE
  5
102C
330
F60
100
AcDbEntity
  8
P-0000
  6
Continuous
 62
     0
100
AcDbLine
 10
-72.47806497115667
 20
-124.055443766988
 30
0.0
 11
-68.77596051383742
 21
-118.6190131723036
 31
0.0
1001
TOP
1070
     7
  0
LINE
  5
102D
330
F60
100
AcDbEntity
  8
P-0000
  6
Continuous
 62
     0
100
AcDbLine
 10
-71.94919290582532
 20
-124.055443766988
 30
0.0
 11
-68.24708844850608
 21
-118.6190131723036
 31
0.0
1001
TOP
1070
     7
  0
LINE
  5
102E
330
F60
100
AcDbEntity
  8
P-0000
  6
Continuous
 62
     0
100
AcDbLine
 10
-68.77596051383742
 20
-118.6190131723036
 30
0.0
 11
-72.47806497115667
 21
-124.055443766988
 31
0.0
1001
TOP
1070
     7
  0
LINE
  5
102F
330
F60
100
AcDbEntity
  8
P-0000
  6
Continuous
 62
     0
100
AcDbLine
 10
-71.94919290582532
 20
-124.055443766988
 30
0.0
 11
-64.54498399118683
 21
-124.055443766988
 31
0.0
1001
TOP
1070
     7
  0
LINE
  5
1030
330
F60
100
AcDbEntity
  8
P-0000
  6
Continuous
 62
     0
100
AcDbLine
 10
-64.54498399118683
 20
-124.055443766988
 30
0.0
 11
-71.94919290582532
 21
-124.055443766988
 31
0.0
1001
TOP
1070
     7
  0
LINE
  5
1031
330
F60
100
AcDbEntity
  8
P-0000
  6
Continuous
 62
     0
100
AcDbLine
 10
-77.50234959180421
 20
-118.6190131723036
 30
0.0
 11
-75.2546433141461
 21
-118.6190131723036
 31
0.0
1001
TOP
1070
     7
  0
LINE
  5
1032
330
F60
100
AcDbEntity
  8
P-0000
  6
Continuous
 62
     0
100
AcDbLine
 10
-77.50234959180421
 20
-124.055443766988
 30
0.0
 11
-75.2546433141461
 21
-124.055443766988
 31
0.0
1001
TOP
1070
     7
  0
LINE
  5
1033
330
F60
100
AcDbEntity
  8
P-0000
  6
Continuous
 62
     0
100
AcDbLine
 10
-75.2546433141461
 20
-124.055443766988
 30
0.0
 11
-77.50234959180421
 21
-124.055443766988
 31
0.0
1001
TOP
1070
     7
  0
LINE
  5
1034
330
F60
100
AcDbEntity
  8
P-0000
  6
Continuous
 62
     0
100
AcDbLine
 10
-77.50234959180421
 20
-118.6190131723036
 30
0.0
 11
-75.2546433141461
 21
-118.6190131723036
 31
0.0
1001
TOP
1070
     7
  0
LINE
  5
1035
330
F60
100
AcDbEntity
  8
P-0000
  6
Continuous
 62
     0
100
AcDbLine
 10
-77.50234959180421
 20
-124.055443766988
 30
0.0
 11
-77.50234959180421
 21
-118.6190131723036
 31
0.0
1001
TOP
1070
     7
  0
LINE
  5
1036
330
F60
100
AcDbEntity
  8
P-0000
  6
Continuous
 62
     0
100
AcDbLine
 10
-77.50234959180421
 20
-124.055443766988
 30
0.0
 11
-77.50234959180421
 21
-118.6190131723036
 31
0.0
1001
TOP
1070
     7
  0
LINE
  5
1037
330
F60
100
AcDbEntity
  8
P-0000
  6
Continuous
 62
     0
100
AcDbLine
 10
-72.47806497115667
 20
-121.7664203586998
 30
0.0
 11
-73.8663541426514
 21
-124.055443766988
 31
0.0
1001
TOP
1070
     7
  0
LINE
  5
1038
330
F60
100
AcDbEntity
  8
P-0000
  6
Continuous
 62
     0
100
AcDbLine
 10
-72.47806497115667
 20
-121.7664203586998
 30
0.0
 11
-72.47806497115667
 21
-124.055443766988
 31
0.0
1001
TOP
1070
     7
  0
LINE
  5
1039
330
F60
100
AcDbEntity
  8
P-0000
  6
Continuous
 62
     0
100
AcDbLine
 10
-72.47806497115667
 20
-121.7664203586998
 30
0.0
 11
-73.8663541426514
 21
-124.055443766988
 31
0.0
1001
TOP
1070
     7
  0
LINE
  5
103A
330
F60
100
AcDbEntity
  8
P-0000
  6
Continuous
 62
     0
100
AcDbLine
 10
-72.47806497115667
 20
-124.055443766988
 30
0.0
 11
-72.47806497115667
 21
-121.7664203586998
 31
0.0
1001
TOP
1070
     7
  0
LINE
  5
103B
330
F60
100
AcDbEntity
  8
P-0000
  6
Continuous
 62
     0
100
AcDbLine
 10
-75.2546433141461
 20
-124.055443766988
 30
0.0
 11
-75.2546433141461
 21
-121.7664203586998
 31
0.0
1001
TOP
1070
     7
  0
LINE
  5
103C
330
F60
100
AcDbEntity
  8
P-0000
  6
Continuous
 62
     0
100
AcDbLine
 10
-75.2546433141461
 20
-121.7664203586998
 30
0.0
 11
-75.2546433141461
 21
-124.055443766988
 31
0.0
1001
TOP
1070
     7
  0
LINE
  5
103D
330
F60
100
AcDbEntity
  8
P-0000
  6
Continuous
 62
     0
100
AcDbLine
 10
-75.2546433141461
 20
-121.7664203586998
 30
0.0
 11
-73.8663541426514
 21
-124.055443766988
 31
0.0
1001
TOP
1070
     7
  0
LINE
  5
103E
330
F60
100
AcDbEntity
  8
P-0000
  6
Continuous
 62
     0
100
AcDbLine
 10
-73.8663541426514
 20
-124.055443766988
 30
0.0
 11
-75.2546433141461
 21
-121.7664203586998
 31
0.0
1001
TOP
1070
     7
  0
LINE
  5
103F
330
F60
100
AcDbEntity
  8
P-0000
  6
Continuous
 62
     0
100
AcDbLine
 10
-72.47806497115667
 20
-118.6190131723036
 30
0.0
 11
-73.8663541426514
 21
-120.9080365805917
 31
0.0
1001
TOP
1070
     7
  0
LINE
  5
1040
330
F60
100
AcDbEntity
  8
P-0000
  6
Continuous
 62
     0
100
AcDbLine
 10
-73.8663541426514
 20
-120.9080365805917
 30
0.0
 11
-72.47806497115667
 21
-118.6190131723036
 31
0.0
1001
TOP
1070
     7
  0
LINE
  5
1041
330
F60
100
AcDbEntity
  8
P-0000
  6
Continuous
 62
     0
100
AcDbLine
 10
-75.2546433141461
 20
-118.6190131723036
 30
0.0
 11
-73.8663541426514
 21
-120.9080365805917
 31
0.0
1001
TOP
1070
     7
  0
LINE
  5
1042
330
F60
100
AcDbEntity
  8
P-0000
  6
Continuous
 62
     0
100
AcDbLine
 10
-75.2546433141461
 20
-118.6190131723036
 30
0.0
 11
-73.8663541426514
 21
-120.9080365805917
 31
0.0
1001
TOP
1070
     7
  0
ELLIPSE
  5
1043
330
F60
100
AcDbEntity
  8
P-0000
  6
Continuous
 62
     0
100
AcDbEllipse
 10
-65.10163245619105
 20
-120.0496528024836
 30
0.0
 11
-0.0000000000000277
 21
1.430639630180138
 31
0.0
210
0.0
220
0.0
230
-1.0
 40
0.9241881291669729
 41
4.077362244994374
 42
6.283185307179586
1001
TOP
1070
     7
  0
LINE
  5
1044
330
F60
100
AcDbEntity
  8
P-0000
  6
Continuous
 62
     0
100
AcDbLine
 10
-64.54498399118683
 20
-124.055443766988
 30
0.0
 11
-68.24708844850608
 21
-118.6190131723036
 31
0.0
1001
TOP
1070
     7
  0
LINE
  5
1045
330
F60
100
AcDbEntity
  8
P-0000
  6
Continuous
 62
     0
100
AcDbLine
 10
-68.24708844850608
 20
-118.6190131723036
 30
0.0
 11
-64.54498399118683
 21
-124.055443766988
 31
0.0
1001
TOP
1070
     7
  0
ELLIPSE
  5
1046
330
F60
100
AcDbEntity
  8
P-0000
  6
Continuous
 62
     0
100
AcDbEllipse
 10
-65.10163245619105
 20
-120.0496528024836
 30
0.0
 11
0.0000000000000073
 21
1.430639630180138
 31
0.0
210
0.0
220
0.0
230
1.0
 40
0.9241881291669608
 41
0.0000000000000056
 42
2.205823062185215
1001
TOP
1070
     7
  0
LINE
  5
1047
330
F60
100
AcDbEntity
  8
P-0000
  6
Continuous
 62
     0
100
AcDbLine
 10
-64.01611192585551
 20
-124.055443766988
 30
0.0
 11
-66.16606131471133
 21
-120.8983068549025
 31
0.0
1001
TOP
1070
     7
  0
LINE
  5
1048
330
F60
100
AcDbEntity
  8
P-0000
  6
Continuous
 62
     0
100
AcDbLine
 10
-66.16606131471133
 20
-120.8983068549025
 30
0.0
 11
-64.01611192585551
 21
-124.055443766988
 31
0.0
1001
TOP
1070
     7
  0
LINE
  5
1049
330
F60
100
AcDbEntity
  8
P-0000
  6
Continuous
 62
     0
100
AcDbLine
 10
-67.42322631086892
 20
-122.4817401737899
 30
0.0
 11
-68.24708844850608
 21
-121.2719230596353
 31
0.0
1001
TOP
1070
     7
  0
LINE
  5
104A
330
F60
100
AcDbEntity
  8
P-0000
  6
Continuous
 62
     0
100
AcDbLine
 10
-68.24708844850608
 20
-121.2719230596353
 30
0.0
 11
-67.42322631086892
 21
-122.4817401737899
 31
0.0
1001
TOP
1070
     7
  0
LINE
  5
104B
330
F60
100
AcDbEntity
  8
P-0000
  6
Continuous
 62
     0
100
AcDbLine
 10
-69.07095058614323
 20
-122.4817401737899
 30
0.0
 11
-68.24708844850608
 21
-121.2719230596353
 31
0.0
1001
TOP
1070
     7
  0
LINE
  5
104C
330
F60
100
AcDbEntity
  8
P-0000
  6
Continuous
 62
     0
100
AcDbLine
 10
-69.07095058614323
 20
-122.4817401737899
 30
0.0
 11
-68.24708844850608
 21
-121.2719230596353
 31
0.0
1001
TOP
1070
     7
  0
LINE
  5
104D
330
F60
100
AcDbEntity
  8
P-0000
  6
Continuous
 62
     0
100
AcDbLine
 10
-69.07095058614323
 20
-122.4817401737899
 30
0.0
 11
-67.42322631086892
 21
-122.4817401737899
 31
0.0
1001
TOP
1070
     7
  0
LINE
  5
104E
330
F60
100
AcDbEntity
  8
P-0000
  6
Continuous
 62
     0
100
AcDbLine
 10
-67.42322631086892
 20
-122.4817401737899
 30
0.0
 11
-69.07095058614323
 21
-122.4817401737899
 31
0.0
1001
TOP
1070
     7
  0
LINE
  5
104F
330
F60
100
AcDbEntity
  8
P-0000
  6
Continuous
 62
     0
100
AcDbLine
 10
-64.01611192585551
 20
-124.055443766988
 30
0.0
 11
-62.44747992382563
 21
-121.7519541961368
 31
0.0
1001
TOP
1070
     7
  0
LINE
  5
1050
330
F60
100
AcDbEntity
  8
P-0000
  6
Continuous
 62
     0
100
AcDbLine
 10
-64.01611192585551
 20
-124.055443766988
 30
0.0
 11
-62.44747992382563
 21
-121.7519541961368
 31
0.0
1001
TOP
1070
     7
  0
LINE
  5
1051
330
F60
100
AcDbEntity
  8
P-0000
  6
Continuous
 62
     0
100
AcDbLine
 10
-62.44747992382563
 20
-121.7519541961368
 30
0.0
 11
-63.46925566656012
 21
-121.7519541961368
 31
0.0
1001
TOP
1070
     7
  0
LINE
  5
1052
330
F60
100
AcDbEntity
  8
P-0000
  6
Continuous
 62
     0
100
AcDbLine
 10
-63.46925566656012
 20
-120.9225027431548
 30
0.0
 11
-61.88263947056615
 21
-120.9225027431548
 31
0.0
1001
TOP
1070
     7
  0
LINE
  5
1053
330
F60
100
AcDbEntity
  8
P-0000
  6
Continuous
 62
     0
100
AcDbLine
 10
-62.44747992382563
 20
-121.7519541961368
 30
0.0
 11
-63.46925566656012
 21
-121.7519541961368
 31
0.0
1001
TOP
1070
     7
  0
LINE
  5
1054
330
F60
100
AcDbEntity
  8
P-0000
  6
Continuous
 62
     0
100
AcDbLine
 10
-61.88263947056615
 20
-120.9225027431548
 30
0.0
 11
-63.46925566656012
 21
-120.9225027431548
 31
0.0
1001
TOP
1070
     7
  0
ELLIPSE
  5
1055
330
F60
100
AcDbEntity
  8
P-0000
  6
Continuous
 62
     0
100
AcDbEllipse
 10
-63.46925566656012
 20
-121.3372284696458
 30
0.0
 11
0.0000000000000016
 21
0.4147257264910956
 31
0.0
210
0.0
220
0.0
230
-1.0
 40
0.9241881291669779
 41
3.141592653589793
 42
6.283185307179586
1001
TOP
1070
     7
  0
ELLIPSE
  5
1056
330
F60
100
AcDbEntity
  8
P-0000
  6
Continuous
 62
     0
100
AcDbEllipse
 10
-63.46925566656012
 20
-121.3372284696458
 30
0.0
 11
-0.0000000000000201
 21
0.4147257264910956
 31
0.0
210
0.0
220
0.0
230
1.0
 40
0.9241881291669438
 41
-0.0000000000000524
 42
3.14159265358974
1001
TOP
1070
     7
  0
ELLIPSE
  5
1057
330
F60
100
AcDbEntity
  8
P-0000
  6
Continuous
 62
     0
100
AcDbEllipse
 10
-55.55415888055438
 20
-120.3357807285197
 30
0.0
 11
-0.0000000000001066
 21
0.6294814372792618
 31
0.0
210
0.0
220
0.0
230
1.0
 40
0.9241881291669697
 41
3.141592653589633
 42
6.283185307179426
1001
TOP
1070
     7
  0
ELLIPSE
  5
1058
330
F60
100
AcDbEntity
  8
P-0000
  6
Continuous
 62
     0
100
AcDbEllipse
 10
-55.55415888055438
 20
-120.3357807285197
 30
0.0
 11
0.0000000000000215
 21
0.6294814372792617
 31
0.0
210
0.0
220
0.0
230
-1.0
 40
0.9241881291669697
 41
0.0
 42
3.141592653589793
1001
TOP
1070
     7
  0
ELLIPSE
  5
1059
330
F60
100
AcDbEntity
  8
P-0000
  6
Continuous
 62
     0
100
AcDbEllipse
 10
-55.55415888055438
 20
-120.3357807285197
 30
0.0
 11
0.0000000000000215
 21
1.716767556216168
 31
0.0
210
0.0
220
0.0
230
1.0
 40
0.9241881291669681
 41
3.141592653589806
 42
6.283185307179599
1001
TOP
1070
     7
  0
ELLIPSE
  5
105A
330
F60
100
AcDbEntity
  8
P-0000
  6
Continuous
 62
     0
100
AcDbEllipse
 10
-55.55415888055438
 20
-120.3357807285197
 30
0.0
 11
0.0000000000000018
 21
1.716767556216167
 31
0.0
210
0.0
220
0.0
230
-1.0
 40
0.9241881291669688
 41
0.0
 42
3.141592653589793
1001
TOP
1070
     7
  0
LINE
  5
105B
330
F60
100
AcDbEntity
  8
P-0000
  6
Continuous
 62
     0
100
AcDbLine
 10
-59.78513540320495
 20
-121.2719230596353
 30
0.0
 11
-58.9612732655678
 21
-122.4817401737899
 31
0.0
1001
TOP
1070
     7
  0
LINE
  5
105C
330
F60
100
AcDbEntity
  8
P-0000
  6
Continuous
 62
     0
100
AcDbLine
 10
-58.9612732655678
 20
-122.4817401737899
 30
0.0
 11
-59.78513540320495
 21
-121.2719230596353
 31
0.0
1001
TOP
1070
     7
  0
LINE
  5
105D
330
F60
100
AcDbEntity
  8
P-0000
  6
Continuous
 62
     0
100
AcDbLine
 10
-56.08303094588571
 20
-124.055443766988
 30
0.0
 11
-59.78513540320495
 21
-118.6190131723036
 31
0.0
1001
TOP
1070
     7
  0
LINE
  5
105E
330
F60
100
AcDbEntity
  8
P-0000
  6
Continuous
 62
     0
100
AcDbLine
 10
-55.55415888055438
 20
-124.055443766988
 30
0.0
 11
-59.25626333787364
 21
-118.6190131723036
 31
0.0
1001
TOP
1070
     7
  0
LINE
  5
105F
330
F60
100
AcDbEntity
  8
P-0000
  6
Continuous
 62
     0
100
AcDbLine
 10
-55.55415888055438
 20
-124.055443766988
 30
0.0
 11
-59.25626333787364
 21
-118.6190131723036
 31
0.0
1001
TOP
1070
     7
  0
LINE
  5
1060
330
F60
100
AcDbEntity
  8
P-0000
  6
Continuous
 62
     0
100
AcDbLine
 10
-56.08303094588571
 20
-124.055443766988
 30
0.0
 11
-59.78513540320495
 21
-118.6190131723036
 31
0.0
1001
TOP
1070
     7
  0
LINE
  5
1061
330
F60
100
AcDbEntity
  8
P-0000
  6
Continuous
 62
     0
100
AcDbLine
 10
-55.55415888055438
 20
-124.055443766988
 30
0.0
 11
-55.55415888055438
 21
-122.0525482847359
 31
0.0
1001
TOP
1070
     7
  0
LINE
  5
1062
330
F60
100
AcDbEntity
  8
P-0000
  6
Continuous
 62
     0
100
AcDbLine
 10
-55.55415888055438
 20
-122.0525482847359
 30
0.0
 11
-55.55415888055438
 21
-124.055443766988
 31
0.0
1001
TOP
1070
     7
  0
LINE
  5
1063
330
F60
100
AcDbEntity
  8
P-0000
  6
Continuous
 62
     0
100
AcDbLine
 10
-59.25626333787364
 20
-118.6190131723036
 30
0.0
 11
-55.55415888055438
 21
-118.6190131723036
 31
0.0
1001
TOP
1070
     7
  0
LINE
  5
1064
330
F60
100
AcDbEntity
  8
P-0000
  6
Continuous
 62
     0
100
AcDbLine
 10
-59.25626333787364
 20
-118.6190131723036
 30
0.0
 11
-55.55415888055438
 21
-118.6190131723036
 31
0.0
1001
TOP
1070
     7
  0
LINE
  5
1065
330
F60
100
AcDbEntity
  8
P-0000
  6
Continuous
 62
     0
100
AcDbLine
 10
-55.55415888055438
 20
-119.7062992912404
 30
0.0
 11
-56.41148833382832
 21
-119.7062992912404
 31
0.0
1001
TOP
1070
     7
  0
LINE
  5
1066
330
F60
100
AcDbEntity
  8
P-0000
  6
Continuous
 62
     0
100
AcDbLine
 10
-56.41148833382832
 20
-119.7062992912404
 30
0.0
 11
-55.55415888055438
 21
-119.7062992912404
 31
0.0
1001
TOP
1070
     7
  0
LINE
  5
1067
330
F60
100
AcDbEntity
  8
P-0000
  6
Continuous
 62
     0
100
AcDbLine
 10
-55.55415888055438
 20
-120.9652621657989
 30
0.0
 11
-56.41148833382832
 21
-119.7062992912404
 31
0.0
1001
TOP
1070
     7
  0
LINE
  5
1068
330
F60
100
AcDbEntity
  8
P-0000
  6
Continuous
 62
     0
100
AcDbLine
 10
-55.55415888055438
 20
-120.9652621657989
 30
0.0
 11
-56.41148833382832
 21
-119.7062992912404
 31
0.0
1001
TOP
1070
     7
  0
LINE
  5
1069
330
F60
100
AcDbEntity
  8
0
 62
     0
 48
35.0
100
AcDbLine
 10
7.000000000000056
 20
142.5
 30
0.0
 11
98.00000000000004
 21
142.5
 31
0.0
1001
TOP
1070
     1
  0
LINE
  5
106A
330
F60
100
AcDbEntity
  8
0
 62
     0
100
AcDbLine
 10
7.000000000000056
 20
143.5
 30
0.0
 11
100.0
 21
143.5
 31
0.0
1001
TOP
1070
   256
  0
ARC
  5
106B
330
F60
100
AcDbEntity
  8
0
 62
     0
 48
35.0
100
AcDbCircle
 10
98.00000000000004
 20
141.5
 30
0.0
 40
1.0
100
AcDbArc
 50
0.0
 51
90.0
1001
TOP
1070
     1
  0
LINE
  5
106C
330
F60
100
AcDbEntity
  8
0
 62
     0
 48
35.0
100
AcDbLine
 10
99.00000000000003
 20
141.5
 30
0.0
 11
99.00000000000005
 21
113.5
 31
0.0
1001
TOP
1070
     1
  0
LINE
  5
106D
330
F60
100
AcDbEntity
  8
0
 62
     0
100
AcDbLine
 10
100.0
 20
143.5
 30
0.0
 11
100.0
 21
113.5
 31
0.0
1001
TOP
1070
   256
  0
ARC
  5
106E
330
F60
100
AcDbEntity
  8
0
 62
     0
 48
35.0
100
AcDbCircle
 10
98.00000000000006
 20
113.5
 30
0.0
 40
1.0
100
AcDbArc
 50
270.0
 51
0.0
1001
TOP
1070
     1
  0
ARC
  5
106F
330
F60
100
AcDbEntity
  8
0
 62
     0
100
AcDbCircle
 10
98.00000000000006
 20
113.5
 30
0.0
 40
2.0
100
AcDbArc
 50
270.0
 51
0.0
1001
TOP
1070
   256
  0
LINE
  5
1070
330
F60
100
AcDbEntity
  8
0
 62
     0
 48
35.0
100
AcDbLine
 10
98.00000000000006
 20
112.5
 30
0.0
 11
7.000000000000056
 21
112.5
 31
0.0
1001
TOP
1070
     1
  0
LINE
  5
1071
330
F60
100
AcDbEntity
  8
0
 62
     0
100
AcDbLine
 10
98.00000000000006
 20
111.4999999999999
 30
0.0
 11
7.000000000000056
 21
111.5
 31
0.0
1001
TOP
1070
   256
  0
ARC
  5
1072
330
F60
100
AcDbEntity
  8
0
 62
     0
 48
35.0
100
AcDbCircle
 10
7.000000000000056
 20
113.5
 30
0.0
 40
1.0
100
AcDbArc
 50
180.0
 51
270.0
1001
TOP
1070
     1
  0
ARC
  5
1073
330
F60
100
AcDbEntity
  8
0
 62
     0
100
AcDbCircle
 10
7.000000000000056
 20
113.5
 30
0.0
 40
2.0
100
AcDbArc
 50
180.0
 51
270.0
1001
TOP
1070
   256
  0
LINE
  5
1074
330
F60
100
AcDbEntity
  8
0
 62
     0
 48
35.0
100
AcDbLine
 10
6.000000000000056
 20
113.5
 30
0.0
 11
6.000000000000056
 21
141.5
 31
0.0
1001
TOP
1070
     1
  0
LINE
  5
1075
330
F60
100
AcDbEntity
  8
0
 62
     0
100
AcDbLine
 10
5.000000000000056
 20
113.5
 30
0.0
 11
5.000000000000056
 21
141.5
 31
0.0
1001
TOP
1070
   256
  0
ARC
  5
1076
330
F60
100
AcDbEntity
  8
0
 62
     0
 48
35.0
100
AcDbCircle
 10
7.000000000000056
 20
141.5
 30
0.0
 40
1.0
100
AcDbArc
 50
90.0
 51
180.0
1001
TOP
1070
     1
  0
ARC
  5
1077
330
F60
100
AcDbEntity
  8
0
 62
     0
100
AcDbCircle
 10
7.000000000000056
 20
141.5
 30
0.0
 40
2.0
100
AcDbArc
 50
90.0
 51
180.0
1001
TOP
1070
   256
  0
MTEXT
  5
1078
330
F60
100
AcDbEntity
  8
0
 62
     0
100
AcDbMText
 10
29.58535811428735
 20
135.6251466847724
 30
0.0
 40
6.0
 41
54.93080742428151
 71
     1
 72
     5
  1
{\fVrinda|b0|i0|c0|p2;BAR CODE\PMontaggio}
 73
     1
 44
1.0
1001
TOP
1070
   256
1001
ACAD
1000
MTEXTBEGIN
1070
    73
1070
     1
1070
    44
1040
1.0
1070
    74
1070
     0
1000
MTEXTEND
  0
ENDBLK
  5
107C
330
F60
100
AcDbEntity
  8
0
 62
     7
100
AcDbBlockEnd
  0
BLOCK
  5
1143
330
1142
100
AcDbEntity
  8
0
 62
     3
100
AcDbBlockBegin
  2
*D1
 70
     1
 10
0.0
 20
0.0
 30
0.0
  3
*D1
  1

  0
LINE
  5
1F85
330
1142
100
AcDbEntity
  8
P-7064
  6
Continuous
 62
     2
370
    -2
100
AcDbLine
 10
1235.224321449581
 20
2515.280389480227
 30
0.0
 11
1195.920981185663
 21
2515.280389480227
 31
0.0
  0
LINE
  5
1F86
330
1142
100
AcDbEntity
  8
P-7064
  6
Continuous
 62
     2
370
    -2
100
AcDbLine
 10
1235.539663011123
 20
2553.280389476427
 30
0.0
 11
1195.920981185663
 21
2553.280389476427
 31
0.0
  0
LINE
  5
1F87
330
1142
100
AcDbEntity
  8
P-7064
  6
Continuous
 62
     2
370
    -2
100
AcDbLine
 10
1210.920981185663
 20
2495.280389480227
 30
0.0
 11
1210.920981185663
 21
2475.280389480227
 31
0.0
  0
LINE
  5
1F88
330
1142
100
AcDbEntity
  8
P-7064
  6
Continuous
 62
     2
370
    -2
100
AcDbLine
 10
1210.920981185663
 20
2573.280389476427
 30
0.0
 11
1210.920981185663
 21
2650.700214549314
 31
0.0
  0
LINE
  5
1F89
330
1142
100
AcDbEntity
  8
P-7064
  6
Continuous
 62
     2
370
    -2
100
AcDbLine
 10
1210.920981185663
 20
2515.280389480227
 30
0.0
 11
1210.920981185663
 21
2553.280389476427
 31
0.0
  0
SOLID
  5
1F8A
330
1142
100
AcDbEntity
  8
P-7064
  6
Continuous
 62
     2
100
AcDbTrace
 10
1207.587647852329
 20
2495.280389480227
 30
0.0
 11
1214.254314518996
 21
2495.280389480227
 31
0.0
 12
1210.920981185663
 22
2515.280389480227
 32
0.0
 13
1210.920981185663
 23
2515.280389480227
 33
0.0
  0
SOLID
  5
1F8B
330
1142
100
AcDbEntity
  8
P-7064
  6
Continuous
 62
     2
100
AcDbTrace
 10
1207.58764785233
 20
2573.280389476427
 30
0.0
 11
1214.254314518996
 21
2573.280389476427
 31
0.0
 12
1210.920981185663
 22
2553.280389476427
 32
0.0
 13
1210.920981185663
 23
2553.280389476427
 33
0.0
  0
MTEXT
  5
1F8C
330
1142
100
AcDbEntity
  8
P-7064
  6
Continuous
 62
     1
100
AcDbMText
 10
1190.695033663796
 20
2621.99030201287
 30
0.0
 40
20.0
 41
0.0
 71
     5
 72
     1
  1
\A1;3.8
  7
Stile_Quota
 11
0.0000000000000001
 21
1.0
 31
0.0
 73
     1
 44
1.0
1001
ACAD
1000
MTEXTBEGIN
1070
    73
1070
     1
1070
    44
1040
1.0
1070
    74
1070
     0
1000
MTEXTEND
  0
POINT
  5
1F8D
330
1142
100
AcDbEntity
  8
Defpoints
  6
Continuous
 62
     0
100
AcDbPoint
 10
1245.224321449581
 20
2515.280389480227
 30
0.0
  0
POINT
  5
1F8E
330
1142
100
AcDbEntity
  8
Defpoints
  6
Continuous
 62
     0
100
AcDbPoint
 10
1245.539663011123
 20
2553.280389476427
 30
0.0
  0
POINT
  5
1F8F
330
1142
100
AcDbEntity
  8
Defpoints
  6
Continuous
 62
     0
100
AcDbPoint
 10
1210.920981185663
 20
2553.280389476427
 30
0.0
  0
ENDBLK
  5
1144
330
1142
100
AcDbEntity
  8
0
 62
     3
100
AcDbBlockEnd
  0
BLOCK
  5
1167
330
1166
100
AcDbEntity
  8
0
 62
     3
100
AcDbBlockBegin
  2
*D2
 70
     1
 10
0.0
 20
0.0
 30
0.0
  3
*D2
  1

  0
LINE
  5
1F90
330
1166
100
AcDbEntity
  8
P-7064
  6
Continuous
 62
     2
370
    -2
100
AcDbLine
 10
1233.431428230946
 20
2540.280389477727
 30
0.0
 11
1201.324865839048
 21
2540.280389477727
 31
0.0
  0
LINE
  5
1F91
330
1166
100
AcDbEntity
  8
P-7064
  6
Continuous
 62
     2
370
    -2
100
AcDbLine
 10
1235.224321449581
 20
2515.280389480227
 30
0.0
 11
1201.324865839048
 21
2515.280389480227
 31
0.0
  0
LINE
  5
1F92
330
1166
100
AcDbEntity
  8
P-7064
  6
Continuous
 62
     2
370
    -2
100
AcDbLine
 10
1216.324865839048
 20
2560.280389477727
 30
0.0
 11
1216.324865839048
 21
2580.280389477727
 31
0.0
  0
LINE
  5
1F93
330
1166
100
AcDbEntity
  8
P-7064
  6
Continuous
 62
     2
370
    -2
100
AcDbLine
 10
1216.324865839048
 20
2495.280389480227
 30
0.0
 11
1216.324865839048
 21
2417.598173736787
 31
0.0
  0
LINE
  5
1F94
330
1166
100
AcDbEntity
  8
P-7064
  6
Continuous
 62
     2
370
    -2
100
AcDbLine
 10
1216.324865839048
 20
2540.280389477727
 30
0.0
 11
1216.324865839048
 21
2515.280389480227
 31
0.0
  0
SOLID
  5
1F95
330
1166
100
AcDbEntity
  8
P-7064
  6
Continuous
 62
     2
100
AcDbTrace
 10
1212.991532505715
 20
2560.280389477727
 30
0.0
 11
1219.658199172381
 21
2560.280389477727
 31
0.0
 12
1216.324865839048
 22
2540.280389477727
 32
0.0
 13
1216.324865839048
 23
2540.280389477727
 33
0.0
  0
SOLID
  5
1F96
330
1166
100
AcDbEntity
  8
P-7064
  6
Continuous
 62
     2
100
AcDbTrace
 10
1212.991532505715
 20
2495.280389480227
 30
0.0
 11
1219.658199172381
 21
2495.280389480227
 31
0.0
 12
1216.324865839048
 22
2515.280389480227
 32
0.0
 13
1216.324865839048
 23
2515.280389480227
 33
0.0
  0
MTEXT
  5
1F97
330
1166
100
AcDbEntity
  8
P-7064
  6
Continuous
 62
     1
100
AcDbMText
 10
1196.098918317182
 20
2446.439281608507
 30
0.0
 40
20.0
 41
0.0
 71
     5
 72
     1
  1
\A1;2.5
  7
Stile_Quota
 11
0.0000000000000001
 21
1.0
 31
0.0
 73
     1
 44
1.0
1001
ACAD
1000
MTEXTBEGIN
1070
    73
1070
     1
1070
    44
1040
1.0
1070
    74
1070
     0
1000
MTEXTEND
  0
POINT
  5
1F98
330
1166
100
AcDbEntity
  8
Defpoints
  6
Continuous
 62
     0
100
AcDbPoint
 10
1243.431428230946
 20
2540.280389477727
 30
0.0
  0
POINT
  5
1F99
330
1166
100
AcDbEntity
  8
Defpoints
  6
Continuous
 62
     0
100
AcDbPoint
 10
1245.224321449581
 20
2515.280389480227
 30
0.0
  0
POINT
  5
1F9A
330
1166
100
AcDbEntity
  8
Defpoints
  6
Continuous
 62
     0
100
AcDbPoint
 10
1216.324865839048
 20
2515.280389480227
 30
0.0
  0
ENDBLK
  5
1168
330
1166
100
AcDbEntity
  8
0
 62
     3
100
AcDbBlockEnd
  0
BLOCK
  5
117F
330
117E
100
AcDbEntity
  8
0
 62
     3
100
AcDbBlockBegin
  2
*D3
 70
     1
 10
0.0
 20
0.0
 30
0.0
  3
*D3
  1

  0
LINE
  5
1F9B
330
117E
100
AcDbEntity
  8
P-7064
  6
Continuous
 62
     2
370
    -2
100
AcDbLine
 10
1233.431428230946
 20
2540.280389477727
 30
0.0
 11
1201.324865839048
 21
2540.280389477727
 31
0.0
  0
LINE
  5
1F9C
330
117E
100
AcDbEntity
  8
P-7064
  6
Continuous
 62
     2
370
    -2
100
AcDbLine
 10
1235.62432144954
 20
2553.280389476427
 30
0.0
 11
1201.324865839048
 21
2553.280389476427
 31
0.0
  0
LINE
  5
1F9D
330
117E
100
AcDbEntity
  8
P-7064
  6
Continuous
 62
     2
370
    -2
100
AcDbLine
 10
1216.324865839048
 20
2520.280389477727
 30
0.0
 11
1216.324865839048
 21
2500.280389477727
 31
0.0
  0
LINE
  5
1F9E
330
117E
100
AcDbEntity
  8
P-7064
  6
Continuous
 62
     2
370
    -2
100
AcDbLine
 10
1216.324865839048
 20
2573.280389476427
 30
0.0
 11
1216.324865839048
 21
2649.752692683424
 31
0.0
  0
LINE
  5
1F9F
330
117E
100
AcDbEntity
  8
P-7064
  6
Continuous
 62
     2
370
    -2
100
AcDbLine
 10
1216.324865839048
 20
2540.280389477727
 30
0.0
 11
1216.324865839048
 21
2553.280389476427
 31
0.0
  0
SOLID
  5
1FA0
330
117E
100
AcDbEntity
  8
P-7064
  6
Continuous
 62
     2
100
AcDbTrace
 10
1212.991532505715
 20
2520.280389477727
 30
0.0
 11
1219.658199172381
 21
2520.280389477727
 31
0.0
 12
1216.324865839048
 22
2540.280389477727
 32
0.0
 13
1216.324865839048
 23
2540.280389477727
 33
0.0
  0
SOLID
  5
1FA1
330
117E
100
AcDbEntity
  8
P-7064
  6
Continuous
 62
     2
100
AcDbTrace
 10
1212.991532505715
 20
2573.280389476427
 30
0.0
 11
1219.658199172381
 21
2573.280389476427
 31
0.0
 12
1216.324865839048
 22
2553.280389476427
 32
0.0
 13
1216.324865839048
 23
2553.280389476427
 33
0.0
  0
MTEXT
  5
1FA2
330
117E
100
AcDbEntity
  8
P-7064
  6
Continuous
 62
     1
100
AcDbMText
 10
1196.113495576657
 20
2621.516541079926
 30
0.0
 40
20.0
 41
0.0
 71
     5
 72
     1
  1
\A1;1.3
  7
Stile_Quota
 11
0.0000000000000001
 21
1.0
 31
0.0
 73
     1
 44
1.0
1001
ACAD
1000
MTEXTBEGIN
1070
    73
1070
     1
1070
    44
1040
1.0
1070
    74
1070
     0
1000
MTEXTEND
  0
POINT
  5
1FA3
330
117E
100
AcDbEntity
  8
Defpoints
  6
Continuous
 62
     0
100
AcDbPoint
 10
1243.431428230946
 20
2540.280389477727
 30
0.0
  0
POINT
  5
1FA4
330
117E
100
AcDbEntity
  8
Defpoints
  6
Continuous
 62
     0
100
AcDbPoint
 10
1245.62432144954
 20
2553.280389476427
 30
0.0
  0
POINT
  5
1FA5
330
117E
100
AcDbEntity
  8
Defpoints
  6
Continuous
 62
     0
100
AcDbPoint
 10
1216.324865839048
 20
2553.280389476427
 30
0.0
  0
ENDBLK
  5
1180
330
117E
100
AcDbEntity
  8
0
 62
     3
100
AcDbBlockEnd
  0
BLOCK
  5
1197
330
1196
100
AcDbEntity
  8
0
 62
     3
100
AcDbBlockBegin
  2
*D4
 70
     1
 10
0.0
 20
0.0
 30
0.0
  3
*D4
  1

  0
LINE
  5
1FA6
330
1196
100
AcDbEntity
  8
P-7064
  6
Continuous
 62
     2
370
    -2
100
AcDbLine
 10
1233.431428230946
 20
2540.280389477727
 30
0.0
 11
1206.008807431218
 21
2540.280389477727
 31
0.0
  0
LINE
  5
1FA7
330
1196
100
AcDbEntity
  8
P-7064
  6
Continuous
 62
     2
370
    -2
100
AcDbLine
 10
1234.524321449651
 20
2541.780389477577
 30
0.0
 11
1206.008807431218
 21
2541.780389477577
 31
0.0
  0
LINE
  5
1FA8
330
1196
100
AcDbEntity
  8
P-7064
  6
Continuous
 62
     2
370
    -2
100
AcDbLine
 10
1221.008807431218
 20
2520.280389477727
 30
0.0
 11
1221.008807431218
 21
2500.280389477727
 31
0.0
  0
LINE
  5
1FA9
330
1196
100
AcDbEntity
  8
P-7064
  6
Continuous
 62
     2
370
    -2
100
AcDbLine
 10
1221.008807431218
 20
2561.780389477577
 30
0.0
 11
1221.008807431218
 21
2653.471351576702
 31
0.0
  0
LINE
  5
1FAA
330
1196
100
AcDbEntity
  8
P-7064
  6
Continuous
 62
     2
370
    -2
100
AcDbLine
 10
1221.008807431218
 20
2540.280389477727
 30
0.0
 11
1221.008807431218
 21
2541.780389477577
 31
0.0
  0
SOLID
  5
1FAB
330
1196
100
AcDbEntity
  8
P-7064
  6
Continuous
 62
     2
100
AcDbTrace
 10
1217.675474097885
 20
2520.280389477727
 30
0.0
 11
1224.342140764551
 21
2520.280389477727
 31
0.0
 12
1221.008807431218
 22
2540.280389477727
 32
0.0
 13
1221.008807431218
 23
2540.280389477727
 33
0.0
  0
SOLID
  5
1FAC
330
1196
100
AcDbEntity
  8
P-7064
  6
Continuous
 62
     2
100
AcDbTrace
 10
1217.675474097885
 20
2561.780389477577
 30
0.0
 11
1224.342140764551
 21
2561.780389477577
 31
0.0
 12
1221.008807431218
 22
2541.780389477577
 32
0.0
 13
1221.008807431218
 23
2541.780389477577
 33
0.0
  0
MTEXT
  5
1FAD
330
1196
100
AcDbEntity
  8
P-7064
  6
Continuous
 62
     1
100
AcDbMText
 10
1200.782859909352
 20
2617.62587052714
 30
0.0
 40
20.0
 41
0.0
 71
     5
 72
     1
  1
\A1;0.15
  7
Stile_Quota
 11
0.0000000000000001
 21
1.0
 31
0.0
 73
     1
 44
1.0
1001
ACAD
1000
MTEXTBEGIN
1070
    73
1070
     1
1070
    44
1040
1.0
1070
    74
1070
     0
1000
MTEXTEND
  0
POINT
  5
1FAE
330
1196
100
AcDbEntity
  8
Defpoints
  6
Continuous
 62
     0
100
AcDbPoint
 10
1243.431428230946
 20
2540.280389477727
 30
0.0
  0
POINT
  5
1FAF
330
1196
100
AcDbEntity
  8
Defpoints
  6
Continuous
 62
     0
100
AcDbPoint
 10
1244.524321449651
 20
2541.780389477577
 30
0.0
  0
POINT
  5
1FB0
330
1196
100
AcDbEntity
  8
Defpoints
  6
Continuous
 62
     0
100
AcDbPoint
 10
1221.008807431218
 20
2541.780389477577
 30
0.0
  0
ENDBLK
  5
1198
330
1196
100
AcDbEntity
  8
0
 62
     3
100
AcDbBlockEnd
  0
BLOCK
  5
11B3
330
11B2
100
AcDbEntity
  8
0
 62
     3
100
AcDbBlockBegin
  2
*D5
 70
     1
 10
0.0
 20
0.0
 30
0.0
  3
*D5
  1

  0
LINE
  5
1A08
330
11B2
100
AcDbEntity
  8
P-7064
  6
Continuous
 62
     2
370
    -2
100
AcDbLine
 10
1123.276543886107
 20
2357.218640724984
 30
0.0
 11
1123.276543886107
 21
2070.628482334928
 31
0.0
  0
LINE
  5
1A09
330
11B2
100
AcDbEntity
  8
P-7064
  6
Continuous
 62
     2
370
    -2
100
AcDbLine
 10
873.2765439111043
 20
2375.147572911323
 30
0.0
 11
873.2765439111043
 21
2070.628482334928
 31
0.0
  0
LINE
  5
1A0A
330
11B2
100
AcDbEntity
  8
P-7064
  6
Continuous
 62
     2
370
    -2
100
AcDbLine
 10
1103.276543886107
 20
2085.628482334928
 30
0.0
 11
893.2765439111042
 21
2085.628482334928
 31
0.0
  0
SOLID
  5
1A0B
330
11B2
100
AcDbEntity
  8
P-7064
  6
Continuous
 62
     2
100
AcDbTrace
 10
1103.276543886107
 20
2088.961815668261
 30
0.0
 11
1103.276543886107
 21
2082.295149001595
 31
0.0
 12
1123.276543886107
 22
2085.628482334928
 32
0.0
 13
1123.276543886107
 23
2085.628482334928
 33
0.0
  0
SOLID
  5
1A0C
330
11B2
100
AcDbEntity
  8
P-7064
  6
Continuous
 62
     2
100
AcDbTrace
 10
893.2765439111042
 20
2088.961815668261
 30
0.0
 11
893.2765439111042
 21
2082.295149001595
 31
0.0
 12
873.2765439111043
 22
2085.628482334928
 32
0.0
 13
873.2765439111043
 23
2085.628482334928
 33
0.0
  0
MTEXT
  5
1A0D
330
11B2
100
AcDbEntity
  8
P-7064
  6
Continuous
 62
     1
100
AcDbMText
 10
998.2765438986056
 20
2105.854429856794
 30
0.0
 40
20.0
 41
0.0
 71
     5
 72
     1
  1
\A1;25
  7
Stile_Quota
 73
     1
 44
1.0
1001
ACAD
1000
MTEXTBEGIN
1070
    73
1070
     1
1070
    44
1040
1.0
1070
    74
1070
     0
1000
MTEXTEND
  0
POINT
  5
1A0E
330
11B2
100
AcDbEntity
  8
Defpoints
  6
Continuous
 62
     0
100
AcDbPoint
 10
1123.276543886107
 20
2367.218640724984
 30
0.0
  0
POINT
  5
1A0F
330
11B2
100
AcDbEntity
  8
Defpoints
  6
Continuous
 62
     0
100
AcDbPoint
 10
873.2765439111043
 20
2385.147572911324
 30
0.0
  0
POINT
  5
1A10
330
11B2
100
AcDbEntity
  8
Defpoints
  6
Continuous
 62
     0
100
AcDbPoint
 10
873.2765439111043
 20
2085.628482334928
 30
0.0
  0
ENDBLK
  5
11B4
330
11B2
100
AcDbEntity
  8
0
 62
     3
100
AcDbBlockEnd
  0
BLOCK
  5
11CB
330
11CA
100
AcDbEntity
  8
0
 62
     3
100
AcDbBlockBegin
  2
*D6
 70
     1
 10
0.0
 20
0.0
 30
0.0
  3
*D6
  1

  0
LINE
  5
1A11
330
11CA
100
AcDbEntity
  8
P-7064
  6
Continuous
 62
     2
370
    -2
100
AcDbLine
 10
1123.276543886107
 20
2357.218640724984
 30
0.0
 11
1123.276543886107
 21
2070.628482334928
 31
0.0
  0
LINE
  5
1A12
330
11CA
100
AcDbEntity
  8
P-7064
  6
Continuous
 62
     2
370
    -2
100
AcDbLine
 10
1253.276543873107
 20
2378.300988526743
 30
0.0
 11
1253.276543873107
 21
2070.628482334928
 31
0.0
  0
LINE
  5
1A13
330
11CA
100
AcDbEntity
  8
P-7064
  6
Continuous
 62
     2
370
    -2
100
AcDbLine
 10
1143.276543886107
 20
2085.628482334928
 30
0.0
 11
1233.276543873107
 21
2085.628482334928
 31
0.0
  0
SOLID
  5
1A14
330
11CA
100
AcDbEntity
  8
P-7064
  6
Continuous
 62
     2
100
AcDbTrace
 10
1143.276543886107
 20
2088.961815668261
 30
0.0
 11
1143.276543886107
 21
2082.295149001595
 31
0.0
 12
1123.276543886107
 22
2085.628482334928
 32
0.0
 13
1123.276543886107
 23
2085.628482334928
 33
0.0
  0
SOLID
  5
1A15
330
11CA
100
AcDbEntity
  8
P-7064
  6
Continuous
 62
     2
100
AcDbTrace
 10
1233.276543873107
 20
2088.961815668261
 30
0.0
 11
1233.276543873107
 21
2082.295149001595
 31
0.0
 12
1253.276543873107
 22
2085.628482334928
 32
0.0
 13
1253.276543873107
 23
2085.628482334928
 33
0.0
  0
MTEXT
  5
1A16
330
11CA
100
AcDbEntity
  8
P-7064
  6
Continuous
 62
     1
100
AcDbMText
 10
1188.276543879607
 20
2105.839852597318
 30
0.0
 40
20.0
 41
0.0
 71
     5
 72
     1
  1
\A1;13
  7
Stile_Quota
 73
     1
 44
1.0
1001
ACAD
1000
MTEXTBEGIN
1070
    73
1070
     1
1070
    44
1040
1.0
1070
    74
1070
     0
1000
MTEXTEND
  0
POINT
  5
1A17
330
11CA
100
AcDbEntity
  8
Defpoints
  6
Continuous
 62
     0
100
AcDbPoint
 10
1123.276543886107
 20
2367.218640724984
 30
0.0
  0
POINT
  5
1A18
330
11CA
100
AcDbEntity
  8
Defpoints
  6
Continuous
 62
     0
100
AcDbPoint
 10
1253.276543873107
 20
2388.300988526743
 30
0.0
  0
POINT
  5
1A19
330
11CA
100
AcDbEntity
  8
Defpoints
  6
Continuous
 62
     0
100
AcDbPoint
 10
1253.276543873107
 20
2085.628482334928
 30
0.0
  0
ENDBLK
  5
11CC
330
11CA
100
AcDbEntity
  8
0
 62
     3
100
AcDbBlockEnd
  0
BLOCK
  5
11E3
330
11E2
100
AcDbEntity
  8
0
 62
     3
100
AcDbBlockBegin
  2
*D7
 70
     1
 10
0.0
 20
0.0
 30
0.0
  3
*D7
  1

  0
LINE
  5
1A1A
330
11E2
100
AcDbEntity
  8
P-7064
  6
Continuous
 62
     2
370
    -2
100
AcDbLine
 10
1253.276543873107
 20
2379.147572910923
 30
0.0
 11
1253.276543873107
 21
2017.560667016866
 31
0.0
  0
LINE
  5
1A1B
330
11E2
100
AcDbEntity
  8
P-7064
  6
Continuous
 62
     2
370
    -2
100
AcDbLine
 10
873.2765439111071
 20
2375.147572911323
 30
0.0
 11
873.2765439111071
 21
2017.560667016866
 31
0.0
  0
LINE
  5
1A1C
330
11E2
100
AcDbEntity
  8
P-7064
  6
Continuous
 62
     2
370
    -2
100
AcDbLine
 10
1233.276543873107
 20
2032.560667016865
 30
0.0
 11
893.2765439111072
 21
2032.560667016865
 31
0.0
  0
SOLID
  5
1A1D
330
11E2
100
AcDbEntity
  8
P-7064
  6
Continuous
 62
     2
100
AcDbTrace
 10
1233.276543873107
 20
2035.894000350199
 30
0.0
 11
1233.276543873107
 21
2029.227333683532
 31
0.0
 12
1253.276543873107
 22
2032.560667016865
 32
0.0
 13
1253.276543873107
 23
2032.560667016865
 33
0.0
  0
SOLID
  5
1A1E
330
11E2
100
AcDbEntity
  8
P-7064
  6
Continuous
 62
     2
100
AcDbTrace
 10
893.2765439111072
 20
2035.894000350199
 30
0.0
 11
893.2765439111072
 21
2029.227333683532
 31
0.0
 12
873.2765439111071
 22
2032.560667016865
 32
0.0
 13
873.2765439111071
 23
2032.560667016865
 33
0.0
  0
MTEXT
  5
1A1F
330
11E2
100
AcDbEntity
  8
P-7064
  6
Continuous
 62
     1
100
AcDbMText
 10
1063.276543892107
 20
2052.786614538731
 30
0.0
 40
20.0
 41
0.0
 71
     5
 72
     1
  1
\A1;38
  7
Stile_Quota
 73
     1
 44
1.0
1001
ACAD
1000
MTEXTBEGIN
1070
    73
1070
     1
1070
    44
1040
1.0
1070
    74
1070
     0
1000
MTEXTEND
  0
POINT
  5
1A20
330
11E2
100
AcDbEntity
  8
Defpoints
  6
Continuous
 62
     0
100
AcDbPoint
 10
1253.276543873107
 20
2389.147572910923
 30
0.0
  0
POINT
  5
1A21
330
11E2
100
AcDbEntity
  8
Defpoints
  6
Continuous
 62
     0
100
AcDbPoint
 10
873.2765439111071
 20
2385.147572911324
 30
0.0
  0
POINT
  5
1A22
330
11E2
100
AcDbEntity
  8
Defpoints
  6
Continuous
 62
     0
100
AcDbPoint
 10
873.2765439111071
 20
2032.560667016865
 30
0.0
  0
ENDBLK
  5
11E4
330
11E2
100
AcDbEntity
  8
0
 62
     3
100
AcDbBlockEnd
  0
BLOCK
  5
11FB
330
11FA
100
AcDbEntity
  8
0
 62
     3
100
AcDbBlockBegin
  2
*D8
 70
     1
 10
0.0
 20
0.0
 30
0.0
  3
*D8
  1

  0
LINE
  5
1A23
330
11FA
100
AcDbEntity
  8
P-7064
  6
Continuous
 62
     2
370
    -2
100
AcDbLine
 10
893.7765439090044
 20
2372.647572911524
 30
0.0
 11
893.7765439090044
 21
2122.850634761487
 31
0.0
  0
LINE
  5
1A24
330
11FA
100
AcDbEntity
  8
P-7064
  6
Continuous
 62
     2
370
    -2
100
AcDbLine
 10
873.2765439111071
 20
2375.147572911323
 30
0.0
 11
873.2765439111071
 21
2122.850634761487
 31
0.0
  0
LINE
  5
1A25
330
11FA
100
AcDbEntity
  8
P-7064
  6
Continuous
 62
     2
370
    -2
100
AcDbLine
 10
913.7765439090044
 20
2137.850634761487
 30
0.0
 11
933.7765439090045
 21
2137.850634761487
 31
0.0
  0
LINE
  5
1A26
330
11FA
100
AcDbEntity
  8
P-7064
  6
Continuous
 62
     2
370
    -2
100
AcDbLine
 10
853.2765439111072
 20
2137.850634761487
 30
0.0
 11
760.9587596545473
 21
2137.850634761487
 31
0.0
  0
LINE
  5
1A27
330
11FA
100
AcDbEntity
  8
P-7064
  6
Continuous
 62
     2
370
    -2
100
AcDbLine
 10
893.7765439090044
 20
2137.850634761487
 30
0.0
 11
873.2765439111071
 21
2137.850634761487
 31
0.0
  0
SOLID
  5
1A28
330
11FA
100
AcDbEntity
  8
P-7064
  6
Continuous
 62
     2
100
AcDbTrace
 10
913.7765439090044
 20
2141.18396809482
 30
0.0
 11
913.7765439090044
 21
2134.517301428153
 31
0.0
 12
893.7765439090044
 22
2137.850634761487
 32
0.0
 13
893.7765439090044
 23
2137.850634761487
 33
0.0
  0
SOLID
  5
1A29
330
11FA
100
AcDbEntity
  8
P-7064
  6
Continuous
 62
     2
100
AcDbTrace
 10
853.2765439111072
 20
2141.18396809482
 30
0.0
 11
853.2765439111072
 21
2134.517301428153
 31
0.0
 12
873.2765439111071
 22
2137.850634761487
 32
0.0
 13
873.2765439111071
 23
2137.850634761487
 33
0.0
  0
MTEXT
  5
1A2A
330
11FA
100
AcDbEntity
  8
P-7064
  6
Continuous
 62
     1
100
AcDbMText
 10
797.1176517828273
 20
2158.076582283352
 30
0.0
 40
20.0
 41
0.0
 71
     5
 72
     1
  1
\A1;2.05
  7
Stile_Quota
 73
     1
 44
1.0
1001
ACAD
1000
MTEXTBEGIN
1070
    73
1070
     1
1070
    44
1040
1.0
1070
    74
1070
     0
1000
MTEXTEND
  0
POINT
  5
1A2B
330
11FA
100
AcDbEntity
  8
Defpoints
  6
Continuous
 62
     0
100
AcDbPoint
 10
893.7765439090044
 20
2382.647572911524
 30
0.0
  0
POINT
  5
1A2C
330
11FA
100
AcDbEntity
  8
Defpoints
  6
Continuous
 62
     0
100
AcDbPoint
 10
873.2765439111071
 20
2385.147572911324
 30
0.0
  0
POINT
  5
1A2D
330
11FA
100
AcDbEntity
  8
Defpoints
  6
Continuous
 62
     0
100
AcDbPoint
 10
873.2765439111071
 20
2137.850634761487
 30
0.0
  0
ENDBLK
  5
11FC
330
11FA
100
AcDbEntity
  8
0
 62
     3
100
AcDbBlockEnd
  0
BLOCK
  5
1217
330
1216
100
AcDbEntity
  8
0
 62
     3
100
AcDbBlockBegin
  2
*D9
 70
     1
 10
0.0
 20
0.0
 30
0.0
  3
*D9
  1

  0
LINE
  5
1A2E
330
1216
100
AcDbEntity
  8
P-7064
  6
Continuous
 62
     2
370
    -2
100
AcDbLine
 10
893.7765439090044
 20
2372.647572911524
 30
0.0
 11
893.7765439090044
 21
2122.850634761487
 31
0.0
  0
LINE
  5
1A2F
330
1216
100
AcDbEntity
  8
P-7064
  6
Continuous
 62
     2
370
    -2
100
AcDbLine
 10
1102.776543888206
 20
2372.647572911524
 30
0.0
 11
1102.776543888206
 21
2122.850634761487
 31
0.0
  0
LINE
  5
1A30
330
1216
100
AcDbEntity
  8
P-7064
  6
Continuous
 62
     2
370
    -2
100
AcDbLine
 10
913.7765439090044
 20
2137.850634761487
 30
0.0
 11
1082.776543888206
 21
2137.850634761487
 31
0.0
  0
SOLID
  5
1A31
330
1216
100
AcDbEntity
  8
P-7064
  6
Continuous
 62
     2
100
AcDbTrace
 10
913.7765439090044
 20
2141.18396809482
 30
0.0
 11
913.7765439090044
 21
2134.517301428153
 31
0.0
 12
893.7765439090044
 22
2137.850634761487
 32
0.0
 13
893.7765439090044
 23
2137.850634761487
 33
0.0
  0
SOLID
  5
1A32
330
1216
100
AcDbEntity
  8
P-7064
  6
Continuous
 62
     2
100
AcDbTrace
 10
1082.776543888206
 20
2141.18396809482
 30
0.0
 11
1082.776543888206
 21
2134.517301428153
 31
0.0
 12
1102.776543888206
 22
2137.850634761487
 32
0.0
 13
1102.776543888206
 23
2137.850634761487
 33
0.0
  0
MTEXT
  5
1A33
330
1216
100
AcDbEntity
  8
P-7064
  6
Continuous
 62
     1
100
AcDbMText
 10
998.2765438986053
 20
2158.08387091309
 30
0.0
 40
20.0
 41
0.0
 71
     5
 72
     1
  1
\A1;20.9
  7
Stile_Quota
 73
     1
 44
1.0
1001
ACAD
1000
MTEXTBEGIN
1070
    73
1070
     1
1070
    44
1040
1.0
1070
    74
1070
     0
1000
MTEXTEND
  0
POINT
  5
1A34
330
1216
100
AcDbEntity
  8
Defpoints
  6
Continuous
 62
     0
100
AcDbPoint
 10
893.7765439090044
 20
2382.647572911524
 30
0.0
  0
POINT
  5
1A35
330
1216
100
AcDbEntity
  8
Defpoints
  6
Continuous
 62
     0
100
AcDbPoint
 10
1102.776543888206
 20
2382.647572911524
 30
0.0
  0
POINT
  5
1A36
330
1216
100
AcDbEntity
  8
Defpoints
  6
Continuous
 62
     0
100
AcDbPoint
 10
1102.776543888206
 20
2137.850634761487
 30
0.0
  0
ENDBLK
  5
1218
330
1216
100
AcDbEntity
  8
0
 62
     3
100
AcDbBlockEnd
  0
BLOCK
  5
122F
330
122E
100
AcDbEntity
  8
0
 62
     3
100
AcDbBlockBegin
  2
*D10
 70
     1
 10
0.0
 20
0.0
 30
0.0
  3
*D10
  1

  0
LINE
  5
1A37
330
122E
100
AcDbEntity
  8
P-7064
  6
Continuous
 62
     2
370
    -2
100
AcDbLine
 10
1102.776543888206
 20
2372.647572911524
 30
0.0
 11
1102.776543888206
 21
2123.350634761487
 31
0.0
  0
LINE
  5
1A38
330
122E
100
AcDbEntity
  8
P-7064
  6
Continuous
 62
     2
370
    -2
100
AcDbLine
 10
1123.276543886107
 20
2357.218640724984
 30
0.0
 11
1123.276543886107
 21
2123.350634761487
 31
0.0
  0
LINE
  5
1A39
330
122E
100
AcDbEntity
  8
P-7064
  6
Continuous
 62
     2
370
    -2
100
AcDbLine
 10
1082.776543888206
 20
2138.350634761486
 30
0.0
 11
1062.776543888206
 21
2138.350634761486
 31
0.0
  0
LINE
  5
1A3A
330
122E
100
AcDbEntity
  8
P-7064
  6
Continuous
 62
     2
370
    -2
100
AcDbLine
 10
1143.276543886107
 20
2138.350634761486
 30
0.0
 11
1235.594328142666
 21
2138.350634761486
 31
0.0
  0
LINE
  5
1A3B
330
122E
100
AcDbEntity
  8
P-7064
  6
Continuous
 62
     2
370
    -2
100
AcDbLine
 10
1102.776543888206
 20
2138.350634761486
 30
0.0
 11
1123.276543886107
 21
2138.350634761486
 31
0.0
  0
SOLID
  5
1A3C
330
122E
100
AcDbEntity
  8
P-7064
  6
Continuous
 62
     2
100
AcDbTrace
 10
1082.776543888206
 20
2141.68396809482
 30
0.0
 11
1082.776543888206
 21
2135.017301428153
 31
0.0
 12
1102.776543888206
 22
2138.350634761486
 32
0.0
 13
1102.776543888206
 23
2138.350634761486
 33
0.0
  0
SOLID
  5
1A3D
330
122E
100
AcDbEntity
  8
P-7064
  6
Continuous
 62
     2
100
AcDbTrace
 10
1143.276543886107
 20
2141.68396809482
 30
0.0
 11
1143.276543886107
 21
2135.017301428153
 31
0.0
 12
1123.276543886107
 22
2138.350634761486
 32
0.0
 13
1123.276543886107
 23
2138.350634761486
 33
0.0
  0
MTEXT
  5
1A3E
330
122E
100
AcDbEntity
  8
P-7064
  6
Continuous
 62
     1
100
AcDbMText
 10
1199.435436014387
 20
2158.576582283352
 30
0.0
 40
20.0
 41
0.0
 71
     5
 72
     1
  1
\A1;2.05
  7
Stile_Quota
 73
     1
 44
1.0
1001
ACAD
1000
MTEXTBEGIN
1070
    73
1070
     1
1070
    44
1040
1.0
1070
    74
1070
     0
1000
MTEXTEND
  0
POINT
  5
1A3F
330
122E
100
AcDbEntity
  8
Defpoints
  6
Continuous
 62
     0
100
AcDbPoint
 10
1102.776543888206
 20
2382.647572911524
 30
0.0
  0
POINT
  5
1A40
330
122E
100
AcDbEntity
  8
Defpoints
  6
Continuous
 62
     0
100
AcDbPoint
 10
1123.276543886107
 20
2367.218640724984
 30
0.0
  0
POINT
  5
1A41
330
122E
100
AcDbEntity
  8
Defpoints
  6
Continuous
 62
     0
100
AcDbPoint
 10
1123.276543886107
 20
2138.350634761486
 30
0.0
  0
ENDBLK
  5
1230
330
122E
100
AcDbEntity
  8
0
 62
     3
100
AcDbBlockEnd
  0
BLOCK
  5
124B
330
124A
100
AcDbEntity
  8
0
 62
     3
100
AcDbBlockBegin
  2
*D11
 70
     1
 10
0.0
 20
0.0
 30
0.0
  3
*D11
  1

  0
LINE
  5
1A42
330
124A
100
AcDbEntity
  8
P-7064
  6
Continuous
 62
     2
370
    -2
100
AcDbLine
 10
954.2765439030054
 20
2367.647572912022
 30
0.0
 11
954.2765439030054
 21
2177.541555807076
 31
0.0
  0
LINE
  5
1A43
330
124A
100
AcDbEntity
  8
P-7064
  6
Continuous
 62
     2
370
    -2
100
AcDbLine
 10
893.7765439090044
 20
2372.647572911524
 30
0.0
 11
893.7765439090044
 21
2177.541555807076
 31
0.0
  0
LINE
  5
1A44
330
124A
100
AcDbEntity
  8
P-7064
  6
Continuous
 62
     2
370
    -2
100
AcDbLine
 10
974.2765439030053
 20
2192.541555807075
 30
0.0
 11
994.2765439030054
 21
2192.541555807075
 31
0.0
  0
LINE
  5
1A45
330
124A
100
AcDbEntity
  8
P-7064
  6
Continuous
 62
     2
370
    -2
100
AcDbLine
 10
873.7765439090043
 20
2192.541555807075
 30
0.0
 11
782.2605089235817
 21
2192.541555807075
 31
0.0
  0
LINE
  5
1A46
330
124A
100
AcDbEntity
  8
P-7064
  6
Continuous
 62
     2
370
    -2
100
AcDbLine
 10
954.2765439030054
 20
2192.541555807075
 30
0.0
 11
893.7765439090044
 21
2192.541555807075
 31
0.0
  0
SOLID
  5
1A47
330
124A
100
AcDbEntity
  8
P-7064
  6
Continuous
 62
     2
100
AcDbTrace
 10
974.2765439030053
 20
2195.874889140409
 30
0.0
 11
974.2765439030053
 21
2189.208222473742
 31
0.0
 12
954.2765439030054
 22
2192.541555807075
 32
0.0
 13
954.2765439030054
 23
2192.541555807075
 33
0.0
  0
SOLID
  5
1A48
330
124A
100
AcDbEntity
  8
P-7064
  6
Continuous
 62
     2
100
AcDbTrace
 10
873.7765439090043
 20
2195.874889140409
 30
0.0
 11
873.7765439090043
 21
2189.208222473742
 31
0.0
 12
893.7765439090044
 22
2192.541555807075
 32
0.0
 13
893.7765439090044
 23
2192.541555807075
 33
0.0
  0
MTEXT
  5
1A49
330
124A
100
AcDbEntity
  8
P-7064
  6
Continuous
 62
     1
100
AcDbMText
 10
818.0185264162931
 20
2212.767503328941
 30
0.0
 40
20.0
 41
0.0
 71
     5
 72
     1
  1
\A1;6.05
  7
Stile_Quota
 73
     1
 44
1.0
1001
ACAD
1000
MTEXTBEGIN
1070
    73
1070
     1
1070
    44
1040
1.0
1070
    74
1070
     0
1000
MTEXTEND
  0
POINT
  5
1A4A
330
124A
100
AcDbEntity
  8
Defpoints
  6
Continuous
 62
     0
100
AcDbPoint
 10
954.2765439030054
 20
2377.647572912022
 30
0.0
  0
POINT
  5
1A4B
330
124A
100
AcDbEntity
  8
Defpoints
  6
Continuous
 62
     0
100
AcDbPoint
 10
893.7765439090044
 20
2382.647572911524
 30
0.0
  0
POINT
  5
1A4C
330
124A
100
AcDbEntity
  8
Defpoints
  6
Continuous
 62
     0
100
AcDbPoint
 10
893.7765439090044
 20
2192.541555807075
 30
0.0
  0
ENDBLK
  5
124C
330
124A
100
AcDbEntity
  8
0
 62
     3
100
AcDbBlockEnd
  0
BLOCK
  5
1267
330
1266
100
AcDbEntity
  8
0
 62
     3
100
AcDbBlockBegin
  2
*D12
 70
     1
 10
0.0
 20
0.0
 30
0.0
  3
*D12
  1

  0
LINE
  5
1A4D
330
1266
100
AcDbEntity
  8
P-7064
  6
Continuous
 62
     2
370
    -2
100
AcDbLine
 10
954.2765439030054
 20
2367.647572912022
 30
0.0
 11
954.2765439030054
 21
2177.541555807076
 31
0.0
  0
LINE
  5
1A4E
330
1266
100
AcDbEntity
  8
P-7064
  6
Continuous
 62
     2
370
    -2
100
AcDbLine
 10
979.276543900506
 20
2367.647572912022
 30
0.0
 11
979.276543900506
 21
2177.541555807076
 31
0.0
  0
LINE
  5
1A4F
330
1266
100
AcDbEntity
  8
P-7064
  6
Continuous
 62
     2
370
    -2
100
AcDbLine
 10
934.2765439030054
 20
2192.541555807075
 30
0.0
 11
914.2765439030053
 21
2192.541555807075
 31
0.0
  0
LINE
  5
1A50
330
1266
100
AcDbEntity
  8
P-7064
  6
Continuous
 62
     2
370
    -2
100
AcDbLine
 10
999.2765439005061
 20
2192.541555807075
 30
0.0
 11
1019.276543900506
 21
2192.541555807075
 31
0.0
  0
LINE
  5
1A51
330
1266
100
AcDbEntity
  8
P-7064
  6
Continuous
 62
     2
370
    -2
100
AcDbLine
 10
954.2765439030054
 20
2192.541555807075
 30
0.0
 11
979.276543900506
 21
2192.541555807075
 31
0.0
  0
SOLID
  5
1A52
330
1266
100
AcDbEntity
  8
P-7064
  6
Continuous
 62
     2
100
AcDbTrace
 10
934.2765439030054
 20
2195.874889140409
 30
0.0
 11
934.2765439030054
 21
2189.208222473742
 31
0.0
 12
954.2765439030054
 22
2192.541555807075
 32
0.0
 13
954.2765439030054
 23
2192.541555807075
 33
0.0
  0
SOLID
  5
1A53
330
1266
100
AcDbEntity
  8
P-7064
  6
Continuous
 62
     2
100
AcDbTrace
 10
999.2765439005061
 20
2195.874889140409
 30
0.0
 11
999.2765439005061
 21
2189.208222473742
 31
0.0
 12
979.276543900506
 22
2192.541555807075
 32
0.0
 13
979.276543900506
 23
2192.541555807075
 33
0.0
  0
MTEXT
  5
1A54
330
1266
100
AcDbEntity
  8
P-7064
  6
Continuous
 62
     1
100
AcDbMText
 10
966.7765439017557
 20
2212.767503328941
 30
0.0
 40
20.0
 41
0.0
 71
     5
 72
     1
  1
\A1;2.5
  7
Stile_Quota
 73
     1
 44
1.0
1001
ACAD
1000
MTEXTBEGIN
1070
    73
1070
     1
1070
    44
1040
1.0
1070
    74
1070
     0
1000
MTEXTEND
  0
POINT
  5
1A55
330
1266
100
AcDbEntity
  8
Defpoints
  6
Continuous
 62
     0
100
AcDbPoint
 10
954.2765439030054
 20
2377.647572912022
 30
0.0
  0
POINT
  5
1A56
330
1266
100
AcDbEntity
  8
Defpoints
  6
Continuous
 62
     0
100
AcDbPoint
 10
979.276543900506
 20
2377.647572912022
 30
0.0
  0
POINT
  5
1A57
330
1266
100
AcDbEntity
  8
Defpoints
  6
Continuous
 62
     0
100
AcDbPoint
 10
979.276543900506
 20
2192.541555807075
 30
0.0
  0
ENDBLK
  5
1268
330
1266
100
AcDbEntity
  8
0
 62
     3
100
AcDbBlockEnd
  0
BLOCK
  5
129B
330
129A
100
AcDbEntity
  8
0
 62
     7
100
AcDbBlockBegin
  2
*D13
 70
     1
 10
0.0
 20
0.0
 30
0.0
  3
*D13
  1

  0
LINE
  5
1A58
330
129A
100
AcDbEntity
  8
P-7064
  6
Continuous
 62
     2
370
    -2
100
AcDbLine
 10
1017.276543896704
 20
2368.147572912022
 30
0.0
 11
1017.276543896704
 21
2178.041555807075
 31
0.0
  0
LINE
  5
1A59
330
129A
100
AcDbEntity
  8
P-7064
  6
Continuous
 62
     2
370
    -2
100
AcDbLine
 10
1042.276543894205
 20
2368.147572912022
 30
0.0
 11
1042.276543894205
 21
2178.041555807075
 31
0.0
  0
LINE
  5
1A5A
330
129A
100
AcDbEntity
  8
P-7064
  6
Continuous
 62
     2
370
    -2
100
AcDbLine
 10
997.2765438967044
 20
2193.041555807075
 30
0.0
 11
977.2765438967043
 21
2193.041555807075
 31
0.0
  0
LINE
  5
1A5B
330
129A
100
AcDbEntity
  8
P-7064
  6
Continuous
 62
     2
370
    -2
100
AcDbLine
 10
1062.276543894205
 20
2193.041555807075
 30
0.0
 11
1082.276543894205
 21
2193.041555807075
 31
0.0
  0
LINE
  5
1A5C
330
129A
100
AcDbEntity
  8
P-7064
  6
Continuous
 62
     2
370
    -2
100
AcDbLine
 10
1017.276543896704
 20
2193.041555807075
 30
0.0
 11
1042.276543894205
 21
2193.041555807075
 31
0.0
  0
SOLID
  5
1A5D
330
129A
100
AcDbEntity
  8
P-7064
  6
Continuous
 62
     2
100
AcDbTrace
 10
997.2765438967044
 20
2196.374889140409
 30
0.0
 11
997.2765438967044
 21
2189.708222473742
 31
0.0
 12
1017.276543896704
 22
2193.041555807075
 32
0.0
 13
1017.276543896704
 23
2193.041555807075
 33
0.0
  0
SOLID
  5
1A5E
330
129A
100
AcDbEntity
  8
P-7064
  6
Continuous
 62
     2
100
AcDbTrace
 10
1062.276543894205
 20
2196.374889140409
 30
0.0
 11
1062.276543894205
 21
2189.708222473742
 31
0.0
 12
1042.276543894205
 22
2193.041555807075
 32
0.0
 13
1042.276543894205
 23
2193.041555807075
 33
0.0
  0
MTEXT
  5
1A5F
330
129A
100
AcDbEntity
  8
P-7064
  6
Continuous
 62
     1
100
AcDbMText
 10
1029.776543895454
 20
2213.267503328941
 30
0.0
 40
20.0
 41
0.0
 71
     5
 72
     1
  1
\A1;2.5
  7
Stile_Quota
 73
     1
 44
1.0
1001
ACAD
1000
MTEXTBEGIN
1070
    73
1070
     1
1070
    44
1040
1.0
1070
    74
1070
     0
1000
MTEXTEND
  0
POINT
  5
1A60
330
129A
100
AcDbEntity
  8
Defpoints
  6
Continuous
 62
     0
100
AcDbPoint
 10
1017.276543896704
 20
2378.147572912022
 30
0.0
  0
POINT
  5
1A61
330
129A
100
AcDbEntity
  8
Defpoints
  6
Continuous
 62
     0
100
AcDbPoint
 10
1042.276543894205
 20
2378.147572912022
 30
0.0
  0
POINT
  5
1A62
330
129A
100
AcDbEntity
  8
Defpoints
  6
Continuous
 62
     0
100
AcDbPoint
 10
1042.276543894205
 20
2193.041555807075
 30
0.0
  0
ENDBLK
  5
129C
330
129A
100
AcDbEntity
  8
0
 62
     7
100
AcDbBlockEnd
  0
BLOCK
  5
12B5
330
12B4
100
AcDbEntity
  8
0
 62
     3
100
AcDbBlockBegin
  2
*D14
 70
     1
 10
0.0
 20
0.0
 30
0.0
  3
*D14
  1

  0
LINE
  5
1A63
330
12B4
100
AcDbEntity
  8
P-7064
  6
Continuous
 62
     2
370
    -2
100
AcDbLine
 10
1042.276543894205
 20
2367.647572912022
 30
0.0
 11
1042.276543894205
 21
2177.541555807076
 31
0.0
  0
LINE
  5
1A64
330
12B4
100
AcDbEntity
  8
P-7064
  6
Continuous
 62
     2
370
    -2
100
AcDbLine
 10
1102.776543888206
 20
2372.647572911524
 30
0.0
 11
1102.776543888206
 21
2177.541555807076
 31
0.0
  0
LINE
  5
1A65
330
12B4
100
AcDbEntity
  8
P-7064
  6
Continuous
 62
     2
370
    -2
100
AcDbLine
 10
1022.276543894205
 20
2192.541555807075
 30
0.0
 11
1002.276543894205
 21
2192.541555807075
 31
0.0
  0
LINE
  5
1A66
330
12B4
100
AcDbEntity
  8
P-7064
  6
Continuous
 62
     2
370
    -2
100
AcDbLine
 10
1122.776543888206
 20
2192.541555807075
 30
0.0
 11
1214.292578873629
 21
2192.541555807075
 31
0.0
  0
LINE
  5
1A67
330
12B4
100
AcDbEntity
  8
P-7064
  6
Continuous
 62
     2
370
    -2
100
AcDbLine
 10
1042.276543894205
 20
2192.541555807075
 30
0.0
 11
1102.776543888206
 21
2192.541555807075
 31
0.0
  0
SOLID
  5
1A68
330
12B4
100
AcDbEntity
  8
P-7064
  6
Continuous
 62
     2
100
AcDbTrace
 10
1022.276543894205
 20
2195.874889140409
 30
0.0
 11
1022.276543894205
 21
2189.208222473742
 31
0.0
 12
1042.276543894205
 22
2192.541555807075
 32
0.0
 13
1042.276543894205
 23
2192.541555807075
 33
0.0
  0
SOLID
  5
1A69
330
12B4
100
AcDbEntity
  8
P-7064
  6
Continuous
 62
     2
100
AcDbTrace
 10
1122.776543888206
 20
2195.874889140409
 30
0.0
 11
1122.776543888206
 21
2189.208222473742
 31
0.0
 12
1102.776543888206
 22
2192.541555807075
 32
0.0
 13
1102.776543888206
 23
2192.541555807075
 33
0.0
  0
MTEXT
  5
1A6A
330
12B4
100
AcDbEntity
  8
P-7064
  6
Continuous
 62
     1
100
AcDbMText
 10
1178.534561380917
 20
2212.767503328941
 30
0.0
 40
20.0
 41
0.0
 71
     5
 72
     1
  1
\A1;6.05
  7
Stile_Quota
 73
     1
 44
1.0
1001
ACAD
1000
MTEXTBEGIN
1070
    73
1070
     1
1070
    44
1040
1.0
1070
    74
1070
     0
1000
MTEXTEND
  0
POINT
  5
1A6B
330
12B4
100
AcDbEntity
  8
Defpoints
  6
Continuous
 62
     0
100
AcDbPoint
 10
1042.276543894205
 20
2377.647572912022
 30
0.0
  0
POINT
  5
1A6C
330
12B4
100
AcDbEntity
  8
Defpoints
  6
Continuous
 62
     0
100
AcDbPoint
 10
1102.776543888206
 20
2382.647572911524
 30
0.0
  0
POINT
  5
1A6D
330
12B4
100
AcDbEntity
  8
Defpoints
  6
Continuous
 62
     0
100
AcDbPoint
 10
1102.776543888206
 20
2192.541555807075
 30
0.0
  0
ENDBLK
  5
12B6
330
12B4
100
AcDbEntity
  8
0
 62
     3
100
AcDbBlockEnd
  0
BLOCK
  5
13A2
330
13A1
100
AcDbEntity
  8
0
 62
     3
100
AcDbBlockBegin
  2
*D15
 70
     1
 10
0.0
 20
0.0
 30
0.0
  3
*D15
  1

  0
LINE
  5
209B
330
13A1
100
AcDbEntity
  8
P-7064
  6
Continuous
 62
     2
370
    -2
100
AcDbLine
 10
1228.884897196141
 20
2502.311930763774
 30
0.0
 11
1146.79080254967
 21
2424.593824287916
 31
0.0
  0
LINE
  5
209C
330
13A1
100
AcDbEntity
  8
P-7064
  6
Continuous
 62
     2
370
    -2
100
AcDbLine
 10
1245.224321449581
 20
2517.780389479977
 30
0.0
 11
1243.408829866026
 21
2516.061671844996
 31
0.0
  0
SOLID
  5
209D
330
13A1
100
AcDbEntity
  8
P-7064
  6
Continuous
 62
     2
100
AcDbTrace
 10
1226.593273682604
 20
2504.732586208755
 30
0.0
 11
1231.176520709678
 21
2499.891275318793
 31
0.0
 12
1243.408829866026
 22
2516.061671844996
 32
0.0
 13
1243.408829866026
 23
2516.061671844996
 33
0.0
  0
MTEXT
  5
209E
330
13A1
100
AcDbEntity
  8
P-7064
  6
Continuous
 62
     1
100
AcDbMText
 10
1166.670806460562
 20
2471.266021984844
 30
0.0
 40
20.0
 41
0.0
 71
     5
 72
     1
  1
\A1;R0.25
  7
Stile_Quota
 11
0.7261966334942495
 21
0.6874870540611066
 31
0.0
 73
     1
 44
1.0
1001
ACAD
1000
MTEXTBEGIN
1070
    73
1070
     1
1070
    44
1040
1.0
1070
    74
1070
     0
1000
MTEXTEND
  0
POINT
  5
209F
330
13A1
100
AcDbEntity
  8
Defpoints
  6
Continuous
 62
     0
100
AcDbPoint
 10
1243.408829866026
 20
2516.061671844996
 30
0.0
  0
POINT
  5
20A0
330
13A1
100
AcDbEntity
  8
Defpoints
  6
Continuous
 62
     0
100
AcDbPoint
 10
1245.224321449581
 20
2517.780389479977
 30
0.0
  0
ENDBLK
  5
13A3
330
13A1
100
AcDbEntity
  8
0
 62
     3
100
AcDbBlockEnd
  0
BLOCK
  5
146D
330
146C
100
AcDbEntity
  8
0
 62
     3
100
AcDbBlockBegin
  2
*D16
 70
     1
 10
0.0
 20
0.0
 30
0.0
  3
*D16
  1

  0
LINE
  5
1A74
330
146C
100
AcDbEntity
  8
P-7064
  6
Continuous
 62
     2
370
    -2
100
AcDbLine
 10
1110.276543888406
 20
2380.647572911724
 30
0.0
 11
1503.037718840522
 21
2380.647572911724
 31
0.0
  0
LINE
  5
1A75
330
146C
100
AcDbEntity
  8
P-7064
  6
Continuous
 62
     2
370
    -2
100
AcDbLine
 10
1198.276543879606
 20
2360.147572913826
 30
0.0
 11
1503.037718840522
 21
2360.147572913826
 31
0.0
  0
LINE
  5
1A76
330
146C
100
AcDbEntity
  8
P-7064
  6
Continuous
 62
     2
370
    -2
100
AcDbLine
 10
1488.037718840522
 20
2400.647572911724
 30
0.0
 11
1488.037718840522
 21
2420.647572911724
 31
0.0
  0
LINE
  5
1A77
330
146C
100
AcDbEntity
  8
P-7064
  6
Continuous
 62
     2
370
    -2
100
AcDbLine
 10
1488.037718840522
 20
2340.147572913826
 30
0.0
 11
1488.037718840522
 21
2247.829788657266
 31
0.0
  0
LINE
  5
1A78
330
146C
100
AcDbEntity
  8
P-7064
  6
Continuous
 62
     2
370
    -2
100
AcDbLine
 10
1488.037718840522
 20
2380.647572911724
 30
0.0
 11
1488.037718840522
 21
2360.147572913826
 31
0.0
  0
SOLID
  5
1A79
330
146C
100
AcDbEntity
  8
P-7064
  6
Continuous
 62
     2
100
AcDbTrace
 10
1484.704385507188
 20
2400.647572911724
 30
0.0
 11
1491.371052173855
 21
2400.647572911724
 31
0.0
 12
1488.037718840522
 22
2380.647572911724
 32
0.0
 13
1488.037718840522
 23
2380.647572911724
 33
0.0
  0
SOLID
  5
1A7A
330
146C
100
AcDbEntity
  8
P-7064
  6
Continuous
 62
     2
100
AcDbTrace
 10
1484.704385507188
 20
2340.147572913826
 30
0.0
 11
1491.371052173855
 21
2340.147572913826
 31
0.0
 12
1488.037718840522
 22
2360.147572913826
 32
0.0
 13
1488.037718840522
 23
2360.147572913826
 33
0.0
  0
MTEXT
  5
1A7B
330
146C
100
AcDbEntity
  8
P-7064
  6
Continuous
 62
     1
100
AcDbMText
 10
1467.811771318656
 20
2283.988680785546
 30
0.0
 40
20.0
 41
0.0
 71
     5
 72
     1
  1
\A1;2.05
  7
Stile_Quota
 11
0.0000000000000001
 21
1.0
 31
0.0
 73
     1
 44
1.0
1001
ACAD
1000
MTEXTBEGIN
1070
    73
1070
     1
1070
    44
1040
1.0
1070
    74
1070
     0
1000
MTEXTEND
  0
POINT
  5
1A7C
330
146C
100
AcDbEntity
  8
Defpoints
  6
Continuous
 62
     0
100
AcDbPoint
 10
1100.276543888406
 20
2380.647572911724
 30
0.0
  0
POINT
  5
1A7D
330
146C
100
AcDbEntity
  8
Defpoints
  6
Continuous
 62
     0
100
AcDbPoint
 10
1188.276543879606
 20
2360.147572913826
 30
0.0
  0
POINT
  5
1A7E
330
146C
100
AcDbEntity
  8
Defpoints
  6
Continuous
 62
     0
100
AcDbPoint
 10
1488.037718840522
 20
2360.147572913826
 30
0.0
  0
ENDBLK
  5
146E
330
146C
100
AcDbEntity
  8
0
 62
     3
100
AcDbBlockEnd
  0
BLOCK
  5
1489
330
1488
100
AcDbEntity
  8
0
 62
     3
100
AcDbBlockBegin
  2
*D17
 70
     1
 10
0.0
 20
0.0
 30
0.0
  3
*D17
  1

  0
LINE
  5
1A7F
330
1488
100
AcDbEntity
  8
P-7064
  6
Continuous
 62
     2
370
    -2
100
AcDbLine
 10
1110.276543888406
 20
2380.647572911724
 30
0.0
 11
1503.037718840521
 21
2380.647572911724
 31
0.0
  0
LINE
  5
1A80
330
1488
100
AcDbEntity
  8
P-7064
  6
Continuous
 62
     2
370
    -2
100
AcDbLine
 10
1110.276543888406
 20
2589.647572890926
 30
0.0
 11
1503.037718840522
 21
2589.647572890926
 31
0.0
  0
LINE
  5
1A81
330
1488
100
AcDbEntity
  8
P-7064
  6
Continuous
 62
     2
370
    -2
100
AcDbLine
 10
1488.037718840521
 20
2400.647572911724
 30
0.0
 11
1488.037718840522
 21
2569.647572890926
 31
0.0
  0
SOLID
  5
1A82
330
1488
100
AcDbEntity
  8
P-7064
  6
Continuous
 62
     2
100
AcDbTrace
 10
1484.704385507188
 20
2400.647572911724
 30
0.0
 11
1491.371052173855
 21
2400.647572911724
 31
0.0
 12
1488.037718840521
 22
2380.647572911724
 32
0.0
 13
1488.037718840521
 23
2380.647572911724
 33
0.0
  0
SOLID
  5
1A83
330
1488
100
AcDbEntity
  8
P-7064
  6
Continuous
 62
     2
100
AcDbTrace
 10
1484.704385507188
 20
2569.647572890926
 30
0.0
 11
1491.371052173855
 21
2569.647572890926
 31
0.0
 12
1488.037718840522
 22
2589.647572890926
 32
0.0
 13
1488.037718840522
 23
2589.647572890926
 33
0.0
  0
MTEXT
  5
1A84
330
1488
100
AcDbEntity
  8
P-7064
  6
Continuous
 62
     1
100
AcDbMText
 10
1467.804482688918
 20
2485.147572901325
 30
0.0
 40
20.0
 41
0.0
 71
     5
 72
     1
  1
\A1;20.9
  7
Stile_Quota
 11
0.0000000000000001
 21
1.0
 31
0.0
 73
     1
 44
1.0
1001
ACAD
1000
MTEXTBEGIN
1070
    73
1070
     1
1070
    44
1040
1.0
1070
    74
1070
     0
1000
MTEXTEND
  0
POINT
  5
1A85
330
1488
100
AcDbEntity
  8
Defpoints
  6
Continuous
 62
     0
100
AcDbPoint
 10
1100.276543888406
 20
2380.647572911724
 30
0.0
  0
POINT
  5
1A86
330
1488
100
AcDbEntity
  8
Defpoints
  6
Continuous
 62
     0
100
AcDbPoint
 10
1100.276543888406
 20
2589.647572890926
 30
0.0
  0
POINT
  5
1A87
330
1488
100
AcDbEntity
  8
Defpoints
  6
Continuous
 62
     0
100
AcDbPoint
 10
1488.037718840522
 20
2589.647572890926
 30
0.0
  0
ENDBLK
  5
148A
330
1488
100
AcDbEntity
  8
0
 62
     3
100
AcDbBlockEnd
  0
BLOCK
  5
14A1
330
14A0
100
AcDbEntity
  8
0
 62
     3
100
AcDbBlockBegin
  2
*D18
 70
     1
 10
0.0
 20
0.0
 30
0.0
  3
*D18
  1

  0
LINE
  5
1A88
330
14A0
100
AcDbEntity
  8
P-7064
  6
Continuous
 62
     2
370
    -2
100
AcDbLine
 10
1110.276543888406
 20
2589.647572890926
 30
0.0
 11
1503.037718840522
 21
2589.647572890926
 31
0.0
  0
LINE
  5
1A89
330
14A0
100
AcDbEntity
  8
P-7064
  6
Continuous
 62
     2
370
    -2
100
AcDbLine
 10
1083.172331973937
 20
2610.147572888823
 30
0.0
 11
1503.037718840522
 21
2610.147572888823
 31
0.0
  0
LINE
  5
1A8A
330
14A0
100
AcDbEntity
  8
P-7064
  6
Continuous
 62
     2
370
    -2
100
AcDbLine
 10
1488.037718840522
 20
2569.647572890926
 30
0.0
 11
1488.037718840521
 21
2549.647572890926
 31
0.0
  0
LINE
  5
1A8B
330
14A0
100
AcDbEntity
  8
P-7064
  6
Continuous
 62
     2
370
    -2
100
AcDbLine
 10
1488.037718840522
 20
2630.147572888823
 30
0.0
 11
1488.037718840522
 21
2722.465357145383
 31
0.0
  0
LINE
  5
1A8C
330
14A0
100
AcDbEntity
  8
P-7064
  6
Continuous
 62
     2
370
    -2
100
AcDbLine
 10
1488.037718840522
 20
2589.647572890926
 30
0.0
 11
1488.037718840522
 21
2610.147572888823
 31
0.0
  0
SOLID
  5
1A8D
330
14A0
100
AcDbEntity
  8
P-7064
  6
Continuous
 62
     2
100
AcDbTrace
 10
1484.704385507188
 20
2569.647572890926
 30
0.0
 11
1491.371052173855
 21
2569.647572890926
 31
0.0
 12
1488.037718840522
 22
2589.647572890926
 32
0.0
 13
1488.037718840522
 23
2589.647572890926
 33
0.0
  0
SOLID
  5
1A8E
330
14A0
100
AcDbEntity
  8
P-7064
  6
Continuous
 62
     2
100
AcDbTrace
 10
1484.704385507188
 20
2630.147572888823
 30
0.0
 11
1491.371052173855
 21
2630.147572888823
 31
0.0
 12
1488.037718840522
 22
2610.147572888823
 32
0.0
 13
1488.037718840522
 23
2610.147572888823
 33
0.0
  0
MTEXT
  5
1A8F
330
14A0
100
AcDbEntity
  8
P-7064
  6
Continuous
 62
     1
100
AcDbMText
 10
1467.811771318655
 20
2686.306465017104
 30
0.0
 40
20.0
 41
0.0
 71
     5
 72
     1
  1
\A1;2.05
  7
Stile_Quota
 11
0.0000000000000001
 21
1.0
 31
0.0
 73
     1
 44
1.0
1001
ACAD
1000
MTEXTBEGIN
1070
    73
1070
     1
1070
    44
1040
1.0
1070
    74
1070
     0
1000
MTEXTEND
  0
POINT
  5
1A90
330
14A0
100
AcDbEntity
  8
Defpoints
  6
Continuous
 62
     0
100
AcDbPoint
 10
1100.276543888406
 20
2589.647572890926
 30
0.0
  0
POINT
  5
1A91
330
14A0
100
AcDbEntity
  8
Defpoints
  6
Continuous
 62
     0
100
AcDbPoint
 10
1073.172331973937
 20
2610.147572888823
 30
0.0
  0
POINT
  5
1A92
330
14A0
100
AcDbEntity
  8
Defpoints
  6
Continuous
 62
     0
100
AcDbPoint
 10
1488.037718840522
 20
2610.147572888823
 30
0.0
  0
ENDBLK
  5
14A2
330
14A0
100
AcDbEntity
  8
0
 62
     3
100
AcDbBlockEnd
  0
BLOCK
  5
14BD
330
14BC
100
AcDbEntity
  8
0
 62
     3
100
AcDbBlockBegin
  2
*D19
 70
     1
 10
0.0
 20
0.0
 30
0.0
  3
*D19
  1

  0
LINE
  5
1A93
330
14BC
100
AcDbEntity
  8
P-7064
  6
Continuous
 62
     2
370
    -2
100
AcDbLine
 10
1115.776543887904
 20
2440.647572905725
 30
0.0
 11
1436.933153282938
 21
2440.647572905725
 31
0.0
  0
LINE
  5
1A94
330
14BC
100
AcDbEntity
  8
P-7064
  6
Continuous
 62
     2
370
    -2
100
AcDbLine
 10
1110.276543888406
 20
2380.647572911724
 30
0.0
 11
1436.933153282938
 21
2380.647572911724
 31
0.0
  0
LINE
  5
1A95
330
14BC
100
AcDbEntity
  8
P-7064
  6
Continuous
 62
     2
370
    -2
100
AcDbLine
 10
1421.933153282938
 20
2460.647572905725
 30
0.0
 11
1421.933153282938
 21
2480.647572905725
 31
0.0
  0
LINE
  5
1A96
330
14BC
100
AcDbEntity
  8
P-7064
  6
Continuous
 62
     2
370
    -2
100
AcDbLine
 10
1421.933153282938
 20
2360.647572911724
 30
0.0
 11
1421.933153282938
 21
2307.965357168283
 31
0.0
  0
LINE
  5
1A97
330
14BC
100
AcDbEntity
  8
P-7064
  6
Continuous
 62
     2
370
    -2
100
AcDbLine
 10
1421.933153282938
 20
2440.647572905725
 30
0.0
 11
1421.933153282938
 21
2380.647572911724
 31
0.0
  0
SOLID
  5
1A98
330
14BC
100
AcDbEntity
  8
P-7064
  6
Continuous
 62
     2
100
AcDbTrace
 10
1418.599819949605
 20
2460.647572905725
 30
0.0
 11
1425.266486616271
 21
2460.647572905725
 31
0.0
 12
1421.933153282938
 22
2440.647572905725
 32
0.0
 13
1421.933153282938
 23
2440.647572905725
 33
0.0
  0
SOLID
  5
1A99
330
14BC
100
AcDbEntity
  8
P-7064
  6
Continuous
 62
     2
100
AcDbTrace
 10
1418.599819949605
 20
2360.647572911724
 30
0.0
 11
1425.266486616271
 21
2360.647572911724
 31
0.0
 12
1421.933153282938
 22
2380.647572911724
 32
0.0
 13
1421.933153282938
 23
2380.647572911724
 33
0.0
  0
MTEXT
  5
1A9A
330
14BC
100
AcDbEntity
  8
P-7064
  6
Continuous
 62
     1
100
AcDbMText
 10
1401.707205761072
 20
2324.306465040004
 30
0.0
 40
20.0
 41
0.0
 71
     5
 72
     1
  1
\A1;6
  7
Stile_Quota
 11
0.0000000000000001
 21
1.0
 31
0.0
 73
     1
 44
1.0
1001
ACAD
1000
MTEXTBEGIN
1070
    73
1070
     1
1070
    44
1040
1.0
1070
    74
1070
     0
1000
MTEXTEND
  0
POINT
  5
1A9B
330
14BC
100
AcDbEntity
  8
Defpoints
  6
Continuous
 62
     0
100
AcDbPoint
 10
1105.776543887904
 20
2440.647572905725
 30
0.0
  0
POINT
  5
1A9C
330
14BC
100
AcDbEntity
  8
Defpoints
  6
Continuous
 62
     0
100
AcDbPoint
 10
1100.276543888406
 20
2380.647572911724
 30
0.0
  0
POINT
  5
1A9D
330
14BC
100
AcDbEntity
  8
Defpoints
  6
Continuous
 62
     0
100
AcDbPoint
 10
1421.933153282938
 20
2380.647572911724
 30
0.0
  0
ENDBLK
  5
14BE
330
14BC
100
AcDbEntity
  8
0
 62
     3
100
AcDbBlockEnd
  0
BLOCK
  5
14EF
330
14EE
100
AcDbEntity
  8
0
 62
     3
100
AcDbBlockBegin
  2
*D20
 70
     1
 10
0.0
 20
0.0
 30
0.0
  3
*D20
  1

  0
LINE
  5
1A9E
330
14EE
100
AcDbEntity
  8
P-7064
  6
Continuous
 62
     2
370
    -2
100
AcDbLine
 10
1115.776543887904
 20
2440.647572905725
 30
0.0
 11
1436.933153282938
 21
2440.647572905725
 31
0.0
  0
LINE
  5
1A9F
330
14EE
100
AcDbEntity
  8
P-7064
  6
Continuous
 62
     2
370
    -2
100
AcDbLine
 10
1115.776543887904
 20
2465.647572903226
 30
0.0
 11
1436.933153282938
 21
2465.647572903226
 31
0.0
  0
LINE
  5
1AA0
330
14EE
100
AcDbEntity
  8
P-7064
  6
Continuous
 62
     2
370
    -2
100
AcDbLine
 10
1421.933153282938
 20
2420.647572905725
 30
0.0
 11
1421.933153282938
 21
2400.647572905725
 31
0.0
  0
LINE
  5
1AA1
330
14EE
100
AcDbEntity
  8
P-7064
  6
Continuous
 62
     2
370
    -2
100
AcDbLine
 10
1421.933153282938
 20
2485.647572903225
 30
0.0
 11
1421.933153282938
 21
2505.647572903225
 31
0.0
  0
LINE
  5
1AA2
330
14EE
100
AcDbEntity
  8
P-7064
  6
Continuous
 62
     2
370
    -2
100
AcDbLine
 10
1421.933153282938
 20
2440.647572905725
 30
0.0
 11
1421.933153282938
 21
2465.647572903226
 31
0.0
  0
SOLID
  5
1AA3
330
14EE
100
AcDbEntity
  8
P-7064
  6
Continuous
 62
     2
100
AcDbTrace
 10
1418.599819949605
 20
2420.647572905725
 30
0.0
 11
1425.266486616271
 21
2420.647572905725
 31
0.0
 12
1421.933153282938
 22
2440.647572905725
 32
0.0
 13
1421.933153282938
 23
2440.647572905725
 33
0.0
  0
SOLID
  5
1AA4
330
14EE
100
AcDbEntity
  8
P-7064
  6
Continuous
 62
     2
100
AcDbTrace
 10
1418.599819949605
 20
2485.647572903225
 30
0.0
 11
1425.266486616271
 21
2485.647572903225
 31
0.0
 12
1421.933153282938
 22
2465.647572903226
 32
0.0
 13
1421.933153282938
 23
2465.647572903226
 33
0.0
  0
MTEXT
  5
1AA5
330
14EE
100
AcDbEntity
  8
P-7064
  6
Continuous
 62
     1
100
AcDbMText
 10
1401.707205761072
 20
2453.147572904476
 30
0.0
 40
20.0
 41
0.0
 71
     5
 72
     1
  1
\A1;2.5
  7
Stile_Quota
 11
0.0000000000000001
 21
1.0
 31
0.0
 73
     1
 44
1.0
1001
ACAD
1000
MTEXTBEGIN
1070
    73
1070
     1
1070
    44
1040
1.0
1070
    74
1070
     0
1000
MTEXTEND
  0
POINT
  5
1AA6
330
14EE
100
AcDbEntity
  8
Defpoints
  6
Continuous
 62
     0
100
AcDbPoint
 10
1105.776543887904
 20
2440.647572905725
 30
0.0
  0
POINT
  5
1AA7
330
14EE
100
AcDbEntity
  8
Defpoints
  6
Continuous
 62
     0
100
AcDbPoint
 10
1105.776543887904
 20
2465.647572903226
 30
0.0
  0
POINT
  5
1AA8
330
14EE
100
AcDbEntity
  8
Defpoints
  6
Continuous
 62
     0
100
AcDbPoint
 10
1421.933153282938
 20
2465.647572903226
 30
0.0
  0
ENDBLK
  5
14F0
330
14EE
100
AcDbEntity
  8
0
 62
     3
100
AcDbBlockEnd
  0
BLOCK
  5
1527
330
1526
100
AcDbEntity
  8
0
 62
     3
100
AcDbBlockBegin
  2
*D21
 70
     1
 10
0.0
 20
0.0
 30
0.0
  3
*D21
  1

  0
LINE
  5
1AA9
330
1526
100
AcDbEntity
  8
P-7064
  6
Continuous
 62
     2
370
    -2
100
AcDbLine
 10
1115.776543887904
 20
2529.647572896925
 30
0.0
 11
1436.933153282938
 21
2529.647572896925
 31
0.0
  0
LINE
  5
1AAA
330
1526
100
AcDbEntity
  8
P-7064
  6
Continuous
 62
     2
370
    -2
100
AcDbLine
 10
1110.276543888406
 20
2589.647572890926
 30
0.0
 11
1436.933153282938
 21
2589.647572890926
 31
0.0
  0
LINE
  5
1AAB
330
1526
100
AcDbEntity
  8
P-7064
  6
Continuous
 62
     2
370
    -2
100
AcDbLine
 10
1421.933153282938
 20
2509.647572896925
 30
0.0
 11
1421.933153282938
 21
2489.647572896925
 31
0.0
  0
LINE
  5
1AAC
330
1526
100
AcDbEntity
  8
P-7064
  6
Continuous
 62
     2
370
    -2
100
AcDbLine
 10
1421.933153282938
 20
2609.647572890926
 30
0.0
 11
1421.933153282938
 21
2662.329788634366
 31
0.0
  0
LINE
  5
1AAD
330
1526
100
AcDbEntity
  8
P-7064
  6
Continuous
 62
     2
370
    -2
100
AcDbLine
 10
1421.933153282938
 20
2529.647572896925
 30
0.0
 11
1421.933153282938
 21
2589.647572890926
 31
0.0
  0
SOLID
  5
1AAE
330
1526
100
AcDbEntity
  8
P-7064
  6
Continuous
 62
     2
100
AcDbTrace
 10
1418.599819949605
 20
2509.647572896925
 30
0.0
 11
1425.266486616271
 21
2509.647572896925
 31
0.0
 12
1421.933153282938
 22
2529.647572896925
 32
0.0
 13
1421.933153282938
 23
2529.647572896925
 33
0.0
  0
SOLID
  5
1AAF
330
1526
100
AcDbEntity
  8
P-7064
  6
Continuous
 62
     2
100
AcDbTrace
 10
1418.599819949605
 20
2609.647572890926
 30
0.0
 11
1425.266486616271
 21
2609.647572890926
 31
0.0
 12
1421.933153282938
 22
2589.647572890926
 32
0.0
 13
1421.933153282938
 23
2589.647572890926
 33
0.0
  0
MTEXT
  5
1AB0
330
1526
100
AcDbEntity
  8
P-7064
  6
Continuous
 62
     1
100
AcDbMText
 10
1401.707205761072
 20
2645.988680762646
 30
0.0
 40
20.0
 41
0.0
 71
     5
 72
     1
  1
\A1;6
  7
Stile_Quota
 11
0.0000000000000001
 21
1.0
 31
0.0
 73
     1
 44
1.0
1001
ACAD
1000
MTEXTBEGIN
1070
    73
1070
     1
1070
    44
1040
1.0
1070
    74
1070
     0
1000
MTEXTEND
  0
POINT
  5
1AB1
330
1526
100
AcDbEntity
  8
Defpoints
  6
Continuous
 62
     0
100
AcDbPoint
 10
1105.776543887904
 20
2529.647572896925
 30
0.0
  0
POINT
  5
1AB2
330
1526
100
AcDbEntity
  8
Defpoints
  6
Continuous
 62
     0
100
AcDbPoint
 10
1100.276543888406
 20
2589.647572890926
 30
0.0
  0
POINT
  5
1AB3
330
1526
100
AcDbEntity
  8
Defpoints
  6
Continuous
 62
     0
100
AcDbPoint
 10
1421.933153282938
 20
2589.647572890926
 30
0.0
  0
ENDBLK
  5
1528
330
1526
100
AcDbEntity
  8
0
 62
     3
100
AcDbBlockEnd
  0
BLOCK
  5
1592
330
1591
100
AcDbEntity
  8
0
 62
     7
100
AcDbBlockBegin
  2
*D22
 70
     1
 10
0.0
 20
0.0
 30
0.0
  3
*D22
  1

  0
LINE
  5
1AB4
330
1591
100
AcDbEntity
  8
P-7064
  6
Continuous
 62
     2
370
    -2
100
AcDbLine
 10
1115.776543887904
 20
2504.647572899424
 30
0.0
 11
1436.933153282938
 21
2504.647572899424
 31
0.0
  0
LINE
  5
1AB5
330
1591
100
AcDbEntity
  8
P-7064
  6
Continuous
 62
     2
370
    -2
100
AcDbLine
 10
1115.776543887904
 20
2529.647572896925
 30
0.0
 11
1436.933153282938
 21
2529.647572896925
 31
0.0
  0
LINE
  5
1AB6
330
1591
100
AcDbEntity
  8
P-7064
  6
Continuous
 62
     2
370
    -2
100
AcDbLine
 10
1421.933153282938
 20
2484.647572899424
 30
0.0
 11
1421.933153282938
 21
2464.647572899424
 31
0.0
  0
LINE
  5
1AB7
330
1591
100
AcDbEntity
  8
P-7064
  6
Continuous
 62
     2
370
    -2
100
AcDbLine
 10
1421.933153282938
 20
2549.647572896925
 30
0.0
 11
1421.933153282938
 21
2569.647572896924
 31
0.0
  0
LINE
  5
1AB8
330
1591
100
AcDbEntity
  8
P-7064
  6
Continuous
 62
     2
370
    -2
100
AcDbLine
 10
1421.933153282938
 20
2504.647572899424
 30
0.0
 11
1421.933153282938
 21
2529.647572896925
 31
0.0
  0
SOLID
  5
1AB9
330
1591
100
AcDbEntity
  8
P-7064
  6
Continuous
 62
     2
100
AcDbTrace
 10
1418.599819949605
 20
2484.647572899424
 30
0.0
 11
1425.266486616271
 21
2484.647572899424
 31
0.0
 12
1421.933153282938
 22
2504.647572899424
 32
0.0
 13
1421.933153282938
 23
2504.647572899424
 33
0.0
  0
SOLID
  5
1ABA
330
1591
100
AcDbEntity
  8
P-7064
  6
Continuous
 62
     2
100
AcDbTrace
 10
1418.599819949605
 20
2549.647572896925
 30
0.0
 11
1425.266486616271
 21
2549.647572896925
 31
0.0
 12
1421.933153282938
 22
2529.647572896925
 32
0.0
 13
1421.933153282938
 23
2529.647572896925
 33
0.0
  0
MTEXT
  5
1ABB
330
1591
100
AcDbEntity
  8
P-7064
  6
Continuous
 62
     1
100
AcDbMText
 10
1401.707205761072
 20
2517.147572898175
 30
0.0
 40
20.0
 41
0.0
 71
     5
 72
     1
  1
\A1;2.5
  7
Stile_Quota
 11
0.0000000000000001
 21
1.0
 31
0.0
 73
     1
 44
1.0
1001
ACAD
1000
MTEXTBEGIN
1070
    73
1070
     1
1070
    44
1040
1.0
1070
    74
1070
     0
1000
MTEXTEND
  0
POINT
  5
1ABC
330
1591
100
AcDbEntity
  8
Defpoints
  6
Continuous
 62
     0
100
AcDbPoint
 10
1105.776543887904
 20
2504.647572899424
 30
0.0
  0
POINT
  5
1ABD
330
1591
100
AcDbEntity
  8
Defpoints
  6
Continuous
 62
     0
100
AcDbPoint
 10
1105.776543887904
 20
2529.647572896925
 30
0.0
  0
POINT
  5
1ABE
330
1591
100
AcDbEntity
  8
Defpoints
  6
Continuous
 62
     0
100
AcDbPoint
 10
1421.933153282938
 20
2529.647572896925
 30
0.0
  0
ENDBLK
  5
1593
330
1591
100
AcDbEntity
  8
0
 62
     7
100
AcDbBlockEnd
  0
BLOCK
  5
15AC
330
15AB
100
AcDbEntity
  8
0
 62
     3
100
AcDbBlockBegin
  2
*D23
 70
     1
 10
0.0
 20
0.0
 30
0.0
  3
*D23
  1

  0
LINE
  5
1ABF
330
15AB
100
AcDbEntity
  8
P-7064
  6
Continuous
 62
     2
370
    -2
100
AcDbLine
 10
1083.172331973937
 20
2610.147572888823
 30
0.0
 11
1567.692133231374
 21
2610.147572888823
 31
0.0
  0
LINE
  5
1AC0
330
15AB
100
AcDbEntity
  8
P-7064
  6
Continuous
 62
     2
370
    -2
100
AcDbLine
 10
1056.747380475016
 20
2710.147572878822
 30
0.0
 11
1567.692133231374
 21
2710.147572878822
 31
0.0
  0
LINE
  5
1AC1
330
15AB
100
AcDbEntity
  8
P-7064
  6
Continuous
 62
     2
370
    -2
100
AcDbLine
 10
1552.692133231374
 20
2630.147572888823
 30
0.0
 11
1552.692133231374
 21
2690.147572878822
 31
0.0
  0
SOLID
  5
1AC2
330
15AB
100
AcDbEntity
  8
P-7064
  6
Continuous
 62
     2
100
AcDbTrace
 10
1549.358799898041
 20
2630.147572888823
 30
0.0
 11
1556.025466564707
 21
2630.147572888823
 31
0.0
 12
1552.692133231374
 22
2610.147572888823
 32
0.0
 13
1552.692133231374
 23
2610.147572888823
 33
0.0
  0
SOLID
  5
1AC3
330
15AB
100
AcDbEntity
  8
P-7064
  6
Continuous
 62
     2
100
AcDbTrace
 10
1549.358799898041
 20
2690.147572878822
 30
0.0
 11
1556.025466564707
 21
2690.147572878822
 31
0.0
 12
1552.692133231374
 22
2710.147572878822
 32
0.0
 13
1552.692133231374
 23
2710.147572878822
 33
0.0
  0
MTEXT
  5
1AC4
330
15AB
100
AcDbEntity
  8
P-7064
  6
Continuous
 62
     1
100
AcDbMText
 10
1532.466185709508
 20
2660.147572883823
 30
0.0
 40
20.0
 41
0.0
 71
     5
 72
     1
  1
\A1;10
  7
Stile_Quota
 11
0.0000000000000001
 21
1.0
 31
0.0
 73
     1
 44
1.0
1001
ACAD
1000
MTEXTBEGIN
1070
    73
1070
     1
1070
    44
1040
1.0
1070
    74
1070
     0
1000
MTEXTEND
  0
POINT
  5
1AC5
330
15AB
100
AcDbEntity
  8
Defpoints
  6
Continuous
 62
     0
100
AcDbPoint
 10
1073.172331973937
 20
2610.147572888823
 30
0.0
  0
POINT
  5
1AC6
330
15AB
100
AcDbEntity
  8
Defpoints
  6
Continuous
 62
     0
100
AcDbPoint
 10
1046.747380475016
 20
2710.147572878822
 30
0.0
  0
POINT
  5
1AC7
330
15AB
100
AcDbEntity
  8
Defpoints
  6
Continuous
 62
     0
100
AcDbPoint
 10
1552.692133231374
 20
2710.147572878822
 30
0.0
  0
ENDBLK
  5
15AD
330
15AB
100
AcDbEntity
  8
0
 62
     3
100
AcDbBlockEnd
  0
BLOCK
  5
15C4
330
15C3
100
AcDbEntity
  8
0
 62
     3
100
AcDbBlockBegin
  2
*D24
 70
     1
 10
0.0
 20
0.0
 30
0.0
  3
*D24
  1

  0
LINE
  5
1AC8
330
15C3
100
AcDbEntity
  8
P-7064
  6
Continuous
 62
     2
370
    -2
100
AcDbLine
 10
1083.172331973937
 20
2610.147572888823
 30
0.0
 11
1567.692133231374
 21
2610.147572888823
 31
0.0
  0
LINE
  5
1AC9
330
15C3
100
AcDbEntity
  8
P-7064
  6
Continuous
 62
     2
370
    -2
100
AcDbLine
 10
1198.276543879606
 20
2360.147572913827
 30
0.0
 11
1567.692133231374
 21
2360.147572913827
 31
0.0
  0
LINE
  5
1ACA
330
15C3
100
AcDbEntity
  8
P-7064
  6
Continuous
 62
     2
370
    -2
100
AcDbLine
 10
1552.692133231374
 20
2590.147572888823
 30
0.0
 11
1552.692133231374
 21
2380.147572913827
 31
0.0
  0
SOLID
  5
1ACB
330
15C3
100
AcDbEntity
  8
P-7064
  6
Continuous
 62
     2
100
AcDbTrace
 10
1549.358799898041
 20
2590.147572888823
 30
0.0
 11
1556.025466564707
 21
2590.147572888823
 31
0.0
 12
1552.692133231374
 22
2610.147572888823
 32
0.0
 13
1552.692133231374
 23
2610.147572888823
 33
0.0
  0
SOLID
  5
1ACC
330
15C3
100
AcDbEntity
  8
P-7064
  6
Continuous
 62
     2
100
AcDbTrace
 10
1549.358799898041
 20
2380.147572913827
 30
0.0
 11
1556.025466564707
 21
2380.147572913827
 31
0.0
 12
1552.692133231374
 22
2360.147572913827
 32
0.0
 13
1552.692133231374
 23
2360.147572913827
 33
0.0
  0
MTEXT
  5
1ACD
330
15C3
100
AcDbEntity
  8
P-7064
  6
Continuous
 62
     1
100
AcDbMText
 10
1532.466185709508
 20
2485.147572901325
 30
0.0
 40
20.0
 41
0.0
 71
     5
 72
     1
  1
\A1;25
  7
Stile_Quota
 11
0.0000000000000001
 21
1.0
 31
0.0
 73
     1
 44
1.0
1001
ACAD
1000
MTEXTBEGIN
1070
    73
1070
     1
1070
    44
1040
1.0
1070
    74
1070
     0
1000
MTEXTEND
  0
POINT
  5
1ACE
330
15C3
100
AcDbEntity
  8
Defpoints
  6
Continuous
 62
     0
100
AcDbPoint
 10
1073.172331973937
 20
2610.147572888823
 30
0.0
  0
POINT
  5
1ACF
330
15C3
100
AcDbEntity
  8
Defpoints
  6
Continuous
 62
     0
100
AcDbPoint
 10
1188.276543879606
 20
2360.147572913827
 30
0.0
  0
POINT
  5
1AD0
330
15C3
100
AcDbEntity
  8
Defpoints
  6
Continuous
 62
     0
100
AcDbPoint
 10
1552.692133231374
 20
2360.147572913827
 30
0.0
  0
ENDBLK
  5
15C5
330
15C3
100
AcDbEntity
  8
0
 62
     3
100
AcDbBlockEnd
  0
BLOCK
  5
15DC
330
15DB
100
AcDbEntity
  8
0
 62
     3
100
AcDbBlockBegin
  2
*D25
 70
     1
 10
0.0
 20
0.0
 30
0.0
  3
*D25
  1

  0
LINE
  5
1AD1
330
15DB
100
AcDbEntity
  8
P-7064
  6
Continuous
 62
     2
370
    -2
100
AcDbLine
 10
1056.747380475016
 20
2710.147572878822
 30
0.0
 11
1627.501878727553
 21
2710.147572878822
 31
0.0
  0
LINE
  5
1AD2
330
15DB
100
AcDbEntity
  8
P-7064
  6
Continuous
 62
     2
370
    -2
100
AcDbLine
 10
1198.276543879606
 20
2360.147572913826
 30
0.0
 11
1627.501878727553
 21
2360.147572913826
 31
0.0
  0
LINE
  5
1AD3
330
15DB
100
AcDbEntity
  8
P-7064
  6
Continuous
 62
     2
370
    -2
100
AcDbLine
 10
1612.501878727553
 20
2690.147572878822
 30
0.0
 11
1612.501878727553
 21
2380.147572913826
 31
0.0
  0
SOLID
  5
1AD4
330
15DB
100
AcDbEntity
  8
P-7064
  6
Continuous
 62
     2
100
AcDbTrace
 10
1609.16854539422
 20
2690.147572878822
 30
0.0
 11
1615.835212060886
 21
2690.147572878822
 31
0.0
 12
1612.501878727553
 22
2710.147572878822
 32
0.0
 13
1612.501878727553
 23
2710.147572878822
 33
0.0
  0
SOLID
  5
1AD5
330
15DB
100
AcDbEntity
  8
P-7064
  6
Continuous
 62
     2
100
AcDbTrace
 10
1609.16854539422
 20
2380.147572913826
 30
0.0
 11
1615.835212060886
 21
2380.147572913826
 31
0.0
 12
1612.501878727553
 22
2360.147572913826
 32
0.0
 13
1612.501878727553
 23
2360.147572913826
 33
0.0
  0
MTEXT
  5
1AD6
330
15DB
100
AcDbEntity
  8
P-7064
  6
Continuous
 62
     1
100
AcDbMText
 10
1592.275931205687
 20
2535.147572896324
 30
0.0
 40
20.0
 41
0.0
 71
     5
 72
     1
  1
\A1;35
  7
Stile_Quota
 11
0.0000000000000001
 21
1.0
 31
0.0
 73
     1
 44
1.0
1001
ACAD
1000
MTEXTBEGIN
1070
    73
1070
     1
1070
    44
1040
1.0
1070
    74
1070
     0
1000
MTEXTEND
  0
POINT
  5
1AD7
330
15DB
100
AcDbEntity
  8
Defpoints
  6
Continuous
 62
     0
100
AcDbPoint
 10
1046.747380475016
 20
2710.147572878822
 30
0.0
  0
POINT
  5
1AD8
330
15DB
100
AcDbEntity
  8
Defpoints
  6
Continuous
 62
     0
100
AcDbPoint
 10
1188.276543879606
 20
2360.147572913826
 30
0.0
  0
POINT
  5
1AD9
330
15DB
100
AcDbEntity
  8
Defpoints
  6
Continuous
 62
     0
100
AcDbPoint
 10
1612.501878727553
 20
2360.147572913826
 30
0.0
  0
ENDBLK
  5
15DD
330
15DB
100
AcDbEntity
  8
0
 62
     3
100
AcDbBlockEnd
  0
BLOCK
  5
15F4
330
15F3
100
AcDbEntity
  8
0
 62
     3
100
AcDbBlockBegin
  2
*D26
 70
     1
 10
0.0
 20
0.0
 30
0.0
  3
*D26
  1

  0
LINE
  5
2095
330
15F3
100
AcDbEntity
  8
P-7064
  6
Continuous
 62
     2
370
    -2
100
AcDbLine
 10
1280.974130281955
 20
2552.956854325573
 30
0.0
 11
1327.061713828252
 21
2656.182234406635
 31
0.0
  0
LINE
  5
2096
330
15F3
100
AcDbEntity
  8
P-7064
  6
Continuous
 62
     2
370
    -2
100
AcDbLine
 10
1267.72432144733
 20
2523.280389479427
 30
0.0
 11
1272.820401768026
 21
2534.694414419549
 31
0.0
  0
SOLID
  5
2097
330
15F3
100
AcDbEntity
  8
P-7064
  6
Continuous
 62
     2
100
AcDbTrace
 10
1277.930390297618
 20
2554.315809077895
 30
0.0
 11
1284.017870266292
 21
2551.597899573252
 31
0.0
 12
1272.820401768026
 22
2534.694414419549
 32
0.0
 13
1272.820401768026
 23
2534.694414419549
 33
0.0
  0
MTEXT
  5
2098
330
15F3
100
AcDbEntity
  8
P-7064
  6
Continuous
 62
     1
100
AcDbMText
 10
1289.626028754044
 20
2621.946608570631
 30
0.0
 40
20.0
 41
0.0
 71
     5
 72
     1
  1
\A1;R1.25
  7
Stile_Quota
 11
0.4076864256964548
 21
0.9131219953012024
 31
0.0
 73
     1
 44
1.0
1001
ACAD
1000
MTEXTBEGIN
1070
    73
1070
     1
1070
    44
1040
1.0
1070
    74
1070
     0
1000
MTEXTEND
  0
POINT
  5
2099
330
15F3
100
AcDbEntity
  8
Defpoints
  6
Continuous
 62
     0
100
AcDbPoint
 10
1272.820401768026
 20
2534.694414419549
 30
0.0
  0
POINT
  5
209A
330
15F3
100
AcDbEntity
  8
Defpoints
  6
Continuous
 62
     0
100
AcDbPoint
 10
1267.72432144733
 20
2523.280389479427
 30
0.0
  0
ENDBLK
  5
15F5
330
15F3
100
AcDbEntity
  8
0
 62
     3
100
AcDbBlockEnd
  0
BLOCK
  5
1616
330
1615
100
AcDbEntity
  8
0
 62
     3
100
AcDbBlockBegin
  2
*D27
 70
     1
 10
0.0
 20
0.0
 30
0.0
  3
*D27
  1

  0
LINE
  5
1BA7
330
1615
100
AcDbEntity
  8
P-7064
  6
Continuous
 62
     2
370
    -2
100
AcDbLine
 10
1046.276543894805
 20
2660.180906217201
 30
0.0
 11
1369.46554386501
 21
2660.180906217201
 31
0.0
  0
LINE
  5
1BA8
330
1615
100
AcDbEntity
  8
P-7064
  6
Continuous
 62
     2
370
    -2
100
AcDbLine
 10
1056.747380475016
 20
2710.147572878819
 30
0.0
 11
1369.46554386501
 21
2710.147572878819
 31
0.0
  0
LINE
  5
1BA9
330
1615
100
AcDbEntity
  8
P-7064
  6
Continuous
 62
     2
370
    -2
100
AcDbLine
 10
1354.46554386501
 20
2640.180906217201
 30
0.0
 11
1354.46554386501
 21
2620.180906217201
 31
0.0
  0
LINE
  5
1BAA
330
1615
100
AcDbEntity
  8
P-7064
  6
Continuous
 62
     2
370
    -2
100
AcDbLine
 10
1354.46554386501
 20
2730.147572878819
 30
0.0
 11
1354.46554386501
 21
2782.946406698061
 31
0.0
  0
LINE
  5
1BAB
330
1615
100
AcDbEntity
  8
P-7064
  6
Continuous
 62
     2
370
    -2
100
AcDbLine
 10
1354.46554386501
 20
2660.180906217201
 30
0.0
 11
1354.46554386501
 21
2710.147572878819
 31
0.0
  0
SOLID
  5
1BAC
330
1615
100
AcDbEntity
  8
P-7064
  6
Continuous
 62
     2
100
AcDbTrace
 10
1351.132210531676
 20
2640.180906217201
 30
0.0
 11
1357.798877198343
 21
2640.180906217201
 31
0.0
 12
1354.46554386501
 22
2660.180906217201
 32
0.0
 13
1354.46554386501
 23
2660.180906217201
 33
0.0
  0
SOLID
  5
1BAD
330
1615
100
AcDbEntity
  8
P-7064
  6
Continuous
 62
     2
100
AcDbTrace
 10
1351.132210531676
 20
2730.147572878819
 30
0.0
 11
1357.798877198343
 21
2730.147572878819
 31
0.0
 12
1354.46554386501
 22
2710.147572878819
 32
0.0
 13
1354.46554386501
 23
2710.147572878819
 33
0.0
  0
MTEXT
  5
1BAE
330
1615
100
AcDbEntity
  8
P-7064
  6
Continuous
 62
     1
100
AcDbMText
 10
1334.239596343143
 20
2766.54698978844
 30
0.0
 40
20.0
 41
0.0
 71
     5
 72
     1
  1
\A1;5
  7
Stile_Quota
 11
0.0000000000000001
 21
1.0
 31
0.0
 73
     1
 44
1.0
1001
ACAD
1000
MTEXTBEGIN
1070
    73
1070
     1
1070
    44
1040
1.0
1070
    74
1070
     0
1000
MTEXTEND
  0
POINT
  5
1BAF
330
1615
100
AcDbEntity
  8
Defpoints
  6
Continuous
 62
     0
100
AcDbPoint
 10
1036.276543894805
 20
2660.180906217201
 30
0.0
  0
POINT
  5
1BB0
330
1615
100
AcDbEntity
  8
Defpoints
  6
Continuous
 62
     0
100
AcDbPoint
 10
1046.747380475016
 20
2710.147572878819
 30
0.0
  0
POINT
  5
1BB1
330
1615
100
AcDbEntity
  8
Defpoints
  6
Continuous
 62
     0
100
AcDbPoint
 10
1354.46554386501
 20
2710.147572878819
 30
0.0
  0
ENDBLK
  5
1617
330
1615
100
AcDbEntity
  8
0
 62
     3
100
AcDbBlockEnd
  0
BLOCK
  5
1653
330
1652
100
AcDbEntity
  8
0
 62
     3
100
AcDbBlockBegin
  2
*D28
 70
     1
 10
0.0
 20
0.0
 30
0.0
  3
*D28
  1

  0
LINE
  5
1FBD
330
1652
100
AcDbEntity
  8
P-7064
  6
Continuous
 62
     2
370
    -2
100
AcDbLine
 10
1267.62432144834
 20
2548.780389476877
 30
0.0
 11
1301.076736875606
 21
2548.780389476877
 31
0.0
  0
LINE
  5
1FBE
330
1652
100
AcDbEntity
  8
P-7064
  6
Continuous
 62
     2
370
    -2
100
AcDbLine
 10
1270.071405106222
 20
2550.280389476727
 30
0.0
 11
1301.076736875606
 21
2550.280389476727
 31
0.0
  0
LINE
  5
1FBF
330
1652
100
AcDbEntity
  8
P-7064
  6
Continuous
 62
     2
370
    -2
100
AcDbLine
 10
1286.076736875606
 20
2528.780389476877
 30
0.0
 11
1286.076736875606
 21
2508.780389476877
 31
0.0
  0
LINE
  5
1FC0
330
1652
100
AcDbEntity
  8
P-7064
  6
Continuous
 62
     2
370
    -2
100
AcDbLine
 10
1286.076736875606
 20
2570.280389476727
 30
0.0
 11
1286.076736875606
 21
2661.971351575852
 31
0.0
  0
LINE
  5
1FC1
330
1652
100
AcDbEntity
  8
P-7064
  6
Continuous
 62
     2
370
    -2
100
AcDbLine
 10
1286.076736875606
 20
2548.780389476877
 30
0.0
 11
1286.076736875606
 21
2550.280389476727
 31
0.0
  0
SOLID
  5
1FC2
330
1652
100
AcDbEntity
  8
P-7064
  6
Continuous
 62
     2
100
AcDbTrace
 10
1282.743403542272
 20
2528.780389476877
 30
0.0
 11
1289.410070208939
 21
2528.780389476877
 31
0.0
 12
1286.076736875606
 22
2548.780389476877
 32
0.0
 13
1286.076736875606
 23
2548.780389476877
 33
0.0
  0
SOLID
  5
1FC3
330
1652
100
AcDbEntity
  8
P-7064
  6
Continuous
 62
     2
100
AcDbTrace
 10
1282.743403542273
 20
2570.280389476727
 30
0.0
 11
1289.410070208939
 21
2570.280389476727
 31
0.0
 12
1286.076736875606
 22
2550.280389476727
 32
0.0
 13
1286.076736875606
 23
2550.280389476727
 33
0.0
  0
MTEXT
  5
1FC4
330
1652
100
AcDbEntity
  8
P-7064
  6
Continuous
 62
     1
100
AcDbMText
 10
1265.85078935374
 20
2626.12587052629
 30
0.0
 40
20.0
 41
0.0
 71
     5
 72
     1
  1
\A1;0.15
  7
Stile_Quota
 11
0.0000000000000001
 21
1.0
 31
0.0
 73
     1
 44
1.0
1001
ACAD
1000
MTEXTBEGIN
1070
    73
1070
     1
1070
    44
1040
1.0
1070
    74
1070
     0
1000
MTEXTEND
  0
POINT
  5
1FC5
330
1652
100
AcDbEntity
  8
Defpoints
  6
Continuous
 62
     0
100
AcDbPoint
 10
1257.62432144834
 20
2548.780389476877
 30
0.0
  0
POINT
  5
1FC6
330
1652
100
AcDbEntity
  8
Defpoints
  6
Continuous
 62
     0
100
AcDbPoint
 10
1260.071405106222
 20
2550.280389476727
 30
0.0
  0
POINT
  5
1FC7
330
1652
100
AcDbEntity
  8
Defpoints
  6
Continuous
 62
     0
100
AcDbPoint
 10
1286.076736875606
 20
2550.280389476727
 30
0.0
  0
ENDBLK
  5
1654
330
1652
100
AcDbEntity
  8
0
 62
     3
100
AcDbBlockEnd
  0
BLOCK
  5
169B
330
169A
100
AcDbEntity
  8
0
 62
     3
100
AcDbBlockBegin
  2
*D29
 70
     1
 10
0.0
 20
0.0
 30
0.0
  3
*D29
  1

  0
LINE
  5
20A1
330
169A
100
AcDbEntity
  8
P-7064
  6
Continuous
 62
     2
370
    -2
100
AcDbLine
 10
1276.136983064044
 20
2563.155081142422
 30
0.0
 11
1353.04490167253
 21
2647.513994436255
 31
0.0
  0
LINE
  5
20A2
330
169A
100
AcDbEntity
  8
P-7064
  6
Continuous
 62
     2
370
    -2
100
AcDbLine
 10
1250.72432144903
 20
2535.280389478228
 30
0.0
 11
1262.662629299411
 21
2548.375304735943
 31
0.0
  0
SOLID
  5
20A3
330
169A
100
AcDbEntity
  8
P-7064
  6
Continuous
 62
     2
100
AcDbTrace
 10
1273.673686996298
 20
2565.400806769861
 30
0.0
 11
1278.600279131791
 21
2560.909355514983
 31
0.0
 12
1262.662629299411
 22
2548.375304735943
 32
0.0
 13
1262.662629299411
 23
2548.375304735943
 33
0.0
  0
MTEXT
  5
20A4
330
169A
100
AcDbEntity
  8
P-7064
  6
Continuous
 62
     1
100
AcDbMText
 10
1306.32750799257
 20
2626.400109387077
 30
0.0
 40
20.0
 41
0.0
 71
     5
 72
     1
  1
\A1;R1.77
  7
Stile_Quota
 11
0.6737176882316557
 21
0.7389888203239571
 31
0.0
 73
     1
 44
1.0
1001
ACAD
1000
MTEXTBEGIN
1070
    73
1070
     1
1070
    44
1040
1.0
1070
    74
1070
     0
1000
MTEXTEND
  0
POINT
  5
20A5
330
169A
100
AcDbEntity
  8
Defpoints
  6
Continuous
 62
     0
100
AcDbPoint
 10
1262.662629299411
 20
2548.375304735943
 30
0.0
  0
POINT
  5
20A6
330
169A
100
AcDbEntity
  8
Defpoints
  6
Continuous
 62
     0
100
AcDbPoint
 10
1250.72432144903
 20
2535.280389478228
 30
0.0
  0
ENDBLK
  5
169C
330
169A
100
AcDbEntity
  8
0
 62
     3
100
AcDbBlockEnd
  0
BLOCK
  5
16BD
330
16BC
100
AcDbEntity
  8
0
 62
     3
100
AcDbBlockBegin
  2
*D30
 70
     1
 10
0.0
 20
0.0
 30
0.0
  3
*D30
  1

  0
LINE
  5
208A
330
16BC
100
AcDbEntity
  8
P-7064
  6
Continuous
 62
     2
370
    -2
100
AcDbLine
 10
1267.724321447322
 20
2550.280389477729
 30
0.0
 11
1267.724321447322
 21
2596.302643870896
 31
0.0
  0
LINE
  5
208B
330
16BC
100
AcDbEntity
  8
P-7064
  6
Continuous
 62
     2
370
    -2
100
AcDbLine
 10
1242.724321449826
 20
2556.780389477078
 30
0.0
 11
1242.724321449826
 21
2596.302643870896
 31
0.0
  0
LINE
  5
208C
330
16BC
100
AcDbEntity
  8
P-7064
  6
Continuous
 62
     2
370
    -2
100
AcDbLine
 10
1287.724321447322
 20
2581.302643870895
 30
0.0
 11
1307.724321447322
 21
2581.302643870895
 31
0.0
  0
LINE
  5
208D
330
16BC
100
AcDbEntity
  8
P-7064
  6
Continuous
 62
     2
370
    -2
100
AcDbLine
 10
1222.724321449827
 20
2581.302643870895
 30
0.0
 11
1145.042105706386
 21
2581.302643870895
 31
0.0
  0
LINE
  5
208E
330
16BC
100
AcDbEntity
  8
P-7064
  6
Continuous
 62
     2
370
    -2
100
AcDbLine
 10
1267.724321447322
 20
2581.302643870895
 30
0.0
 11
1242.724321449826
 21
2581.302643870895
 31
0.0
  0
SOLID
  5
208F
330
16BC
100
AcDbEntity
  8
P-7064
  6
Continuous
 62
     2
100
AcDbTrace
 10
1287.724321447322
 20
2584.635977204229
 30
0.0
 11
1287.724321447322
 21
2577.969310537562
 31
0.0
 12
1267.724321447322
 22
2581.302643870895
 32
0.0
 13
1267.724321447322
 23
2581.302643870895
 33
0.0
  0
SOLID
  5
2090
330
16BC
100
AcDbEntity
  8
P-7064
  6
Continuous
 62
     2
100
AcDbTrace
 10
1222.724321449827
 20
2584.635977204229
 30
0.0
 11
1222.724321449827
 21
2577.969310537562
 31
0.0
 12
1242.724321449826
 22
2581.302643870895
 32
0.0
 13
1242.724321449826
 23
2581.302643870895
 33
0.0
  0
MTEXT
  5
2091
330
16BC
100
AcDbEntity
  8
P-7064
  6
Continuous
 62
     1
100
AcDbMText
 10
1173.883213578106
 20
2601.528591392761
 30
0.0
 40
20.0
 41
0.0
 71
     5
 72
     1
  1
\A1;2.5
  7
Stile_Quota
 73
     1
 44
1.0
1001
ACAD
1000
MTEXTBEGIN
1070
    73
1070
     1
1070
    44
1040
1.0
1070
    74
1070
     0
1000
MTEXTEND
  0
POINT
  5
2092
330
16BC
100
AcDbEntity
  8
Defpoints
  6
Continuous
 62
     0
100
AcDbPoint
 10
1267.724321447322
 20
2540.280389477729
 30
0.0
  0
POINT
  5
2093
330
16BC
100
AcDbEntity
  8
Defpoints
  6
Continuous
 62
     0
100
AcDbPoint
 10
1242.724321449826
 20
2546.780389477078
 30
0.0
  0
POINT
  5
2094
330
16BC
100
AcDbEntity
  8
Defpoints
  6
Continuous
 62
     0
100
AcDbPoint
 10
1242.724321449826
 20
2581.302643870895
 30
0.0
  0
ENDBLK
  5
16BE
330
16BC
100
AcDbEntity
  8
0
 62
     3
100
AcDbBlockEnd
  0
BLOCK
  5
16D5
330
16D4
100
AcDbEntity
  8
0
 62
     3
100
AcDbBlockBegin
  2
*D31
 70
     1
 10
0.0
 20
0.0
 30
0.0
  3
*D31
  1

  0
LINE
  5
20A7
330
16D4
100
AcDbEntity
  8
P-7064
  6
Continuous
 62
     2
370
    -2
100
AcDbLine
 10
1245.72432144953
 20
2563.180389476437
 30
0.0
 11
1245.72432144953
 21
2591.418403271129
 31
0.0
  0
LINE
  5
20A8
330
16D4
100
AcDbEntity
  8
P-7064
  6
Continuous
 62
     2
370
    -2
100
AcDbLine
 10
1242.72432144983
 20
2556.780389477077
 30
0.0
 11
1242.72432144983
 21
2591.418403271129
 31
0.0
  0
LINE
  5
20A9
330
16D4
100
AcDbEntity
  8
P-7064
  6
Continuous
 62
     2
370
    -2
100
AcDbLine
 10
1265.72432144953
 20
2576.418403271129
 30
0.0
 11
1285.72432144953
 21
2576.418403271129
 31
0.0
  0
LINE
  5
20AA
330
16D4
100
AcDbEntity
  8
P-7064
  6
Continuous
 62
     2
370
    -2
100
AcDbLine
 10
1222.72432144983
 20
2576.418403271129
 30
0.0
 11
1146.077091129131
 21
2576.418403271129
 31
0.0
  0
LINE
  5
20AB
330
16D4
100
AcDbEntity
  8
P-7064
  6
Continuous
 62
     2
370
    -2
100
AcDbLine
 10
1245.72432144953
 20
2576.418403271129
 30
0.0
 11
1242.72432144983
 21
2576.418403271129
 31
0.0
  0
SOLID
  5
20AC
330
16D4
100
AcDbEntity
  8
P-7064
  6
Continuous
 62
     2
100
AcDbTrace
 10
1265.72432144953
 20
2579.751736604463
 30
0.0
 11
1265.72432144953
 21
2573.085069937795
 31
0.0
 12
1245.72432144953
 22
2576.418403271129
 32
0.0
 13
1245.72432144953
 23
2576.418403271129
 33
0.0
  0
SOLID
  5
20AD
330
16D4
100
AcDbEntity
  8
P-7064
  6
Continuous
 62
     2
100
AcDbTrace
 10
1222.72432144983
 20
2579.751736604463
 30
0.0
 11
1222.72432144983
 21
2573.085069937795
 31
0.0
 12
1242.72432144983
 22
2576.418403271129
 32
0.0
 13
1242.72432144983
 23
2576.418403271129
 33
0.0
  0
MTEXT
  5
20AE
330
16D4
100
AcDbEntity
  8
P-7064
  6
Continuous
 62
     1
100
AcDbMText
 10
1174.400706289481
 20
2596.644350792995
 30
0.0
 40
20.0
 41
0.0
 71
     5
 72
     1
  1
\A1;0.3
  7
Stile_Quota
 73
     1
 44
1.0
1001
ACAD
1000
MTEXTBEGIN
1070
    73
1070
     1
1070
    44
1040
1.0
1070
    74
1070
     0
1000
MTEXTEND
  0
POINT
  5
20AF
330
16D4
100
AcDbEntity
  8
Defpoints
  6
Continuous
 62
     0
100
AcDbPoint
 10
1245.72432144953
 20
2553.180389476437
 30
0.0
  0
POINT
  5
20B0
330
16D4
100
AcDbEntity
  8
Defpoints
  6
Continuous
 62
     0
100
AcDbPoint
 10
1242.72432144983
 20
2546.780389477077
 30
0.0
  0
POINT
  5
20B1
330
16D4
100
AcDbEntity
  8
Defpoints
  6
Continuous
 62
     0
100
AcDbPoint
 10
1242.72432144983
 20
2576.418403271129
 30
0.0
  0
ENDBLK
  5
16D6
330
16D4
100
AcDbEntity
  8
0
 62
     3
100
AcDbBlockEnd
  0
BLOCK
  5
16F1
330
16F0
100
AcDbEntity
  8
0
 62
     3
100
AcDbBlockBegin
  2
*D32
 70
     1
 10
0.0
 20
0.0
 30
0.0
  3
*D32
  1

  0
LINE
  5
1FE4
330
16F0
100
AcDbEntity
  8
P-7064
  6
Continuous
 62
     2
370
    -2
100
AcDbLine
 10
1245.724321449531
 20
2563.180389476437
 30
0.0
 11
1245.724321449531
 21
2591.418403271129
 31
0.0
  0
LINE
  5
1FE5
330
16F0
100
AcDbEntity
  8
P-7064
  6
Continuous
 62
     2
370
    -2
100
AcDbLine
 10
1255.72432144853
 20
2560.080389476747
 30
0.0
 11
1255.72432144853
 21
2591.418403271129
 31
0.0
  0
LINE
  5
1FE6
330
16F0
100
AcDbEntity
  8
P-7064
  6
Continuous
 62
     2
370
    -2
100
AcDbLine
 10
1225.72432144953
 20
2576.418403271129
 30
0.0
 11
1205.724321449531
 21
2576.418403271129
 31
0.0
  0
LINE
  5
1FE7
330
16F0
100
AcDbEntity
  8
P-7064
  6
Continuous
 62
     2
370
    -2
100
AcDbLine
 10
1275.72432144853
 20
2576.418403271129
 30
0.0
 11
1325.607703372729
 21
2576.418403271129
 31
0.0
  0
LINE
  5
1FE8
330
16F0
100
AcDbEntity
  8
P-7064
  6
Continuous
 62
     2
370
    -2
100
AcDbLine
 10
1245.724321449531
 20
2576.418403271129
 30
0.0
 11
1255.72432144853
 21
2576.418403271129
 31
0.0
  0
SOLID
  5
1FE9
330
16F0
100
AcDbEntity
  8
P-7064
  6
Continuous
 62
     2
100
AcDbTrace
 10
1225.72432144953
 20
2579.751736604463
 30
0.0
 11
1225.72432144953
 21
2573.085069937795
 31
0.0
 12
1245.724321449531
 22
2576.418403271129
 32
0.0
 13
1245.724321449531
 23
2576.418403271129
 33
0.0
  0
SOLID
  5
1FEA
330
16F0
100
AcDbEntity
  8
P-7064
  6
Continuous
 62
     2
100
AcDbTrace
 10
1275.72432144853
 20
2579.751736604463
 30
0.0
 11
1275.72432144853
 21
2573.085069937795
 31
0.0
 12
1255.72432144853
 22
2576.418403271129
 32
0.0
 13
1255.72432144853
 23
2576.418403271129
 33
0.0
  0
MTEXT
  5
1FEB
330
16F0
100
AcDbEntity
  8
P-7064
  6
Continuous
 62
     1
100
AcDbMText
 10
1310.66601241063
 20
2596.418403271129
 30
0.0
 40
20.0
 41
0.0
 71
     5
 72
     1
  1
\A1;1
  7
Stile_Quota
 73
     1
 44
1.0
1001
ACAD
1000
MTEXTBEGIN
1070
    73
1070
     1
1070
    44
1040
1.0
1070
    74
1070
     0
1000
MTEXTEND
  0
POINT
  5
1FEC
330
16F0
100
AcDbEntity
  8
Defpoints
  6
Continuous
 62
     0
100
AcDbPoint
 10
1245.724321449531
 20
2553.180389476437
 30
0.0
  0
POINT
  5
1FED
330
16F0
100
AcDbEntity
  8
Defpoints
  6
Continuous
 62
     0
100
AcDbPoint
 10
1255.72432144853
 20
2550.080389476747
 30
0.0
  0
POINT
  5
1FEE
330
16F0
100
AcDbEntity
  8
Defpoints
  6
Continuous
 62
     0
100
AcDbPoint
 10
1255.72432144853
 20
2576.418403271129
 30
0.0
  0
ENDBLK
  5
16F2
330
16F0
100
AcDbEntity
  8
0
 62
     3
100
AcDbBlockEnd
  0
BLOCK
  5
1709
330
1708
100
AcDbEntity
  8
0
 62
     3
100
AcDbBlockBegin
  2
*D33
 70
     1
 10
0.0
 20
0.0
 30
0.0
  3
*D33
  1

  0
LINE
  5
1FEF
330
1708
100
AcDbEntity
  8
P-7064
  6
Continuous
 62
     2
370
    -2
100
AcDbLine
 10
1255.72432144853
 20
2560.080389476747
 30
0.0
 11
1255.72432144853
 21
2591.418403271129
 31
0.0
  0
LINE
  5
1FF0
330
1708
100
AcDbEntity
  8
P-7064
  6
Continuous
 62
     2
370
    -2
100
AcDbLine
 10
1267.724321447332
 20
2550.280389477727
 30
0.0
 11
1267.724321447332
 21
2591.418403271129
 31
0.0
  0
LINE
  5
1FF1
330
1708
100
AcDbEntity
  8
P-7064
  6
Continuous
 62
     2
370
    -2
100
AcDbLine
 10
1235.72432144853
 20
2576.418403271129
 30
0.0
 11
1215.72432144853
 21
2576.418403271129
 31
0.0
  0
LINE
  5
1FF2
330
1708
100
AcDbEntity
  8
P-7064
  6
Continuous
 62
     2
370
    -2
100
AcDbLine
 10
1287.724321447332
 20
2576.418403271129
 30
0.0
 11
1364.604787919635
 21
2576.418403271129
 31
0.0
  0
LINE
  5
1FF3
330
1708
100
AcDbEntity
  8
P-7064
  6
Continuous
 62
     2
370
    -2
100
AcDbLine
 10
1255.72432144853
 20
2576.418403271129
 30
0.0
 11
1267.724321447332
 21
2576.418403271129
 31
0.0
  0
SOLID
  5
1FF4
330
1708
100
AcDbEntity
  8
P-7064
  6
Continuous
 62
     2
100
AcDbTrace
 10
1235.72432144853
 20
2579.751736604463
 30
0.0
 11
1235.72432144853
 21
2573.085069937795
 31
0.0
 12
1255.72432144853
 22
2576.418403271129
 32
0.0
 13
1255.72432144853
 23
2576.418403271129
 33
0.0
  0
SOLID
  5
1FF5
330
1708
100
AcDbEntity
  8
P-7064
  6
Continuous
 62
     2
100
AcDbTrace
 10
1287.724321447332
 20
2579.751736604463
 30
0.0
 11
1287.724321447332
 21
2573.085069937795
 31
0.0
 12
1267.724321447332
 22
2576.418403271129
 32
0.0
 13
1267.724321447332
 23
2576.418403271129
 33
0.0
  0
MTEXT
  5
1FF6
330
1708
100
AcDbEntity
  8
P-7064
  6
Continuous
 62
     1
100
AcDbMText
 10
1336.164554683483
 20
2596.600619014569
 30
0.0
 40
20.0
 41
0.0
 71
     5
 72
     1
  1
\A1;1.2
  7
Stile_Quota
 73
     1
 44
1.0
1001
ACAD
1000
MTEXTBEGIN
1070
    73
1070
     1
1070
    44
1040
1.0
1070
    74
1070
     0
1000
MTEXTEND
  0
POINT
  5
1FF7
330
1708
100
AcDbEntity
  8
Defpoints
  6
Continuous
 62
     0
100
AcDbPoint
 10
1255.72432144853
 20
2550.080389476747
 30
0.0
  0
POINT
  5
1FF8
330
1708
100
AcDbEntity
  8
Defpoints
  6
Continuous
 62
     0
100
AcDbPoint
 10
1267.724321447332
 20
2540.280389477727
 30
0.0
  0
POINT
  5
1FF9
330
1708
100
AcDbEntity
  8
Defpoints
  6
Continuous
 62
     0
100
AcDbPoint
 10
1267.724321447332
 20
2576.418403271129
 30
0.0
  0
ENDBLK
  5
170A
330
1708
100
AcDbEntity
  8
0
 62
     3
100
AcDbBlockEnd
  0
BLOCK
  5
1721
330
1720
100
AcDbEntity
  8
0
 62
     3
100
AcDbBlockBegin
  2
*D34
 70
     1
 10
0.0
 20
0.0
 30
0.0
  3
*D34
  1

  0
LINE
  5
1FFA
330
1720
100
AcDbEntity
  8
P-7064
  6
Continuous
 62
     2
370
    -2
100
AcDbLine
 10
1244.224321449681
 20
2556.780389477077
 30
0.0
 11
1244.224321449681
 21
2580.939638892826
 31
0.0
  0
LINE
  5
1FFB
330
1720
100
AcDbEntity
  8
P-7064
  6
Continuous
 62
     2
370
    -2
100
AcDbLine
 10
1242.724321449831
 20
2556.780389477077
 30
0.0
 11
1242.724321449831
 21
2580.939638892826
 31
0.0
  0
LINE
  5
1FFC
330
1720
100
AcDbEntity
  8
P-7064
  6
Continuous
 62
     2
370
    -2
100
AcDbLine
 10
1264.224321449681
 20
2565.939638892826
 30
0.0
 11
1284.224321449681
 21
2565.939638892826
 31
0.0
  0
LINE
  5
1FFD
330
1720
100
AcDbEntity
  8
P-7064
  6
Continuous
 62
     2
370
    -2
100
AcDbLine
 10
1222.724321449831
 20
2565.939638892826
 30
0.0
 11
1131.033359350705
 21
2565.939638892826
 31
0.0
  0
LINE
  5
1FFE
330
1720
100
AcDbEntity
  8
P-7064
  6
Continuous
 62
     2
370
    -2
100
AcDbLine
 10
1244.224321449681
 20
2565.939638892826
 30
0.0
 11
1242.724321449831
 21
2565.939638892826
 31
0.0
  0
SOLID
  5
1FFF
330
1720
100
AcDbEntity
  8
P-7064
  6
Continuous
 62
     2
100
AcDbTrace
 10
1264.224321449681
 20
2569.272972226159
 30
0.0
 11
1264.224321449681
 21
2562.606305559492
 31
0.0
 12
1244.224321449681
 22
2565.939638892826
 32
0.0
 13
1244.224321449681
 23
2565.939638892826
 33
0.0
  0
SOLID
  5
2000
330
1720
100
AcDbEntity
  8
P-7064
  6
Continuous
 62
     2
100
AcDbTrace
 10
1222.724321449831
 20
2569.272972226159
 30
0.0
 11
1222.724321449831
 21
2562.606305559492
 31
0.0
 12
1242.724321449831
 22
2565.939638892826
 32
0.0
 13
1242.724321449831
 23
2565.939638892826
 33
0.0
  0
MTEXT
  5
2001
330
1720
100
AcDbEntity
  8
P-7064
  6
Continuous
 62
     1
100
AcDbMText
 10
1166.878840400268
 20
2586.165586414692
 30
0.0
 40
20.0
 41
0.0
 71
     5
 72
     1
  1
\A1;0.15
  7
Stile_Quota
 73
     1
 44
1.0
1001
ACAD
1000
MTEXTBEGIN
1070
    73
1070
     1
1070
    44
1040
1.0
1070
    74
1070
     0
1000
MTEXTEND
  0
POINT
  5
2002
330
1720
100
AcDbEntity
  8
Defpoints
  6
Continuous
 62
     0
100
AcDbPoint
 10
1244.224321449681
 20
2546.780389477077
 30
0.0
  0
POINT
  5
2003
330
1720
100
AcDbEntity
  8
Defpoints
  6
Continuous
 62
     0
100
AcDbPoint
 10
1242.724321449831
 20
2546.780389477077
 30
0.0
  0
POINT
  5
2004
330
1720
100
AcDbEntity
  8
Defpoints
  6
Continuous
 62
     0
100
AcDbPoint
 10
1242.724321449831
 20
2565.939638892826
 30
0.0
  0
ENDBLK
  5
1722
330
1720
100
AcDbEntity
  8
0
 62
     3
100
AcDbBlockEnd
  0
BLOCK
  5
173D
330
173C
100
AcDbEntity
  8
0
 62
     3
100
AcDbBlockBegin
  2
*D35
 70
     1
 10
0.0
 20
0.0
 30
0.0
  3
*D35
  1

  0
LINE
  5
2005
330
173C
100
AcDbEntity
  8
P-7064
  6
Continuous
 62
     2
370
    -2
100
AcDbLine
 10
1255.72432144853
 20
2560.080389476747
 30
0.0
 11
1255.72432144853
 21
2586.035458492706
 31
0.0
  0
LINE
  5
2006
330
173C
100
AcDbEntity
  8
P-7064
  6
Continuous
 62
     2
370
    -2
100
AcDbLine
 10
1257.724321448331
 20
2558.680389476887
 30
0.0
 11
1257.724321448331
 21
2586.035458492706
 31
0.0
  0
LINE
  5
2007
330
173C
100
AcDbEntity
  8
P-7064
  6
Continuous
 62
     2
370
    -2
100
AcDbLine
 10
1235.72432144853
 20
2571.035458492706
 30
0.0
 11
1215.72432144853
 21
2571.035458492706
 31
0.0
  0
LINE
  5
2008
330
173C
100
AcDbEntity
  8
P-7064
  6
Continuous
 62
     2
370
    -2
100
AcDbLine
 10
1277.724321448331
 20
2571.035458492706
 30
0.0
 11
1354.779715034337
 21
2571.035458492706
 31
0.0
  0
LINE
  5
2009
330
173C
100
AcDbEntity
  8
P-7064
  6
Continuous
 62
     2
370
    -2
100
AcDbLine
 10
1255.72432144853
 20
2571.035458492706
 30
0.0
 11
1257.724321448331
 21
2571.035458492706
 31
0.0
  0
SOLID
  5
200A
330
173C
100
AcDbEntity
  8
P-7064
  6
Continuous
 62
     2
100
AcDbTrace
 10
1235.72432144853
 20
2574.36879182604
 30
0.0
 11
1235.72432144853
 21
2567.702125159373
 31
0.0
 12
1255.72432144853
 22
2571.035458492706
 32
0.0
 13
1255.72432144853
 23
2571.035458492706
 33
0.0
  0
SOLID
  5
200B
330
173C
100
AcDbEntity
  8
P-7064
  6
Continuous
 62
     2
100
AcDbTrace
 10
1277.724321448331
 20
2574.36879182604
 30
0.0
 11
1277.724321448331
 21
2567.702125159373
 31
0.0
 12
1257.724321448331
 22
2571.035458492706
 32
0.0
 13
1257.724321448331
 23
2571.035458492706
 33
0.0
  0
MTEXT
  5
200C
330
173C
100
AcDbEntity
  8
P-7064
  6
Continuous
 62
     1
100
AcDbMText
 10
1326.252018241334
 20
2591.261406014572
 30
0.0
 40
20.0
 41
0.0
 71
     5
 72
     1
  1
\A1;0.2
  7
Stile_Quota
 73
     1
 44
1.0
1001
ACAD
1000
MTEXTBEGIN
1070
    73
1070
     1
1070
    44
1040
1.0
1070
    74
1070
     0
1000
MTEXTEND
  0
POINT
  5
200D
330
173C
100
AcDbEntity
  8
Defpoints
  6
Continuous
 62
     0
100
AcDbPoint
 10
1255.72432144853
 20
2550.080389476747
 30
0.0
  0
POINT
  5
200E
330
173C
100
AcDbEntity
  8
Defpoints
  6
Continuous
 62
     0
100
AcDbPoint
 10
1257.724321448331
 20
2548.680389476887
 30
0.0
  0
POINT
  5
200F
330
173C
100
AcDbEntity
  8
Defpoints
  6
Continuous
 62
     0
100
AcDbPoint
 10
1257.724321448331
 20
2571.035458492706
 30
0.0
  0
ENDBLK
  5
173E
330
173C
100
AcDbEntity
  8
0
 62
     3
100
AcDbBlockEnd
  0
BLOCK
  5
1759
330
1758
100
AcDbEntity
  8
0
 62
     3
100
AcDbBlockBegin
  2
*D36
 70
     1
 10
0.0
 20
0.0
 30
0.0
  3
*D36
  1

  0
LINE
  5
2010
330
1758
100
AcDbEntity
  8
P-7064
  6
Continuous
 62
     2
370
    -2
100
AcDbLine
 10
1257.724321448331
 20
2558.680389476887
 30
0.0
 11
1257.724321448331
 21
2580.764911567889
 31
0.0
  0
LINE
  5
2011
330
1758
100
AcDbEntity
  8
P-7064
  6
Continuous
 62
     2
370
    -2
100
AcDbLine
 10
1259.224321448181
 20
2558.217643410127
 30
0.0
 11
1259.224321448181
 21
2580.764911567889
 31
0.0
  0
LINE
  5
2012
330
1758
100
AcDbEntity
  8
P-7064
  6
Continuous
 62
     2
370
    -2
100
AcDbLine
 10
1237.724321448331
 20
2565.764911567889
 30
0.0
 11
1217.724321448331
 21
2565.764911567889
 31
0.0
  0
LINE
  5
2013
330
1758
100
AcDbEntity
  8
P-7064
  6
Continuous
 62
     2
370
    -2
100
AcDbLine
 10
1279.224321448181
 20
2565.764911567889
 30
0.0
 11
1370.915283547306
 21
2565.764911567889
 31
0.0
  0
LINE
  5
2014
330
1758
100
AcDbEntity
  8
P-7064
  6
Continuous
 62
     2
370
    -2
100
AcDbLine
 10
1257.724321448331
 20
2565.764911567889
 30
0.0
 11
1259.224321448181
 21
2565.764911567889
 31
0.0
  0
SOLID
  5
2015
330
1758
100
AcDbEntity
  8
P-7064
  6
Continuous
 62
     2
100
AcDbTrace
 10
1237.724321448331
 20
2569.098244901223
 30
0.0
 11
1237.724321448331
 21
2562.431578234556
 31
0.0
 12
1257.724321448331
 22
2565.764911567889
 32
0.0
 13
1257.724321448331
 23
2565.764911567889
 33
0.0
  0
SOLID
  5
2016
330
1758
100
AcDbEntity
  8
P-7064
  6
Continuous
 62
     2
100
AcDbTrace
 10
1279.224321448181
 20
2569.098244901223
 30
0.0
 11
1279.224321448181
 21
2562.431578234556
 31
0.0
 12
1259.224321448181
 22
2565.764911567889
 32
0.0
 13
1259.224321448181
 23
2565.764911567889
 33
0.0
  0
MTEXT
  5
2017
330
1758
100
AcDbEntity
  8
P-7064
  6
Continuous
 62
     1
100
AcDbMText
 10
1335.069802497743
 20
2585.990859089755
 30
0.0
 40
20.0
 41
0.0
 71
     5
 72
     1
  1
\A1;0.15
  7
Stile_Quota
 73
     1
 44
1.0
1001
ACAD
1000
MTEXTBEGIN
1070
    73
1070
     1
1070
    44
1040
1.0
1070
    74
1070
     0
1000
MTEXTEND
  0
POINT
  5
2018
330
1758
100
AcDbEntity
  8
Defpoints
  6
Continuous
 62
     0
100
AcDbPoint
 10
1257.724321448331
 20
2548.680389476887
 30
0.0
  0
POINT
  5
2019
330
1758
100
AcDbEntity
  8
Defpoints
  6
Continuous
 62
     0
100
AcDbPoint
 10
1259.224321448181
 20
2548.217643410127
 30
0.0
  0
POINT
  5
201A
330
1758
100
AcDbEntity
  8
Defpoints
  6
Continuous
 62
     0
100
AcDbPoint
 10
1259.224321448181
 20
2565.764911567889
 30
0.0
  0
ENDBLK
  5
175A
330
1758
100
AcDbEntity
  8
0
 62
     3
100
AcDbBlockEnd
  0
BLOCK
  5
17D2
330
17D1
100
AcDbEntity
  8
0
 62
     3
100
AcDbBlockBegin
  2
*D37
 70
     1
 10
0.0
 20
0.0
 30
0.0
  3
*D37
  1

  0
LINE
  5
20C3
330
17D1
100
AcDbEntity
  8
P-7064
  6
Continuous
 62
     2
370
    -2
100
AcDbLine
 10
1228.175065768256
 20
2560.981887878476
 30
0.0
 11
1131.369087603073
 21
2619.361225331882
 31
0.0
  0
LINE
  5
20C4
330
17D1
100
AcDbEntity
  8
P-7064
  6
Continuous
 62
     2
370
    -2
100
AcDbLine
 10
1251.724321448931
 20
2546.780389477077
 30
0.0
 11
1245.30179717285
 21
2550.653525404449
 31
0.0
  0
SOLID
  5
20C5
330
17D1
100
AcDbEntity
  8
P-7064
  6
Continuous
 62
     2
100
AcDbTrace
 10
1229.896459513927
 20
2563.836343112575
 30
0.0
 11
1226.453672022585
 21
2558.127432644377
 31
0.0
 12
1245.30179717285
 22
2550.653525404449
 32
0.0
 13
1245.30179717285
 23
2550.653525404449
 33
0.0
  0
MTEXT
  5
20C6
330
17D1
100
AcDbEntity
  8
P-7064
  6
Continuous
 62
     1
100
AcDbMText
 10
1181.691396657624
 20
2612.718371574624
 30
0.0
 40
20.0
 41
0.0
 71
     5
 72
     1
  1
\A1;R0.75
  7
Stile_Quota
 11
0.8563365702297287
 21
-0.5164181237013132
 31
0.0
 73
     1
 44
1.0
1001
ACAD
1000
MTEXTBEGIN
1070
    73
1070
     1
1070
    44
1040
1.0
1070
    74
1070
     0
1000
MTEXTEND
  0
POINT
  5
20C7
330
17D1
100
AcDbEntity
  8
Defpoints
  6
Continuous
 62
     0
100
AcDbPoint
 10
1245.30179717285
 20
2550.653525404449
 30
0.0
  0
POINT
  5
20C8
330
17D1
100
AcDbEntity
  8
Defpoints
  6
Continuous
 62
     0
100
AcDbPoint
 10
1251.724321448931
 20
2546.780389477077
 30
0.0
  0
ENDBLK
  5
17D3
330
17D1
100
AcDbEntity
  8
0
 62
     3
100
AcDbBlockEnd
  0
BLOCK
  5
17E4
330
17E3
100
AcDbEntity
  8
0
 62
     3
100
AcDbBlockBegin
  2
*D38
 70
     1
 10
0.0
 20
0.0
 30
0.0
  3
*D38
  1

  0
LINE
  5
20BD
330
17E3
100
AcDbEntity
  8
P-7064
  6
Continuous
 62
     2
370
    -2
100
AcDbLine
 10
1223.211794559696
 20
2552.075274776918
 30
0.0
 11
1126.913579934827
 21
2569.958221560237
 31
0.0
  0
LINE
  5
20BE
330
17E3
100
AcDbEntity
  8
P-7064
  6
Continuous
 62
     2
370
    -2
100
AcDbLine
 10
1251.724321448931
 20
2546.780389477078
 30
0.0
 11
1242.875606208055
 21
2548.423629742433
 31
0.0
  0
SOLID
  5
20BF
330
17E3
100
AcDbEntity
  8
P-7064
  6
Continuous
 62
     2
100
AcDbTrace
 10
1223.820402065444
 20
2555.352576718312
 30
0.0
 11
1222.603187053948
 21
2548.797972835525
 31
0.0
 12
1242.875606208055
 22
2548.423629742433
 32
0.0
 13
1242.875606208055
 23
2548.423629742433
 33
0.0
  0
MTEXT
  5
20C0
330
17E3
100
AcDbEntity
  8
P-7064
  6
Continuous
 62
     1
100
AcDbMText
 10
1168.925011239312
 20
2582.735697921914
 30
0.0
 40
20.0
 41
0.0
 71
     5
 72
     1
  1
\A1;R0.9
  7
Stile_Quota
 11
0.983190582417915
 21
-0.1825822517243152
 31
0.0
 73
     1
 44
1.0
1001
ACAD
1000
MTEXTBEGIN
1070
    73
1070
     1
1070
    44
1040
1.0
1070
    74
1070
     0
1000
MTEXTEND
  0
POINT
  5
20C1
330
17E3
100
AcDbEntity
  8
Defpoints
  6
Continuous
 62
     0
100
AcDbPoint
 10
1242.875606208055
 20
2548.423629742433
 30
0.0
  0
POINT
  5
20C2
330
17E3
100
AcDbEntity
  8
Defpoints
  6
Continuous
 62
     0
100
AcDbPoint
 10
1251.724321448931
 20
2546.780389477078
 30
0.0
  0
ENDBLK
  5
17E5
330
17E3
100
AcDbEntity
  8
0
 62
     3
100
AcDbBlockEnd
  0
BLOCK
  5
1818
330
1817
100
AcDbEntity
  8
0
 62
     3
100
AcDbBlockBegin
  2
*D39
 70
     1
 10
0.0
 20
0.0
 30
0.0
  3
*D39
  1

  0
LINE
  5
2027
330
1817
100
AcDbEntity
  8
P-7064
  6
Continuous
 62
     2
370
    -2
100
AcDbLine
 10
1241.724321448931
 20
2546.780389477077
 30
0.0
 11
1210.710151701418
 21
2546.780389477077
 31
0.0
  0
LINE
  5
2028
330
1817
100
AcDbEntity
  8
P-7064
  6
Continuous
 62
     2
370
    -2
100
AcDbLine
 10
1235.62432144954
 20
2553.280389476427
 30
0.0
 11
1210.710151701418
 21
2553.280389476427
 31
0.0
  0
LINE
  5
2029
330
1817
100
AcDbEntity
  8
P-7064
  6
Continuous
 62
     2
370
    -2
100
AcDbLine
 10
1225.710151701418
 20
2526.780389477077
 30
0.0
 11
1225.710151701418
 21
2506.780389477077
 31
0.0
  0
LINE
  5
202A
330
1817
100
AcDbEntity
  8
P-7064
  6
Continuous
 62
     2
370
    -2
100
AcDbLine
 10
1225.710151701418
 20
2573.280389476427
 30
0.0
 11
1225.710151701418
 21
2664.971351575553
 31
0.0
  0
LINE
  5
202B
330
1817
100
AcDbEntity
  8
P-7064
  6
Continuous
 62
     2
370
    -2
100
AcDbLine
 10
1225.710151701418
 20
2546.780389477077
 30
0.0
 11
1225.710151701418
 21
2553.280389476427
 31
0.0
  0
SOLID
  5
202C
330
1817
100
AcDbEntity
  8
P-7064
  6
Continuous
 62
     2
100
AcDbTrace
 10
1222.376818368084
 20
2526.780389477077
 30
0.0
 11
1229.043485034751
 21
2526.780389477077
 31
0.0
 12
1225.710151701418
 22
2546.780389477077
 32
0.0
 13
1225.710151701418
 23
2546.780389477077
 33
0.0
  0
SOLID
  5
202D
330
1817
100
AcDbEntity
  8
P-7064
  6
Continuous
 62
     2
100
AcDbTrace
 10
1222.376818368085
 20
2573.280389476427
 30
0.0
 11
1229.043485034751
 21
2573.280389476427
 31
0.0
 12
1225.710151701418
 22
2553.280389476427
 32
0.0
 13
1225.710151701418
 23
2553.280389476427
 33
0.0
  0
MTEXT
  5
202E
330
1817
100
AcDbEntity
  8
P-7064
  6
Continuous
 62
     1
100
AcDbMText
 10
1205.484204179551
 20
2629.125870525991
 30
0.0
 40
20.0
 41
0.0
 71
     5
 72
     1
  1
\A1;0.65
  7
Stile_Quota
 11
0.0000000000000001
 21
1.0
 31
0.0
 73
     1
 44
1.0
1001
ACAD
1000
MTEXTBEGIN
1070
    73
1070
     1
1070
    44
1040
1.0
1070
    74
1070
     0
1000
MTEXTEND
  0
POINT
  5
202F
330
1817
100
AcDbEntity
  8
Defpoints
  6
Continuous
 62
     0
100
AcDbPoint
 10
1251.724321448931
 20
2546.780389477077
 30
0.0
  0
POINT
  5
2030
330
1817
100
AcDbEntity
  8
Defpoints
  6
Continuous
 62
     0
100
AcDbPoint
 10
1245.62432144954
 20
2553.280389476427
 30
0.0
  0
POINT
  5
2031
330
1817
100
AcDbEntity
  8
Defpoints
  6
Continuous
 62
     0
100
AcDbPoint
 10
1225.710151701418
 20
2553.280389476427
 30
0.0
  0
ENDBLK
  5
1819
330
1817
100
AcDbEntity
  8
0
 62
     3
100
AcDbBlockEnd
  0
BLOCK
  5
1846
330
1845
100
AcDbEntity
  8
0
 62
     3
100
AcDbBlockBegin
  2
*D40
 70
     1
 10
0.0
 20
0.0
 30
0.0
  3
*D40
  1

  0
LINE
  5
2032
330
1845
100
AcDbEntity
  8
P-7064
  6
Continuous
 62
     2
370
    -2
100
AcDbLine
 10
1251.724321448931
 20
2536.780389477077
 30
0.0
 11
1251.724321448931
 21
2528.668315422332
 31
0.0
  0
LINE
  5
2033
330
1845
100
AcDbEntity
  8
P-7064
  6
Continuous
 62
     2
370
    -2
100
AcDbLine
 10
1242.724321449831
 20
2536.780389477077
 30
0.0
 11
1242.724321449831
 21
2528.668315422332
 31
0.0
  0
LINE
  5
2034
330
1845
100
AcDbEntity
  8
P-7064
  6
Continuous
 62
     2
370
    -2
100
AcDbLine
 10
1271.724321448931
 20
2543.668315422332
 30
0.0
 11
1291.724321448932
 21
2543.668315422332
 31
0.0
  0
LINE
  5
2035
330
1845
100
AcDbEntity
  8
P-7064
  6
Continuous
 62
     2
370
    -2
100
AcDbLine
 10
1222.724321449831
 20
2543.668315422332
 30
0.0
 11
1146.135400167032
 21
2543.668315422332
 31
0.0
  0
LINE
  5
2036
330
1845
100
AcDbEntity
  8
P-7064
  6
Continuous
 62
     2
370
    -2
100
AcDbLine
 10
1251.724321448931
 20
2543.668315422332
 30
0.0
 11
1242.724321449831
 21
2543.668315422332
 31
0.0
  0
SOLID
  5
2037
330
1845
100
AcDbEntity
  8
P-7064
  6
Continuous
 62
     2
100
AcDbTrace
 10
1271.724321448931
 20
2547.001648755666
 30
0.0
 11
1271.724321448931
 21
2540.334982088999
 31
0.0
 12
1251.724321448931
 22
2543.668315422332
 32
0.0
 13
1251.724321448931
 23
2543.668315422332
 33
0.0
  0
SOLID
  5
2038
330
1845
100
AcDbEntity
  8
P-7064
  6
Continuous
 62
     2
100
AcDbTrace
 10
1222.724321449831
 20
2547.001648755666
 30
0.0
 11
1222.724321449831
 21
2540.334982088999
 31
0.0
 12
1242.724321449831
 22
2543.668315422332
 32
0.0
 13
1242.724321449831
 23
2543.668315422332
 33
0.0
  0
MTEXT
  5
2039
330
1845
100
AcDbEntity
  8
P-7064
  6
Continuous
 62
     1
100
AcDbMText
 10
1174.429860808431
 20
2563.901551573936
 30
0.0
 40
20.0
 41
0.0
 71
     5
 72
     1
  1
\A1;0.9
  7
Stile_Quota
 73
     1
 44
1.0
1001
ACAD
1000
MTEXTBEGIN
1070
    73
1070
     1
1070
    44
1040
1.0
1070
    74
1070
     0
1000
MTEXTEND
  0
POINT
  5
203A
330
1845
100
AcDbEntity
  8
Defpoints
  6
Continuous
 62
     0
100
AcDbPoint
 10
1251.724321448931
 20
2546.780389477077
 30
0.0
  0
POINT
  5
203B
330
1845
100
AcDbEntity
  8
Defpoints
  6
Continuous
 62
     0
100
AcDbPoint
 10
1242.724321449831
 20
2546.780389477077
 30
0.0
  0
POINT
  5
203C
330
1845
100
AcDbEntity
  8
Defpoints
  6
Continuous
 62
     0
100
AcDbPoint
 10
1242.724321449831
 20
2543.668315422332
 30
0.0
  0
ENDBLK
  5
1847
330
1845
100
AcDbEntity
  8
0
 62
     3
100
AcDbBlockEnd
  0
BLOCK
  5
185E
330
185D
100
AcDbEntity
  8
0
 62
     3
100
AcDbBlockBegin
  2
*D41
 70
     1
 10
0.0
 20
0.0
 30
0.0
  3
*D41
  1

  0
LINE
  5
203D
330
185D
100
AcDbEntity
  8
P-7064
  6
Continuous
 62
     2
370
    -2
100
AcDbLine
 10
1250.724321449031
 20
2525.280389478227
 30
0.0
 11
1250.724321449031
 21
2512.614873267367
 31
0.0
  0
LINE
  5
203E
330
185D
100
AcDbEntity
  8
P-7064
  6
Continuous
 62
     2
370
    -2
100
AcDbLine
 10
1242.724321449831
 20
2518.064129622141
 30
0.0
 11
1242.724321449831
 21
2512.614873267367
 31
0.0
  0
LINE
  5
203F
330
185D
100
AcDbEntity
  8
P-7064
  6
Continuous
 62
     2
370
    -2
100
AcDbLine
 10
1270.724321449031
 20
2527.614873267367
 30
0.0
 11
1290.724321449031
 21
2527.614873267367
 31
0.0
  0
LINE
  5
2040
330
185D
100
AcDbEntity
  8
P-7064
  6
Continuous
 62
     2
370
    -2
100
AcDbLine
 10
1222.724321449831
 20
2527.614873267367
 30
0.0
 11
1145.391959933796
 21
2527.614873267367
 31
0.0
  0
LINE
  5
2041
330
185D
100
AcDbEntity
  8
P-7064
  6
Continuous
 62
     2
370
    -2
100
AcDbLine
 10
1250.724321449031
 20
2527.614873267367
 30
0.0
 11
1242.724321449831
 21
2527.614873267367
 31
0.0
  0
SOLID
  5
2042
330
185D
100
AcDbEntity
  8
P-7064
  6
Continuous
 62
     2
100
AcDbTrace
 10
1270.724321449031
 20
2530.9482066007
 30
0.0
 11
1270.724321449031
 21
2524.281539934033
 31
0.0
 12
1250.724321449031
 22
2527.614873267367
 32
0.0
 13
1250.724321449031
 23
2527.614873267367
 33
0.0
  0
SOLID
  5
2043
330
185D
100
AcDbEntity
  8
P-7064
  6
Continuous
 62
     2
100
AcDbTrace
 10
1222.724321449831
 20
2530.9482066007
 30
0.0
 11
1222.724321449831
 21
2524.281539934033
 31
0.0
 12
1242.724321449831
 22
2527.614873267367
 32
0.0
 13
1242.724321449831
 23
2527.614873267367
 33
0.0
  0
MTEXT
  5
2044
330
185D
100
AcDbEntity
  8
P-7064
  6
Continuous
 62
     1
100
AcDbMText
 10
1174.058140691813
 20
2547.840820789232
 30
0.0
 40
20.0
 41
0.0
 71
     5
 72
     1
  1
\A1;0.8
  7
Stile_Quota
 73
     1
 44
1.0
1001
ACAD
1000
MTEXTBEGIN
1070
    73
1070
     1
1070
    44
1040
1.0
1070
    74
1070
     0
1000
MTEXTEND
  0
POINT
  5
2045
330
185D
100
AcDbEntity
  8
Defpoints
  6
Continuous
 62
     0
100
AcDbPoint
 10
1250.724321449031
 20
2535.280389478227
 30
0.0
  0
POINT
  5
2046
330
185D
100
AcDbEntity
  8
Defpoints
  6
Continuous
 62
     0
100
AcDbPoint
 10
1242.724321449831
 20
2528.064129622141
 30
0.0
  0
POINT
  5
2047
330
185D
100
AcDbEntity
  8
Defpoints
  6
Continuous
 62
     0
100
AcDbPoint
 10
1242.724321449831
 20
2527.614873267367
 30
0.0
  0
ENDBLK
  5
185F
330
185D
100
AcDbEntity
  8
0
 62
     3
100
AcDbBlockEnd
  0
BLOCK
  5
1876
330
1875
100
AcDbEntity
  8
0
 62
     3
100
AcDbBlockBegin
  2
*D42
 70
     1
 10
0.0
 20
0.0
 30
0.0
  3
*D42
  1

  0
LINE
  5
2048
330
1875
100
AcDbEntity
  8
P-7064
  6
Continuous
 62
     2
370
    -2
100
AcDbLine
 10
1252.224321448881
 20
2549.573282696611
 30
0.0
 11
1252.224321448881
 21
2586.035458492706
 31
0.0
  0
LINE
  5
2049
330
1875
100
AcDbEntity
  8
P-7064
  6
Continuous
 62
     2
370
    -2
100
AcDbLine
 10
1242.724321449831
 20
2557.780389477077
 30
0.0
 11
1242.724321449831
 21
2586.035458492706
 31
0.0
  0
LINE
  5
204A
330
1875
100
AcDbEntity
  8
P-7064
  6
Continuous
 62
     2
370
    -2
100
AcDbLine
 10
1272.22432144888
 20
2571.035458492706
 30
0.0
 11
1292.22432144888
 21
2571.035458492706
 31
0.0
  0
LINE
  5
204B
330
1875
100
AcDbEntity
  8
P-7064
  6
Continuous
 62
     2
370
    -2
100
AcDbLine
 10
1222.724321449831
 20
2571.035458492706
 30
0.0
 11
1131.033359350705
 21
2571.035458492706
 31
0.0
  0
LINE
  5
204C
330
1875
100
AcDbEntity
  8
P-7064
  6
Continuous
 62
     2
370
    -2
100
AcDbLine
 10
1252.224321448881
 20
2571.035458492706
 30
0.0
 11
1242.724321449831
 21
2571.035458492706
 31
0.0
  0
SOLID
  5
204D
330
1875
100
AcDbEntity
  8
P-7064
  6
Continuous
 62
     2
100
AcDbTrace
 10
1272.22432144888
 20
2574.36879182604
 30
0.0
 11
1272.22432144888
 21
2567.702125159373
 31
0.0
 12
1252.224321448881
 22
2571.035458492706
 32
0.0
 13
1252.224321448881
 23
2571.035458492706
 33
0.0
  0
SOLID
  5
204E
330
1875
100
AcDbEntity
  8
P-7064
  6
Continuous
 62
     2
100
AcDbTrace
 10
1222.724321449831
 20
2574.36879182604
 30
0.0
 11
1222.724321449831
 21
2567.702125159373
 31
0.0
 12
1242.724321449831
 22
2571.035458492706
 32
0.0
 13
1242.724321449831
 23
2571.035458492706
 33
0.0
  0
MTEXT
  5
204F
330
1875
100
AcDbEntity
  8
P-7064
  6
Continuous
 62
     1
100
AcDbMText
 10
1166.878840400268
 20
2591.268694644309
 30
0.0
 40
20.0
 41
0.0
 71
     5
 72
     1
  1
\A1;0.95
  7
Stile_Quota
 73
     1
 44
1.0
1001
ACAD
1000
MTEXTBEGIN
1070
    73
1070
     1
1070
    44
1040
1.0
1070
    74
1070
     0
1000
MTEXTEND
  0
POINT
  5
2050
330
1875
100
AcDbEntity
  8
Defpoints
  6
Continuous
 62
     0
100
AcDbPoint
 10
1252.224321448881
 20
2539.573282696611
 30
0.0
  0
POINT
  5
2051
330
1875
100
AcDbEntity
  8
Defpoints
  6
Continuous
 62
     0
100
AcDbPoint
 10
1242.724321449831
 20
2547.780389477077
 30
0.0
  0
POINT
  5
2052
330
1875
100
AcDbEntity
  8
Defpoints
  6
Continuous
 62
     0
100
AcDbPoint
 10
1242.724321449831
 20
2571.035458492706
 30
0.0
  0
ENDBLK
  5
1877
330
1875
100
AcDbEntity
  8
0
 62
     3
100
AcDbBlockEnd
  0
BLOCK
  5
1899
330
1898
100
AcDbEntity
  8
0
 62
     3
100
AcDbBlockBegin
  2
*D43
 70
     1
 10
0.0
 20
0.0
 30
0.0
  3
*D43
  1

  0
LINE
  5
2053
330
1898
100
AcDbEntity
  8
P-7064
  6
Continuous
 62
     2
370
    -2
100
AcDbLine
 10
1248.72432144923
 20
2530.580389477697
 30
0.0
 11
1248.72432144923
 21
2516.807938162924
 31
0.0
  0
LINE
  5
2054
330
1898
100
AcDbEntity
  8
P-7064
  6
Continuous
 62
     2
370
    -2
100
AcDbLine
 10
1242.724321449831
 20
2537.614873267367
 30
0.0
 11
1242.724321449831
 21
2546.807938162924
 31
0.0
  0
LINE
  5
2055
330
1898
100
AcDbEntity
  8
P-7064
  6
Continuous
 62
     2
370
    -2
100
AcDbLine
 10
1268.72432144923
 20
2531.807938162924
 30
0.0
 11
1288.72432144923
 21
2531.807938162924
 31
0.0
  0
LINE
  5
2056
330
1898
100
AcDbEntity
  8
P-7064
  6
Continuous
 62
     2
370
    -2
100
AcDbLine
 10
1222.724321449831
 20
2531.807938162924
 30
0.0
 11
1145.581464306973
 21
2531.807938162924
 31
0.0
  0
LINE
  5
2057
330
1898
100
AcDbEntity
  8
P-7064
  6
Continuous
 62
     2
370
    -2
100
AcDbLine
 10
1248.72432144923
 20
2531.807938162924
 30
0.0
 11
1242.724321449831
 21
2531.807938162924
 31
0.0
  0
SOLID
  5
2058
330
1898
100
AcDbEntity
  8
P-7064
  6
Continuous
 62
     2
100
AcDbTrace
 10
1268.72432144923
 20
2535.141271496258
 30
0.0
 11
1268.72432144923
 21
2528.474604829591
 31
0.0
 12
1248.72432144923
 22
2531.807938162924
 32
0.0
 13
1248.72432144923
 23
2531.807938162924
 33
0.0
  0
SOLID
  5
2059
330
1898
100
AcDbEntity
  8
P-7064
  6
Continuous
 62
     2
100
AcDbTrace
 10
1222.724321449831
 20
2535.141271496258
 30
0.0
 11
1222.724321449831
 21
2528.474604829591
 31
0.0
 12
1242.724321449831
 22
2531.807938162924
 32
0.0
 13
1242.724321449831
 23
2531.807938162924
 33
0.0
  0
MTEXT
  5
205A
330
1898
100
AcDbEntity
  8
P-7064
  6
Continuous
 62
     1
100
AcDbMText
 10
1174.152892878402
 20
2552.03388568479
 30
0.0
 40
20.0
 41
0.0
 71
     5
 72
     1
  1
\A1;0.6
  7
Stile_Quota
 73
     1
 44
1.0
1001
ACAD
1000
MTEXTBEGIN
1070
    73
1070
     1
1070
    44
1040
1.0
1070
    74
1070
     0
1000
MTEXTEND
  0
POINT
  5
205B
330
1898
100
AcDbEntity
  8
Defpoints
  6
Continuous
 62
     0
100
AcDbPoint
 10
1248.72432144923
 20
2540.580389477697
 30
0.0
  0
POINT
  5
205C
330
1898
100
AcDbEntity
  8
Defpoints
  6
Continuous
 62
     0
100
AcDbPoint
 10
1242.724321449831
 20
2527.614873267367
 30
0.0
  0
POINT
  5
205D
330
1898
100
AcDbEntity
  8
Defpoints
  6
Continuous
 62
     0
100
AcDbPoint
 10
1242.724321449831
 20
2531.807938162924
 30
0.0
  0
ENDBLK
  5
189A
330
1898
100
AcDbEntity
  8
0
 62
     3
100
AcDbBlockEnd
  0
BLOCK
  5
18C1
330
18C0
100
AcDbEntity
  8
0
 62
     3
100
AcDbBlockBegin
  2
*D44
 70
     1
 10
0.0
 20
0.0
 30
0.0
  3
*D44
  1

  0
LINE
  5
205E
330
18C0
100
AcDbEntity
  8
P-7064
  6
Continuous
 62
     2
370
    -2
100
AcDbLine
 10
1233.431428230946
 20
2540.280389477727
 30
0.0
 11
1210.687670972653
 21
2540.280389477727
 31
0.0
  0
LINE
  5
205F
330
18C0
100
AcDbEntity
  8
P-7064
  6
Continuous
 62
     2
370
    -2
100
AcDbLine
 10
1240.724321449031
 20
2535.280389478227
 30
0.0
 11
1210.687670972653
 21
2535.280389478227
 31
0.0
  0
LINE
  5
2060
330
18C0
100
AcDbEntity
  8
P-7064
  6
Continuous
 62
     2
370
    -2
100
AcDbLine
 10
1225.687670972653
 20
2560.280389477727
 30
0.0
 11
1225.687670972653
 21
2580.280389477727
 31
0.0
  0
LINE
  5
2061
330
18C0
100
AcDbEntity
  8
P-7064
  6
Continuous
 62
     2
370
    -2
100
AcDbLine
 10
1225.687670972653
 20
2515.280389478227
 30
0.0
 11
1225.687670972653
 21
2438.224995892221
 31
0.0
  0
LINE
  5
2062
330
18C0
100
AcDbEntity
  8
P-7064
  6
Continuous
 62
     2
370
    -2
100
AcDbLine
 10
1225.687670972653
 20
2540.280389477727
 30
0.0
 11
1225.687670972653
 21
2535.280389478227
 31
0.0
  0
SOLID
  5
2063
330
18C0
100
AcDbEntity
  8
P-7064
  6
Continuous
 62
     2
100
AcDbTrace
 10
1222.35433763932
 20
2560.280389477727
 30
0.0
 11
1229.021004305987
 21
2560.280389477727
 31
0.0
 12
1225.687670972653
 22
2540.280389477727
 32
0.0
 13
1225.687670972653
 23
2540.280389477727
 33
0.0
  0
SOLID
  5
2064
330
18C0
100
AcDbEntity
  8
P-7064
  6
Continuous
 62
     2
100
AcDbTrace
 10
1222.35433763932
 20
2515.280389478227
 30
0.0
 11
1229.021004305986
 21
2515.280389478227
 31
0.0
 12
1225.687670972653
 22
2535.280389478227
 32
0.0
 13
1225.687670972653
 23
2535.280389478227
 33
0.0
  0
MTEXT
  5
2065
330
18C0
100
AcDbEntity
  8
P-7064
  6
Continuous
 62
     1
100
AcDbMText
 10
1205.461723450787
 20
2466.752692685224
 30
0.0
 40
20.0
 41
0.0
 71
     5
 72
     1
  1
\A1;0.5
  7
Stile_Quota
 11
0.0000000000000001
 21
1.0
 31
0.0
 73
     1
 44
1.0
1001
ACAD
1000
MTEXTBEGIN
1070
    73
1070
     1
1070
    44
1040
1.0
1070
    74
1070
     0
1000
MTEXTEND
  0
POINT
  5
2066
330
18C0
100
AcDbEntity
  8
Defpoints
  6
Continuous
 62
     0
100
AcDbPoint
 10
1243.431428230946
 20
2540.280389477727
 30
0.0
  0
POINT
  5
2067
330
18C0
100
AcDbEntity
  8
Defpoints
  6
Continuous
 62
     0
100
AcDbPoint
 10
1250.724321449031
 20
2535.280389478227
 30
0.0
  0
POINT
  5
2068
330
18C0
100
AcDbEntity
  8
Defpoints
  6
Continuous
 62
     0
100
AcDbPoint
 10
1225.687670972653
 20
2535.280389478227
 30
0.0
  0
ENDBLK
  5
18C2
330
18C0
100
AcDbEntity
  8
0
 62
     3
100
AcDbBlockEnd
  0
BLOCK
  5
18DD
330
18DC
100
AcDbEntity
  8
0
 62
     3
100
AcDbBlockBegin
  2
*D45
 70
     1
 10
0.0
 20
0.0
 30
0.0
  3
*D45
  1

  0
LINE
  5
2069
330
18DC
100
AcDbEntity
  8
P-7064
  6
Continuous
 62
     2
370
    -2
100
AcDbLine
 10
1257.724321447331
 20
2523.280389479428
 30
0.0
 11
1246.581560317418
 21
2523.280389479428
 31
0.0
  0
LINE
  5
206A
330
18DC
100
AcDbEntity
  8
P-7064
  6
Continuous
 62
     2
370
    -2
100
AcDbLine
 10
1255.67432144754
 20
2515.280389480227
 30
0.0
 11
1246.581560317418
 21
2515.280389480227
 31
0.0
  0
LINE
  5
206B
330
18DC
100
AcDbEntity
  8
P-7064
  6
Continuous
 62
     2
370
    -2
100
AcDbLine
 10
1261.581560317418
 20
2543.280389479428
 30
0.0
 11
1261.581560317418
 21
2563.280389479428
 31
0.0
  0
LINE
  5
206C
330
18DC
100
AcDbEntity
  8
P-7064
  6
Continuous
 62
     2
370
    -2
100
AcDbLine
 10
1261.581560317418
 20
2495.280389480227
 30
0.0
 11
1261.581560317418
 21
2417.948027964192
 31
0.0
  0
LINE
  5
206D
330
18DC
100
AcDbEntity
  8
P-7064
  6
Continuous
 62
     2
370
    -2
100
AcDbLine
 10
1261.581560317418
 20
2523.280389479428
 30
0.0
 11
1261.581560317418
 21
2515.280389480227
 31
0.0
  0
SOLID
  5
206E
330
18DC
100
AcDbEntity
  8
P-7064
  6
Continuous
 62
     2
100
AcDbTrace
 10
1258.248226984084
 20
2543.280389479428
 30
0.0
 11
1264.914893650751
 21
2543.280389479428
 31
0.0
 12
1261.581560317418
 22
2523.280389479428
 32
0.0
 13
1261.581560317418
 23
2523.280389479428
 33
0.0
  0
SOLID
  5
206F
330
18DC
100
AcDbEntity
  8
P-7064
  6
Continuous
 62
     2
100
AcDbTrace
 10
1258.248226984084
 20
2495.280389480227
 30
0.0
 11
1264.914893650751
 21
2495.280389480227
 31
0.0
 12
1261.581560317418
 22
2515.280389480227
 32
0.0
 13
1261.581560317418
 23
2515.280389480227
 33
0.0
  0
MTEXT
  5
2070
330
18DC
100
AcDbEntity
  8
P-7064
  6
Continuous
 62
     1
100
AcDbMText
 10
1241.355612795551
 20
2446.61420872221
 30
0.0
 40
20.0
 41
0.0
 71
     5
 72
     1
  1
\A1;0.8
  7
Stile_Quota
 11
0.0000000000000001
 21
1.0
 31
0.0
 73
     1
 44
1.0
1001
ACAD
1000
MTEXTBEGIN
1070
    73
1070
     1
1070
    44
1040
1.0
1070
    74
1070
     0
1000
MTEXTEND
  0
POINT
  5
2071
330
18DC
100
AcDbEntity
  8
Defpoints
  6
Continuous
 62
     0
100
AcDbPoint
 10
1267.724321447331
 20
2523.280389479428
 30
0.0
  0
POINT
  5
2072
330
18DC
100
AcDbEntity
  8
Defpoints
  6
Continuous
 62
     0
100
AcDbPoint
 10
1265.67432144754
 20
2515.280389480227
 30
0.0
  0
POINT
  5
2073
330
18DC
100
AcDbEntity
  8
Defpoints
  6
Continuous
 62
     0
100
AcDbPoint
 10
1261.581560317418
 20
2515.280389480227
 30
0.0
  0
ENDBLK
  5
18DE
330
18DC
100
AcDbEntity
  8
0
 62
     3
100
AcDbBlockEnd
  0
BLOCK
  5
1BDA
330
1BD9
100
AcDbEntity
  8
0
 62
     3
100
AcDbBlockBegin
  2
*D46
 70
     1
 10
0.0
 20
0.0
 30
0.0
  3
*D46
  1

  0
LINE
  5
2074
330
1BD9
100
AcDbEntity
  8
P-7064
  6
Continuous
 62
     2
370
    -2
100
AcDbLine
 10
1265.97432144751
 20
2539.730389478787
 30
0.0
 11
1265.97432144751
 21
2545.875197714079
 31
0.0
  0
LINE
  5
2075
330
1BD9
100
AcDbEntity
  8
P-7064
  6
Continuous
 62
     2
370
    -2
100
AcDbLine
 10
1265.67432144754
 20
2539.730389478787
 30
0.0
 11
1265.67432144754
 21
2545.875197714079
 31
0.0
  0
LINE
  5
2076
330
1BD9
100
AcDbEntity
  8
P-7064
  6
Continuous
 62
     2
370
    -2
100
AcDbLine
 10
1285.97432144751
 20
2530.875197714079
 30
0.0
 11
1305.974321447511
 21
2530.875197714079
 31
0.0
  0
LINE
  5
2077
330
1BD9
100
AcDbEntity
  8
P-7064
  6
Continuous
 62
     2
370
    -2
100
AcDbLine
 10
1245.67432144754
 20
2530.875197714079
 30
0.0
 11
1154.391522613722
 21
2530.875197714079
 31
0.0
  0
LINE
  5
2078
330
1BD9
100
AcDbEntity
  8
P-7064
  6
Continuous
 62
     2
370
    -2
100
AcDbLine
 10
1265.97432144751
 20
2530.875197714079
 30
0.0
 11
1265.67432144754
 21
2530.875197714079
 31
0.0
  0
SOLID
  5
2079
330
1BD9
100
AcDbEntity
  8
P-7064
  6
Continuous
 62
     2
100
AcDbTrace
 10
1285.97432144751
 20
2534.208531047412
 30
0.0
 11
1285.97432144751
 21
2527.541864380745
 31
0.0
 12
1265.97432144751
 22
2530.875197714079
 32
0.0
 13
1265.97432144751
 23
2530.875197714079
 33
0.0
  0
SOLID
  5
207A
330
1BD9
100
AcDbEntity
  8
P-7064
  6
Continuous
 62
     2
100
AcDbTrace
 10
1245.67432144754
 20
2534.208531047412
 30
0.0
 11
1245.67432144754
 21
2527.541864380745
 31
0.0
 12
1265.67432144754
 22
2530.875197714079
 32
0.0
 13
1265.67432144754
 23
2530.875197714079
 33
0.0
  0
MTEXT
  5
207B
330
1BD9
100
AcDbEntity
  8
P-7064
  6
Continuous
 62
     1
100
AcDbMText
 10
1190.032922030631
 20
2551.101145235945
 30
0.0
 40
20.0
 41
0.0
 71
     5
 72
     1
  1
\A1;0.03
  7
Stile_Quota
 73
     1
 44
1.0
1001
ACAD
1000
MTEXTBEGIN
1070
    73
1070
     1
1070
    44
1040
1.0
1070
    74
1070
     0
1000
MTEXTEND
  0
POINT
  5
207C
330
1BD9
100
AcDbEntity
  8
Defpoints
  6
Continuous
 62
     0
100
AcDbPoint
 10
1265.97432144751
 20
2529.730389478787
 30
0.0
  0
POINT
  5
207D
330
1BD9
100
AcDbEntity
  8
Defpoints
  6
Continuous
 62
     0
100
AcDbPoint
 10
1265.67432144754
 20
2529.730389478787
 30
0.0
  0
POINT
  5
207E
330
1BD9
100
AcDbEntity
  8
Defpoints
  6
Continuous
 62
     0
100
AcDbPoint
 10
1265.67432144754
 20
2530.875197714079
 30
0.0
  0
ENDBLK
  5
1BDB
330
1BD9
100
AcDbEntity
  8
0
 62
     3
100
AcDbBlockEnd
  0
BLOCK
  5
1F29
330
1F28
100
AcDbEntity
  8
0
 62
     7
100
AcDbBlockBegin
  2
*D48
 70
     1
 10
0.0
 20
0.0
 30
0.0
  3
*D48
  1

  0
MTEXT
  5
1F2B
330
1F28
100
AcDbEntity
  8
P-62DD
  6
Continuous
 62
    30
100
AcDbMText
 10
3067.337546592119
 20
2728.49592471578
 30
0.0
 40
20.0
 41
0.0
 71
     5
 72
     1
  1
\A1;1000
  7
Stile_Quota_FISSO
 73
     1
 44
1.0
1001
ACAD
1000
MTEXTBEGIN
1070
    73
1070
     1
1070
    44
1040
1.0
1070
    74
1070
     0
1000
MTEXTEND
  0
POINT
  5
1F2C
330
1F28
100
AcDbEntity
  8
Defpoints
  6
Continuous
 62
     0
100
AcDbPoint
 10
2567.337546592119
 20
2739.720435936101
 30
0.0
  0
POINT
  5
1F2D
330
1F28
100
AcDbEntity
  8
Defpoints
  6
Continuous
 62
     0
100
AcDbPoint
 10
3567.337546592119
 20
2739.720435936101
 30
0.0
  0
POINT
  5
1F2E
330
1F28
100
AcDbEntity
  8
Defpoints
  6
Continuous
 62
     0
100
AcDbPoint
 10
3567.337546592119
 20
2728.49592471578
 30
0.0
  0
ENDBLK
  5
1F2A
330
1F28
100
AcDbEntity
  8
0
 62
     7
100
AcDbBlockEnd
  0
BLOCK
  5
1F6F
330
1F6E
100
AcDbEntity
  8
0
 62
     7
100
AcDbBlockBegin
  2
*D49
 70
     1
 10
0.0
 20
0.0
 30
0.0
  3
*D49
  1

  0
LINE
  5
20B2
330
1F6E
100
AcDbEntity
  8
P-0000
  6
Continuous
 62
     2
370
    -2
100
AcDbLine
 10
1235.470172466877
 20
2553.25229958879
 30
0.0
 11
1175.035109442633
 21
2553.25229958879
 31
0.0
  0
LINE
  5
20B3
330
1F6E
100
AcDbEntity
  8
P-0000
  6
Continuous
 62
     2
370
    -2
100
AcDbLine
 10
1235.224321449581
 20
2515.280389480227
 30
0.0
 11
1175.035109442633
 21
2515.280389480227
 31
0.0
  0
LINE
  5
20B4
330
1F6E
100
AcDbEntity
  8
P-0000
  6
Continuous
 62
     2
370
    -2
100
AcDbLine
 10
1190.035109442633
 20
2573.252299588789
 30
0.0
 11
1190.035109442633
 21
2593.252299588789
 31
0.0
  0
LINE
  5
20B5
330
1F6E
100
AcDbEntity
  8
P-0000
  6
Continuous
 62
     2
370
    -2
100
AcDbLine
 10
1190.035109442633
 20
2495.280389480227
 30
0.0
 11
1190.035109442633
 21
2387.758523591014
 31
0.0
  0
LINE
  5
20B6
330
1F6E
100
AcDbEntity
  8
P-0000
  6
Continuous
 62
     2
370
    -2
100
AcDbLine
 10
1190.035109442633
 20
2553.25229958879
 30
0.0
 11
1190.035109442633
 21
2515.280389480227
 31
0.0
  0
SOLID
  5
20B7
330
1F6E
100
AcDbEntity
  8
P-0000
  6
Continuous
 62
     2
100
AcDbTrace
 10
1186.701776109299
 20
2573.252299588789
 30
0.0
 11
1193.368442775966
 21
2573.252299588789
 31
0.0
 12
1190.035109442633
 22
2553.25229958879
 32
0.0
 13
1190.035109442633
 23
2553.25229958879
 33
0.0
  0
SOLID
  5
20B8
330
1F6E
100
AcDbEntity
  8
P-0000
  6
Continuous
 62
     2
100
AcDbTrace
 10
1186.701776109299
 20
2495.280389480227
 30
0.0
 11
1193.368442775966
 21
2495.280389480227
 31
0.0
 12
1190.035109442633
 22
2515.280389480227
 32
0.0
 13
1190.035109442633
 23
2515.280389480227
 33
0.0
  0
MTEXT
  5
20B9
330
1F6E
100
AcDbEntity
  8
P-0000
  6
Continuous
 62
     1
100
AcDbMText
 10
1169.73627562339
 20
2431.519456535621
 30
0.0
 40
20.0
 41
0.0
 71
     5
 72
     1
  1
\A1;37.97
  7
Stile_Quota
 11
0.0000000000000001
 21
1.0
 31
0.0
 73
     1
 44
1.0
1001
ACAD
1000
MTEXTBEGIN
1070
    73
1070
     1
1070
    44
1040
1.0
1070
    74
1070
     0
1000
MTEXTEND
  0
POINT
  5
20BA
330
1F6E
100
AcDbEntity
  8
Defpoints
  6
Continuous
 62
     0
100
AcDbPoint
 10
1245.470172466877
 20
2553.25229958879
 30
0.0
  0
POINT
  5
20BB
330
1F6E
100
AcDbEntity
  8
Defpoints
  6
Continuous
 62
     0
100
AcDbPoint
 10
1245.224321449581
 20
2515.280389480227
 30
0.0
  0
POINT
  5
20BC
330
1F6E
100
AcDbEntity
  8
Defpoints
  6
Continuous
 62
     0
100
AcDbPoint
 10
1190.035109442633
 20
2515.280389480227
 30
0.0
  0
ENDBLK
  5
1F70
330
1F6E
100
AcDbEntity
  8
0
 62
     7
100
AcDbBlockEnd
  0
ENDSEC
  0
SECTION
  2
ENTITIES
  0
ARC
  5
10A5
330
2
100
AcDbEntity
  8
P-7064
  6
Continuous
 62
   144
100
AcDbCircle
 10
32.44999999675974
 20
15.29708365660099
 30
0.0
 40
0.29999999997
100
AcDbArc
 50
0.0
 51
32.45048682596022
1001
OrigLayer
1000
P-0000
1001
TOP
1070
     7
  0
ARC
  5
10A7
330
2
100
AcDbEntity
  8
P-7064
  6
Continuous
 62
   144
100
AcDbCircle
 10
32.54999999674988
 20
11.1499999988905
 30
0.0
 40
0.19999999998
100
AcDbArc
 50
270.0
 51
0.0
1001
OrigLayer
1000
P-0000
1001
TOP
1070
     7
  0
LINE
  5
10A8
330
2
100
AcDbEntity
  8
P-7064
  6
Continuous
 62
   144
100
AcDbLine
 10
32.74999999672991
 20
15.29708365660099
 30
0.0
 11
32.74999999672991
 21
11.1499999988905
 31
0.0
1001
OrigLayer
1000
P-0000
1001
TOP
1070
     7
  0
ARC
  5
10A9
330
2
100
AcDbEntity
  8
P-7064
  6
Continuous
 62
   144
100
AcDbCircle
 10
30.68725393012983
 20
14.94999999851006
 30
0.0
 40
0.49999999995
100
AcDbArc
 50
270.0
 51
48.59037789064694
1001
OrigLayer
1000
P-0000
1001
TOP
1070
     7
  0
ARC
  5
10AA
330
2
100
AcDbEntity
  8
P-7064
  6
Continuous
 62
   144
100
AcDbCircle
 10
26.94999999730976
 20
14.24999999858028
 30
0.0
 40
0.19999999998
100
AcDbArc
 50
90.0
 51
180.0
1001
OrigLayer
1000
P-0000
1001
TOP
1070
     7
  0
LINE
  5
10AB
330
2
100
AcDbEntity
  8
P-7064
  6
Continuous
 62
   144
100
AcDbLine
 10
26.94999999730976
 20
14.44999999856008
 30
0.0
 11
30.68725393012983
 21
14.44999999856008
 31
0.0
1001
OrigLayer
1000
P-0000
1001
TOP
1070
     7
  0
ARC
  5
10AC
330
2
100
AcDbEntity
  8
P-7064
  6
Continuous
 62
   144
100
AcDbCircle
 10
31.14999999688985
 20
12.84999999872025
 30
0.0
 40
0.09999999999
100
AcDbArc
 50
0.0
 51
90.0
1001
OrigLayer
1000
P-0000
1001
TOP
1070
     7
  0
ARC
  5
10AD
330
2
100
AcDbEntity
  8
P-7064
  6
Continuous
 62
   144
100
AcDbCircle
 10
31.44999999685979
 20
11.1499999988905
 30
0.0
 40
0.19999999998
100
AcDbArc
 50
180.0
 51
270.0
1001
OrigLayer
1000
P-0000
1001
TOP
1070
     7
  0
LINE
  5
10AE
330
2
100
AcDbEntity
  8
P-7064
  6
Continuous
 62
   144
100
AcDbLine
 10
31.24999999687975
 20
12.84999999872025
 30
0.0
 11
31.24999999687975
 21
11.1499999988905
 31
0.0
1001
OrigLayer
1000
P-0000
1001
TOP
1070
     7
  0
ARC
  5
10AF
330
2
100
AcDbEntity
  8
P-7064
  6
Continuous
 62
   144
100
AcDbCircle
 10
26.94999999730976
 20
13.14999999869042
 30
0.0
 40
0.19999999998
100
AcDbArc
 50
180.0
 51
270.0
1001
OrigLayer
1000
P-0000
1001
TOP
1070
     7
  0
LINE
  5
10B0
330
2
100
AcDbEntity
  8
P-7064
  6
Continuous
 62
   144
100
AcDbLine
 10
26.94999999730976
 20
12.94999999871015
 30
0.0
 11
31.14999999688985
 21
12.94999999871015
 31
0.0
1001
OrigLayer
1000
P-0000
1001
TOP
1070
     7
  0
LINE
  5
10B1
330
2
100
AcDbEntity
  8
P-7064
  6
Continuous
 62
   144
100
AcDbLine
 10
26.74999999732972
 20
14.24999999858028
 30
0.0
 11
26.74999999732972
 21
13.14999999869042
 31
0.0
1001
OrigLayer
1000
P-0000
1001
TOP
1070
     7
  0
LINE
  5
10B2
330
2
100
AcDbEntity
  8
P-7064
  6
Continuous
 62
   144
100
AcDbLine
 10
31.44999999685979
 20
10.94999999891024
 30
0.0
 11
32.54999999674988
 21
10.94999999891024
 31
0.0
1001
OrigLayer
1000
P-0000
1001
TOP
1070
     7
  0
ARC
  5
10B3
330
2
100
AcDbEntity
  8
P-7064
  6
Continuous
 62
   144
100
AcDbCircle
 10
20.49999999795978
 20
20.69999999794027
 30
0.0
 40
0.19999999998
100
AcDbArc
 50
0.0
 51
90.0
1001
OrigLayer
1000
P-0000
1001
TOP
1070
     7
  0
LINE
  5
10B4
330
2
100
AcDbEntity
  8
P-7064
  6
Continuous
 62
   144
100
AcDbLine
 10
14.64999999853967
 20
21.19999999789024
 30
0.0
 11
14.64999999853967
 21
20.89999999792053
 31
0.0
1001
OrigLayer
1000
P-0000
1001
TOP
1070
     7
  0
LINE
  5
10B5
330
2
100
AcDbEntity
  8
P-7064
  6
Continuous
 62
   144
100
AcDbLine
 10
12.14999999878978
 20
20.89999999792053
 30
0.0
 11
12.14999999878978
 21
21.19999999789024
 31
0.0
1001
OrigLayer
1000
P-0000
1001
TOP
1070
     7
  0
LINE
  5
10B6
330
2
100
AcDbEntity
  8
P-7064
  6
Continuous
 62
   144
100
AcDbLine
 10
12.14999999878978
 20
21.19999999789024
 30
0.0
 11
14.64999999853967
 21
21.19999999789024
 31
0.0
1001
OrigLayer
1000
P-0000
1001
TOP
1070
     7
  0
LINE
  5
10B7
330
2
100
AcDbEntity
  8
P-7064
  6
Continuous
 62
   144
100
AcDbLine
 10
14.64999999853967
 20
20.89999999792053
 30
0.0
 11
20.44999999795982
 21
20.89999999792053
 31
0.0
1001
OrigLayer
1000
P-0000
1001
TOP
1070
     7
  0
ARC
  5
10B8
330
2
100
AcDbEntity
  8
P-7064
  6
Continuous
 62
   144
100
AcDbCircle
 10
23.24999999767965
 20
17.93957880649304
 30
0.0
 40
0.49999999995
100
AcDbArc
 50
87.6119845367662
 51
180.0
1001
OrigLayer
1000
P-0000
1001
TOP
1070
     7
  0
LINE
  5
10B9
330
2
100
AcDbEntity
  8
P-7064
  6
Continuous
 62
   144
100
AcDbLine
 10
20.69999999793981
 20
14.89999999852034
 30
0.0
 11
20.99999999790975
 21
14.89999999852034
 31
0.0
1001
OrigLayer
1000
P-0000
1001
TOP
1070
     7
  0
LINE
  5
10BA
330
2
100
AcDbEntity
  8
P-7064
  6
Continuous
 62
   144
100
AcDbLine
 10
20.99999999790975
 20
12.39999999877045
 30
0.0
 11
20.69999999793981
 21
12.39999999877045
 31
0.0
1001
OrigLayer
1000
P-0000
1001
TOP
1070
     7
  0
LINE
  5
10BB
330
2
100
AcDbEntity
  8
P-7064
  6
Continuous
 62
   144
100
AcDbLine
 10
20.69999999793981
 20
8.499999999150531
 30
0.0
 11
20.99999999790975
 21
8.499999999150531
 31
0.0
1001
OrigLayer
1000
P-0000
1001
TOP
1070
     7
  0
LINE
  5
10BC
330
2
100
AcDbEntity
  8
P-7064
  6
Continuous
 62
   144
100
AcDbLine
 10
20.69999999793981
 20
12.39999999877045
 30
0.0
 11
20.69999999793981
 21
8.499999999150531
 31
0.0
1001
OrigLayer
1000
P-0000
1001
TOP
1070
     7
  0
LINE
  5
10BD
330
2
100
AcDbEntity
  8
P-7064
  6
Continuous
 62
   144
100
AcDbLine
 10
20.99999999790975
 20
14.89999999852034
 30
0.0
 11
20.99999999790975
 21
12.39999999877045
 31
0.0
1001
OrigLayer
1000
P-0000
1001
TOP
1070
     7
  0
LINE
  5
10BE
330
2
100
AcDbEntity
  8
P-7064
  6
Continuous
 62
   144
100
AcDbLine
 10
22.7499999977299
 20
17.93957880649304
 30
0.0
 11
22.7499999977299
 21
8.157106780376125
 31
0.0
1001
OrigLayer
1000
P-0000
1001
TOP
1070
     7
  0
LINE
  5
10BF
330
2
100
AcDbEntity
  8
P-7064
  6
Continuous
 62
   144
100
AcDbLine
 10
20.69999999793981
 20
20.64999999794054
 30
0.0
 11
20.69999999793981
 21
14.89999999852034
 31
0.0
1001
OrigLayer
1000
P-0000
1001
TOP
1070
     7
  0
ARC
  5
10C0
330
2
100
AcDbEntity
  8
P-7064
  6
Continuous
 62
   144
100
AcDbCircle
 10
17.74999999822989
 20
5.949999999410465
 30
0.0
 40
17.72004514489734
100
AcDbArc
 50
32.45048682596022
 51
73.61045966599462
1001
OrigLayer
1000
P-0000
1001
TOP
1070
     7
  0
ARC
  5
10C1
330
2
100
AcDbEntity
  8
P-7064
  6
Continuous
 62
   144
100
AcDbCircle
 10
22.7499999977299
 20
5.949999999410465
 30
0.0
 40
12.49999999875
100
AcDbArc
 50
48.59037789064694
 51
87.6119845367662
1001
OrigLayer
1000
P-0000
1001
TOP
1070
     7
  0
LINE
  5
10C2
330
2
100
AcDbEntity
  8
P-7064
  6
Continuous
 62
   144
100
AcDbLine
 10
35.74999999642978
 20
0.8499999999203282
 30
0.0
 11
35.74999999642978
 21
0.7653415615022823
 31
0.0
1001
OrigLayer
1000
P-0000
1001
TOP
1070
     7
  0
ARC
  5
10C3
330
2
100
AcDbEntity
  8
P-7064
  6
Continuous
 62
   144
100
AcDbCircle
 10
35.64999999643987
 20
0.7653415615022823
 30
0.0
 40
0.09999999999
100
AcDbArc
 50
315.9803173200498
 51
0.0
1001
OrigLayer
1000
P-0000
1001
TOP
1070
     7
  0
ARC
  5
10C4
330
2
100
AcDbEntity
  8
P-7064
  6
Continuous
 62
   144
100
AcDbCircle
 10
35.64999999643987
 20
0.8499999999203282
 30
0.0
 40
0.09999999999
100
AcDbArc
 50
0.0
 51
90.0
1001
OrigLayer
1000
P-0000
1001
TOP
1070
     7
  0
ARC
  5
10C5
330
2
100
AcDbEntity
  8
P-7064
  6
Continuous
 62
   144
100
AcDbCircle
 10
33.81618001935545
 20
0.7499999999304237
 30
0.0
 40
0.19999999998
100
AcDbArc
 50
90.0
 51
126.3709270857175
1001
OrigLayer
1000
P-0000
1001
TOP
1070
     7
  0
LINE
  5
10C6
330
2
100
AcDbEntity
  8
P-7064
  6
Continuous
 62
   144
100
AcDbLine
 10
33.81618001935545
 20
0.9499999999102328
 30
0.0
 11
35.64999999643987
 21
0.9499999999102328
 31
0.0
1001
OrigLayer
1000
P-0000
1001
TOP
1070
     7
  0
ARC
  5
10C7
330
2
100
AcDbEntity
  8
P-7064
  6
Continuous
 62
   144
100
AcDbCircle
 10
24.54999999754978
 20
-0.2499999999699867
 30
0.0
 40
0.29999999997
100
AcDbArc
 50
180.0
 51
270.0
1001
OrigLayer
1000
P-0000
1001
TOP
1070
     7
  0
LINE
  5
10C8
330
2
100
AcDbEntity
  8
P-7064
  6
Continuous
 62
   144
100
AcDbLine
 10
29.24999999707984
 20
-0.5499999999397005
 30
0.0
 11
24.54999999754978
 21
-0.5499999999397005
 31
0.0
1001
OrigLayer
1000
P-0000
1001
TOP
1070
     7
  0
LINE
  5
10C9
330
2
100
AcDbEntity
  8
P-7064
  6
Continuous
 62
   144
100
AcDbLine
 10
24.24999999757961
 20
3.649999999640385
 30
0.0
 11
24.24999999757961
 21
-0.2499999999699867
 31
0.0
1001
OrigLayer
1000
P-0000
1001
TOP
1070
     7
  0
ARC
  5
10CA
330
2
100
AcDbEntity
  8
P-7064
  6
Continuous
 62
   144
100
AcDbCircle
 10
29.24999999707984
 20
6.949999999310421
 30
0.0
 40
7.499999999249999
100
AcDbArc
 50
270.0
 51
306.3709270857175
1001
OrigLayer
1000
P-0000
1001
TOP
1070
     7
  0
ARC
  5
10CB
330
2
100
AcDbEntity
  8
P-7064
  6
Continuous
 62
   144
100
AcDbCircle
 10
29.24999999707984
 20
6.949999999310421
 30
0.0
 40
8.999999999099999
100
AcDbArc
 50
270.0
 51
315.9803173200498
1001
OrigLayer
1000
P-0000
1001
TOP
1070
     7
  0
ARC
  5
10CC
330
2
100
AcDbEntity
  8
P-7064
  6
Continuous
 62
   144
100
AcDbCircle
 10
23.04999999769984
 20
4.249999999580268
 30
0.0
 40
0.29999999997
100
AcDbArc
 50
180.0
 51
270.0
1001
OrigLayer
1000
P-0000
1001
TOP
1070
     7
  0
LINE
  5
10CD
330
2
100
AcDbEntity
  8
P-7064
  6
Continuous
 62
   144
100
AcDbLine
 10
23.04999999769984
 20
3.949999999610099
 30
0.0
 11
23.94999999760989
 21
3.949999999610099
 31
0.0
1001
OrigLayer
1000
P-0000
1001
TOP
1070
     7
  0
LINE
  5
10CE
330
2
100
AcDbEntity
  8
P-7064
  6
Continuous
 62
   144
100
AcDbLine
 10
20.99999999790975
 20
5.999999999400188
 30
0.0
 11
20.69999999793981
 21
5.999999999400188
 31
0.0
1001
OrigLayer
1000
P-0000
1001
TOP
1070
     7
  0
LINE
  5
10CF
330
2
100
AcDbEntity
  8
P-7064
  6
Continuous
 62
   144
100
AcDbLine
 10
22.7499999977299
 20
6.742893218144672
 30
0.0
 11
22.7499999977299
 21
4.249999999580268
 31
0.0
1001
OrigLayer
1000
P-0000
1001
TOP
1070
     7
  0
ARC
  5
10D0
330
2
100
AcDbEntity
  8
P-7064
  6
Continuous
 62
   144
100
AcDbCircle
 10
20.49999999795978
 20
0.199999999980264
 30
0.0
 40
0.19999999998
100
AcDbArc
 50
270.0
 51
0.0
1001
OrigLayer
1000
P-0000
1001
TOP
1070
     7
  0
LWPOLYLINE
  5
10D1
330
2
100
AcDbEntity
  8
P-7064
  6
Continuous
 62
   144
100
AcDbPolyline
 90
        3
 70
     0
 43
0.0
 10
22.04289321661395
 20
-2.049999999789633
 10
22.7499999977299
 20
-1.342893218673907
 10
23.45710677884563
 20
-2.049999999789633
1001
OrigLayer
1000
P-0000
1001
TOP
1070
     7
  0
LINE
  5
10D2
330
2
100
AcDbEntity
  8
P-7064
  6
Continuous
 62
   144
100
AcDbLine
 10
20.69999999793981
 20
5.999999999400188
 30
0.0
 11
20.69999999793981
 21
0.2499999999804459
 31
0.0
1001
OrigLayer
1000
P-0000
1001
TOP
1070
     7
  0
LINE
  5
10D3
330
2
100
AcDbEntity
  8
P-7064
  6
Continuous
 62
   144
100
AcDbLine
 10
14.64999999853967
 20
0.0000000000004547
 30
0.0
 11
14.64999999853967
 21
-0.2999999999697138
 31
0.0
1001
OrigLayer
1000
P-0000
1001
TOP
1070
     7
  0
LINE
  5
10D4
330
2
100
AcDbEntity
  8
P-7064
  6
Continuous
 62
   144
100
AcDbLine
 10
12.14999999878978
 20
-0.2999999999697138
 30
0.0
 11
12.14999999878978
 21
0.0000000000004547
 31
0.0
1001
OrigLayer
1000
P-0000
1001
TOP
1070
     7
  0
LINE
  5
10D5
330
2
100
AcDbEntity
  8
P-7064
  6
Continuous
 62
   144
100
AcDbLine
 10
14.64999999853967
 20
-0.2999999999697138
 30
0.0
 11
12.14999999878978
 21
-0.2999999999697138
 31
0.0
1001
OrigLayer
1000
P-0000
1001
TOP
1070
     7
  0
LINE
  5
10D6
330
2
100
AcDbEntity
  8
P-7064
  6
Continuous
 62
   144
100
AcDbLine
 10
20.44999999795982
 20
0.0000000000004547
 30
0.0
 11
14.64999999853967
 21
0.0000000000004547
 31
0.0
1001
OrigLayer
1000
P-0000
1001
TOP
1070
     7
  0
LINE
  5
10D7
330
2
100
AcDbEntity
  8
P-7064
  6
Continuous
 62
   144
100
AcDbLine
 10
23.45710677884563
 20
-2.049999999789633
 30
0.0
 11
29.24999999707984
 21
-2.049999999789633
 31
0.0
1001
OrigLayer
1000
P-0000
1001
TOP
1070
     7
  0
ARC
  5
10D8
330
2
100
AcDbEntity
  8
P-7064
  6
Continuous
 62
   144
100
AcDbCircle
 10
23.94999999760989
 20
3.649999999640385
 30
0.0
 40
0.29999999997
100
AcDbArc
 50
0.0
 51
90.0
1001
OrigLayer
1000
P-0000
1001
TOP
1070
     7
  0
LINE
  5
10D9
330
2
100
AcDbEntity
  8
P-7064
  6
Continuous
 62
   144
100
AcDbLine
 10
20.99999999790975
 20
8.499999999150531
 30
0.0
 11
20.99999999790975
 21
5.999999999400188
 31
0.0
1001
OrigLayer
1000
P-0000
1001
TOP
1070
     7
  0
LWPOLYLINE
  5
10DA
330
2
100
AcDbEntity
  8
P-7064
  6
Continuous
 62
   144
100
AcDbPolyline
 90
        3
 70
     0
 43
0.0
 10
22.7499999977299
 20
6.742893218144672
 10
22.04289321661395
 20
7.449999999260398
 10
22.7499999977299
 20
8.157106780376125
1001
OrigLayer
1000
P-0000
1001
TOP
1070
     7
  0
LINE
  5
10DB
330
2
100
AcDbEntity
  8
P-7064
  6
Continuous
 62
   144
100
AcDbLine
 10
8.349999999169767
 20
21.19999999789024
 30
0.0
 11
8.349999999169767
 21
20.89999999792053
 31
0.0
1001
OrigLayer
1000
P-0000
1001
TOP
1070
     7
  0
LINE
  5
10DC
330
2
100
AcDbEntity
  8
P-7064
  6
Continuous
 62
   144
100
AcDbLine
 10
5.849999999419878
 20
20.89999999792053
 30
0.0
 11
5.849999999419878
 21
21.19999999789024
 31
0.0
1001
OrigLayer
1000
P-0000
1001
TOP
1070
     7
  0
LINE
  5
10DD
330
2
100
AcDbEntity
  8
P-7064
  6
Continuous
 62
   144
100
AcDbLine
 10
5.849999999419878
 20
21.19999999789024
 30
0.0
 11
8.349999999169767
 21
21.19999999789024
 31
0.0
1001
OrigLayer
1000
P-0000
1001
TOP
1070
     7
  0
ARC
  5
10DE
330
2
100
AcDbEntity
  8
P-7064
  6
Continuous
 62
   144
100
AcDbCircle
 10
0.0
 20
20.69999999794027
 30
0.0
 40
0.19999999998
100
AcDbArc
 50
90.0
 51
180.0
1001
OrigLayer
1000
P-0000
1001
TOP
1070
     7
  0
LINE
  5
10DF
330
2
100
AcDbEntity
  8
P-7064
  6
Continuous
 62
   144
100
AcDbLine
 10
0.0499999999999545
 20
20.89999999792053
 30
0.0
 11
5.849999999419878
 21
20.89999999792053
 31
0.0
1001
OrigLayer
1000
P-0000
1001
TOP
1070
     7
  0
LINE
  5
10E0
330
2
100
AcDbEntity
  8
P-7064
  6
Continuous
 62
   144
100
AcDbLine
 10
-0.4999999999502052
 20
14.89999999852034
 30
0.0
 11
-0.199999999980264
 21
14.89999999852034
 31
0.0
1001
OrigLayer
1000
P-0000
1001
TOP
1070
     7
  0
LINE
  5
10E1
330
2
100
AcDbEntity
  8
P-7064
  6
Continuous
 62
   144
100
AcDbLine
 10
-0.199999999980264
 20
12.39999999877045
 30
0.0
 11
-0.4999999999502052
 21
12.39999999877045
 31
0.0
1001
OrigLayer
1000
P-0000
1001
TOP
1070
     7
  0
LINE
  5
10E2
330
2
100
AcDbEntity
  8
P-7064
  6
Continuous
 62
   144
100
AcDbLine
 10
-0.4999999999502052
 20
8.499999999150531
 30
0.0
 11
-0.199999999980264
 21
8.499999999150531
 31
0.0
1001
OrigLayer
1000
P-0000
1001
TOP
1070
     7
  0
LINE
  5
10E3
330
2
100
AcDbEntity
  8
P-7064
  6
Continuous
 62
   144
100
AcDbLine
 10
-0.199999999980264
 20
8.499999999150531
 30
0.0
 11
-0.199999999980264
 21
12.39999999877045
 31
0.0
1001
OrigLayer
1000
P-0000
1001
TOP
1070
     7
  0
LINE
  5
10E4
330
2
100
AcDbEntity
  8
P-7064
  6
Continuous
 62
   144
100
AcDbLine
 10
-0.4999999999502052
 20
12.39999999877045
 30
0.0
 11
-0.4999999999502052
 21
14.89999999852034
 31
0.0
1001
OrigLayer
1000
P-0000
1001
TOP
1070
     7
  0
LINE
  5
10E5
330
2
100
AcDbEntity
  8
P-7064
  6
Continuous
 62
   144
100
AcDbLine
 10
-0.199999999980264
 20
14.89999999852034
 30
0.0
 11
-0.199999999980264
 21
20.64999999794054
 31
0.0
1001
OrigLayer
1000
P-0000
1001
TOP
1070
     7
  0
LINE
  5
10E6
330
2
100
AcDbEntity
  8
P-7064
  6
Continuous
 62
   144
100
AcDbLine
 10
8.349999999169767
 20
0.0000000000004547
 30
0.0
 11
8.349999999169767
 21
-0.2999999999697138
 31
0.0
1001
OrigLayer
1000
P-0000
1001
TOP
1070
     7
  0
LINE
  5
10E7
330
2
100
AcDbEntity
  8
P-7064
  6
Continuous
 62
   144
100
AcDbLine
 10
5.849999999419878
 20
-0.2999999999697138
 30
0.0
 11
5.849999999419878
 21
0.0000000000004547
 31
0.0
1001
OrigLayer
1000
P-0000
1001
TOP
1070
     7
  0
LINE
  5
10E8
330
2
100
AcDbEntity
  8
P-7064
  6
Continuous
 62
   144
100
AcDbLine
 10
8.349999999169767
 20
-0.2999999999697138
 30
0.0
 11
5.849999999419878
 21
-0.2999999999697138
 31
0.0
1001
OrigLayer
1000
P-0000
1001
TOP
1070
     7
  0
LINE
  5
10E9
330
2
100
AcDbEntity
  8
P-7064
  6
Continuous
 62
   144
100
AcDbLine
 10
-0.199999999980264
 20
5.999999999400188
 30
0.0
 11
-0.4999999999502052
 21
5.999999999400188
 31
0.0
1001
OrigLayer
1000
P-0000
1001
TOP
1070
     7
  0
ARC
  5
10EA
330
2
100
AcDbEntity
  8
P-7064
  6
Continuous
 62
   144
100
AcDbCircle
 10
0.0
 20
0.199999999980264
 30
0.0
 40
0.19999999998
100
AcDbArc
 50
180.0
 51
270.0
1001
OrigLayer
1000
P-0000
1001
TOP
1070
     7
  0
ARC
  5
10EB
330
2
100
AcDbEntity
  8
P-7064
  6
Continuous
 62
   144
100
AcDbCircle
 10
0.2499999999797637
 20
0.4499999999602551
 30
0.0
 40
2.499999999749999
100
AcDbArc
 50
180.0
 51
270.0
1001
OrigLayer
1000
P-0000
1001
TOP
1070
     7
  0
LINE
  5
10EC
330
2
100
AcDbEntity
  8
P-7064
  6
Continuous
 62
   144
100
AcDbLine
 10
-0.199999999980264
 20
0.2499999999804459
 30
0.0
 11
-0.199999999980264
 21
5.999999999400188
 31
0.0
1001
OrigLayer
1000
P-0000
1001
TOP
1070
     7
  0
LINE
  5
10ED
330
2
100
AcDbEntity
  8
P-7064
  6
Continuous
 62
   144
100
AcDbLine
 10
5.849999999419878
 20
0.0000000000004547
 30
0.0
 11
0.0499999999999545
 21
0.0000000000004547
 31
0.0
1001
OrigLayer
1000
P-0000
1001
TOP
1070
     7
  0
LINE
  5
10EE
330
2
100
AcDbEntity
  8
P-7064
  6
Continuous
 62
   144
100
AcDbLine
 10
-2.249999999770125
 20
0.4499999999602551
 30
0.0
 11
-2.249999999770125
 21
20.44999999796027
 31
0.0
1001
OrigLayer
1000
P-0000
1001
TOP
1070
     7
  0
LINE
  5
10EF
330
2
100
AcDbEntity
  8
P-7064
  6
Continuous
 62
   144
100
AcDbLine
 10
-0.4999999999502052
 20
5.999999999400188
 30
0.0
 11
-0.4999999999502052
 21
8.499999999150531
 31
0.0
1001
OrigLayer
1000
P-0000
1001
TOP
1070
     7
  0
LINE
  5
10F0
330
2
100
AcDbEntity
  8
P-7064
  6
Continuous
 62
   144
100
AcDbLine
 10
22.04289321661395
 20
-2.049999999789633
 30
0.0
 11
0.2499999999797637
 21
-2.049999999789633
 31
0.0
1001
OrigLayer
1000
P-0000
1001
TOP
1070
     7
  0
LINE
  5
10F1
330
2
100
AcDbEntity
  8
P-7064
  6
Continuous
 62
   144
100
AcDbLine
 10
12.14999999878978
 20
0.0000000000004547
 30
0.0
 11
8.349999999169767
 21
0.0000000000004547
 31
0.0
1001
OrigLayer
1000
P-0000
1001
TOP
1070
     7
  0
LINE
  5
10F2
330
2
100
AcDbEntity
  8
P-7064
  6
Continuous
 62
   144
100
AcDbLine
 10
8.349999999169767
 20
20.89999999792053
 30
0.0
 11
12.14999999878978
 21
20.89999999792053
 31
0.0
1001
OrigLayer
1000
P-0000
1001
TOP
1070
     7
  0
ARC
  5
10F3
330
2
100
AcDbEntity
  8
P-7064
  6
Continuous
 62
   144
100
AcDbCircle
 10
15.09708365662095
 20
32.64999999674046
 30
0.0
 40
0.29999999997
100
AcDbArc
 50
57.54951317404677
 51
90.0
1001
OrigLayer
1000
P-0000
1001
TOP
1070
     7
  0
ARC
  5
10F4
330
2
100
AcDbEntity
  8
P-7064
  6
Continuous
 62
   144
100
AcDbCircle
 10
14.74999999853003
 20
30.88725393011055
 30
0.0
 40
0.49999999995
100
AcDbArc
 50
41.40962210925997
 51
180.0
1001
OrigLayer
1000
P-0000
1001
TOP
1070
     7
  0
ARC
  5
10F5
330
2
100
AcDbEntity
  8
P-7064
  6
Continuous
 62
   144
100
AcDbCircle
 10
14.04999999859979
 20
28.15333333052786
 30
0.0
 40
0.19999999998
100
AcDbArc
 50
270.0
 51
0.0
1001
OrigLayer
1000
P-0000
1001
TOP
1070
     7
  0
LINE
  5
10F6
330
2
100
AcDbEntity
  8
P-7064
  6
Continuous
 62
   144
100
AcDbLine
 10
14.24999999857982
 20
28.15333333052786
 30
0.0
 11
14.24999999857982
 21
30.88725393011055
 31
0.0
1001
OrigLayer
1000
P-0000
1001
TOP
1070
     7
  0
ARC
  5
10F7
330
2
100
AcDbEntity
  8
P-7064
  6
Continuous
 62
   144
100
AcDbCircle
 10
17.73957880651301
 20
23.44999999766014
 30
0.0
 40
0.49999999995
100
AcDbArc
 50
270.0
 51
2.388015463233805
1001
OrigLayer
1000
P-0000
1001
TOP
1070
     7
  0
LINE
  5
10F8
330
2
100
AcDbEntity
  8
P-7064
  6
Continuous
 62
   144
100
AcDbLine
 10
14.64999999853967
 20
20.89999999792053
 30
0.0
 11
14.64999999853967
 21
21.19999999789024
 31
0.0
1001
OrigLayer
1000
P-0000
1001
TOP
1070
     7
  0
ARC
  5
10F9
330
2
100
AcDbEntity
  8
P-7064
  6
Continuous
 62
   144
100
AcDbCircle
 10
5.749999999429519
 20
22.94999999771016
 30
0.0
 40
12.49999999875
100
AcDbArc
 50
2.388015463233805
 51
41.40962210925997
1001
OrigLayer
1000
P-0000
1001
TOP
1070
     7
  0
LINE
  5
10FA
330
2
100
AcDbEntity
  8
P-7064
  6
Continuous
 62
   144
100
AcDbLine
 10
20.49999999795978
 20
20.89999999792053
 30
0.0
 11
14.64999999853967
 21
20.89999999792053
 31
0.0
1001
OrigLayer
1000
P-0000
1001
TOP
1070
     7
  0
LINE
  5
10FB
330
2
100
AcDbEntity
  8
P-7064
  6
Continuous
 62
   144
100
AcDbLine
 10
20.99999999790975
 20
14.89999999852034
 30
0.0
 11
20.69999999793981
 21
14.89999999852034
 31
0.0
1001
OrigLayer
1000
P-0000
1001
TOP
1070
     7
  0
LINE
  5
10FC
330
2
100
AcDbEntity
  8
P-7064
  6
Continuous
 62
   144
100
AcDbLine
 10
20.69999999793981
 20
12.39999999877045
 30
0.0
 11
20.99999999790975
 21
12.39999999877045
 31
0.0
1001
OrigLayer
1000
P-0000
1001
TOP
1070
     7
  0
LINE
  5
10FD
330
2
100
AcDbEntity
  8
P-7064
  6
Continuous
 62
   144
100
AcDbLine
 10
20.99999999790975
 20
12.39999999877045
 30
0.0
 11
20.99999999790975
 21
14.89999999852034
 31
0.0
1001
OrigLayer
1000
P-0000
1001
TOP
1070
     7
  0
LINE
  5
10FE
330
2
100
AcDbEntity
  8
P-7064
  6
Continuous
 62
   144
100
AcDbLine
 10
20.99999999790975
 20
8.499999999150531
 30
0.0
 11
20.69999999793981
 21
8.499999999150531
 31
0.0
1001
OrigLayer
1000
P-0000
1001
TOP
1070
     7
  0
LINE
  5
10FF
330
2
100
AcDbEntity
  8
P-7064
  6
Continuous
 62
   144
100
AcDbLine
 10
20.69999999793981
 20
5.999999999400188
 30
0.0
 11
20.99999999790975
 21
5.999999999400188
 31
0.0
1001
OrigLayer
1000
P-0000
1001
TOP
1070
     7
  0
LINE
  5
1100
330
2
100
AcDbEntity
  8
P-7064
  6
Continuous
 62
   144
100
AcDbLine
 10
20.99999999790975
 20
5.999999999400188
 30
0.0
 11
20.99999999790975
 21
8.499999999150531
 31
0.0
1001
OrigLayer
1000
P-0000
1001
TOP
1070
     7
  0
LINE
  5
1101
330
2
100
AcDbEntity
  8
P-7064
  6
Continuous
 62
   144
100
AcDbLine
 10
20.69999999793981
 20
8.499999999150531
 30
0.0
 11
20.69999999793981
 21
12.39999999877045
 31
0.0
1001
OrigLayer
1000
P-0000
1001
TOP
1070
     7
  0
LINE
  5
1102
330
2
100
AcDbEntity
  8
P-7064
  6
Continuous
 62
   144
100
AcDbLine
 10
20.69999999793981
 20
14.89999999852034
 30
0.0
 11
20.69999999793981
 21
20.69999999794027
 31
0.0
1001
OrigLayer
1000
P-0000
1001
TOP
1070
     7
  0
ARC
  5
1103
330
2
100
AcDbEntity
  8
P-7064
  6
Continuous
 62
   144
100
AcDbCircle
 10
5.749999999429519
 20
17.94999999821039
 30
0.0
 40
17.72004514489734
100
AcDbArc
 50
16.38954033400537
 51
57.54951317404677
1001
OrigLayer
1000
P-0000
1001
TOP
1070
     7
  0
LINE
  5
1104
330
2
100
AcDbEntity
  8
P-7064
  6
Continuous
 62
   144
100
AcDbLine
 10
14.64999999853967
 20
-0.2999999999697138
 30
0.0
 11
14.64999999853967
 21
0.0000000000004547
 31
0.0
1001
OrigLayer
1000
P-0000
1001
TOP
1070
     7
  0
LINE
  5
1105
330
2
100
AcDbEntity
  8
P-7064
  6
Continuous
 62
   144
100
AcDbLine
 10
14.64999999853967
 20
0.0000000000004547
 30
0.0
 11
20.49999999795978
 21
0.0000000000004547
 31
0.0
1001
OrigLayer
1000
P-0000
1001
TOP
1070
     7
  0
LINE
  5
1106
330
2
100
AcDbEntity
  8
P-7064
  6
Continuous
 62
   144
100
AcDbLine
 10
20.69999999793981
 20
0.199999999980264
 30
0.0
 11
20.69999999793981
 21
5.999999999400188
 31
0.0
1001
OrigLayer
1000
P-0000
1001
TOP
1070
     7
  0
ARC
  5
1107
330
2
100
AcDbEntity
  8
P-7064
  6
Continuous
 62
   144
100
AcDbCircle
 10
10.94999999890979
 20
32.74999999673037
 30
0.0
 40
0.19999999998
100
AcDbArc
 50
90.0
 51
180.0
1001
OrigLayer
1000
P-0000
1001
TOP
1070
     7
  0
ARC
  5
1108
330
2
100
AcDbEntity
  8
P-7064
  6
Continuous
 62
   144
100
AcDbCircle
 10
0.6499999999396096
 20
35.84999999642014
 30
0.0
 40
0.09999999999
100
AcDbArc
 50
0.0
 51
90.0
1001
OrigLayer
1000
P-0000
1001
TOP
1070
     7
  0
ARC
  5
1109
330
2
100
AcDbEntity
  8
P-7064
  6
Continuous
 62
   144
100
AcDbCircle
 10
0.5653415615220183
 20
35.84999999642014
 30
0.0
 40
0.09999999999
100
AcDbArc
 50
90.0
 51
134.0196826799686
1001
OrigLayer
1000
P-0000
1001
TOP
1070
     7
  0
LINE
  5
110A
330
2
100
AcDbEntity
  8
P-7064
  6
Continuous
 62
   144
100
AcDbLine
 10
0.6499999999396096
 20
35.9499999964105
 30
0.0
 11
0.5653415615220183
 21
35.9499999964105
 31
0.0
1001
OrigLayer
1000
P-0000
1001
TOP
1070
     7
  0
ARC
  5
110B
330
2
100
AcDbEntity
  8
P-7064
  6
Continuous
 62
   144
100
AcDbCircle
 10
0.5499999999499324
 20
34.01618001933594
 30
0.0
 40
0.19999999998
100
AcDbArc
 50
323.6290729143477
 51
0.0
1001
OrigLayer
1000
P-0000
1001
TOP
1070
     7
  0
LINE
  5
110C
330
2
100
AcDbEntity
  8
P-7064
  6
Continuous
 62
   144
100
AcDbLine
 10
0.7499999999297416
 20
34.01618001933594
 30
0.0
 11
0.7499999999297416
 21
35.84999999642014
 31
0.0
1001
OrigLayer
1000
P-0000
1001
TOP
1070
     7
  0
ARC
  5
110D
330
2
100
AcDbEntity
  8
P-7064
  6
Continuous
 62
   144
100
AcDbCircle
 10
12.64999999873976
 20
31.34999999687034
 30
0.0
 40
0.09999999999
100
AcDbArc
 50
0.0
 51
90.0
1001
OrigLayer
1000
P-0000
1001
TOP
1070
     7
  0
ARC
  5
110E
330
2
100
AcDbEntity
  8
P-7064
  6
Continuous
 62
   144
100
AcDbCircle
 10
10.94999999890979
 20
31.64999999684051
 30
0.0
 40
0.19999999998
100
AcDbArc
 50
180.0
 51
270.0
1001
OrigLayer
1000
P-0000
1001
TOP
1070
     7
  0
LINE
  5
110F
330
2
100
AcDbEntity
  8
P-7064
  6
Continuous
 62
   144
100
AcDbLine
 10
12.64999999873976
 20
31.44999999686024
 30
0.0
 11
10.94999999890979
 21
31.44999999686024
 31
0.0
1001
OrigLayer
1000
P-0000
1001
TOP
1070
     7
  0
ARC
  5
1110
330
2
100
AcDbEntity
  8
P-7064
  6
Continuous
 62
   144
100
AcDbCircle
 10
12.94999999870993
 20
28.15333333052786
 30
0.0
 40
0.19999999998
100
AcDbArc
 50
180.0
 51
270.0
1001
OrigLayer
1000
P-0000
1001
TOP
1070
     7
  0
LINE
  5
1111
330
2
100
AcDbEntity
  8
P-7064
  6
Continuous
 62
   144
100
AcDbLine
 10
12.74999999873012
 20
28.15333333052786
 30
0.0
 11
12.74999999873012
 21
31.34999999687034
 31
0.0
1001
OrigLayer
1000
P-0000
1001
TOP
1070
     7
  0
LINE
  5
1112
330
2
100
AcDbEntity
  8
P-7064
  6
Continuous
 62
   144
100
AcDbLine
 10
12.14999999878978
 20
21.19999999789024
 30
0.0
 11
12.14999999878978
 21
20.89999999792053
 31
0.0
1001
OrigLayer
1000
P-0000
1001
TOP
1070
     7
  0
LINE
  5
1113
330
2
100
AcDbEntity
  8
P-7064
  6
Continuous
 62
   144
100
AcDbLine
 10
8.349999999169767
 20
20.89999999792053
 30
0.0
 11
8.349999999169767
 21
21.19999999789024
 31
0.0
1001
OrigLayer
1000
P-0000
1001
TOP
1070
     7
  0
LINE
  5
1114
330
2
100
AcDbEntity
  8
P-7064
  6
Continuous
 62
   144
100
AcDbLine
 10
12.14999999878978
 20
20.89999999792053
 30
0.0
 11
8.349999999169767
 21
20.89999999792053
 31
0.0
1001
OrigLayer
1000
P-0000
1001
TOP
1070
     7
  0
LWPOLYLINE
  5
1115
330
2
100
AcDbEntity
  8
P-7064
  6
Continuous
 62
   144
100
AcDbPolyline
 90
        3
 70
     0
 43
0.0
 10
6.542893218163953
 20
22.94999999771016
 10
7.24999999927968
 20
22.24289321659444
 10
7.957106780395406
 20
22.94999999771016
1001
OrigLayer
1000
P-0000
1001
TOP
1070
     7
  0
LINE
  5
1116
330
2
100
AcDbEntity
  8
P-7064
  6
Continuous
 62
   144
100
AcDbLine
 10
3.749999999629608
 20
23.24999999768033
 30
0.0
 11
3.749999999629608
 21
24.14999999759039
 31
0.0
1001
OrigLayer
1000
P-0000
1001
TOP
1070
     7
  0
ARC
  5
1117
330
2
100
AcDbEntity
  8
P-7064
  6
Continuous
 62
   144
100
AcDbCircle
 10
3.449999999659894
 20
24.14999999759039
 30
0.0
 40
0.29999999997
100
AcDbArc
 50
0.0
 51
90.0
1001
OrigLayer
1000
P-0000
1001
TOP
1070
     7
  0
ARC
  5
1118
330
2
100
AcDbEntity
  8
P-7064
  6
Continuous
 62
   144
100
AcDbCircle
 10
4.049999999599776
 20
23.24999999768033
 30
0.0
 40
0.29999999997
100
AcDbArc
 50
180.0
 51
270.0
1001
OrigLayer
1000
P-0000
1001
TOP
1070
     7
  0
LINE
  5
1119
330
2
100
AcDbEntity
  8
P-7064
  6
Continuous
 62
   144
100
AcDbLine
 10
5.849999999419878
 20
21.19999999789024
 30
0.0
 11
5.849999999419878
 21
20.89999999792053
 31
0.0
1001
OrigLayer
1000
P-0000
1001
TOP
1070
     7
  0
LINE
  5
111A
330
2
100
AcDbEntity
  8
P-7064
  6
Continuous
 62
   144
100
AcDbLine
 10
6.542893218163953
 20
22.94999999771016
 30
0.0
 11
4.049999999599776
 21
22.94999999771016
 31
0.0
1001
OrigLayer
1000
P-0000
1001
TOP
1070
     7
  0
LINE
  5
111B
330
2
100
AcDbEntity
  8
P-7064
  6
Continuous
 62
   144
100
AcDbLine
 10
8.349999999169767
 20
21.19999999789024
 30
0.0
 11
5.849999999419878
 21
21.19999999789024
 31
0.0
1001
OrigLayer
1000
P-0000
1001
TOP
1070
     7
  0
ARC
  5
111C
330
2
100
AcDbEntity
  8
P-7064
  6
Continuous
 62
   144
100
AcDbCircle
 10
-0.4499999999500233
 20
24.74999999753027
 30
0.0
 40
0.29999999997
100
AcDbArc
 50
180.0
 51
270.0
1001
OrigLayer
1000
P-0000
1001
TOP
1070
     7
  0
LWPOLYLINE
  5
111D
330
2
100
AcDbEntity
  8
P-7064
  6
Continuous
 62
   144
100
AcDbPolyline
 90
        3
 70
     0
 43
0.0
 10
-2.249999999770125
 20
22.24289321659444
 10
-1.542893218654398
 20
22.94999999771016
 10
-2.249999999770125
 20
23.65710677882635
1001
OrigLayer
1000
P-0000
1001
TOP
1070
     7
  0
LINE
  5
111E
330
2
100
AcDbEntity
  8
P-7064
  6
Continuous
 62
   144
100
AcDbLine
 10
-0.7499999999201919
 20
29.44999999706033
 30
0.0
 11
-0.7499999999201919
 21
24.74999999753027
 31
0.0
1001
OrigLayer
1000
P-0000
1001
TOP
1070
     7
  0
LINE
  5
111F
330
2
100
AcDbEntity
  8
P-7064
  6
Continuous
 62
   144
100
AcDbLine
 10
-2.249999999770125
 20
23.65710677882635
 30
0.0
 11
-2.249999999770125
 21
29.44999999706033
 31
0.0
1001
OrigLayer
1000
P-0000
1001
TOP
1070
     7
  0
LINE
  5
1120
330
2
100
AcDbEntity
  8
P-7064
  6
Continuous
 62
   144
100
AcDbLine
 10
-0.4999999999502052
 20
14.89999999852034
 30
0.0
 11
-0.4999999999502052
 21
12.39999999877045
 31
0.0
1001
OrigLayer
1000
P-0000
1001
TOP
1070
     7
  0
LINE
  5
1121
330
2
100
AcDbEntity
  8
P-7064
  6
Continuous
 62
   144
100
AcDbLine
 10
-0.199999999980264
 20
14.89999999852034
 30
0.0
 11
-0.4999999999502052
 21
14.89999999852034
 31
0.0
1001
OrigLayer
1000
P-0000
1001
TOP
1070
     7
  0
LINE
  5
1122
330
2
100
AcDbEntity
  8
P-7064
  6
Continuous
 62
   144
100
AcDbLine
 10
-0.4999999999502052
 20
12.39999999877045
 30
0.0
 11
-0.199999999980264
 21
12.39999999877045
 31
0.0
1001
OrigLayer
1000
P-0000
1001
TOP
1070
     7
  0
LINE
  5
1123
330
2
100
AcDbEntity
  8
P-7064
  6
Continuous
 62
   144
100
AcDbLine
 10
-0.4999999999502052
 20
8.499999999150531
 30
0.0
 11
-0.4999999999502052
 21
5.999999999400188
 31
0.0
1001
OrigLayer
1000
P-0000
1001
TOP
1070
     7
  0
LINE
  5
1124
330
2
100
AcDbEntity
  8
P-7064
  6
Continuous
 62
   144
100
AcDbLine
 10
-0.199999999980264
 20
8.499999999150531
 30
0.0
 11
-0.4999999999502052
 21
8.499999999150531
 31
0.0
1001
OrigLayer
1000
P-0000
1001
TOP
1070
     7
  0
LINE
  5
1125
330
2
100
AcDbEntity
  8
P-7064
  6
Continuous
 62
   144
100
AcDbLine
 10
-0.4999999999502052
 20
5.999999999400188
 30
0.0
 11
-0.199999999980264
 21
5.999999999400188
 31
0.0
1001
OrigLayer
1000
P-0000
1001
TOP
1070
     7
  0
LINE
  5
1126
330
2
100
AcDbEntity
  8
P-7064
  6
Continuous
 62
   144
100
AcDbLine
 10
-0.199999999980264
 20
12.39999999877045
 30
0.0
 11
-0.199999999980264
 21
8.499999999150531
 31
0.0
1001
OrigLayer
1000
P-0000
1001
TOP
1070
     7
  0
LINE
  5
1127
330
2
100
AcDbEntity
  8
P-7064
  6
Continuous
 62
   144
100
AcDbLine
 10
-0.199999999980264
 20
20.69999999794027
 30
0.0
 11
-0.199999999980264
 21
14.89999999852034
 31
0.0
1001
OrigLayer
1000
P-0000
1001
TOP
1070
     7
  0
LINE
  5
1128
330
2
100
AcDbEntity
  8
P-7064
  6
Continuous
 62
   144
100
AcDbLine
 10
3.449999999659894
 20
24.4499999975601
 30
0.0
 11
-0.4499999999500233
 21
24.4499999975601
 31
0.0
1001
OrigLayer
1000
P-0000
1001
TOP
1070
     7
  0
LINE
  5
1129
330
2
100
AcDbEntity
  8
P-7064
  6
Continuous
 62
   144
100
AcDbLine
 10
5.849999999419878
 20
20.89999999792053
 30
0.0
 11
0.0
 21
20.89999999792053
 31
0.0
1001
OrigLayer
1000
P-0000
1001
TOP
1070
     7
  0
ARC
  5
112A
330
2
100
AcDbEntity
  8
P-7064
  6
Continuous
 62
   144
100
AcDbCircle
 10
6.749999999329929
 20
29.44999999706033
 30
0.0
 40
8.999999999099999
100
AcDbArc
 50
134.0196826799686
 51
180.0
1001
OrigLayer
1000
P-0000
1001
TOP
1070
     7
  0
ARC
  5
112B
330
2
100
AcDbEntity
  8
P-7064
  6
Continuous
 62
   144
100
AcDbCircle
 10
6.749999999329929
 20
29.44999999706033
 30
0.0
 40
7.499999999249999
100
AcDbArc
 50
143.6290729143476
 51
180.0
1001
OrigLayer
1000
P-0000
1001
TOP
1070
     7
  0
LINE
  5
112C
330
2
100
AcDbEntity
  8
P-7064
  6
Continuous
 62
   144
100
AcDbLine
 10
10.74999999892975
 20
31.64999999684051
 30
0.0
 11
10.74999999892975
 21
32.74999999673037
 31
0.0
1001
OrigLayer
1000
P-0000
1001
TOP
1070
     7
  0
LINE
  5
112D
330
2
100
AcDbEntity
  8
P-7064
  6
Continuous
 62
   144
100
AcDbLine
 10
12.14999999878978
 20
0.0000000000004547
 30
0.0
 11
12.14999999878978
 21
-0.2999999999697138
 31
0.0
1001
OrigLayer
1000
P-0000
1001
TOP
1070
     7
  0
LINE
  5
112E
330
2
100
AcDbEntity
  8
P-7064
  6
Continuous
 62
   144
100
AcDbLine
 10
8.349999999169767
 20
-0.2999999999697138
 30
0.0
 11
8.349999999169767
 21
0.0000000000004547
 31
0.0
1001
OrigLayer
1000
P-0000
1001
TOP
1070
     7
  0
LINE
  5
112F
330
2
100
AcDbEntity
  8
P-7064
  6
Continuous
 62
   144
100
AcDbLine
 10
8.349999999169767
 20
0.0000000000004547
 30
0.0
 11
12.14999999878978
 21
0.0000000000004547
 31
0.0
1001
OrigLayer
1000
P-0000
1001
TOP
1070
     7
  0
LINE
  5
1130
330
2
100
AcDbEntity
  8
P-7064
  6
Continuous
 62
   144
100
AcDbLine
 10
5.849999999419878
 20
0.0000000000004547
 30
0.0
 11
5.849999999419878
 21
-0.2999999999697138
 31
0.0
1001
OrigLayer
1000
P-0000
1001
TOP
1070
     7
  0
LINE
  5
1131
330
2
100
AcDbEntity
  8
P-7064
  6
Continuous
 62
   144
100
AcDbLine
 10
5.849999999419878
 20
-0.2999999999697138
 30
0.0
 11
8.349999999169767
 21
-0.2999999999697138
 31
0.0
1001
OrigLayer
1000
P-0000
1001
TOP
1070
     7
  0
LINE
  5
1132
330
2
100
AcDbEntity
  8
P-7064
  6
Continuous
 62
   144
100
AcDbLine
 10
0.0
 20
0.0000000000004547
 30
0.0
 11
5.849999999419878
 21
0.0000000000004547
 31
0.0
1001
OrigLayer
1000
P-0000
1001
TOP
1070
     7
  0
LINE
  5
1133
330
2
100
AcDbEntity
  8
P-7064
  6
Continuous
 62
   144
100
AcDbLine
 10
-2.249999999770125
 20
22.24289321659444
 30
0.0
 11
-2.249999999770125
 21
0.4499999999602551
 31
0.0
1001
OrigLayer
1000
P-0000
1001
TOP
1070
     7
  0
LINE
  5
1134
330
2
100
AcDbEntity
  8
P-7064
  6
Continuous
 62
   144
100
AcDbLine
 10
-0.199999999980264
 20
5.999999999400188
 30
0.0
 11
-0.199999999980264
 21
0.199999999980264
 31
0.0
1001
OrigLayer
1000
P-0000
1001
TOP
1070
     7
  0
LINE
  5
1135
330
2
100
AcDbEntity
  8
P-7064
  6
Continuous
 62
   144
100
AcDbLine
 10
0.2499999999797637
 20
-2.049999999789633
 30
0.0
 11
20.24999999797978
 21
-2.049999999789633
 31
0.0
1001
OrigLayer
1000
P-0000
1001
TOP
1070
     7
  0
LINE
  5
1136
330
2
100
AcDbEntity
  8
P-7064
  6
Continuous
 62
   144
100
AcDbLine
 10
17.73957880651301
 20
22.94999999771016
 30
0.0
 11
7.957106780395406
 21
22.94999999771016
 31
0.0
1001
OrigLayer
1000
P-0000
1001
TOP
1070
     7
  0
LINE
  5
1137
330
2
100
AcDbEntity
  8
P-7064
  6
Continuous
 62
   144
100
AcDbLine
 10
14.04999999859979
 20
27.95333333054851
 30
0.0
 11
12.94999999870993
 21
27.95333333054851
 31
0.0
1001
OrigLayer
1000
P-0000
1001
TOP
1070
     7
  0
LINE
  5
1138
330
2
100
AcDbEntity
  8
P-7064
  6
Continuous
 62
   144
100
AcDbLine
 10
15.09708365662095
 20
32.94999999671018
 30
0.0
 11
10.94999999890979
 21
32.94999999671018
 31
0.0
1001
OrigLayer
1000
P-0000
1001
TOP
1070
     7
  0
LINE
  5
1139
330
2
100
AcDbEntity
  8
P-7064
  6
Continuous
 62
   144
100
AcDbLine
 10
12.14999999878978
 20
-0.2999999999697138
 30
0.0
 11
14.64999999853967
 21
-0.2999999999697138
 31
0.0
1001
OrigLayer
1000
P-0000
1001
TOP
1070
     7
  0
LINE
  5
113A
330
2
100
AcDbEntity
  8
P-7064
  6
Continuous
 62
   144
100
AcDbLine
 10
14.64999999853967
 20
21.19999999789024
 30
0.0
 11
12.14999999878978
 21
21.19999999789024
 31
0.0
1001
OrigLayer
1000
P-0000
1001
TOP
1070
     7
  0
ENDSEC
  0
SECTION
  2
OBJECTS
  0
DICTIONARY
  5
1A
330
0
100
AcDbDictionary
281
     1
  3
ACAD_2007HEADERVARS_RT
350
20CF
  3
ACAD_COLOR
350
2C5
  3
ACAD_GROUP
350
18
  3
ACAD_LAYOUT
350
45
  3
ACAD_MATERIAL
350
2B0
  3
ACAD_MLEADERSTYLE
350
354
  3
ACAD_MLINESTYLE
350
19
  3
ACAD_PLOTSETTINGS
350
46
  3
ACAD_PLOTSTYLENAME
350
43
  3
ACAD_SCALELIST
350
332
  3
ACAD_TABLESTYLE
350
2C6
  3
ACAD_VISUALSTYLE
350
2B4
  3
ACDB_RECOMPOSE_DATA
350
20CD
  3
AcDbVariableDictionary
350
2AA
  3
AEC_PROPERTY_SET_DEFS
350
841
  3
DWGPROPS
350
20CE
  3
qs_topprt_diz
350
50
  3
QSCATDICT
350
6D9
  3
QsPallStyleDict
350
AAB
  3
QsTop499
350
1F4D
  3
TopSpotLight
350
6E0
  0
DICTIONARY
  5
300
330
12
100
AcDbDictionary
280
     1
281
     1
  0
DICTIONARY
  5
F5E
330
A
100
AcDbDictionary
280
     1
281
     1
  3
ACAD_LAYERSTATES
360
F5F
  0
DICTIONARY
  5
37B
330
4
100
AcDbDictionary
280
     1
281
     1
  3
ADSK_XREC_LAYER_RECONCILED
360
1BF4
  0
DICTIONARY
  5
1BF5
330
6DB
100
AcDbDictionary
280
     1
281
     1
  3
ADSK_XREC_LAYER_RECONCILED
360
1BF6
  0
DICTIONARY
  5
711
330
710
100
AcDbDictionary
280
     1
281
     1
  3
ADSK_XREC_LAYER_RECONCILED
360
1BF7
  0
DICTIONARY
  5
713
330
712
100
AcDbDictionary
280
     1
281
     1
  3
ADSK_XREC_LAYER_RECONCILED
360
1BF8
  0
DICTIONARY
  5
715
330
714
100
AcDbDictionary
280
     1
281
     1
  3
ADSK_XREC_LAYER_RECONCILED
360
1BF9
  0
DICTIONARY
  5
1BFA
330
B57
100
AcDbDictionary
280
     1
281
     1
  3
ADSK_XREC_LAYER_RECONCILED
360
1BFB
  0
DICTIONARY
  5
1BFC
330
B58
100
AcDbDictionary
280
     1
281
     1
  3
ADSK_XREC_LAYER_RECONCILED
360
1BFD
  0
DICTIONARY
  5
1BFE
330
F56
100
AcDbDictionary
280
     1
281
     1
  3
ADSK_XREC_LAYER_RECONCILED
360
1BFF
  0
DICTIONARY
  5
1C00
330
113E
100
AcDbDictionary
280
     1
281
     1
  3
ADSK_XREC_LAYER_RECONCILED
360
1C01
  0
DICTIONARY
  5
19D9
330
19D8
100
AcDbDictionary
280
     1
281
     1
  3
ADSK_XREC_LAYER_RECONCILED
360
1C02
  0
DICTIONARY
  5
1BC5
330
1BC4
100
AcDbDictionary
280
     1
281
     1
  3
ADSK_XREC_LAYER_RECONCILED
360
1C03
  0
DICTIONARY
  5
1079
330
F60
100
AcDbDictionary
280
     1
281
     1
  3
ACAD_SORTENTS
360
107A
  0
DICTIONARY
  5
20CF
102
{ACAD_REACTORS
330
1A
102
}
330
1A
100
AcDbDictionary
281
     1
  3
INTERFEREVPVS
350
20D0
  0
DICTIONARY
  5
2C5
102
{ACAD_REACTORS
330
1A
102
}
330
1A
100
AcDbDictionary
281
     1
  0
DICTIONARY
  5
18
102
{ACAD_REACTORS
330
1A
102
}
330
1A
100
AcDbDictionary
281
     1
  0
DICTIONARY
  5
45
102
{ACAD_REACTORS
330
1A
102
}
330
1A
100
AcDbDictionary
281
     1
  3
Layout1
350
48
  3
Model
350
47
  0
DICTIONARY
  5
2B0
102
{ACAD_REACTORS
330
1A
102
}
330
1A
100
AcDbDictionary
281
     1
  3
ByBlock
350
2B2
  3
ByLayer
350
2B1
  3
Global
350
2B3
  0
DICTIONARY
  5
354
102
{ACAD_REACTORS
330
1A
102
}
330
1A
100
AcDbDictionary
281
     1
  3
Standard
350
355
  0
DICTIONARY
  5
19
102
{ACAD_REACTORS
330
1A
102
}
330
1A
100
AcDbDictionary
281
     1
  3
STANDARD
350
1C
  0
DICTIONARY
  5
46
102
{ACAD_REACTORS
330
1A
102
}
330
1A
100
AcDbDictionary
281
     1
  3
Kyocera_1010 OR
350
1F02
  3
Kyocera_1010 VER
350
1F03
  3
Olivetti_200 A3
350
1F04
  3
Olivetti_200 A4
350
1F05
  3
PLOTTER
350
1F06
  0
ACDBDICTIONARYWDFLT
  5
43
102
{ACAD_REACTORS
330
1A
102
}
330
1A
100
AcDbDictionary
281
     1
  3
Normal
350
44
100
AcDbDictionaryWithDefault
340
44
  0
DICTIONARY
  5
332
102
{ACAD_REACTORS
330
1A
102
}
330
1A
100
AcDbDictionary
281
     1
  3
A0
350
333
  3
A1
350
334
  3
A2
350
335
  3
A3
350
336
  3
A4
350
337
  3
A5
350
338
  3
A6
350
339
  3
A7
350
33A
  3
A8
350
33B
  3
A9
350
33C
  3
B0
350
33D
  3
B1
350
33E
  3
B2
350
33F
  3
B3
350
340
  3
B4
350
341
  3
B5
350
342
  3
B6
350
343
  3
B7
350
344
  3
B8
350
345
  3
B9
350
346
  3
C0
350
347
  3
C1
350
348
  3
C2
350
349
  3
C3
350
34A
  3
C4
350
34B
  3
C5
350
34C
  3
C6
350
34D
  3
C7
350
34E
  3
C8
350
34F
  3
C9
350
350
  3
D0
350
351
  3
D1
350
352
  3
D2
350
353
  0
DICTIONARY
  5
2C6
102
{ACAD_REACTORS
330
1A
102
}
330
1A
100
AcDbDictionary
281
     1
  3
QSTABFORI
350
31A
  3
QSTABREGION
350
2CC
  3
Standard
350
2C7
  0
DICTIONARY
  5
2B4
102
{ACAD_REACTORS
330
1A
102
}
330
1A
100
AcDbDictionary
281
     1
  3
2dWireframe
350
2BA
  3
3D Hidden
350
2BC
  3
3dWireframe
350
2BB
  3
Basic
350
2B9
  3
Brighten
350
2C0
  3
ColorChange
350
2C4
  3
Conceptual
350
2BD
  3
Dim
350
2BF
  3
EdgeColorOff
350
1F60
  3
Facepattern
350
2C3
  3
Flat
350
2B5
  3
FlatWithEdges
350
2B6
  3
Gouraud
350
2B7
  3
GouraudWithEdges
350
2B8
  3
Hidden
350
1F58
  3
JitterOff
350
1F5E
  3
Linepattern
350
2C2
  3
OverhangOff
350
1F5F
  3
Realistic
350
2BE
  3
Shaded
350
1F5D
  3
Shaded with edges
350
1F5C
  3
Shades of Gray
350
1F59
  3
Sketchy
350
1F5A
  3
Thicken
350
2C1
  3
Wireframe
350
1F57
  3
X-Ray
350
1F5B
  0
XRECORD
  5
20CD
102
{ACAD_REACTORS
330
1A
102
}
330
1A
100
AcDbXrecord
280
     1
 90
        1
330
2C7
330
2CC
330
31A
  0
DICTIONARY
  5
2AA
102
{ACAD_REACTORS
330
1A
102
}
330
1A
100
AcDbDictionary
281
     1
  3
CANNOSCALE
350
36B
  3
CMLEADERSTYLE
350
369
  3
CTABLESTYLE
350
312
  3
DIMASSOC
350
2AB
  3
DRAWORDERCTL
350
1DCA
  3
INDEXCTL
350
314
  3
LAYEREVAL
350
1DCC
  3
LAYERNOTIFY
350
1DCD
  3
LIGHTINGUNITS
350
36C
  3
MLEADERSCALE
350
1DCB
  3
MSLTSCALE
350
36A
  3
SORTENTS
350
313
  3
XCLIPFRAME
350
20C9
  0
DICTIONARY
  5
841
102
{ACAD_REACTORS
330
1A
102
}
330
1A
100
AcDbDictionary
281
     1
  0
XRECORD
  5
20CE
102
{ACAD_REACTORS
330
1A
102
}
330
1A
100
AcDbXrecord
280
     1
  1
DWGPROPS COOKIE
  2

  3

  4

  6

  7

  8
mpistoia
  9

300
=
301
=
302
=
303
=
304
=
305
=
306
=
307
=
308
=
309
=
 40
0.1958531944444444
 41
2455047.282051505
 42
2455646.411502315
  1

 90
        0
  0
DICTIONARY
  5
50
102
{ACAD_REACTORS
330
1A
102
}
330
1A
100
AcDbDictionary
281
     1
  3
UCNT
350
51
  0
DICTIONARY
  5
6D9
102
{ACAD_REACTORS
330
1A
102
}
330
1A
100
AcDbDictionary
280
     1
281
     1
  3
DEFAULT
360
6DA
  0
DICTIONARY
  5
AAB
102
{ACAD_REACTORS
330
1A
102
}
330
1A
100
AcDbDictionary
281
     1
  3
DEFAULT
350
AAC
  0
DICTIONARY
  5
1F4D
102
{ACAD_REACTORS
330
1A
102
}
330
1A
100
AcDbDictionary
281
     1
  3
TOP
350
1F52
  3
X00a7
350
1F50
  3
X2c75
350
1F4F
  3
X4ef4
350
1F51
  3
X58ef
350
1F4E
  0
DICTIONARY
  5
6E0
102
{ACAD_REACTORS
330
1A
102
}
330
1A
100
AcDbDictionary
281
     1
  3
colors
350
6E1
  0
DICTIONARY
  5
F5F
102
{ACAD_REACTORS
330
F5E
102
}
330
F5E
100
AcDbDictionary
281
     1
  0
XRECORD
  5
1BF4
102
{ACAD_REACTORS
330
37B
102
}
330
37B
100
AcDbXrecord
280
     1
290
     1
  0
XRECORD
  5
1BF6
102
{ACAD_REACTORS
330
1BF5
102
}
330
1BF5
100
AcDbXrecord
280
     1
290
     1
  0
XRECORD
  5
1BF7
102
{ACAD_REACTORS
330
711
102
}
330
711
100
AcDbXrecord
280
     1
290
     1
  0
XRECORD
  5
1BF8
102
{ACAD_REACTORS
330
713
102
}
330
713
100
AcDbXrecord
280
     1
290
     1
  0
XRECORD
  5
1BF9
102
{ACAD_REACTORS
330
715
102
}
330
715
100
AcDbXrecord
280
     1
290
     1
  0
XRECORD
  5
1BFB
102
{ACAD_REACTORS
330
1BFA
102
}
330
1BFA
100
AcDbXrecord
280
     1
290
     1
  0
XRECORD
  5
1BFD
102
{ACAD_REACTORS
330
1BFC
102
}
330
1BFC
100
AcDbXrecord
280
     1
290
     1
  0
XRECORD
  5
1BFF
102
{ACAD_REACTORS
330
1BFE
102
}
330
1BFE
100
AcDbXrecord
280
     1
290
     1
  0
XRECORD
  5
1C01
102
{ACAD_REACTORS
330
1C00
102
}
330
1C00
100
AcDbXrecord
280
     1
290
     1
  0
XRECORD
  5
1C02
102
{ACAD_REACTORS
330
19D9
102
}
330
19D9
100
AcDbXrecord
280
     1
290
     1
  0
XRECORD
  5
1C03
102
{ACAD_REACTORS
330
1BC5
102
}
330
1BC5
100
AcDbXrecord
280
     1
290
     1
  0
SORTENTSTABLE
  5
107A
102
{ACAD_REACTORS
330
1079
102
}
330
1079
100
AcDbSortentsTable
330
F60
331
F7F
  5
F9B
331
F97
  5
FB6
331
F9B
  5
FBA
331
F83
  5
F9F
331
FB3
  5
F77
331
F9F
  5
F74
331
F87
  5
FA3
331
FB7
  5
F7E
331
FA3
  5
FA7
331
F8B
  5
FA8
331
FBB
  5
F75
331
FA7
  5
F83
331
F8F
  5
FAE
331
FAB
  5
F87
331
FAF
  5
F8B
331
F74
  5
F92
331
F64
  5
F68
331
F68
  5
F64
331
F78
  5
F95
331
F90
  5
FAF
331
F7C
  5
F97
331
F94
  5
FB3
331
F80
  5
F9D
331
F98
  5
FB7
331
FB0
  5
F80
331
F9C
  5
FBC
331
F84
  5
FA0
331
FB4
  5
F7A
331
FA0
  5
F78
331
F88
  5
FA4
331
FB8
  5
F7F
331
FA4
  5
F8C
331
F8C
  5
FAB
331
FBC
  5
FBB
331
FA8
  5
F84
331
FAC
  5
F88
331
F61
  5
F65
331
F71
  5
F8F
331
F65
  5
F61
331
F75
  5
F93
331
F91
  5
FB0
331
F79
  5
F94
331
F95
  5
FB4
331
F7D
  5
F99
331
F81
  5
F9C
331
F99
  5
FB8
331
FB1
  5
F81
331
FB5
  5
F7B
331
F9D
  5
FBE
331
F85
  5
FA1
331
FB9
  5
F73
331
FA1
  5
FA9
331
F89
  5
FA5
331
FA5
  5
F8D
331
F8D
  5
FAC
331
FBD
  5
F72
331
FA9
  5
F85
331
FAD
  5
F89
331
F62
  5
F66
331
F72
  5
F90
331
F66
  5
F62
331
F76
  5
F79
331
F7A
  5
F96
331
F92
  5
FB1
331
F7E
  5
F9A
331
F96
  5
FB5
331
F9A
  5
FB9
331
F82
  5
F9E
331
FB2
  5
F82
331
F9E
  5
F71
331
F86
  5
FA2
331
FB6
  5
F7D
331
FA2
  5
FAA
331
F8A
  5
FA6
331
FBA
  5
F76
331
F8E
  5
FAD
331
FA6
  5
F8E
331
FBE
  5
FBD
331
FAA
  5
F86
331
FAE
  5
F8A
331
F63
  5
F67
331
F73
  5
F91
331
F77
  5
F7C
331
F67
  5
F63
331
F7B
  5
F98
331
F93
  5
FB2
  0
XRECORD
  5
20D0
102
{ACAD_REACTORS
330
20CF
102
}
330
20CF
100
AcDbXrecord
280
     1
340
2BB
  0
LAYOUT
  5
48
102
{ACAD_XDICTIONARY
360
20D3
102
}
102
{ACAD_REACTORS
330
45
102
}
330
45
100
AcDbPlotSettings
  1

  2
RICOH Aficio 270 PCL 6 A4
  4

  6

 40
0.0
 41
0.0
 42
0.0
 43
0.0
 44
0.0
 45
0.0
 46
0.0
 47
0.0
 48
0.0
 49
0.0
140
0.0
141
0.0
142
1.0
143
1.0
 70
   688
 72
     0
 73
     0
 74
     5
  7
DIERRE BN.ctb
 75
    16
147
1.0
148
0.0
149
0.0
100
AcDbLayout
  1
Layout1
 70
     0
 71
     1
 10
0.0
 20
0.0
 11
12.0
 21
9.0
 12
0.0
 22
0.0
 32
0.0
 14
1.000000000000000E+20
 24
1.000000000000000E+20
 34
1.000000000000000E+20
 15
-1.000000000000000E+20
 25
-1.000000000000000E+20
 35
-1.000000000000000E+20
146
0.0
 13
0.0
 23
0.0
 33
0.0
 16
1.0
 26
0.0
 36
0.0
 17
0.0
 27
1.0
 37
0.0
 76
     0
330
7
  0
LAYOUT
  5
47
102
{ACAD_XDICTIONARY
360
20D1
102
}
102
{ACAD_REACTORS
330
45
102
}
330
45
100
AcDbPlotSettings
  1
Olivetti_200 A4
  2
Olivetti_200.pc3
  4
A4
  6

 40
4.984749794006347
 41
5.154074668884277
 42
5.111740112304687
 43
4.9847412109375
 44
210.0156707763672
 45
297.0106506347656
 46
51.67548120477697
 47
0.0
 48
0.0
 49
0.0
140
0.0
141
0.0
142
1.0
143
0.4718508448115938
 70
 11956
 72
     1
 73
     0
 74
     1
  7
DIERRE BN.ctb
 75
     0
147
2.119313785268927
148
-222.4649060220283
149
-239.0808115236937
100
AcDbLayout
  1
Model
 70
     1
 71
     0
 10
0.0
 20
0.0
 11
12.0
 21
9.0
 12
0.0
 22
0.0
 32
0.0
 14
0.0
 24
0.0
 34
0.0
 15
0.0
 25
0.0
 35
0.0
146
0.0
 13
0.0
 23
0.0
 33
0.0
 16
1.0
 26
0.0
 36
0.0
 17
0.0
 27
1.0
 37
0.0
 76
     0
330
2
331
2AE
1001
ACAD_PSEXT
1000
Olivetti_200.pc3
1000
Olivetti d-Copia 200MF KX
1000
IP_192.168.1.151
1000

1070
     0
  0
MATERIAL
  5
2B2
102
{ACAD_XDICTIONARY
360
20D7
102
}
102
{ACAD_REACTORS
330
2B0
102
}
330
2B0
100
AcDbMaterial
  1
ByBlock
 73
     1
 78
     1
172
     1
176
     1
270
     1
274
     1
  0
MATERIAL
  5
2B1
102
{ACAD_XDICTIONARY
360
20D5
102
}
102
{ACAD_REACTORS
330
2B0
102
}
330
2B0
100
AcDbMaterial
  1
ByLayer
 73
     1
 78
     1
172
     1
176
     1
270
     1
274
     1
  0
MATERIAL
  5
2B3
102
{ACAD_XDICTIONARY
360
20D9
102
}
102
{ACAD_REACTORS
330
2B0
102
}
330
2B0
100
AcDbMaterial
  1
Global
 73
     1
 78
     1
172
     1
176
     1
270
     1
274
     1
  0
MLEADERSTYLE
  5
355
102
{ACAD_REACTORS
330
354
102
}
330
354
100
AcDbMLeaderStyle
170
     2
171
     1
172
     0
 90
        2
 40
0.0
 41
0.0
173
     1
 91
-1056964608
340
E
 92
       -2
290
     1
 42
2.0
291
     1
 43
0.36
  3
Standard
 44
4.0
300

342
C
174
     1
178
     6
175
     1
176
     0
 93
-1056964608
 45
4.0
292
     0
297
     0
 46
4.0
 94
-1056964608
 47
1.0
 49
1.0
140
1.0
293
     1
141
0.0
294
     1
177
     0
142
1.0
295
     0
296
     0
143
0.125
1001
ACAD_MLEADERVER
1070
     2
  0
MLINESTYLE
  5
1C
102
{ACAD_REACTORS
330
19
102
}
330
19
100
AcDbMlineStyle
  2
STANDARD
 70
     0
  3

 62
     0
 51
90.0
 52
90.0
 71
     2
 49
0.5
 62
   256
  6
BYLAYER
 49
-0.5
 62
   256
  6
BYLAYER
  0
PLOTSETTINGS
  5
1F02
102
{ACAD_XDICTIONARY
360
20FF
102
}
102
{ACAD_REACTORS
330
46
102
}
330
46
100
AcDbPlotSettings
  1
Kyocera_1010 OR
  2
Kyocera_1010.pc3
  4
A4
  6

 40
4.984749794006347
 41
5.154074668884277
 42
5.111740112304687
 43
4.9847412109375
 44
210.0156707763672
 45
297.0106506347656
 46
0.0
 47
109.7870247470818
 48
0.0
 49
0.0
140
0.0
141
0.0
142
1.0
143
0.6770771918566143
 70
 11956
 72
     1
 73
     1
 74
     1
  7
DIERRE BN.ctb
 75
     0
147
1.476936473458659
148
-222.4649060220283
149
-239.0808115236937
1001
ACAD_PSEXT
1000
Kyocera_1010.pc3
1000
Kyocera Mita FS-1010 KX
1000
\\PC5
1000

1070
     0
  0
PLOTSETTINGS
  5
1F03
102
{ACAD_XDICTIONARY
360
2101
102
}
102
{ACAD_REACTORS
330
46
102
}
330
46
100
AcDbPlotSettings
  1
Kyocera_1010 VER
  2
Kyocera_1010.pc3
  4
A4
  6

 40
4.984749794006347
 41
5.154074668884277
 42
5.111740112304687
 43
4.9847412109375
 44
210.0156707763672
 45
297.0106506347656
 46
51.67548120477697
 47
0.0
 48
0.0
 49
0.0
140
0.0
141
0.0
142
1.0
143
0.4718508448115938
 70
 11956
 72
     1
 73
     0
 74
     1
  7
DIERRE BN.ctb
 75
     0
147
2.119313785268927
148
-222.4649060220283
149
-239.0808115236937
1001
ACAD_PSEXT
1000
Kyocera_1010.pc3
1000
Kyocera Mita FS-1010 KX
1000
\\PC5
1000

1070
     0
  0
PLOTSETTINGS
  5
1F04
102
{ACAD_XDICTIONARY
360
2103
102
}
102
{ACAD_REACTORS
330
46
102
}
330
46
100
AcDbPlotSettings
  1
Olivetti_200 A3
  2
Olivetti_200.pc3
  4
A3
  6

 40
4.984749794006347
 41
5.111746788024902
 42
5.154083251953125
 43
4.9847412109375
 44
297.0106506347656
 45
419.9889831542968
 46
0.0
 47
156.6621412366913
 48
0.0
 49
0.0
140
0.0
141
0.0
142
1.0
143
0.4718508730467012
 70
 11956
 72
     1
 73
     1
 74
     1
  7
DIERRE BN.ctb
 75
     0
147
2.119313658451206
148
-222.4649060220283
149
-239.0808115236937
1001
ACAD_PSEXT
1000
Olivetti_200.pc3
1000
Olivetti d-Copia 200MF KX
1000
IP_192.168.1.151
1000

1070
     0
  0
PLOTSETTINGS
  5
1F05
102
{ACAD_XDICTIONARY
360
2105
102
}
102
{ACAD_REACTORS
330
46
102
}
330
46
100
AcDbPlotSettings
  1
Olivetti_200 A4
  2
Olivetti_200.pc3
  4
A4
  6

 40
4.984749794006347
 41
5.154074668884277
 42
5.111740112304687
 43
4.9847412109375
 44
210.0156707763672
 45
297.0106506347656
 46
51.67548120477697
 47
0.0
 48
0.0
 49
0.0
140
0.0
141
0.0
142
1.0
143
0.4718508448115938
 70
 11956
 72
     1
 73
     0
 74
     1
  7
DIERRE BN.ctb
 75
     0
147
2.119313785268927
148
-222.4649060220283
149
-239.0808115236937
1001
ACAD_PSEXT
1000
Olivetti_200.pc3
1000
Olivetti d-Copia 200MF KX
1000
IP_192.168.1.151
1000

1070
     0
  0
PLOTSETTINGS
  5
1F06
102
{ACAD_XDICTIONARY
360
2107
102
}
102
{ACAD_REACTORS
330
46
102
}
330
46
100
AcDbPlotSettings
  1
PLOTTER
  2
PLOTTER.pc3
  4
User622
  6

 40
0.0
 41
0.0
 42
0.0
 43
0.0
 44
841.0
 45
1189.0
 46
0.0
 47
0.0
 48
0.0
 49
0.0
140
0.0
141
0.0
142
1.0
143
1.0
 70
 11936
 72
     1
 73
     0
 74
     1
  7
DIERRE BN.ctb
 75
     0
147
2.194137304425714
148
-222.4649060220283
149
-239.0808115236937
1001
ACAD_PSEXT
1000
PLOTTER.pc3
1000
HP DesignJet 430 (E/A0) by HP
1000
\\SERVER2003
1000

1070
     0
  0
ACDBPLACEHOLDER
  5
44
102
{ACAD_REACTORS
330
43
102
}
330
43
  0
SCALE
  5
333
102
{ACAD_REACTORS
330
332
102
}
330
332
100
AcDbScale
 70
     0
300
1:1
140
1.0
141
1.0
290
     1
  0
SCALE
  5
334
102
{ACAD_REACTORS
330
332
102
}
330
332
100
AcDbScale
 70
     0
300
1:2
140
1.0
141
2.0
290
     0
  0
SCALE
  5
335
102
{ACAD_REACTORS
330
332
102
}
330
332
100
AcDbScale
 70
     0
300
1:4
140
1.0
141
4.0
290
     0
  0
SCALE
  5
336
102
{ACAD_REACTORS
330
332
102
}
330
332
100
AcDbScale
 70
     0
300
1:5
140
1.0
141
5.0
290
     0
  0
SCALE
  5
337
102
{ACAD_REACTORS
330
332
102
}
330
332
100
AcDbScale
 70
     0
300
1:8
140
1.0
141
8.0
290
     0
  0
SCALE
  5
338
102
{ACAD_REACTORS
330
332
102
}
330
332
100
AcDbScale
 70
     0
300
1:10
140
1.0
141
10.0
290
     0
  0
SCALE
  5
339
102
{ACAD_REACTORS
330
332
102
}
330
332
100
AcDbScale
 70
     0
300
1:16
140
1.0
141
16.0
290
     0
  0
SCALE
  5
33A
102
{ACAD_REACTORS
330
332
102
}
330
332
100
AcDbScale
 70
     0
300
1:20
140
1.0
141
20.0
290
     0
  0
SCALE
  5
33B
102
{ACAD_REACTORS
330
332
102
}
330
332
100
AcDbScale
 70
     0
300
1:30
140
1.0
141
30.0
290
     0
  0
SCALE
  5
33C
102
{ACAD_REACTORS
330
332
102
}
330
332
100
AcDbScale
 70
     0
300
1:40
140
1.0
141
40.0
290
     0
  0
SCALE
  5
33D
102
{ACAD_REACTORS
330
332
102
}
330
332
100
AcDbScale
 70
     0
300
1:50
140
1.0
141
50.0
290
     0
  0
SCALE
  5
33E
102
{ACAD_REACTORS
330
332
102
}
330
332
100
AcDbScale
 70
     0
300
1:100
140
1.0
141
100.0
290
     0
  0
SCALE
  5
33F
102
{ACAD_REACTORS
330
332
102
}
330
332
100
AcDbScale
 70
     0
300
2:1
140
2.0
141
1.0
290
     0
  0
SCALE
  5
340
102
{ACAD_REACTORS
330
332
102
}
330
332
100
AcDbScale
 70
     0
300
4:1
140
4.0
141
1.0
290
     0
  0
SCALE
  5
341
102
{ACAD_REACTORS
330
332
102
}
330
332
100
AcDbScale
 70
     0
300
8:1
140
8.0
141
1.0
290
     0
  0
SCALE
  5
342
102
{ACAD_REACTORS
330
332
102
}
330
332
100
AcDbScale
 70
     0
300
10:1
140
10.0
141
1.0
290
     0
  0
SCALE
  5
343
102
{ACAD_REACTORS
330
332
102
}
330
332
100
AcDbScale
 70
     0
300
100:1
140
100.0
141
1.0
290
     0
  0
SCALE
  5
344
102
{ACAD_REACTORS
330
332
102
}
330
332
100
AcDbScale
 70
     0
300
1/128" = 1'-0"
140
0.0078125
141
12.0
290
     0
  0
SCALE
  5
345
102
{ACAD_REACTORS
330
332
102
}
330
332
100
AcDbScale
 70
     0
300
1/64" = 1'-0"
140
0.015625
141
12.0
290
     0
  0
SCALE
  5
346
102
{ACAD_REACTORS
330
332
102
}
330
332
100
AcDbScale
 70
     0
300
1/32" = 1'-0"
140
0.03125
141
12.0
290
     0
  0
SCALE
  5
347
102
{ACAD_REACTORS
330
332
102
}
330
332
100
AcDbScale
 70
     0
300
1/16" = 1'-0"
140
0.0625
141
12.0
290
     0
  0
SCALE
  5
348
102
{ACAD_REACTORS
330
332
102
}
330
332
100
AcDbScale
 70
     0
300
3/32" = 1'-0"
140
0.09375
141
12.0
290
     0
  0
SCALE
  5
349
102
{ACAD_REACTORS
330
332
102
}
330
332
100
AcDbScale
 70
     0
300
1/8" = 1'-0"
140
0.125
141
12.0
290
     0
  0
SCALE
  5
34A
102
{ACAD_REACTORS
330
332
102
}
330
332
100
AcDbScale
 70
     0
300
3/16" = 1'-0"
140
0.1875
141
12.0
290
     0
  0
SCALE
  5
34B
102
{ACAD_REACTORS
330
332
102
}
330
332
100
AcDbScale
 70
     0
300
1/4" = 1'-0"
140
0.25
141
12.0
290
     0
  0
SCALE
  5
34C
102
{ACAD_REACTORS
330
332
102
}
330
332
100
AcDbScale
 70
     0
300
3/8" = 1'-0"
140
0.375
141
12.0
290
     0
  0
SCALE
  5
34D
102
{ACAD_REACTORS
330
332
102
}
330
332
100
AcDbScale
 70
     0
300
1/2" = 1'-0"
140
0.5
141
12.0
290
     0
  0
SCALE
  5
34E
102
{ACAD_REACTORS
330
332
102
}
330
332
100
AcDbScale
 70
     0
300
3/4" = 1'-0"
140
0.75
141
12.0
290
     0
  0
SCALE
  5
34F
102
{ACAD_REACTORS
330
332
102
}
330
332
100
AcDbScale
 70
     0
300
1" = 1'-0"
140
1.0
141
12.0
290
     0
  0
SCALE
  5
350
102
{ACAD_REACTORS
330
332
102
}
330
332
100
AcDbScale
 70
     0
300
1-1/2" = 1'-0"
140
1.5
141
12.0
290
     0
  0
SCALE
  5
351
102
{ACAD_REACTORS
330
332
102
}
330
332
100
AcDbScale
 70
     0
300
3" = 1'-0"
140
3.0
141
12.0
290
     0
  0
SCALE
  5
352
102
{ACAD_REACTORS
330
332
102
}
330
332
100
AcDbScale
 70
     0
300
6" = 1'-0"
140
6.0
141
12.0
290
     0
  0
SCALE
  5
353
102
{ACAD_REACTORS
330
332
102
}
330
332
100
AcDbScale
 70
     0
300
1'-0" = 1'-0"
140
12.0
141
12.0
290
     0
  0
TABLESTYLE
  5
31A
102
{ACAD_XDICTIONARY
360
366
102
}
102
{ACAD_REACTORS
330
2C6
102
}
330
2C6
100
AcDbTableStyle
  3
Standard
 70
     1
 71
     0
 40
1.5
 41
1.5
280
     1
281
     0
  7
ROMANS
140
3.0
170
     5
 62
     7
 63
     7
283
     0
274
    -2
284
     1
 64
     0
275
    -2
285
     1
 65
     0
276
    -2
286
     1
 66
     0
277
    -2
287
     1
 67
     0
278
    -2
288
     1
 68
     0
279
    -2
289
     1
 69
     0
  7
ROMANS
140
6.0
170
     5
 62
     1
 63
     7
283
     0
274
    -2
284
     1
 64
     0
275
    -2
285
     1
 65
     0
276
    -2
286
     1
 66
     0
277
    -2
287
     1
 67
     0
278
    -2
288
     1
 68
     0
279
    -2
289
     1
 69
     0
  7
ROMANS
140
3.5
170
     5
 62
     3
 63
     7
283
     0
274
    -2
284
     1
 64
     0
275
    -2
285
     1
 65
     0
276
    -2
286
     1
 66
     0
277
    -2
287
     1
 67
     0
278
    -2
288
     1
 68
     0
279
    -2
289
     1
 69
     0
  0
TABLESTYLE
  5
2CC
102
{ACAD_XDICTIONARY
360
364
102
}
102
{ACAD_REACTORS
330
2C6
102
}
330
2C6
100
AcDbTableStyle
  3
Standard
 70
     0
 71
     0
 40
1.5
 41
1.5
280
     0
281
     0
  7
ROMANS
140
4.5
170
     5
 62
     7
 63
     7
283
     0
274
    -2
284
     1
 64
     0
275
    -2
285
     1
 65
     0
276
    -2
286
     1
 66
     0
277
    -2
287
     1
 67
     0
278
    -2
288
     1
 68
     0
279
    -2
289
     1
 69
     0
  7
ROMANS
140
6.0
170
     5
 62
     1
 63
     7
283
     0
274
    -2
284
     1
 64
     0
275
    -2
285
     1
 65
     0
276
    -2
286
     1
 66
     0
277
    -2
287
     1
 67
     0
278
    -2
288
     1
 68
     0
279
    -2
289
     1
 69
     0
  7
ROMANS
140
5.0
170
     5
 62
     3
 63
     7
283
     0
274
    -2
284
     1
 64
     0
275
    -2
285
     1
 65
     0
276
    -2
286
     1
 66
     0
277
    -2
287
     1
 67
     0
278
    -2
288
     1
 68
     0
279
    -2
289
     1
 69
     0
  0
TABLESTYLE
  5
2C7
102
{ACAD_XDICTIONARY
360
362
102
}
102
{ACAD_REACTORS
330
2C6
102
}
330
2C6
100
AcDbTableStyle
  3
Standard
 70
     0
 71
     0
 40
1.5
 41
1.5
280
     0
281
     0
  7
STANDARD
140
4.5
170
     2
 62
     0
 63
     7
283
     0
274
    -2
284
     1
 64
     0
275
    -2
285
     1
 65
     0
276
    -2
286
     1
 66
     0
277
    -2
287
     1
 67
     0
278
    -2
288
     1
 68
     0
279
    -2
289
     1
 69
     0
  7
STANDARD
140
6.0
170
     5
 62
     0
 63
     7
283
     0
274
    -2
284
     1
 64
     0
275
    -2
285
     1
 65
     0
276
    -2
286
     1
 66
     0
277
    -2
287
     1
 67
     0
278
    -2
288
     1
 68
     0
279
    -2
289
     1
 69
     0
  7
STANDARD
140
4.5
170
     5
 62
     0
 63
     7
283
     0
274
    -2
284
     1
 64
     0
275
    -2
285
     1
 65
     0
276
    -2
286
     1
 66
     0
277
    -2
287
     1
 67
     0
278
    -2
288
     1
 68
     0
279
    -2
289
     1
 69
     0
  0
VISUALSTYLE
  5
2BA
102
{ACAD_XDICTIONARY
360
20E5
102
}
102
{ACAD_REACTORS
330
2B4
102
}
330
2B4
100
AcDbVisualStyle
  2
2dWireframe
 70
     4
 71
     0
 72
     2
 73
     0
 90
        0
 40
-0.6
 41
-30.0
 62
     5
 63
     7
 74
     1
 91
        4
 64
     7
 65
   257
 75
     1
175
     1
 42
1.0
 92
        0
 66
   257
 43
1.0
 76
     1
 77
     6
 78
     2
 67
     7
 79
     5
170
     0
171
     0
290
     0
174
     0
 93
        1
 44
0.0
173
     0
291
     0
 45
0.0
1001
ACAD
1000
AcDbSavedByObjectVersion
1070
     0
  0
VISUALSTYLE
  5
2BC
102
{ACAD_XDICTIONARY
360
20E9
102
}
102
{ACAD_REACTORS
330
2B4
102
}
330
2B4
100
AcDbVisualStyle
  2
3D Hidden
 70
     6
 71
     1
 72
     2
 73
     2
 90
        0
 40
-0.6
 41
-30.0
 62
     5
 63
     7
 74
     2
 91
        2
 64
     7
 65
   257
 75
     2
175
     1
 42
40.0
 92
        0
 66
   257
 43
1.0
 76
     1
 77
     6
 78
     2
 67
     7
 79
     3
170
     0
171
     0
290
     0
174
     0
 93
        1
 44
0.0
173
     0
291
     0
 45
0.0
1001
ACAD
1000
AcDbSavedByObjectVersion
1070
     0
  0
VISUALSTYLE
  5
2BB
102
{ACAD_XDICTIONARY
360
20E7
102
}
102
{ACAD_REACTORS
330
2B4
102
}
330
2B4
100
AcDbVisualStyle
  2
3dWireframe
 70
     5
 71
     0
 72
     2
 73
     0
 90
        0
 40
-0.6
 41
-30.0
 62
     5
 63
     7
 74
     1
 91
        4
 64
     7
 65
   257
 75
     1
175
     1
 42
1.0
 92
        0
 66
   257
 43
1.0
 76
     1
 77
     6
 78
     2
 67
     7
 79
     5
170
     0
171
     0
290
     0
174
     0
 93
        1
 44
0.0
173
     0
291
     0
 45
0.0
1001
ACAD
1000
AcDbSavedByObjectVersion
1070
     0
  0
VISUALSTYLE
  5
2B9
102
{ACAD_XDICTIONARY
360
20E3
102
}
102
{ACAD_REACTORS
330
2B4
102
}
330
2B4
100
AcDbVisualStyle
  2
Basic
 70
     7
 71
     1
 72
     0
 73
     1
 90
        0
 40
-0.6
 41
-30.0
 62
     5
 63
     7
 74
     0
 91
        4
 64
     7
 65
   257
 75
     1
175
     1
 42
1.0
 92
        8
 66
     7
 43
1.0
 76
     1
 77
     6
 78
     2
 67
     7
 79
     5
170
     0
171
     0
290
     0
174
     0
 93
        1
 44
0.0
173
     0
291
     1
 45
0.0
1001
ACAD
1000
AcDbSavedByObjectVersion
1070
     0
  0
VISUALSTYLE
  5
2C0
102
{ACAD_XDICTIONARY
360
20F1
102
}
102
{ACAD_REACTORS
330
2B4
102
}
330
2B4
100
AcDbVisualStyle
  2
Brighten
 70
    12
 71
     2
 72
     2
 73
     0
 90
        0
 40
-0.6
 41
-30.0
 62
     5
 63
     7
 74
     1
 91
        4
 64
     7
 65
   257
 75
     1
175
     1
 42
1.0
 92
        8
 66
     7
 43
1.0
 76
     1
 77
     6
 78
     2
 67
     7
 79
     5
170
     0
171
     0
290
     0
174
     0
 93
        1
 44
50.0
173
     0
291
     1
 45
0.0
1001
ACAD
1000
AcDbSavedByObjectVersion
1070
     0
  0
VISUALSTYLE
  5
2C4
102
{ACAD_XDICTIONARY
360
20F9
102
}
102
{ACAD_REACTORS
330
2B4
102
}
330
2B4
100
AcDbVisualStyle
  2
ColorChange
 70
    16
 71
     2
 72
     2
 73
     3
 90
        0
 40
-0.6
 41
-30.0
 62
     5
 63
     8
 74
     1
 91
        4
 64
     7
 65
   257
 75
     1
175
     1
 42
1.0
 92
        8
 66
     8
 43
1.0
 76
     1
 77
     6
 78
     2
 67
     7
 79
     5
170
     0
171
     0
290
     0
174
     0
 93
        1
 44
0.0
173
     0
291
     1
 45
0.0
1001
ACAD
1000
AcDbSavedByObjectVersion
1070
     0
  0
VISUALSTYLE
  5
2BD
102
{ACAD_XDICTIONARY
360
20EB
102
}
102
{ACAD_REACTORS
330
2B4
102
}
330
2B4
100
AcDbVisualStyle
  2
Conceptual
 70
     9
 71
     3
 72
     2
 73
     0
 90
        0
 40
-0.6
 41
-30.0
 62
     5
 63
     7
 74
     2
 91
        2
 64
     7
 65
   257
 75
     1
175
     1
 42
40.0
 92
        8
 66
     7
 43
1.0
 76
     1
 77
     6
 78
     2
 67
     7
 79
     3
170
     0
171
     0
290
     0
174
     0
 93
        1
 44
0.0
173
     0
291
     0
 45
0.0
1001
ACAD
1000
AcDbSavedByObjectVersion
1070
     0
  0
VISUALSTYLE
  5
2BF
102
{ACAD_XDICTIONARY
360
20EF
102
}
102
{ACAD_REACTORS
330
2B4
102
}
330
2B4
100
AcDbVisualStyle
  2
Dim
 70
    11
 71
     2
 72
     2
 73
     0
 90
        0
 40
-0.6
 41
-30.0
 62
     5
 63
     7
 74
     1
 91
        4
 64
     7
 65
   257
 75
     1
175
     1
 42
1.0
 92
        8
 66
     7
 43
1.0
 76
     1
 77
     6
 78
     2
 67
     7
 79
     5
170
     0
171
     0
290
     0
174
     0
 93
        1
 44
-50.0
173
     0
291
     1
 45
0.0
1001
ACAD
1000
AcDbSavedByObjectVersion
1070
     0
  0
VISUALSTYLE
  5
1F60
102
{ACAD_XDICTIONARY
360
211B
102
}
102
{ACAD_REACTORS
330
2B4
102
}
330
2B4
100
AcDbVisualStyle
  2
EdgeColorOff
 70
    22
 71
     2
 72
     2
 73
     0
 90
        0
 40
-0.6
 41
-30.0
 62
     5
 63
     7
 74
     1
 91
        4
 64
     7
 65
   257
 75
     1
175
     1
 42
1.0
 92
        8
 66
     7
 43
1.0
 76
     1
 77
     6
 78
     2
 67
     7
 79
     5
170
     0
171
     0
290
     0
174
     0
 93
        1
 44
0.0
173
     0
291
     1
 45
0.0
1001
ACAD
1000
AcDbSavedByObjectVersion
1070
     0
  0
VISUALSTYLE
  5
2C3
102
{ACAD_XDICTIONARY
360
20F7
102
}
102
{ACAD_REACTORS
330
2B4
102
}
330
2B4
100
AcDbVisualStyle
  2
Facepattern
 70
    15
 71
     2
 72
     2
 73
     0
 90
        0
 40
-0.6
 41
-30.0
 62
     5
 63
     7
 74
     1
 91
        4
 64
     7
 65
   257
 75
     1
175
     1
 42
1.0
 92
        8
 66
     7
 43
1.0
 76
     1
 77
     6
 78
     2
 67
     7
 79
     5
170
     0
171
     0
290
     0
174
     0
 93
        1
 44
0.0
173
     0
291
     1
 45
0.0
1001
ACAD
1000
AcDbSavedByObjectVersion
1070
     0
  0
VISUALSTYLE
  5
2B5
102
{ACAD_XDICTIONARY
360
20DB
102
}
102
{ACAD_REACTORS
330
2B4
102
}
330
2B4
100
AcDbVisualStyle
  2
Flat
 70
     0
 71
     2
 72
     1
 73
     1
 90
        2
 40
-0.6
 41
30.0
 62
     5
 63
     7
 74
     0
 91
        4
 64
     7
 65
   257
 75
     1
175
     1
 42
1.0
 92
        8
 66
     7
 43
1.0
 76
     1
 77
     6
 78
     2
 67
     7
 79
     5
170
     0
171
     0
290
     0
174
     0
 93
       13
 44
0.0
173
     0
291
     1
 45
0.0
1001
ACAD
1000
AcDbSavedByObjectVersion
1070
     0
  0
VISUALSTYLE
  5
2B6
102
{ACAD_XDICTIONARY
360
20DD
102
}
102
{ACAD_REACTORS
330
2B4
102
}
330
2B4
100
AcDbVisualStyle
  2
FlatWithEdges
 70
     1
 71
     2
 72
     1
 73
     1
 90
        2
 40
-0.6
 41
30.0
 62
     5
 63
     7
 74
     1
 91
        4
 64
     7
 65
   257
 75
     1
175
     1
 42
1.0
 92
        0
 66
   257
 43
1.0
 76
     1
 77
     6
 78
     2
 67
     7
 79
     5
170
     0
171
     0
290
     0
174
     0
 93
       13
 44
0.0
173
     0
291
     1
 45
0.0
1001
ACAD
1000
AcDbSavedByObjectVersion
1070
     0
  0
VISUALSTYLE
  5
2B7
102
{ACAD_XDICTIONARY
360
20DF
102
}
102
{ACAD_REACTORS
330
2B4
102
}
330
2B4
100
AcDbVisualStyle
  2
Gouraud
 70
     2
 71
     2
 72
     2
 73
     1
 90
        2
 40
-0.6
 41
30.0
 62
     5
 63
     7
 74
     0
 91
        4
 64
     7
 65
   257
 75
     1
175
     1
 42
1.0
 92
        0
 66
     7
 43
1.0
 76
     1
 77
     6
 78
     2
 67
     7
 79
     5
170
     0
171
     0
290
     0
174
     0
 93
       13
 44
0.0
173
     0
291
     1
 45
0.0
1001
ACAD
1000
AcDbSavedByObjectVersion
1070
     0
  0
VISUALSTYLE
  5
2B8
102
{ACAD_XDICTIONARY
360
20E1
102
}
102
{ACAD_REACTORS
330
2B4
102
}
330
2B4
100
AcDbVisualStyle
  2
GouraudWithEdges
 70
     3
 71
     2
 72
     2
 73
     1
 90
        2
 40
-0.6
 41
30.0
 62
     5
 63
     7
 74
     1
 91
        4
 64
     7
 65
   257
 75
     1
175
     1
 42
1.0
 92
        0
 66
   257
 43
1.0
 76
     1
 77
     6
 78
     2
 67
     7
 79
     5
170
     0
171
     0
290
     0
174
     0
 93
       13
 44
0.0
173
     0
291
     1
 45
0.0
1001
ACAD
1000
AcDbSavedByObjectVersion
1070
     0
  0
VISUALSTYLE
  5
1F58
102
{ACAD_XDICTIONARY
360
210B
102
}
102
{ACAD_REACTORS
330
2B4
102
}
330
2B4
100
AcDbVisualStyle
  2
Hidden
 70
     6
 71
     1
 72
     2
 73
     2
 90
        0
 40
-0.6
 41
-30.0
 62
     5
 63
     7
 74
     2
 91
        2
 64
     7
 65
   257
 75
     2
175
     1
 42
40.0
 92
        0
 66
   257
 43
1.0
 76
     1
 77
     6
 78
     2
 67
     7
 79
     3
170
     0
171
     0
290
     0
174
     0
 93
        1
 44
0.0
173
     0
291
     0
 45
0.0
1001
ACAD
1000
AcDbSavedByObjectVersion
1070
     0
  0
VISUALSTYLE
  5
1F5E
102
{ACAD_XDICTIONARY
360
2117
102
}
102
{ACAD_REACTORS
330
2B4
102
}
330
2B4
100
AcDbVisualStyle
  2
JitterOff
 70
    20
 71
     2
 72
     2
 73
     0
 90
        0
 40
-0.6
 41
-30.0
 62
     5
 63
     7
 74
     1
 91
        4
 64
     7
 65
   257
 75
     1
175
     1
 42
1.0
 92
       10
 66
     7
 43
1.0
 76
     1
 77
     6
 78
     2
 67
     7
 79
     5
170
     0
171
     0
290
     0
174
     0
 93
        1
 44
0.0
173
     0
291
     1
 45
0.0
1001
ACAD
1000
AcDbSavedByObjectVersion
1070
     0
  0
VISUALSTYLE
  5
2C2
102
{ACAD_XDICTIONARY
360
20F5
102
}
102
{ACAD_REACTORS
330
2B4
102
}
330
2B4
100
AcDbVisualStyle
  2
Linepattern
 70
    14
 71
     2
 72
     2
 73
     0
 90
        0
 40
-0.6
 41
-30.0
 62
     5
 63
     7
 74
     1
 91
        4
 64
     7
 65
   257
 75
     7
175
     7
 42
1.0
 92
        8
 66
     7
 43
1.0
 76
     1
 77
     6
 78
     2
 67
     7
 79
     5
170
     0
171
     0
290
     0
174
     0
 93
        1
 44
0.0
173
     0
291
     1
 45
0.0
1001
ACAD
1000
AcDbSavedByObjectVersion
1070
     0
  0
VISUALSTYLE
  5
1F5F
102
{ACAD_XDICTIONARY
360
2119
102
}
102
{ACAD_REACTORS
330
2B4
102
}
330
2B4
100
AcDbVisualStyle
  2
OverhangOff
 70
    21
 71
     2
 72
     2
 73
     0
 90
        0
 40
-0.6
 41
-30.0
 62
     5
 63
     7
 74
     1
 91
        4
 64
     7
 65
   257
 75
     1
175
     1
 42
1.0
 92
        9
 66
     7
 43
1.0
 76
     1
 77
     6
 78
     2
 67
     7
 79
     5
170
     0
171
     0
290
     0
174
     0
 93
        1
 44
0.0
173
     0
291
     1
 45
0.0
1001
ACAD
1000
AcDbSavedByObjectVersion
1070
     0
  0
VISUALSTYLE
  5
2BE
102
{ACAD_XDICTIONARY
360
20ED
102
}
102
{ACAD_REACTORS
330
2B4
102
}
330
2B4
100
AcDbVisualStyle
  2
Realistic
 70
     8
 71
     2
 72
     2
 73
     0
 90
        0
 40
-0.6
 41
-30.0
 62
     5
 63
     7
 74
     1
 91
        0
 64
     7
 65
   257
 75
     1
175
     1
 42
1.0
 92
        8
 66
     8
 43
1.0
 76
     1
 77
     6
 78
     2
 67
     7
 79
     5
170
     0
171
     0
290
     0
174
     0
 93
       13
 44
0.0
173
     0
291
     0
 45
0.0
1001
ACAD
1000
AcDbSavedByObjectVersion
1070
     0
  0
VISUALSTYLE
  5
1F5D
102
{ACAD_XDICTIONARY
360
2115
102
}
102
{ACAD_REACTORS
330
2B4
102
}
330
2B4
100
AcDbVisualStyle
  2
Shaded
 70
    27
 71
     2
 72
     2
 73
     1
 90
        2
 40
-0.6
 41
30.0
 62
     5
 63
     7
 74
     0
 91
        4
 64
     7
 65
   257
 75
     1
175
     1
 42
1.0
 92
        8
 66
   257
 43
1.0
 76
     1
 77
     6
 78
     2
 67
     8
 79
     3
170
     0
171
     0
290
     0
174
     0
 93
        5
 44
0.0
173
     0
291
     0
 45
0.0
1001
ACAD
1000
AcDbSavedByObjectVersion
1070
     0
  0
VISUALSTYLE
  5
1F5C
102
{ACAD_XDICTIONARY
360
2113
102
}
102
{ACAD_REACTORS
330
2B4
102
}
330
2B4
100
AcDbVisualStyle
  2
Shaded with edges
 70
    26
 71
     2
 72
     2
 73
     1
 90
        2
 40
-0.6
 41
30.0
 62
     5
 63
     7
 74
     1
 91
       10
 64
     7
 65
   257
 75
     2
175
     1
 42
1.0
 92
        8
 66
   257
 43
1.0
 76
     1
 77
     6
 78
     2
 67
     7
 79
     3
170
     0
171
     0
290
     0
174
     0
 93
        5
 44
0.0
173
     0
291
     0
 45
0.0
1001
ACAD
1000
AcDbSavedByObjectVersion
1070
     0
  0
VISUALSTYLE
  5
1F59
102
{ACAD_XDICTIONARY
360
210D
102
}
102
{ACAD_REACTORS
330
2B4
102
}
330
2B4
100
AcDbVisualStyle
  2
Shades of Gray
 70
    23
 71
     2
 72
     2
 73
     3
 90
        0
 40
-0.6
 41
-30.0
 62
     5
 63
     7
 74
     2
 91
        2
 64
     7
 65
     7
 75
     1
175
     1
 42
40.0
 92
        8
 66
     7
 43
1.0
 76
     1
 77
     6
 78
     2
 67
     7
 79
     3
170
     0
171
     0
290
     0
174
     0
 93
        1
 44
0.0
173
     0
291
     0
 45
0.0
1001
ACAD
1000
AcDbSavedByObjectVersion
1070
     0
  0
VISUALSTYLE
  5
1F5A
102
{ACAD_XDICTIONARY
360
210F
102
}
102
{ACAD_REACTORS
330
2B4
102
}
330
2B4
100
AcDbVisualStyle
  2
Sketchy
 70
    24
 71
     1
 72
     2
 73
     2
 90
        0
 40
-0.6
 41
-30.0
 62
     5
 63
     7
 74
     2
 91
        2
 64
     7
 65
     7
 75
     1
175
     1
 42
40.0
 92
       11
 66
     7
 43
1.0
 76
     1
 77
     6
 78
     2
 67
     7
 79
     6
170
     0
171
     0
290
     0
174
     0
 93
        1
 44
0.0
173
     0
291
     0
 45
0.0
1001
ACAD
1000
AcDbSavedByObjectVersion
1070
     0
  0
VISUALSTYLE
  5
2C1
102
{ACAD_XDICTIONARY
360
20F3
102
}
102
{ACAD_REACTORS
330
2B4
102
}
330
2B4
100
AcDbVisualStyle
  2
Thicken
 70
    13
 71
     2
 72
     2
 73
     0
 90
        0
 40
-0.6
 41
-30.0
 62
     5
 63
     7
 74
     1
 91
        4
 64
     7
 65
   257
 75
     1
175
     1
 42
1.0
 92
       12
 66
     7
 43
1.0
 76
     1
 77
     6
 78
     2
 67
     7
 79
     5
170
     0
171
     0
290
     0
174
     0
 93
        1
 44
0.0
173
     0
291
     1
 45
0.0
1001
ACAD
1000
AcDbSavedByObjectVersion
1070
     0
  0
VISUALSTYLE
  5
1F57
102
{ACAD_XDICTIONARY
360
2109
102
}
102
{ACAD_REACTORS
330
2B4
102
}
330
2B4
100
AcDbVisualStyle
  2
Wireframe
 70
     5
 71
     0
 72
     2
 73
     0
 90
        0
 40
-0.6
 41
-30.0
 62
     5
 63
     7
 74
     1
 91
        4
 64
     7
 65
   257
 75
     1
175
     1
 42
1.0
 92
        0
 66
   257
 43
1.0
 76
     1
 77
     6
 78
     2
 67
     7
 79
     3
170
     0
171
     0
290
     0
174
     0
 93
        1
 44
0.0
173
     0
291
     0
 45
0.0
1001
ACAD
1000
AcDbSavedByObjectVersion
1070
     0
  0
VISUALSTYLE
  5
1F5B
102
{ACAD_XDICTIONARY
360
2111
102
}
102
{ACAD_REACTORS
330
2B4
102
}
330
2B4
100
AcDbVisualStyle
  2
X-Ray
 70
    25
 71
     2
 72
     2
 73
     1
 90
        1
 40
0.5
 41
-30.0
 62
     5
 63
     7
 74
     1
 91
        0
 64
     7
 65
   257
 75
     1
175
     1
 42
1.0
 92
        8
 66
     7
 43
1.0
 76
     1
 77
     6
 78
     2
 67
     7
 79
     3
170
     0
171
     0
290
     0
174
     0
 93
       13
 44
0.0
173
     0
291
     0
 45
0.0
1001
ACAD
1000
AcDbSavedByObjectVersion
1070
     0
  0
DICTIONARYVAR
  5
36B
102
{ACAD_REACTORS
330
2AA
102
}
330
2AA
100
DictionaryVariables
280
     0
  1
1:1
  0
DICTIONARYVAR
  5
369
102
{ACAD_REACTORS
330
2AA
102
}
330
2AA
100
DictionaryVariables
280
     0
  1
STANDARD
  0
DICTIONARYVAR
  5
312
102
{ACAD_REACTORS
330
2AA
102
}
330
2AA
100
DictionaryVariables
280
     0
  1
STANDARD
  0
DICTIONARYVAR
  5
2AB
102
{ACAD_REACTORS
330
2AA
102
}
330
2AA
100
DictionaryVariables
280
     0
  1
2
  0
DICTIONARYVAR
  5
1DCA
102
{ACAD_REACTORS
330
2AA
102
}
330
2AA
100
DictionaryVariables
280
     0
  1
0
  0
DICTIONARYVAR
  5
314
102
{ACAD_REACTORS
330
2AA
102
}
330
2AA
100
DictionaryVariables
280
     0
  1
0
  0
DICTIONARYVAR
  5
1DCC
102
{ACAD_REACTORS
330
2AA
102
}
330
2AA
100
DictionaryVariables
280
     0
  1
1
  0
DICTIONARYVAR
  5
1DCD
102
{ACAD_REACTORS
330
2AA
102
}
330
2AA
100
DictionaryVariables
280
     0
  1
15
  0
DICTIONARYVAR
  5
36C
102
{ACAD_REACTORS
330
2AA
102
}
330
2AA
100
DictionaryVariables
280
     0
  1
0
  0
DICTIONARYVAR
  5
1DCB
102
{ACAD_REACTORS
330
2AA
102
}
330
2AA
100
DictionaryVariables
280
     0
  1
10.000000
  0
DICTIONARYVAR
  5
36A
102
{ACAD_REACTORS
330
2AA
102
}
330
2AA
100
DictionaryVariables
280
     0
  1
0
  0
DICTIONARYVAR
  5
313
102
{ACAD_REACTORS
330
2AA
102
}
330
2AA
100
DictionaryVariables
280
     0
  1
127
  0
DICTIONARYVAR
  5
20C9
102
{ACAD_REACTORS
330
2AA
102
}
330
2AA
100
DictionaryVariables
280
     0
  1
0
  0
XRECORD
  5
51
102
{ACAD_REACTORS
330
50
102
}
330
50
100
AcDbXrecord
280
     1
 91
        0
  0
ACAD_PROXY_OBJECT
  5
6DA
102
{ACAD_REACTORS
330
6D9
102
}
330
6D9
100
AcDbProxyObject
 90
      499
 91
      512
 95
  3276827
 70
     0
 93
      153
310
407907440045004600410055004C0054007A00CC
 94
        0
1001
ACAD
1000
AcRTDxfName
1000
ACDBQSCATEGORY
  0
ACAD_PROXY_OBJECT
  5
AAC
102
{ACAD_REACTORS
330
AAB
102
}
330
AAB
100
AcDbProxyObject
 90
      499
 91
      515
 95
  3276827
 70
     0
 93
     2908
310
40B520280D55480A0281203520280A0280C0000000000000A200000000000000448080C00000000000019200000000000000688120280A0280A0E88008A008C008200AA009800A80082280027802980170020E88008A008C008200AA009800A80080A180202860120C86009E008800920086008A008A220024802680228027
310
00298024802780270024802F8022002480268018801680220024802680190024EA2007400B800A200A600BE00A4008A00A8008A00B80082009A00840092008A009C00A8009200B800A8009E00A000BE00880092008A00A400A4008A00B800A8008200840060005C008800AE008E0095A8801D002E00288029802F802900228
310
02A0022802E002080268021002480228027002A0024802E002A00278028002F802200248022802900290022802E002A00278028002F802800208026002600170022002B80238020C86009E008800920086008A0085A200228029802180290024802D00248027802700228050413C
 94
        0
1001
ACAD
1000
AcRTDxfName
1000
ACDBQSPALLSTYLE
  0
XRECORD
  5
1F52
102
{ACAD_REACTORS
330
1F4D
102
}
330
1F4D
100
AcDbXrecord
280
     1
  9
X58ef
  0
XRECORD
  5
1F50
102
{ACAD_REACTORS
330
1F4D
102
}
330
1F4D
100
AcDbXrecord
280
     1
  2
.1
  3
P-7064
  6
X58ef
280
     1
310
6465736372697A696F6E65002E3100444154410030332F30382F30390064697365676E61746F7265004D6172636F20412E00717461003100554D004E52005245560030005343414C4100313A310000
 10
0.0
 20
0.0
 30
0.0
  0
XRECORD
  5
1F4F
102
{ACAD_REACTORS
330
1F4D
102
}
330
1F4D
100
AcDbXrecord
280
     1
  2
.cart
  3
P-13E7
  6
X58ef
280
     1
310
6465736372697A696F6E65002E6361727400444154410030332F30382F30390064697365676E61746F7265004D6172636F20412E00717461003100554D004E52005245560030005343414C4100313A31300000
 10
0.0
 20
0.0
 30
0.0
  0
XRECORD
  5
1F51
102
{ACAD_REACTORS
330
1F4D
102
}
330
1F4D
100
AcDbXrecord
280
     1
  2
PROF.Q25 2VA TAMP. ALL.ANOD.ARG.
  3
P-62DD
  6
X58ef
280
     2
310
6465736372697A696F6E650050524F462E513235203256412054414D502E20414C4C2E414E4F442E4152472E00444154410030362F30382F30390064697365676E61746F7265004D6172636F20412E00717461003100554D004D4C0052455600300044494D3100313030300044494D454E53494F4E495F44494D312D44494D3200313030300024736F7572636500416E61677261666963612047657374696F6E616C6500434F444943450058423235353237005452415454414D454E544900414E4F442E415247454E544F004E4F544500414E5449434F524F44414C204C454741363036302F554E49203930303631004D4154455249414C4500414C4C554D
311
494E494F0000
 10
2567.337546592119
 20
2739.720435936101
 30
0.0
  0
XRECORD
  5
1F4E
102
{ACAD_REACTORS
330
1F4D
102
}
330
1F4D
100
AcDbXrecord
280
     1
  2
PROFIL.Q25-2VA TAMP./ARG.
  3
P-0000
280
     1
310
6465736372697A696F6E650050524F46494C2E5132352D3256412054414D502E2F4152472E00444154410030332F30382F303900554D004D4C0052455600300044495345474E41544F5245004D6172636F20412E005343414C4100313A3130005452415454414D454E544900414E4F442E415247454E544F005154410031004E4F544500414E5449434F524F44414C204C4547413630363020554E49393030362E31004D4154455249414C4500414C4C554D494E494F00434F444943450058423235353237002E666D7400340000
 10
0.0
 20
0.0
 30
0.0
  0
XRECORD
  5
6E1
102
{ACAD_REACTORS
330
6E0
102
}
330
6E0
100
AcDbXrecord
280
     1
 90
      202
 91
      144
  0
DICTIONARY
  5
20D3
330
48
100
AcDbDictionary
280
     1
281
     1
  3
ACAD_XREC_ROUNDTRIP
360
20D4
  0
DICTIONARY
  5
20D1
330
47
100
AcDbDictionary
280
     1
281
     1
  3
ACAD_XREC_ROUNDTRIP
360
20D2
  0
DICTIONARY
  5
20D7
330
2B2
100
AcDbDictionary
280
     1
281
     1
  3
ACAD_XREC_ROUNDTRIP
360
20D8
  0
DICTIONARY
  5
20D5
330
2B1
100
AcDbDictionary
280
     1
281
     1
  3
ACAD_XREC_ROUNDTRIP
360
20D6
  0
DICTIONARY
  5
20D9
330
2B3
100
AcDbDictionary
280
     1
281
     1
  3
ACAD_XREC_ROUNDTRIP
360
20DA
  0
DICTIONARY
  5
20FF
330
1F02
100
AcDbDictionary
280
     1
281
     1
  3
ACAD_XREC_ROUNDTRIP
360
2100
  0
DICTIONARY
  5
2101
330
1F03
100
AcDbDictionary
280
     1
281
     1
  3
ACAD_XREC_ROUNDTRIP
360
2102
  0
DICTIONARY
  5
2103
330
1F04
100
AcDbDictionary
280
     1
281
     1
  3
ACAD_XREC_ROUNDTRIP
360
2104
  0
DICTIONARY
  5
2105
330
1F05
100
AcDbDictionary
280
     1
281
     1
  3
ACAD_XREC_ROUNDTRIP
360
2106
  0
DICTIONARY
  5
2107
330
1F06
100
AcDbDictionary
280
     1
281
     1
  3
ACAD_XREC_ROUNDTRIP
360
2108
  0
DICTIONARY
  5
366
330
31A
100
AcDbDictionary
280
     1
281
     1
  3
ACAD_ROUNDTRIP_2008_TABLESTYLE_CELLSTYLEMAP
360
20CC
  3
ACAD_XREC_ROUNDTRIP
360
20FD
  0
DICTIONARY
  5
364
330
2CC
100
AcDbDictionary
280
     1
281
     1
  3
ACAD_ROUNDTRIP_2008_TABLESTYLE_CELLSTYLEMAP
360
20CB
  3
ACAD_XREC_ROUNDTRIP
360
20FC
  0
DICTIONARY
  5
362
330
2C7
100
AcDbDictionary
280
     1
281
     1
  3
ACAD_ROUNDTRIP_2008_TABLESTYLE_CELLSTYLEMAP
360
20CA
  3
ACAD_XREC_ROUNDTRIP
360
20FB
  0
DICTIONARY
  5
20E5
330
2BA
100
AcDbDictionary
280
     1
281
     1
  3
ACAD_XREC_ROUNDTRIP
360
20E6
  0
DICTIONARY
  5
20E9
330
2BC
100
AcDbDictionary
280
     1
281
     1
  3
ACAD_XREC_ROUNDTRIP
360
20EA
  0
DICTIONARY
  5
20E7
330
2BB
100
AcDbDictionary
280
     1
281
     1
  3
ACAD_XREC_ROUNDTRIP
360
20E8
  0
DICTIONARY
  5
20E3
330
2B9
100
AcDbDictionary
280
     1
281
     1
  3
ACAD_XREC_ROUNDTRIP
360
20E4
  0
DICTIONARY
  5
20F1
330
2C0
100
AcDbDictionary
280
     1
281
     1
  3
ACAD_XREC_ROUNDTRIP
360
20F2
  0
DICTIONARY
  5
20F9
330
2C4
100
AcDbDictionary
280
     1
281
     1
  3
ACAD_XREC_ROUNDTRIP
360
20FA
  0
DICTIONARY
  5
20EB
330
2BD
100
AcDbDictionary
280
     1
281
     1
  3
ACAD_XREC_ROUNDTRIP
360
20EC
  0
DICTIONARY
  5
20EF
330
2BF
100
AcDbDictionary
280
     1
281
     1
  3
ACAD_XREC_ROUNDTRIP
360
20F0
  0
DICTIONARY
  5
211B
330
1F60
100
AcDbDictionary
280
     1
281
     1
  3
ACAD_XREC_ROUNDTRIP
360
211C
  0
DICTIONARY
  5
20F7
330
2C3
100
AcDbDictionary
280
     1
281
     1
  3
ACAD_XREC_ROUNDTRIP
360
20F8
  0
DICTIONARY
  5
20DB
330
2B5
100
AcDbDictionary
280
     1
281
     1
  3
ACAD_XREC_ROUNDTRIP
360
20DC
  0
DICTIONARY
  5
20DD
330
2B6
100
AcDbDictionary
280
     1
281
     1
  3
ACAD_XREC_ROUNDTRIP
360
20DE
  0
DICTIONARY
  5
20DF
330
2B7
100
AcDbDictionary
280
     1
281
     1
  3
ACAD_XREC_ROUNDTRIP
360
20E0
  0
DICTIONARY
  5
20E1
330
2B8
100
AcDbDictionary
280
     1
281
     1
  3
ACAD_XREC_ROUNDTRIP
360
20E2
  0
DICTIONARY
  5
210B
330
1F58
100
AcDbDictionary
280
     1
281
     1
  3
ACAD_XREC_ROUNDTRIP
360
210C
  0
DICTIONARY
  5
2117
330
1F5E
100
AcDbDictionary
280
     1
281
     1
  3
ACAD_XREC_ROUNDTRIP
360
2118
  0
DICTIONARY
  5
20F5
330
2C2
100
AcDbDictionary
280
     1
281
     1
  3
ACAD_XREC_ROUNDTRIP
360
20F6
  0
DICTIONARY
  5
2119
330
1F5F
100
AcDbDictionary
280
     1
281
     1
  3
ACAD_XREC_ROUNDTRIP
360
211A
  0
DICTIONARY
  5
20ED
330
2BE
100
AcDbDictionary
280
     1
281
     1
  3
ACAD_XREC_ROUNDTRIP
360
20EE
  0
DICTIONARY
  5
2115
330
1F5D
100
AcDbDictionary
280
     1
281
     1
  3
ACAD_XREC_ROUNDTRIP
360
2116
  0
DICTIONARY
  5
2113
330
1F5C
100
AcDbDictionary
280
     1
281
     1
  3
ACAD_XREC_ROUNDTRIP
360
2114
  0
DICTIONARY
  5
210D
330
1F59
100
AcDbDictionary
280
     1
281
     1
  3
ACAD_XREC_ROUNDTRIP
360
210E
  0
DICTIONARY
  5
210F
330
1F5A
100
AcDbDictionary
280
     1
281
     1
  3
ACAD_XREC_ROUNDTRIP
360
2110
  0
DICTIONARY
  5
20F3
330
2C1
100
AcDbDictionary
280
     1
281
     1
  3
ACAD_XREC_ROUNDTRIP
360
20F4
  0
DICTIONARY
  5
2109
330
1F57
100
AcDbDictionary
280
     1
281
     1
  3
ACAD_XREC_ROUNDTRIP
360
210A
  0
DICTIONARY
  5
2111
330
1F5B
100
AcDbDictionary
280
     1
281
     1
  3
ACAD_XREC_ROUNDTRIP
360
2112
  0
XRECORD
  5
20D4
102
{ACAD_REACTORS
330
20D3
102
}
330
20D3
100
AcDbXrecord
280
     1
102
SHADEPLOT
 70
     0
102
SHADEPLOTRESLEVEL
 70
     2
102
SHADEPLOTCUSTOMDPI
 70
   300
  0
XRECORD
  5
20D2
102
{ACAD_REACTORS
330
20D1
102
}
330
20D1
100
AcDbXrecord
280
     1
102
SHADEPLOT
 70
     0
102
SHADEPLOTRESLEVEL
 70
     2
102
SHADEPLOTCUSTOMDPI
 70
   300
  0
XRECORD
  5
20D8
102
{ACAD_REACTORS
330
20D7
102
}
330
20D7
100
AcDbXrecord
280
     1
102
MATERIAL
148
0.0
149
0.0
149
0.0
 93
        0
 94
       63
282
     0
 72
     1
 77
     1
171
     1
175
     1
179
     1
273
     0
  0
XRECORD
  5
20D6
102
{ACAD_REACTORS
330
20D5
102
}
330
20D5
100
AcDbXrecord
280
     1
102
MATERIAL
148
0.0
149
0.0
149
0.0
 93
        0
 94
       63
282
     0
 72
     1
 77
     1
171
     1
175
     1
179
     1
273
     0
  0
XRECORD
  5
20DA
102
{ACAD_REACTORS
330
20D9
102
}
330
20D9
100
AcDbXrecord
280
     1
102
MATERIAL
148
0.0
149
0.0
149
0.0
 93
        0
 94
       63
282
     0
 72
     1
 77
     1
171
     1
175
     1
179
     1
273
     0
  0
XRECORD
  5
2100
102
{ACAD_REACTORS
330
20FF
102
}
330
20FF
100
AcDbXrecord
280
     1
102
SHADEPLOT
 70
     0
102
SHADEPLOTRESLEVEL
 70
     2
102
SHADEPLOTCUSTOMDPI
 70
   300
  0
XRECORD
  5
2102
102
{ACAD_REACTORS
330
2101
102
}
330
2101
100
AcDbXrecord
280
     1
102
SHADEPLOT
 70
     0
102
SHADEPLOTRESLEVEL
 70
     2
102
SHADEPLOTCUSTOMDPI
 70
   300
  0
XRECORD
  5
2104
102
{ACAD_REACTORS
330
2103
102
}
330
2103
100
AcDbXrecord
280
     1
102
SHADEPLOT
 70
     0
102
SHADEPLOTRESLEVEL
 70
     2
102
SHADEPLOTCUSTOMDPI
 70
   300
  0
XRECORD
  5
2106
102
{ACAD_REACTORS
330
2105
102
}
330
2105
100
AcDbXrecord
280
     1
102
SHADEPLOT
 70
     0
102
SHADEPLOTRESLEVEL
 70
     2
102
SHADEPLOTCUSTOMDPI
 70
   300
  0
XRECORD
  5
2108
102
{ACAD_REACTORS
330
2107
102
}
330
2107
100
AcDbXrecord
280
     1
102
SHADEPLOT
 70
     0
102
SHADEPLOTRESLEVEL
 70
     2
102
SHADEPLOTCUSTOMDPI
 70
   300
  0
CELLSTYLEMAP
  5
20CC
102
{ACAD_REACTORS
330
366
102
}
330
366
100
AcDbCellStyleMap
 90
        3
300
CELLSTYLE
  1
TABLEFORMAT_BEGIN
 90
        5
170
     1
 91
        0
 92
    32768
 62
   257
 93
        1
300
CONTENTFORMAT
  1
CONTENTFORMAT_BEGIN
 90
        0
 91
        0
 92
      512
 93
        0
300

 40
0.0
140
1.0
 94
        5
 62
     1
340
1B
144
6.0
309
CONTENTFORMAT_END
171
     1
301
MARGIN
  1
CELLMARGIN_BEGIN
 40
1.5
 40
1.5
 40
1.5
 40
1.5
 40
0.18
 40
0.18
309
CELLMARGIN_END
 94
        6
 95
        1
302
GRIDFORMAT
  1
GRIDFORMAT_BEGIN
 90
        0
 91
        1
 62
     0
 92
       -2
340
0
 93
        0
 40
0.045
309
GRIDFORMAT_END
 95
        2
302
GRIDFORMAT
  1
GRIDFORMAT_BEGIN
 90
        0
 91
        1
 62
     0
 92
       -2
340
0
 93
        0
 40
0.045
309
GRIDFORMAT_END
 95
        4
302
GRIDFORMAT
  1
GRIDFORMAT_BEGIN
 90
        0
 91
        1
 62
     0
 92
       -2
340
0
 93
        0
 40
0.045
309
GRIDFORMAT_END
 95
        8
302
GRIDFORMAT
  1
GRIDFORMAT_BEGIN
 90
        0
 91
        1
 62
     0
 92
       -2
340
0
 93
        0
 40
0.045
309
GRIDFORMAT_END
 95
       16
302
GRIDFORMAT
  1
GRIDFORMAT_BEGIN
 90
        0
 91
        1
 62
     0
 92
       -2
340
0
 93
        0
 40
0.045
309
GRIDFORMAT_END
 95
       32
302
GRIDFORMAT
  1
GRIDFORMAT_BEGIN
 90
        0
 91
        1
 62
     0
 92
       -2
340
0
 93
        0
 40
0.045
309
GRIDFORMAT_END
309
TABLEFORMAT_END
  1
CELLSTYLE_BEGIN
 90
        1
 91
        1
300
_TITLE
309
CELLSTYLE_END
300
CELLSTYLE
  1
TABLEFORMAT_BEGIN
 90
        5
170
     1
 91
        0
 92
        0
 62
   257
 93
        1
300
CONTENTFORMAT
  1
CONTENTFORMAT_BEGIN
 90
        0
 91
        0
 92
      512
 93
        0
300

 40
0.0
140
1.0
 94
        5
 62
     3
340
1B
144
3.5
309
CONTENTFORMAT_END
171
     1
301
MARGIN
  1
CELLMARGIN_BEGIN
 40
1.5
 40
1.5
 40
1.5
 40
1.5
 40
0.18
 40
0.18
309
CELLMARGIN_END
 94
        6
 95
        1
302
GRIDFORMAT
  1
GRIDFORMAT_BEGIN
 90
        0
 91
        1
 62
     0
 92
       -2
340
0
 93
        0
 40
0.045
309
GRIDFORMAT_END
 95
        2
302
GRIDFORMAT
  1
GRIDFORMAT_BEGIN
 90
        0
 91
        1
 62
     0
 92
       -2
340
0
 93
        0
 40
0.045
309
GRIDFORMAT_END
 95
        4
302
GRIDFORMAT
  1
GRIDFORMAT_BEGIN
 90
        0
 91
        1
 62
     0
 92
       -2
340
0
 93
        0
 40
0.045
309
GRIDFORMAT_END
 95
        8
302
GRIDFORMAT
  1
GRIDFORMAT_BEGIN
 90
        0
 91
        1
 62
     0
 92
       -2
340
0
 93
        0
 40
0.045
309
GRIDFORMAT_END
 95
       16
302
GRIDFORMAT
  1
GRIDFORMAT_BEGIN
 90
        0
 91
        1
 62
     0
 92
       -2
340
0
 93
        0
 40
0.045
309
GRIDFORMAT_END
 95
       32
302
GRIDFORMAT
  1
GRIDFORMAT_BEGIN
 90
        0
 91
        1
 62
     0
 92
       -2
340
0
 93
        0
 40
0.045
309
GRIDFORMAT_END
309
TABLEFORMAT_END
  1
CELLSTYLE_BEGIN
 90
        2
 91
        1
300
_HEADER
309
CELLSTYLE_END
300
CELLSTYLE
  1
TABLEFORMAT_BEGIN
 90
        5
170
     1
 91
        0
 92
        0
 62
   257
 93
        1
300
CONTENTFORMAT
  1
CONTENTFORMAT_BEGIN
 90
        0
 91
        0
 92
      512
 93
        0
300

 40
0.0
140
1.0
 94
        5
 62
     7
340
1B
144
3.0
309
CONTENTFORMAT_END
171
     1
301
MARGIN
  1
CELLMARGIN_BEGIN
 40
1.5
 40
1.5
 40
1.5
 40
1.5
 40
0.18
 40
0.18
309
CELLMARGIN_END
 94
        6
 95
        1
302
GRIDFORMAT
  1
GRIDFORMAT_BEGIN
 90
        0
 91
        1
 62
     0
 92
       -2
340
0
 93
        0
 40
0.045
309
GRIDFORMAT_END
 95
        2
302
GRIDFORMAT
  1
GRIDFORMAT_BEGIN
 90
        0
 91
        1
 62
     0
 92
       -2
340
0
 93
        0
 40
0.045
309
GRIDFORMAT_END
 95
        4
302
GRIDFORMAT
  1
GRIDFORMAT_BEGIN
 90
        0
 91
        1
 62
     0
 92
       -2
340
0
 93
        0
 40
0.045
309
GRIDFORMAT_END
 95
        8
302
GRIDFORMAT
  1
GRIDFORMAT_BEGIN
 90
        0
 91
        1
 62
     0
 92
       -2
340
0
 93
        0
 40
0.045
309
GRIDFORMAT_END
 95
       16
302
GRIDFORMAT
  1
GRIDFORMAT_BEGIN
 90
        0
 91
        1
 62
     0
 92
       -2
340
0
 93
        0
 40
0.045
309
GRIDFORMAT_END
 95
       32
302
GRIDFORMAT
  1
GRIDFORMAT_BEGIN
 90
        0
 91
        1
 62
     0
 92
       -2
340
0
 93
        0
 40
0.045
309
GRIDFORMAT_END
309
TABLEFORMAT_END
  1
CELLSTYLE_BEGIN
 90
        3
 91
        2
300
_DATA
309
CELLSTYLE_END
  0
XRECORD
  5
20FD
102
{ACAD_REACTORS
330
366
102
}
330
366
100
AcDbXrecord
280
     1
102
ACAD_ROUNDTRIP_PRE2007_TABLESTYLE
 90
      512
 91
        0
  1

 92
      512
 93
        0
  2

 94
      512
 95
        0
  3

  0
CELLSTYLEMAP
  5
20CB
102
{ACAD_REACTORS
330
364
102
}
330
364
100
AcDbCellStyleMap
 90
        3
300
CELLSTYLE
  1
TABLEFORMAT_BEGIN
 90
        5
170
     1
 91
        0
 92
    32768
 62
   257
 93
        1
300
CONTENTFORMAT
  1
CONTENTFORMAT_BEGIN
 90
        0
 91
        0
 92
      512
 93
        0
300

 40
0.0
140
1.0
 94
        5
 62
     1
340
1B
144
6.0
309
CONTENTFORMAT_END
171
     1
301
MARGIN
  1
CELLMARGIN_BEGIN
 40
1.5
 40
1.5
 40
1.5
 40
1.5
 40
0.18
 40
0.18
309
CELLMARGIN_END
 94
        6
 95
        1
302
GRIDFORMAT
  1
GRIDFORMAT_BEGIN
 90
        0
 91
        1
 62
     0
 92
       -2
340
0
 93
        0
 40
0.045
309
GRIDFORMAT_END
 95
        2
302
GRIDFORMAT
  1
GRIDFORMAT_BEGIN
 90
        0
 91
        1
 62
     0
 92
       -2
340
0
 93
        0
 40
0.045
309
GRIDFORMAT_END
 95
        4
302
GRIDFORMAT
  1
GRIDFORMAT_BEGIN
 90
        0
 91
        1
 62
     0
 92
       -2
340
0
 93
        0
 40
0.045
309
GRIDFORMAT_END
 95
        8
302
GRIDFORMAT
  1
GRIDFORMAT_BEGIN
 90
        0
 91
        1
 62
     0
 92
       -2
340
0
 93
        0
 40
0.045
309
GRIDFORMAT_END
 95
       16
302
GRIDFORMAT
  1
GRIDFORMAT_BEGIN
 90
        0
 91
        1
 62
     0
 92
       -2
340
0
 93
        0
 40
0.045
309
GRIDFORMAT_END
 95
       32
302
GRIDFORMAT
  1
GRIDFORMAT_BEGIN
 90
        0
 91
        1
 62
     0
 92
       -2
340
0
 93
        0
 40
0.045
309
GRIDFORMAT_END
309
TABLEFORMAT_END
  1
CELLSTYLE_BEGIN
 90
        1
 91
        1
300
_TITLE
309
CELLSTYLE_END
300
CELLSTYLE
  1
TABLEFORMAT_BEGIN
 90
        5
170
     1
 91
        0
 92
        0
 62
   257
 93
        1
300
CONTENTFORMAT
  1
CONTENTFORMAT_BEGIN
 90
        0
 91
        0
 92
      512
 93
        0
300

 40
0.0
140
1.0
 94
        5
 62
     3
340
1B
144
5.0
309
CONTENTFORMAT_END
171
     1
301
MARGIN
  1
CELLMARGIN_BEGIN
 40
1.5
 40
1.5
 40
1.5
 40
1.5
 40
0.18
 40
0.18
309
CELLMARGIN_END
 94
        6
 95
        1
302
GRIDFORMAT
  1
GRIDFORMAT_BEGIN
 90
        0
 91
        1
 62
     0
 92
       -2
340
0
 93
        0
 40
0.045
309
GRIDFORMAT_END
 95
        2
302
GRIDFORMAT
  1
GRIDFORMAT_BEGIN
 90
        0
 91
        1
 62
     0
 92
       -2
340
0
 93
        0
 40
0.045
309
GRIDFORMAT_END
 95
        4
302
GRIDFORMAT
  1
GRIDFORMAT_BEGIN
 90
        0
 91
        1
 62
     0
 92
       -2
340
0
 93
        0
 40
0.045
309
GRIDFORMAT_END
 95
        8
302
GRIDFORMAT
  1
GRIDFORMAT_BEGIN
 90
        0
 91
        1
 62
     0
 92
       -2
340
0
 93
        0
 40
0.045
309
GRIDFORMAT_END
 95
       16
302
GRIDFORMAT
  1
GRIDFORMAT_BEGIN
 90
        0
 91
        1
 62
     0
 92
       -2
340
0
 93
        0
 40
0.045
309
GRIDFORMAT_END
 95
       32
302
GRIDFORMAT
  1
GRIDFORMAT_BEGIN
 90
        0
 91
        1
 62
     0
 92
       -2
340
0
 93
        0
 40
0.045
309
GRIDFORMAT_END
309
TABLEFORMAT_END
  1
CELLSTYLE_BEGIN
 90
        2
 91
        1
300
_HEADER
309
CELLSTYLE_END
300
CELLSTYLE
  1
TABLEFORMAT_BEGIN
 90
        5
170
     1
 91
        0
 92
        0
 62
   257
 93
        1
300
CONTENTFORMAT
  1
CONTENTFORMAT_BEGIN
 90
        0
 91
        0
 92
      512
 93
        0
300

 40
0.0
140
1.0
 94
        5
 62
     7
340
1B
144
4.5
309
CONTENTFORMAT_END
171
     1
301
MARGIN
  1
CELLMARGIN_BEGIN
 40
1.5
 40
1.5
 40
1.5
 40
1.5
 40
0.18
 40
0.18
309
CELLMARGIN_END
 94
        6
 95
        1
302
GRIDFORMAT
  1
GRIDFORMAT_BEGIN
 90
        0
 91
        1
 62
     0
 92
       -2
340
0
 93
        0
 40
0.045
309
GRIDFORMAT_END
 95
        2
302
GRIDFORMAT
  1
GRIDFORMAT_BEGIN
 90
        0
 91
        1
 62
     0
 92
       -2
340
0
 93
        0
 40
0.045
309
GRIDFORMAT_END
 95
        4
302
GRIDFORMAT
  1
GRIDFORMAT_BEGIN
 90
        0
 91
        1
 62
     0
 92
       -2
340
0
 93
        0
 40
0.045
309
GRIDFORMAT_END
 95
        8
302
GRIDFORMAT
  1
GRIDFORMAT_BEGIN
 90
        0
 91
        1
 62
     0
 92
       -2
340
0
 93
        0
 40
0.045
309
GRIDFORMAT_END
 95
       16
302
GRIDFORMAT
  1
GRIDFORMAT_BEGIN
 90
        0
 91
        1
 62
     0
 92
       -2
340
0
 93
        0
 40
0.045
309
GRIDFORMAT_END
 95
       32
302
GRIDFORMAT
  1
GRIDFORMAT_BEGIN
 90
        0
 91
        1
 62
     0
 92
       -2
340
0
 93
        0
 40
0.045
309
GRIDFORMAT_END
309
TABLEFORMAT_END
  1
CELLSTYLE_BEGIN
 90
        3
 91
        2
300
_DATA
309
CELLSTYLE_END
  0
XRECORD
  5
20FC
102
{ACAD_REACTORS
330
364
102
}
330
364
100
AcDbXrecord
280
     1
102
ACAD_ROUNDTRIP_PRE2007_TABLESTYLE
 90
      512
 91
        0
  1

 92
      512
 93
        0
  2

 94
      512
 95
        0
  3

  0
CELLSTYLEMAP
  5
20CA
102
{ACAD_REACTORS
330
362
102
}
330
362
100
AcDbCellStyleMap
 90
        3
300
CELLSTYLE
  1
TABLEFORMAT_BEGIN
 90
        5
170
     1
 91
        0
 92
    32768
 62
   257
 93
        1
300
CONTENTFORMAT
  1
CONTENTFORMAT_BEGIN
 90
        0
 91
        0
 92
      512
 93
        0
300

 40
0.0
140
1.0
 94
        5
 62
     0
340
C
144
6.0
309
CONTENTFORMAT_END
171
     1
301
MARGIN
  1
CELLMARGIN_BEGIN
 40
1.5
 40
1.5
 40
1.5
 40
1.5
 40
0.18
 40
0.18
309
CELLMARGIN_END
 94
        6
 95
        1
302
GRIDFORMAT
  1
GRIDFORMAT_BEGIN
 90
        0
 91
        1
 62
     0
 92
       -2
340
0
 93
        0
 40
0.045
309
GRIDFORMAT_END
 95
        2
302
GRIDFORMAT
  1
GRIDFORMAT_BEGIN
 90
        0
 91
        1
 62
     0
 92
       -2
340
0
 93
        0
 40
0.045
309
GRIDFORMAT_END
 95
        4
302
GRIDFORMAT
  1
GRIDFORMAT_BEGIN
 90
        0
 91
        1
 62
     0
 92
       -2
340
0
 93
        0
 40
0.045
309
GRIDFORMAT_END
 95
        8
302
GRIDFORMAT
  1
GRIDFORMAT_BEGIN
 90
        0
 91
        1
 62
     0
 92
       -2
340
0
 93
        0
 40
0.045
309
GRIDFORMAT_END
 95
       16
302
GRIDFORMAT
  1
GRIDFORMAT_BEGIN
 90
        0
 91
        1
 62
     0
 92
       -2
340
0
 93
        0
 40
0.045
309
GRIDFORMAT_END
 95
       32
302
GRIDFORMAT
  1
GRIDFORMAT_BEGIN
 90
        0
 91
        1
 62
     0
 92
       -2
340
0
 93
        0
 40
0.045
309
GRIDFORMAT_END
309
TABLEFORMAT_END
  1
CELLSTYLE_BEGIN
 90
        1
 91
        1
300
_TITLE
309
CELLSTYLE_END
300
CELLSTYLE
  1
TABLEFORMAT_BEGIN
 90
        5
170
     1
 91
        0
 92
        0
 62
   257
 93
        1
300
CONTENTFORMAT
  1
CONTENTFORMAT_BEGIN
 90
        0
 91
        0
 92
      512
 93
        0
300

 40
0.0
140
1.0
 94
        5
 62
     0
340
C
144
4.5
309
CONTENTFORMAT_END
171
     1
301
MARGIN
  1
CELLMARGIN_BEGIN
 40
1.5
 40
1.5
 40
1.5
 40
1.5
 40
0.18
 40
0.18
309
CELLMARGIN_END
 94
        6
 95
        1
302
GRIDFORMAT
  1
GRIDFORMAT_BEGIN
 90
        0
 91
        1
 62
     0
 92
       -2
340
0
 93
        0
 40
0.045
309
GRIDFORMAT_END
 95
        2
302
GRIDFORMAT
  1
GRIDFORMAT_BEGIN
 90
        0
 91
        1
 62
     0
 92
       -2
340
0
 93
        0
 40
0.045
309
GRIDFORMAT_END
 95
        4
302
GRIDFORMAT
  1
GRIDFORMAT_BEGIN
 90
        0
 91
        1
 62
     0
 92
       -2
340
0
 93
        0
 40
0.045
309
GRIDFORMAT_END
 95
        8
302
GRIDFORMAT
  1
GRIDFORMAT_BEGIN
 90
        0
 91
        1
 62
     0
 92
       -2
340
0
 93
        0
 40
0.045
309
GRIDFORMAT_END
 95
       16
302
GRIDFORMAT
  1
GRIDFORMAT_BEGIN
 90
        0
 91
        1
 62
     0
 92
       -2
340
0
 93
        0
 40
0.045
309
GRIDFORMAT_END
 95
       32
302
GRIDFORMAT
  1
GRIDFORMAT_BEGIN
 90
        0
 91
        1
 62
     0
 92
       -2
340
0
 93
        0
 40
0.045
309
GRIDFORMAT_END
309
TABLEFORMAT_END
  1
CELLSTYLE_BEGIN
 90
        2
 91
        1
300
_HEADER
309
CELLSTYLE_END
300
CELLSTYLE
  1
TABLEFORMAT_BEGIN
 90
        5
170
     1
 91
        0
 92
        0
 62
   257
 93
        1
300
CONTENTFORMAT
  1
CONTENTFORMAT_BEGIN
 90
        0
 91
        0
 92
      512
 93
        0
300

 40
0.0
140
1.0
 94
        2
 62
     0
340
C
144
4.5
309
CONTENTFORMAT_END
171
     1
301
MARGIN
  1
CELLMARGIN_BEGIN
 40
1.5
 40
1.5
 40
1.5
 40
1.5
 40
0.18
 40
0.18
309
CELLMARGIN_END
 94
        6
 95
        1
302
GRIDFORMAT
  1
GRIDFORMAT_BEGIN
 90
        0
 91
        1
 62
     0
 92
       -2
340
0
 93
        0
 40
0.045
309
GRIDFORMAT_END
 95
        2
302
GRIDFORMAT
  1
GRIDFORMAT_BEGIN
 90
        0
 91
        1
 62
     0
 92
       -2
340
0
 93
        0
 40
0.045
309
GRIDFORMAT_END
 95
        4
302
GRIDFORMAT
  1
GRIDFORMAT_BEGIN
 90
        0
 91
        1
 62
     0
 92
       -2
340
0
 93
        0
 40
0.045
309
GRIDFORMAT_END
 95
        8
302
GRIDFORMAT
  1
GRIDFORMAT_BEGIN
 90
        0
 91
        1
 62
     0
 92
       -2
340
0
 93
        0
 40
0.045
309
GRIDFORMAT_END
 95
       16
302
GRIDFORMAT
  1
GRIDFORMAT_BEGIN
 90
        0
 91
        1
 62
     0
 92
       -2
340
0
 93
        0
 40
0.045
309
GRIDFORMAT_END
 95
       32
302
GRIDFORMAT
  1
GRIDFORMAT_BEGIN
 90
        0
 91
        1
 62
     0
 92
       -2
340
0
 93
        0
 40
0.045
309
GRIDFORMAT_END
309
TABLEFORMAT_END
  1
CELLSTYLE_BEGIN
 90
        3
 91
        2
300
_DATA
309
CELLSTYLE_END
  0
XRECORD
  5
20FB
102
{ACAD_REACTORS
330
362
102
}
330
362
100
AcDbXrecord
280
     1
102
ACAD_ROUNDTRIP_PRE2007_TABLESTYLE
 90
      512
 91
        0
  1

 92
      512
 93
        0
  2

 94
      512
 95
        0
  3

  0
XRECORD
  5
20E6
102
{ACAD_REACTORS
330
20E5
102
}
330
20E5
100
AcDbXrecord
280
     1
102
RTVSPropertyOp0
 70
     1
102
RTVSPropertyOp1
 70
     1
102
RTVSPropertyOp2
 70
     1
102
RTVSPropertyOp3
 70
     1
102
RTVSPropertyOp4
 70
     1
102
RTVSPropertyOp5
 70
     1
102
RTVSPropertyOp6
 70
     1
102
RTVSPropertyOp7
 70
     1
102
RTVSPropertyOp8
 70
     1
102
RTVSPropertyOp9
 70
     1
102
RTVSPropertyOp10
 70
     1
102
RTVSPropertyOp11
 70
     1
102
RTVSPropertyOp12
 70
     1
102
RTVSPropertyOp13
 70
     1
102
RTVSPropertyOp14
 70
     1
102
RTVSPropertyOp15
 70
     1
102
RTVSPropertyOp16
 70
     1
102
RTVSPropertyOp17
 70
     1
102
RTVSPropertyOp18
 70
     1
102
RTVSPropertyOp19
 70
     1
102
RTVSPropertyOp20
 70
     1
102
RTVSPropertyOp21
 70
     1
102
RTVSPropertyOp22
 70
     1
102
RTVSPropertyOp23
 70
     1
102
RTVSPropertyOp24
 70
     1
102
RTVSPropertyOp25
 70
     1
102
RTVSPropertyOp26
 70
     1
102
RTVSPropertyOp27
 70
     1
102
RTVSPropertyOp28
 70
     1
102
RTVSPropertyOp29
 70
     1
102
RTVSPropertyOp30
 70
     1
102
RTVSPropertyOp31
 70
     1
102
RTVSPropertyOp32
 70
     1
  0
XRECORD
  5
20EA
102
{ACAD_REACTORS
330
20E9
102
}
330
20E9
100
AcDbXrecord
280
     1
102
RTVSPropertyOp0
 70
     1
102
RTVSPropertyOp1
 70
     1
102
RTVSPropertyOp2
 70
     1
102
RTVSPropertyOp3
 70
     1
102
RTVSPropertyOp4
 70
     1
102
RTVSPropertyOp5
 70
     1
102
RTVSPropertyOp6
 70
     1
102
RTVSPropertyOp7
 70
     1
102
RTVSPropertyOp8
 70
     1
102
RTVSPropertyOp9
 70
     1
102
RTVSPropertyOp10
 70
     1
102
RTVSPropertyOp11
 70
     1
102
RTVSPropertyOp12
 70
     1
102
RTVSPropertyOp13
 70
     1
102
RTVSPropertyOp14
 70
     1
102
RTVSPropertyOp15
 70
     1
102
RTVSPropertyOp16
 70
     1
102
RTVSPropertyOp17
 70
     1
102
RTVSPropertyOp18
 70
     1
102
RTVSPropertyOp19
 70
     1
102
RTVSPropertyOp20
 70
     1
102
RTVSPropertyOp21
 70
     1
102
RTVSPropertyOp22
 70
     1
102
RTVSPropertyOp23
 70
     1
102
RTVSPropertyOp24
 70
     1
102
RTVSPropertyOp25
 70
     1
102
RTVSPropertyOp26
 70
     1
102
RTVSPropertyOp27
 70
     1
102
RTVSPropertyOp28
 70
     1
102
RTVSPropertyOp29
 70
     1
102
RTVSPropertyOp30
 70
     1
102
RTVSPropertyOp31
 70
     1
102
RTVSPropertyOp32
 70
     1
  0
XRECORD
  5
20E8
102
{ACAD_REACTORS
330
20E7
102
}
330
20E7
100
AcDbXrecord
280
     1
102
RTVSPropertyOp0
 70
     1
102
RTVSPropertyOp1
 70
     1
102
RTVSPropertyOp2
 70
     1
102
RTVSPropertyOp3
 70
     1
102
RTVSPropertyOp4
 70
     1
102
RTVSPropertyOp5
 70
     1
102
RTVSPropertyOp6
 70
     1
102
RTVSPropertyOp7
 70
     1
102
RTVSPropertyOp8
 70
     1
102
RTVSPropertyOp9
 70
     1
102
RTVSPropertyOp10
 70
     1
102
RTVSPropertyOp11
 70
     1
102
RTVSPropertyOp12
 70
     1
102
RTVSPropertyOp13
 70
     1
102
RTVSPropertyOp14
 70
     1
102
RTVSPropertyOp15
 70
     1
102
RTVSPropertyOp16
 70
     1
102
RTVSPropertyOp17
 70
     1
102
RTVSPropertyOp18
 70
     1
102
RTVSPropertyOp19
 70
     1
102
RTVSPropertyOp20
 70
     1
102
RTVSPropertyOp21
 70
     1
102
RTVSPropertyOp22
 70
     1
102
RTVSPropertyOp23
 70
     1
102
RTVSPropertyOp24
 70
     1
102
RTVSPropertyOp25
 70
     1
102
RTVSPropertyOp26
 70
     1
102
RTVSPropertyOp27
 70
     1
102
RTVSPropertyOp28
 70
     1
102
RTVSPropertyOp29
 70
     1
102
RTVSPropertyOp30
 70
     1
102
RTVSPropertyOp31
 70
     1
102
RTVSPropertyOp32
 70
     1
  0
XRECORD
  5
20E4
102
{ACAD_REACTORS
330
20E3
102
}
330
20E3
100
AcDbXrecord
280
     1
102
RTVSPropertyOp0
 70
     1
102
RTVSPropertyOp1
 70
     1
102
RTVSPropertyOp2
 70
     1
102
RTVSPropertyOp3
 70
     1
102
RTVSPropertyOp4
 70
     1
102
RTVSPropertyOp5
 70
     1
102
RTVSPropertyOp6
 70
     1
102
RTVSPropertyOp7
 70
     1
102
RTVSPropertyOp8
 70
     1
102
RTVSPropertyOp9
 70
     1
102
RTVSPropertyOp10
 70
     1
102
RTVSPropertyOp11
 70
     1
102
RTVSPropertyOp12
 70
     1
102
RTVSPropertyOp13
 70
     1
102
RTVSPropertyOp14
 70
     1
102
RTVSPropertyOp15
 70
     1
102
RTVSPropertyOp16
 70
     1
102
RTVSPropertyOp17
 70
     1
102
RTVSPropertyOp18
 70
     1
102
RTVSPropertyOp19
 70
     1
102
RTVSPropertyOp20
 70
     1
102
RTVSPropertyOp21
 70
     1
102
RTVSPropertyOp22
 70
     1
102
RTVSPropertyOp23
 70
     1
102
RTVSPropertyOp24
 70
     1
102
RTVSPropertyOp25
 70
     1
102
RTVSPropertyOp26
 70
     1
102
RTVSPropertyOp27
 70
     1
102
RTVSPropertyOp28
 70
     1
102
RTVSPropertyOp29
 70
     1
102
RTVSPropertyOp30
 70
     1
102
RTVSPropertyOp31
 70
     1
102
RTVSPropertyOp32
 70
     1
  0
XRECORD
  5
20F2
102
{ACAD_REACTORS
330
20F1
102
}
330
20F1
100
AcDbXrecord
280
     1
102
RTVSPropertyOp0
 70
     1
102
RTVSPropertyOp1
 70
     1
102
RTVSPropertyOp2
 70
     1
102
RTVSPropertyOp3
 70
     1
102
RTVSPropertyOp4
 70
     1
102
RTVSPropertyOp5
 70
     1
102
RTVSPropertyOp6
 70
     1
102
RTVSPropertyOp7
 70
     1
102
RTVSPropertyOp8
 70
     1
102
RTVSPropertyOp9
 70
     1
102
RTVSPropertyOp10
 70
     1
102
RTVSPropertyOp11
 70
     1
102
RTVSPropertyOp12
 70
     1
102
RTVSPropertyOp13
 70
     1
102
RTVSPropertyOp14
 70
     1
102
RTVSPropertyOp15
 70
     1
102
RTVSPropertyOp16
 70
     1
102
RTVSPropertyOp17
 70
     1
102
RTVSPropertyOp18
 70
     1
102
RTVSPropertyOp19
 70
     1
102
RTVSPropertyOp20
 70
     1
102
RTVSPropertyOp21
 70
     1
102
RTVSPropertyOp22
 70
     1
102
RTVSPropertyOp23
 70
     1
102
RTVSPropertyOp24
 70
     1
102
RTVSPropertyOp25
 70
     1
102
RTVSPropertyOp26
 70
     1
102
RTVSPropertyOp27
 70
     1
102
RTVSPropertyOp28
 70
     1
102
RTVSPropertyOp29
 70
     1
102
RTVSPropertyOp30
 70
     1
102
RTVSPropertyOp31
 70
     1
102
RTVSPropertyOp32
 70
     1
  0
XRECORD
  5
20FA
102
{ACAD_REACTORS
330
20F9
102
}
330
20F9
100
AcDbXrecord
280
     1
102
RTVSPropertyOp0
 70
     1
102
RTVSPropertyOp1
 70
     1
102
RTVSPropertyOp2
 70
     1
102
RTVSPropertyOp3
 70
     1
102
RTVSPropertyOp4
 70
     1
102
RTVSPropertyOp5
 70
     1
102
RTVSPropertyOp6
 70
     1
102
RTVSPropertyOp7
 70
     1
102
RTVSPropertyOp8
 70
     1
102
RTVSPropertyOp9
 70
     1
102
RTVSPropertyOp10
 70
     1
102
RTVSPropertyOp11
 70
     1
102
RTVSPropertyOp12
 70
     1
102
RTVSPropertyOp13
 70
     1
102
RTVSPropertyOp14
 70
     1
102
RTVSPropertyOp15
 70
     1
102
RTVSPropertyOp16
 70
     1
102
RTVSPropertyOp17
 70
     1
102
RTVSPropertyOp18
 70
     1
102
RTVSPropertyOp19
 70
     1
102
RTVSPropertyOp20
 70
     1
102
RTVSPropertyOp21
 70
     1
102
RTVSPropertyOp22
 70
     1
102
RTVSPropertyOp23
 70
     1
102
RTVSPropertyOp24
 70
     1
102
RTVSPropertyOp25
 70
     1
102
RTVSPropertyOp26
 70
     1
102
RTVSPropertyOp27
 70
     1
102
RTVSPropertyOp28
 70
     1
102
RTVSPropertyOp29
 70
     1
102
RTVSPropertyOp30
 70
     1
102
RTVSPropertyOp31
 70
     1
102
RTVSPropertyOp32
 70
     1
  0
XRECORD
  5
20EC
102
{ACAD_REACTORS
330
20EB
102
}
330
20EB
100
AcDbXrecord
280
     1
102
RTVSPropertyOp0
 70
     1
102
RTVSPropertyOp1
 70
     1
102
RTVSPropertyOp2
 70
     1
102
RTVSPropertyOp3
 70
     1
102
RTVSPropertyOp4
 70
     1
102
RTVSPropertyOp5
 70
     1
102
RTVSPropertyOp6
 70
     1
102
RTVSPropertyOp7
 70
     1
102
RTVSPropertyOp8
 70
     1
102
RTVSPropertyOp9
 70
     1
102
RTVSPropertyOp10
 70
     1
102
RTVSPropertyOp11
 70
     1
102
RTVSPropertyOp12
 70
     1
102
RTVSPropertyOp13
 70
     1
102
RTVSPropertyOp14
 70
     1
102
RTVSPropertyOp15
 70
     1
102
RTVSPropertyOp16
 70
     1
102
RTVSPropertyOp17
 70
     1
102
RTVSPropertyOp18
 70
     1
102
RTVSPropertyOp19
 70
     1
102
RTVSPropertyOp20
 70
     1
102
RTVSPropertyOp21
 70
     1
102
RTVSPropertyOp22
 70
     1
102
RTVSPropertyOp23
 70
     1
102
RTVSPropertyOp24
 70
     1
102
RTVSPropertyOp25
 70
     1
102
RTVSPropertyOp26
 70
     1
102
RTVSPropertyOp27
 70
     1
102
RTVSPropertyOp28
 70
     1
102
RTVSPropertyOp29
 70
     1
102
RTVSPropertyOp30
 70
     1
102
RTVSPropertyOp31
 70
     1
102
RTVSPropertyOp32
 70
     1
  0
XRECORD
  5
20F0
102
{ACAD_REACTORS
330
20EF
102
}
330
20EF
100
AcDbXrecord
280
     1
102
RTVSPropertyOp0
 70
     1
102
RTVSPropertyOp1
 70
     1
102
RTVSPropertyOp2
 70
     1
102
RTVSPropertyOp3
 70
     1
102
RTVSPropertyOp4
 70
     1
102
RTVSPropertyOp5
 70
     1
102
RTVSPropertyOp6
 70
     1
102
RTVSPropertyOp7
 70
     1
102
RTVSPropertyOp8
 70
     1
102
RTVSPropertyOp9
 70
     1
102
RTVSPropertyOp10
 70
     1
102
RTVSPropertyOp11
 70
     1
102
RTVSPropertyOp12
 70
     1
102
RTVSPropertyOp13
 70
     1
102
RTVSPropertyOp14
 70
     1
102
RTVSPropertyOp15
 70
     1
102
RTVSPropertyOp16
 70
     1
102
RTVSPropertyOp17
 70
     1
102
RTVSPropertyOp18
 70
     1
102
RTVSPropertyOp19
 70
     1
102
RTVSPropertyOp20
 70
     1
102
RTVSPropertyOp21
 70
     1
102
RTVSPropertyOp22
 70
     1
102
RTVSPropertyOp23
 70
     1
102
RTVSPropertyOp24
 70
     1
102
RTVSPropertyOp25
 70
     1
102
RTVSPropertyOp26
 70
     1
102
RTVSPropertyOp27
 70
     1
102
RTVSPropertyOp28
 70
     1
102
RTVSPropertyOp29
 70
     1
102
RTVSPropertyOp30
 70
     1
102
RTVSPropertyOp31
 70
     1
102
RTVSPropertyOp32
 70
     1
  0
XRECORD
  5
211C
102
{ACAD_REACTORS
330
211B
102
}
330
211B
100
AcDbXrecord
280
     1
102
RTVSPropertyOp0
 70
     0
102
RTVSPropertyOp1
 70
     0
102
RTVSPropertyOp2
 70
     0
102
RTVSPropertyOp3
 70
     0
102
RTVSPropertyOp4
 70
     0
102
RTVSPropertyOp5
 70
     0
102
RTVSPropertyOp6
 70
     0
102
RTVSPropertyOp7
 70
     0
102
RTVSPropertyOp8
 70
     0
102
RTVSPropertyOp9
 70
     0
102
RTVSPropertyOp10
 70
     0
102
RTVSPropertyOp11
 70
     0
102
RTVSPropertyOp12
 70
     0
102
RTVSPropertyOp13
 70
     0
102
RTVSPropertyOp14
 70
     2
102
RTVSPropertyOp15
 70
     0
102
RTVSPropertyOp16
 70
     0
102
RTVSPropertyOp17
 70
     0
102
RTVSPropertyOp18
 70
     0
102
RTVSPropertyOp19
 70
     0
102
RTVSPropertyOp20
 70
     0
102
RTVSPropertyOp21
 70
     0
102
RTVSPropertyOp22
 70
     0
102
RTVSPropertyOp23
 70
     0
102
RTVSPropertyOp24
 70
     0
102
RTVSPropertyOp25
 70
     0
102
RTVSPropertyOp26
 70
     0
102
RTVSPropertyOp27
 70
     0
102
RTVSPropertyOp28
 70
     0
102
RTVSPropertyOp29
 70
     0
102
RTVSPropertyOp30
 70
     0
102
RTVSPropertyOp31
 70
     0
102
RTVSPropertyOp32
 70
     0
  0
XRECORD
  5
20F8
102
{ACAD_REACTORS
330
20F7
102
}
330
20F7
100
AcDbXrecord
280
     1
102
RTVSPropertyOp0
 70
     1
102
RTVSPropertyOp1
 70
     1
102
RTVSPropertyOp2
 70
     1
102
RTVSPropertyOp3
 70
     1
102
RTVSPropertyOp4
 70
     1
102
RTVSPropertyOp5
 70
     1
102
RTVSPropertyOp6
 70
     1
102
RTVSPropertyOp7
 70
     1
102
RTVSPropertyOp8
 70
     1
102
RTVSPropertyOp9
 70
     1
102
RTVSPropertyOp10
 70
     1
102
RTVSPropertyOp11
 70
     1
102
RTVSPropertyOp12
 70
     1
102
RTVSPropertyOp13
 70
     1
102
RTVSPropertyOp14
 70
     1
102
RTVSPropertyOp15
 70
     1
102
RTVSPropertyOp16
 70
     1
102
RTVSPropertyOp17
 70
     1
102
RTVSPropertyOp18
 70
     1
102
RTVSPropertyOp19
 70
     1
102
RTVSPropertyOp20
 70
     1
102
RTVSPropertyOp21
 70
     1
102
RTVSPropertyOp22
 70
     1
102
RTVSPropertyOp23
 70
     1
102
RTVSPropertyOp24
 70
     1
102
RTVSPropertyOp25
 70
     1
102
RTVSPropertyOp26
 70
     1
102
RTVSPropertyOp27
 70
     1
102
RTVSPropertyOp28
 70
     1
102
RTVSPropertyOp29
 70
     1
102
RTVSPropertyOp30
 70
     1
102
RTVSPropertyOp31
 70
     1
102
RTVSPropertyOp32
 70
     1
  0
XRECORD
  5
20DC
102
{ACAD_REACTORS
330
20DB
102
}
330
20DB
100
AcDbXrecord
280
     1
102
RTVSPropertyOp0
 70
     1
102
RTVSPropertyOp1
 70
     1
102
RTVSPropertyOp2
 70
     1
102
RTVSPropertyOp3
 70
     1
102
RTVSPropertyOp4
 70
     1
102
RTVSPropertyOp5
 70
     1
102
RTVSPropertyOp6
 70
     1
102
RTVSPropertyOp7
 70
     1
102
RTVSPropertyOp8
 70
     1
102
RTVSPropertyOp9
 70
     1
102
RTVSPropertyOp10
 70
     1
102
RTVSPropertyOp11
 70
     1
102
RTVSPropertyOp12
 70
     1
102
RTVSPropertyOp13
 70
     1
102
RTVSPropertyOp14
 70
     1
102
RTVSPropertyOp15
 70
     1
102
RTVSPropertyOp16
 70
     1
102
RTVSPropertyOp17
 70
     1
102
RTVSPropertyOp18
 70
     1
102
RTVSPropertyOp19
 70
     1
102
RTVSPropertyOp20
 70
     1
102
RTVSPropertyOp21
 70
     1
102
RTVSPropertyOp22
 70
     1
102
RTVSPropertyOp23
 70
     1
102
RTVSPropertyOp24
 70
     1
102
RTVSPropertyOp25
 70
     1
102
RTVSPropertyOp26
 70
     1
102
RTVSPropertyOp27
 70
     1
102
RTVSPropertyOp28
 70
     1
102
RTVSPropertyOp29
 70
     1
102
RTVSPropertyOp30
 70
     1
102
RTVSPropertyOp31
 70
     1
102
RTVSPropertyOp32
 70
     1
  0
XRECORD
  5
20DE
102
{ACAD_REACTORS
330
20DD
102
}
330
20DD
100
AcDbXrecord
280
     1
102
RTVSPropertyOp0
 70
     1
102
RTVSPropertyOp1
 70
     1
102
RTVSPropertyOp2
 70
     1
102
RTVSPropertyOp3
 70
     1
102
RTVSPropertyOp4
 70
     1
102
RTVSPropertyOp5
 70
     1
102
RTVSPropertyOp6
 70
     1
102
RTVSPropertyOp7
 70
     1
102
RTVSPropertyOp8
 70
     1
102
RTVSPropertyOp9
 70
     1
102
RTVSPropertyOp10
 70
     1
102
RTVSPropertyOp11
 70
     1
102
RTVSPropertyOp12
 70
     1
102
RTVSPropertyOp13
 70
     1
102
RTVSPropertyOp14
 70
     1
102
RTVSPropertyOp15
 70
     1
102
RTVSPropertyOp16
 70
     1
102
RTVSPropertyOp17
 70
     1
102
RTVSPropertyOp18
 70
     1
102
RTVSPropertyOp19
 70
     1
102
RTVSPropertyOp20
 70
     1
102
RTVSPropertyOp21
 70
     1
102
RTVSPropertyOp22
 70
     1
102
RTVSPropertyOp23
 70
     1
102
RTVSPropertyOp24
 70
     1
102
RTVSPropertyOp25
 70
     1
102
RTVSPropertyOp26
 70
     1
102
RTVSPropertyOp27
 70
     1
102
RTVSPropertyOp28
 70
     1
102
RTVSPropertyOp29
 70
     1
102
RTVSPropertyOp30
 70
     1
102
RTVSPropertyOp31
 70
     1
102
RTVSPropertyOp32
 70
     1
  0
XRECORD
  5
20E0
102
{ACAD_REACTORS
330
20DF
102
}
330
20DF
100
AcDbXrecord
280
     1
102
RTVSPropertyOp0
 70
     1
102
RTVSPropertyOp1
 70
     1
102
RTVSPropertyOp2
 70
     1
102
RTVSPropertyOp3
 70
     1
102
RTVSPropertyOp4
 70
     1
102
RTVSPropertyOp5
 70
     1
102
RTVSPropertyOp6
 70
     1
102
RTVSPropertyOp7
 70
     1
102
RTVSPropertyOp8
 70
     1
102
RTVSPropertyOp9
 70
     1
102
RTVSPropertyOp10
 70
     1
102
RTVSPropertyOp11
 70
     1
102
RTVSPropertyOp12
 70
     1
102
RTVSPropertyOp13
 70
     1
102
RTVSPropertyOp14
 70
     1
102
RTVSPropertyOp15
 70
     1
102
RTVSPropertyOp16
 70
     1
102
RTVSPropertyOp17
 70
     1
102
RTVSPropertyOp18
 70
     1
102
RTVSPropertyOp19
 70
     1
102
RTVSPropertyOp20
 70
     1
102
RTVSPropertyOp21
 70
     1
102
RTVSPropertyOp22
 70
     1
102
RTVSPropertyOp23
 70
     1
102
RTVSPropertyOp24
 70
     1
102
RTVSPropertyOp25
 70
     1
102
RTVSPropertyOp26
 70
     1
102
RTVSPropertyOp27
 70
     1
102
RTVSPropertyOp28
 70
     1
102
RTVSPropertyOp29
 70
     1
102
RTVSPropertyOp30
 70
     1
102
RTVSPropertyOp31
 70
     1
102
RTVSPropertyOp32
 70
     1
  0
XRECORD
  5
20E2
102
{ACAD_REACTORS
330
20E1
102
}
330
20E1
100
AcDbXrecord
280
     1
102
RTVSPropertyOp0
 70
     1
102
RTVSPropertyOp1
 70
     1
102
RTVSPropertyOp2
 70
     1
102
RTVSPropertyOp3
 70
     1
102
RTVSPropertyOp4
 70
     1
102
RTVSPropertyOp5
 70
     1
102
RTVSPropertyOp6
 70
     1
102
RTVSPropertyOp7
 70
     1
102
RTVSPropertyOp8
 70
     1
102
RTVSPropertyOp9
 70
     1
102
RTVSPropertyOp10
 70
     1
102
RTVSPropertyOp11
 70
     1
102
RTVSPropertyOp12
 70
     1
102
RTVSPropertyOp13
 70
     1
102
RTVSPropertyOp14
 70
     1
102
RTVSPropertyOp15
 70
     1
102
RTVSPropertyOp16
 70
     1
102
RTVSPropertyOp17
 70
     1
102
RTVSPropertyOp18
 70
     1
102
RTVSPropertyOp19
 70
     1
102
RTVSPropertyOp20
 70
     1
102
RTVSPropertyOp21
 70
     1
102
RTVSPropertyOp22
 70
     1
102
RTVSPropertyOp23
 70
     1
102
RTVSPropertyOp24
 70
     1
102
RTVSPropertyOp25
 70
     1
102
RTVSPropertyOp26
 70
     1
102
RTVSPropertyOp27
 70
     1
102
RTVSPropertyOp28
 70
     1
102
RTVSPropertyOp29
 70
     1
102
RTVSPropertyOp30
 70
     1
102
RTVSPropertyOp31
 70
     1
102
RTVSPropertyOp32
 70
     1
  0
XRECORD
  5
210C
102
{ACAD_REACTORS
330
210B
102
}
330
210B
100
AcDbXrecord
280
     1
102
RTVSPropertyOp0
 70
     1
102
RTVSPropertyOp1
 70
     1
102
RTVSPropertyOp2
 70
     1
102
RTVSPropertyOp3
 70
     1
102
RTVSPropertyOp4
 70
     1
102
RTVSPropertyOp5
 70
     1
102
RTVSPropertyOp6
 70
     1
102
RTVSPropertyOp7
 70
     1
102
RTVSPropertyOp8
 70
     1
102
RTVSPropertyOp9
 70
     1
102
RTVSPropertyOp10
 70
     1
102
RTVSPropertyOp11
 70
     1
102
RTVSPropertyOp12
 70
     1
102
RTVSPropertyOp13
 70
     1
102
RTVSPropertyOp14
 70
     1
102
RTVSPropertyOp15
 70
     1
102
RTVSPropertyOp16
 70
     1
102
RTVSPropertyOp17
 70
     1
102
RTVSPropertyOp18
 70
     1
102
RTVSPropertyOp19
 70
     1
102
RTVSPropertyOp20
 70
     1
102
RTVSPropertyOp21
 70
     1
102
RTVSPropertyOp22
 70
     1
102
RTVSPropertyOp23
 70
     1
102
RTVSPropertyOp24
 70
     1
102
RTVSPropertyOp25
 70
     1
102
RTVSPropertyOp26
 70
     1
102
RTVSPropertyOp27
 70
     1
102
RTVSPropertyOp28
 70
     1
102
RTVSPropertyOp29
 70
     1
102
RTVSPropertyOp30
 70
     1
102
RTVSPropertyOp31
 70
     1
102
RTVSPropertyOp32
 70
     1
  0
XRECORD
  5
2118
102
{ACAD_REACTORS
330
2117
102
}
330
2117
100
AcDbXrecord
280
     1
102
RTVSPropertyOp0
 70
     0
102
RTVSPropertyOp1
 70
     0
102
RTVSPropertyOp2
 70
     0
102
RTVSPropertyOp3
 70
     0
102
RTVSPropertyOp4
 70
     0
102
RTVSPropertyOp5
 70
     0
102
RTVSPropertyOp6
 70
     0
102
RTVSPropertyOp7
 70
     0
102
RTVSPropertyOp8
 70
     0
102
RTVSPropertyOp9
 70
     0
102
RTVSPropertyOp10
 70
     0
102
RTVSPropertyOp11
 70
     0
102
RTVSPropertyOp12
 70
     0
102
RTVSPropertyOp13
 70
     0
102
RTVSPropertyOp14
 70
     2
102
RTVSPropertyOp15
 70
     0
102
RTVSPropertyOp16
 70
     0
102
RTVSPropertyOp17
 70
     0
102
RTVSPropertyOp18
 70
     0
102
RTVSPropertyOp19
 70
     0
102
RTVSPropertyOp20
 70
     0
102
RTVSPropertyOp21
 70
     0
102
RTVSPropertyOp22
 70
     0
102
RTVSPropertyOp23
 70
     0
102
RTVSPropertyOp24
 70
     0
102
RTVSPropertyOp25
 70
     0
102
RTVSPropertyOp26
 70
     0
102
RTVSPropertyOp27
 70
     0
102
RTVSPropertyOp28
 70
     0
102
RTVSPropertyOp29
 70
     0
102
RTVSPropertyOp30
 70
     0
102
RTVSPropertyOp31
 70
     0
102
RTVSPropertyOp32
 70
     0
  0
XRECORD
  5
20F6
102
{ACAD_REACTORS
330
20F5
102
}
330
20F5
100
AcDbXrecord
280
     1
102
RTVSPropertyOp0
 70
     1
102
RTVSPropertyOp1
 70
     1
102
RTVSPropertyOp2
 70
     1
102
RTVSPropertyOp3
 70
     1
102
RTVSPropertyOp4
 70
     1
102
RTVSPropertyOp5
 70
     1
102
RTVSPropertyOp6
 70
     1
102
RTVSPropertyOp7
 70
     1
102
RTVSPropertyOp8
 70
     1
102
RTVSPropertyOp9
 70
     1
102
RTVSPropertyOp10
 70
     1
102
RTVSPropertyOp11
 70
     1
102
RTVSPropertyOp12
 70
     1
102
RTVSPropertyOp13
 70
     1
102
RTVSPropertyOp14
 70
     1
102
RTVSPropertyOp15
 70
     1
102
RTVSPropertyOp16
 70
     1
102
RTVSPropertyOp17
 70
     1
102
RTVSPropertyOp18
 70
     1
102
RTVSPropertyOp19
 70
     1
102
RTVSPropertyOp20
 70
     1
102
RTVSPropertyOp21
 70
     1
102
RTVSPropertyOp22
 70
     1
102
RTVSPropertyOp23
 70
     1
102
RTVSPropertyOp24
 70
     1
102
RTVSPropertyOp25
 70
     1
102
RTVSPropertyOp26
 70
     1
102
RTVSPropertyOp27
 70
     1
102
RTVSPropertyOp28
 70
     1
102
RTVSPropertyOp29
 70
     1
102
RTVSPropertyOp30
 70
     1
102
RTVSPropertyOp31
 70
     1
102
RTVSPropertyOp32
 70
     1
  0
XRECORD
  5
211A
102
{ACAD_REACTORS
330
2119
102
}
330
2119
100
AcDbXrecord
280
     1
102
RTVSPropertyOp0
 70
     0
102
RTVSPropertyOp1
 70
     0
102
RTVSPropertyOp2
 70
     0
102
RTVSPropertyOp3
 70
     0
102
RTVSPropertyOp4
 70
     0
102
RTVSPropertyOp5
 70
     0
102
RTVSPropertyOp6
 70
     0
102
RTVSPropertyOp7
 70
     0
102
RTVSPropertyOp8
 70
     0
102
RTVSPropertyOp9
 70
     0
102
RTVSPropertyOp10
 70
     0
102
RTVSPropertyOp11
 70
     0
102
RTVSPropertyOp12
 70
     0
102
RTVSPropertyOp13
 70
     0
102
RTVSPropertyOp14
 70
     2
102
RTVSPropertyOp15
 70
     0
102
RTVSPropertyOp16
 70
     0
102
RTVSPropertyOp17
 70
     0
102
RTVSPropertyOp18
 70
     0
102
RTVSPropertyOp19
 70
     0
102
RTVSPropertyOp20
 70
     0
102
RTVSPropertyOp21
 70
     0
102
RTVSPropertyOp22
 70
     0
102
RTVSPropertyOp23
 70
     0
102
RTVSPropertyOp24
 70
     0
102
RTVSPropertyOp25
 70
     0
102
RTVSPropertyOp26
 70
     0
102
RTVSPropertyOp27
 70
     0
102
RTVSPropertyOp28
 70
     0
102
RTVSPropertyOp29
 70
     0
102
RTVSPropertyOp30
 70
     0
102
RTVSPropertyOp31
 70
     0
102
RTVSPropertyOp32
 70
     0
  0
XRECORD
  5
20EE
102
{ACAD_REACTORS
330
20ED
102
}
330
20ED
100
AcDbXrecord
280
     1
102
RTVSPropertyOp0
 70
     1
102
RTVSPropertyOp1
 70
     1
102
RTVSPropertyOp2
 70
     1
102
RTVSPropertyOp3
 70
     1
102
RTVSPropertyOp4
 70
     1
102
RTVSPropertyOp5
 70
     1
102
RTVSPropertyOp6
 70
     1
102
RTVSPropertyOp7
 70
     1
102
RTVSPropertyOp8
 70
     1
102
RTVSPropertyOp9
 70
     1
102
RTVSPropertyOp10
 70
     1
102
RTVSPropertyOp11
 70
     1
102
RTVSPropertyOp12
 70
     1
102
RTVSPropertyOp13
 70
     1
102
RTVSPropertyOp14
 70
     1
102
RTVSPropertyOp15
 70
     1
102
RTVSPropertyOp16
 70
     1
102
RTVSPropertyOp17
 70
     1
102
RTVSPropertyOp18
 70
     1
102
RTVSPropertyOp19
 70
     1
102
RTVSPropertyOp20
 70
     1
102
RTVSPropertyOp21
 70
     1
102
RTVSPropertyOp22
 70
     1
102
RTVSPropertyOp23
 70
     1
102
RTVSPropertyOp24
 70
     1
102
RTVSPropertyOp25
 70
     1
102
RTVSPropertyOp26
 70
     1
102
RTVSPropertyOp27
 70
     1
102
RTVSPropertyOp28
 70
     1
102
RTVSPropertyOp29
 70
     1
102
RTVSPropertyOp30
 70
     1
102
RTVSPropertyOp31
 70
     1
102
RTVSPropertyOp32
 70
     1
  0
XRECORD
  5
2116
102
{ACAD_REACTORS
330
2115
102
}
330
2115
100
AcDbXrecord
280
     1
102
RTVSPropertyOp0
 70
     1
102
RTVSPropertyOp1
 70
     1
102
RTVSPropertyOp2
 70
     1
102
RTVSPropertyOp3
 70
     1
102
RTVSPropertyOp4
 70
     1
102
RTVSPropertyOp5
 70
     1
102
RTVSPropertyOp6
 70
     1
102
RTVSPropertyOp7
 70
     1
102
RTVSPropertyOp8
 70
     1
102
RTVSPropertyOp9
 70
     1
102
RTVSPropertyOp10
 70
     1
102
RTVSPropertyOp11
 70
     1
102
RTVSPropertyOp12
 70
     1
102
RTVSPropertyOp13
 70
     1
102
RTVSPropertyOp14
 70
     1
102
RTVSPropertyOp15
 70
     1
102
RTVSPropertyOp16
 70
     1
102
RTVSPropertyOp17
 70
     1
102
RTVSPropertyOp18
 70
     1
102
RTVSPropertyOp19
 70
     1
102
RTVSPropertyOp20
 70
     1
102
RTVSPropertyOp21
 70
     1
102
RTVSPropertyOp22
 70
     1
102
RTVSPropertyOp23
 70
     1
102
RTVSPropertyOp24
 70
     1
102
RTVSPropertyOp25
 70
     1
102
RTVSPropertyOp26
 70
     1
102
RTVSPropertyOp27
 70
     1
102
RTVSPropertyOp28
 70
     1
102
RTVSPropertyOp29
 70
     1
102
RTVSPropertyOp30
 70
     1
102
RTVSPropertyOp31
 70
     1
102
RTVSPropertyOp32
 70
     1
  0
XRECORD
  5
2114
102
{ACAD_REACTORS
330
2113
102
}
330
2113
100
AcDbXrecord
280
     1
102
RTVSPropertyOp0
 70
     1
102
RTVSPropertyOp1
 70
     1
102
RTVSPropertyOp2
 70
     1
102
RTVSPropertyOp3
 70
     1
102
RTVSPropertyOp4
 70
     1
102
RTVSPropertyOp5
 70
     1
102
RTVSPropertyOp6
 70
     1
102
RTVSPropertyOp7
 70
     1
102
RTVSPropertyOp8
 70
     1
102
RTVSPropertyOp9
 70
     1
102
RTVSPropertyOp10
 70
     1
102
RTVSPropertyOp11
 70
     1
102
RTVSPropertyOp12
 70
     1
102
RTVSPropertyOp13
 70
     1
102
RTVSPropertyOp14
 70
     1
102
RTVSPropertyOp15
 70
     1
102
RTVSPropertyOp16
 70
     1
102
RTVSPropertyOp17
 70
     1
102
RTVSPropertyOp18
 70
     1
102
RTVSPropertyOp19
 70
     1
102
RTVSPropertyOp20
 70
     1
102
RTVSPropertyOp21
 70
     1
102
RTVSPropertyOp22
 70
     1
102
RTVSPropertyOp23
 70
     1
102
RTVSPropertyOp24
 70
     1
102
RTVSPropertyOp25
 70
     1
102
RTVSPropertyOp26
 70
     1
102
RTVSPropertyOp27
 70
     1
102
RTVSPropertyOp28
 70
     1
102
RTVSPropertyOp29
 70
     1
102
RTVSPropertyOp30
 70
     1
102
RTVSPropertyOp31
 70
     1
102
RTVSPropertyOp32
 70
     1
  0
XRECORD
  5
210E
102
{ACAD_REACTORS
330
210D
102
}
330
210D
100
AcDbXrecord
280
     1
102
RTVSPropertyOp0
 70
     1
102
RTVSPropertyOp1
 70
     1
102
RTVSPropertyOp2
 70
     1
102
RTVSPropertyOp3
 70
     1
102
RTVSPropertyOp4
 70
     1
102
RTVSPropertyOp5
 70
     1
102
RTVSPropertyOp6
 70
     1
102
RTVSPropertyOp7
 70
     1
102
RTVSPropertyOp8
 70
     1
102
RTVSPropertyOp9
 70
     1
102
RTVSPropertyOp10
 70
     1
102
RTVSPropertyOp11
 70
     1
102
RTVSPropertyOp12
 70
     1
102
RTVSPropertyOp13
 70
     1
102
RTVSPropertyOp14
 70
     1
102
RTVSPropertyOp15
 70
     1
102
RTVSPropertyOp16
 70
     1
102
RTVSPropertyOp17
 70
     1
102
RTVSPropertyOp18
 70
     1
102
RTVSPropertyOp19
 70
     1
102
RTVSPropertyOp20
 70
     1
102
RTVSPropertyOp21
 70
     1
102
RTVSPropertyOp22
 70
     1
102
RTVSPropertyOp23
 70
     1
102
RTVSPropertyOp24
 70
     1
102
RTVSPropertyOp25
 70
     1
102
RTVSPropertyOp26
 70
     1
102
RTVSPropertyOp27
 70
     1
102
RTVSPropertyOp28
 70
     1
102
RTVSPropertyOp29
 70
     1
102
RTVSPropertyOp30
 70
     1
102
RTVSPropertyOp31
 70
     1
102
RTVSPropertyOp32
 70
     1
  0
XRECORD
  5
2110
102
{ACAD_REACTORS
330
210F
102
}
330
210F
100
AcDbXrecord
280
     1
102
RTVSPropertyOp0
 70
     1
102
RTVSPropertyOp1
 70
     1
102
RTVSPropertyOp2
 70
     1
102
RTVSPropertyOp3
 70
     1
102
RTVSPropertyOp4
 70
     1
102
RTVSPropertyOp5
 70
     1
102
RTVSPropertyOp6
 70
     1
102
RTVSPropertyOp7
 70
     1
102
RTVSPropertyOp8
 70
     1
102
RTVSPropertyOp9
 70
     1
102
RTVSPropertyOp10
 70
     1
102
RTVSPropertyOp11
 70
     1
102
RTVSPropertyOp12
 70
     1
102
RTVSPropertyOp13
 70
     1
102
RTVSPropertyOp14
 70
     1
102
RTVSPropertyOp15
 70
     1
102
RTVSPropertyOp16
 70
     1
102
RTVSPropertyOp17
 70
     1
102
RTVSPropertyOp18
 70
     1
102
RTVSPropertyOp19
 70
     1
102
RTVSPropertyOp20
 70
     1
102
RTVSPropertyOp21
 70
     1
102
RTVSPropertyOp22
 70
     1
102
RTVSPropertyOp23
 70
     1
102
RTVSPropertyOp24
 70
     1
102
RTVSPropertyOp25
 70
     1
102
RTVSPropertyOp26
 70
     1
102
RTVSPropertyOp27
 70
     1
102
RTVSPropertyOp28
 70
     1
102
RTVSPropertyOp29
 70
     1
102
RTVSPropertyOp30
 70
     1
102
RTVSPropertyOp31
 70
     1
102
RTVSPropertyOp32
 70
     1
  0
XRECORD
  5
20F4
102
{ACAD_REACTORS
330
20F3
102
}
330
20F3
100
AcDbXrecord
280
     1
102
RTVSPropertyOp0
 70
     1
102
RTVSPropertyOp1
 70
     1
102
RTVSPropertyOp2
 70
     1
102
RTVSPropertyOp3
 70
     1
102
RTVSPropertyOp4
 70
     1
102
RTVSPropertyOp5
 70
     1
102
RTVSPropertyOp6
 70
     1
102
RTVSPropertyOp7
 70
     1
102
RTVSPropertyOp8
 70
     1
102
RTVSPropertyOp9
 70
     1
102
RTVSPropertyOp10
 70
     1
102
RTVSPropertyOp11
 70
     1
102
RTVSPropertyOp12
 70
     1
102
RTVSPropertyOp13
 70
     1
102
RTVSPropertyOp14
 70
     1
102
RTVSPropertyOp15
 70
     1
102
RTVSPropertyOp16
 70
     1
102
RTVSPropertyOp17
 70
     1
102
RTVSPropertyOp18
 70
     1
102
RTVSPropertyOp19
 70
     1
102
RTVSPropertyOp20
 70
     1
102
RTVSPropertyOp21
 70
     1
102
RTVSPropertyOp22
 70
     1
102
RTVSPropertyOp23
 70
     1
102
RTVSPropertyOp24
 70
     1
102
RTVSPropertyOp25
 70
     1
102
RTVSPropertyOp26
 70
     1
102
RTVSPropertyOp27
 70
     1
102
RTVSPropertyOp28
 70
     1
102
RTVSPropertyOp29
 70
     1
102
RTVSPropertyOp30
 70
     1
102
RTVSPropertyOp31
 70
     1
102
RTVSPropertyOp32
 70
     1
  0
XRECORD
  5
210A
102
{ACAD_REACTORS
330
2109
102
}
330
2109
100
AcDbXrecord
280
     1
102
RTVSPropertyOp0
 70
     1
102
RTVSPropertyOp1
 70
     1
102
RTVSPropertyOp2
 70
     1
102
RTVSPropertyOp3
 70
     1
102
RTVSPropertyOp4
 70
     1
102
RTVSPropertyOp5
 70
     1
102
RTVSPropertyOp6
 70
     1
102
RTVSPropertyOp7
 70
     1
102
RTVSPropertyOp8
 70
     1
102
RTVSPropertyOp9
 70
     1
102
RTVSPropertyOp10
 70
     1
102
RTVSPropertyOp11
 70
     1
102
RTVSPropertyOp12
 70
     1
102
RTVSPropertyOp13
 70
     1
102
RTVSPropertyOp14
 70
     1
102
RTVSPropertyOp15
 70
     1
102
RTVSPropertyOp16
 70
     1
102
RTVSPropertyOp17
 70
     1
102
RTVSPropertyOp18
 70
     1
102
RTVSPropertyOp19
 70
     1
102
RTVSPropertyOp20
 70
     1
102
RTVSPropertyOp21
 70
     1
102
RTVSPropertyOp22
 70
     1
102
RTVSPropertyOp23
 70
     1
102
RTVSPropertyOp24
 70
     1
102
RTVSPropertyOp25
 70
     1
102
RTVSPropertyOp26
 70
     1
102
RTVSPropertyOp27
 70
     1
102
RTVSPropertyOp28
 70
     1
102
RTVSPropertyOp29
 70
     1
102
RTVSPropertyOp30
 70
     1
102
RTVSPropertyOp31
 70
     1
102
RTVSPropertyOp32
 70
     1
  0
XRECORD
  5
2112
102
{ACAD_REACTORS
330
2111
102
}
330
2111
100
AcDbXrecord
280
     1
102
RTVSPropertyOp0
 70
     1
102
RTVSPropertyOp1
 70
     1
102
RTVSPropertyOp2
 70
     1
102
RTVSPropertyOp3
 70
     1
102
RTVSPropertyOp4
 70
     1
102
RTVSPropertyOp5
 70
     1
102
RTVSPropertyOp6
 70
     1
102
RTVSPropertyOp7
 70
     1
102
RTVSPropertyOp8
 70
     1
102
RTVSPropertyOp9
 70
     1
102
RTVSPropertyOp10
 70
     1
102
RTVSPropertyOp11
 70
     1
102
RTVSPropertyOp12
 70
     1
102
RTVSPropertyOp13
 70
     1
102
RTVSPropertyOp14
 70
     1
102
RTVSPropertyOp15
 70
     1
102
RTVSPropertyOp16
 70
     1
102
RTVSPropertyOp17
 70
     1
102
RTVSPropertyOp18
 70
     1
102
RTVSPropertyOp19
 70
     1
102
RTVSPropertyOp20
 70
     1
102
RTVSPropertyOp21
 70
     1
102
RTVSPropertyOp22
 70
     1
102
RTVSPropertyOp23
 70
     1
102
RTVSPropertyOp24
 70
     1
102
RTVSPropertyOp25
 70
     1
102
RTVSPropertyOp26
 70
     1
102
RTVSPropertyOp27
 70
     1
102
RTVSPropertyOp28
 70
     1
102
RTVSPropertyOp29
 70
     1
102
RTVSPropertyOp30
 70
     1
102
RTVSPropertyOp31
 70
     1
102
RTVSPropertyOp32
 70
     1
  0
ENDSEC
  0
EOF
