  0
SECTION
  2
HEADER
  9
$ACADVER
  1
AC1015
  9
$ACADMAINTVER
 70
    20
  9
$DWGCODEPAGE
  3
ANSI_1252
  9
$INSBASE
 10
0.0
 20
0.0
 30
0.0
  9
$EXTMIN
 10
-2.373762623612492
 20
-2.097898414715018
 30
-0.000000000000013
  9
$EXTMAX
 10
19.42904412912139
 20
15.12421853408705
 30
0.0000000000000023
  9
$LIMMIN
 10
0.0
 20
0.0
  9
$LIMMAX
 10
420.0
 20
300.0
  9
$ORTHOMODE
 70
     0
  9
$REGENMODE
 70
     1
  9
$FILLMODE
 70
     1
  9
$QTEXTMODE
 70
     0
  9
$MIRRTEXT
 70
     0
  9
$LTSCALE
 40
10.0
  9
$ATTMODE
 70
     1
  9
$TEXTSIZE
 40
3.0
  9
$TRACEWID
 40
0.05
  9
$TEXTSTYLE
  7
ROMANS
  9
$CLAYER
  8
P-0000
  9
$CELTYPE
  6
CONTINUOUS
  9
$CECOLOR
 62
     7
  9
$CELTSCALE
 40
1.0
  9
$DISPSILH
 70
     0
  9
$DIMSCALE
 40
10.0
  9
$DIMASZ
 40
2.0
  9
$DIMEXO
 40
1.0
  9
$DIMDLI
 40
10.0
  9
$DIMRND
 40
0.0
  9
$DIMDLE
 40
0.0
  9
$DIMEXE
 40
1.5
  9
$DIMTP
 40
0.0
  9
$DIMTM
 40
0.0
  9
$DIMTXT
 40
2.0
  9
$DIMCEN
 40
2.0
  9
$DIMTSZ
 40
0.0
  9
$DIMTOL
 70
     0
  9
$DIMLIM
 70
     0
  9
$DIMTIH
 70
     0
  9
$DIMTOH
 70
     0
  9
$DIMSE1
 70
     0
  9
$DIMSE2
 70
     0
  9
$DIMTAD
 70
     1
  9
$DIMZIN
 70
     8
  9
$DIMBLK
  1

  9
$DIMASO
 70
     1
  9
$DIMSHO
 70
     1
  9
$DIMPOST
  1

  9
$DIMAPOST
  1

  9
$DIMALT
 70
     0
  9
$DIMALTD
 70
     2
  9
$DIMALTF
 40
25.4
  9
$DIMLFAC
 40
1.0
  9
$DIMTOFL
 70
     1
  9
$DIMTVP
 40
0.0
  9
$DIMTIX
 70
     0
  9
$DIMSOXD
 70
     0
  9
$DIMSAH
 70
     0
  9
$DIMBLK1
  1

  9
$DIMBLK2
  1

  9
$DIMSTYLE
  2
ACADTOP
  9
$DIMCLRD
 70
     2
  9
$DIMCLRE
 70
     2
  9
$DIMCLRT
 70
     1
  9
$DIMTFAC
 40
0.6
  9
$DIMGAP
 40
1.0
  9
$DIMJUST
 70
     0
  9
$DIMSD1
 70
     0
  9
$DIMSD2
 70
     0
  9
$DIMTOLJ
 70
     1
  9
$DIMTZIN
 70
     8
  9
$DIMALTZ
 70
     0
  9
$DIMALTTZ
 70
     0
  9
$DIMUPT
 70
     0
  9
$DIMDEC
 70
     2
  9
$DIMTDEC
 70
     2
  9
$DIMALTU
 70
     2
  9
$DIMALTTD
 70
     2
  9
$DIMTXSTY
  7
Stile_Quota
  9
$DIMAUNIT
 70
     0
  9
$DIMADEC
 70
     1
  9
$DIMALTRND
 40
0.0
  9
$DIMAZIN
 70
     2
  9
$DIMDSEP
 70
    46
  9
$DIMATFIT
 70
     0
  9
$DIMFRAC
 70
     0
  9
$DIMLDRBLK
  1

  9
$DIMLUNIT
 70
     2
  9
$DIMLWD
 70
    -2
  9
$DIMLWE
 70
    -2
  9
$DIMTMOVE
 70
     0
  9
$LUNITS
 70
     2
  9
$LUPREC
 70
     3
  9
$SKETCHINC
 40
0.1
  9
$FILLETRAD
 40
0.0
  9
$AUNITS
 70
     0
  9
$AUPREC
 70
     3
  9
$MENU
  1
.
  9
$ELEVATION
 40
0.0
  9
$PELEVATION
 40
0.0
  9
$THICKNESS
 40
0.0
  9
$LIMCHECK
 70
     0
  9
$CHAMFERA
 40
0.5
  9
$CHAMFERB
 40
0.5
  9
$CHAMFERC
 40
1.0
  9
$CHAMFERD
 40
0.0
  9
$SKPOLY
 70
     1
  9
$TDCREATE
 40
2455049.395896076
  9
$TDUCREATE
 40
2455049.354229410
  9
$TDUPDATE
 40
2455646.499868739
  9
$TDUUPDATE
 40
2455646.458202072
  9
$TDINDWG
 40
0.0794882407
  9
$TDUSRTIMER
 40
0.0794880671
  9
$USRTIMER
 70
     1
  9
$ANGBASE
 50
0.0
  9
$ANGDIR
 70
     0
  9
$PDMODE
 70
     0
  9
$PDSIZE
 40
0.0
  9
$PLINEWID
 40
0.0
  9
$SPLFRAME
 70
     0
  9
$SPLINETYPE
 70
     6
  9
$SPLINESEGS
 70
     8
  9
$HANDSEED
  5
10EB
  9
$SURFTAB1
 70
     6
  9
$SURFTAB2
 70
     6
  9
$SURFTYPE
 70
     6
  9
$SURFU
 70
     6
  9
$SURFV
 70
     6
  9
$UCSBASE
  2

  9
$UCSNAME
  2

  9
$UCSORG
 10
0.0
 20
0.0
 30
0.0
  9
$UCSXDIR
 10
1.0
 20
0.0
 30
0.0
  9
$UCSYDIR
 10
0.0
 20
1.0
 30
0.0
  9
$UCSORTHOREF
  2

  9
$UCSORTHOVIEW
 70
     0
  9
$UCSORGTOP
 10
0.0
 20
0.0
 30
0.0
  9
$UCSORGBOTTOM
 10
0.0
 20
0.0
 30
0.0
  9
$UCSORGLEFT
 10
0.0
 20
0.0
 30
0.0
  9
$UCSORGRIGHT
 10
0.0
 20
0.0
 30
0.0
  9
$UCSORGFRONT
 10
0.0
 20
0.0
 30
0.0
  9
$UCSORGBACK
 10
0.0
 20
0.0
 30
0.0
  9
$PUCSBASE
  2

  9
$PUCSNAME
  2

  9
$PUCSORG
 10
0.0
 20
0.0
 30
0.0
  9
$PUCSXDIR
 10
1.0
 20
0.0
 30
0.0
  9
$PUCSYDIR
 10
0.0
 20
1.0
 30
0.0
  9
$PUCSORTHOREF
  2

  9
$PUCSORTHOVIEW
 70
     0
  9
$PUCSORGTOP
 10
0.0
 20
0.0
 30
0.0
  9
$PUCSORGBOTTOM
 10
0.0
 20
0.0
 30
0.0
  9
$PUCSORGLEFT
 10
0.0
 20
0.0
 30
0.0
  9
$PUCSORGRIGHT
 10
0.0
 20
0.0
 30
0.0
  9
$PUCSORGFRONT
 10
0.0
 20
0.0
 30
0.0
  9
$PUCSORGBACK
 10
0.0
 20
0.0
 30
0.0
  9
$USERI1
 70
     0
  9
$USERI2
 70
     0
  9
$USERI3
 70
     0
  9
$USERI4
 70
     0
  9
$USERI5
 70
     0
  9
$USERR1
 40
0.0
  9
$USERR2
 40
0.0
  9
$USERR3
 40
0.0
  9
$USERR4
 40
0.0
  9
$USERR5
 40
0.0
  9
$WORLDVIEW
 70
     1
  9
$SHADEDGE
 70
     3
  9
$SHADEDIF
 70
    70
  9
$TILEMODE
 70
     1
  9
$MAXACTVP
 70
    48
  9
$PINSBASE
 10
0.0
 20
0.0
 30
0.0
  9
$PLIMCHECK
 70
     0
  9
$PEXTMIN
 10
1.000000000000000E+20
 20
1.000000000000000E+20
 30
1.000000000000000E+20
  9
$PEXTMAX
 10
-1.000000000000000E+20
 20
-1.000000000000000E+20
 30
-1.000000000000000E+20
  9
$PLIMMIN
 10
0.0
 20
0.0
  9
$PLIMMAX
 10
12.0
 20
9.0
  9
$UNITMODE
 70
     0
  9
$VISRETAIN
 70
     1
  9
$PLINEGEN
 70
     0
  9
$PSLTSCALE
 70
     0
  9
$TREEDEPTH
 70
  3020
  9
$CMLSTYLE
  2
STANDARD
  9
$CMLJUST
 70
     0
  9
$CMLSCALE
 40
1.0
  9
$PROXYGRAPHICS
 70
     1
  9
$MEASUREMENT
 70
     1
  9
$CELWEIGHT
370
    -1
  9
$ENDCAPS
280
     0
  9
$JOINSTYLE
280
     0
  9
$LWDISPLAY
290
     0
  9
$INSUNITS
 70
     0
  9
$HYPERLINKBASE
  1

  9
$STYLESHEET
  1

  9
$XEDIT
290
     1
  9
$CEPSNTYPE
380
     0
  9
$PSTYLEMODE
290
     1
  9
$FINGERPRINTGUID
  2
{4C86470B-8AD9-49DA-8F65-91114AA220D9}
  9
$VERSIONGUID
  2
{0F20C5DB-D49C-4515-8B8C-82221824B8B4}
  9
$EXTNAMES
290
     1
  9
$PSVPSCALE
 40
0.0
  9
$OLESTARTUP
290
     0
  0
ENDSEC
  0
SECTION
  2
CLASSES
  0
CLASS
  1
DICTIONARYVAR
  2
AcDbDictionaryVar
  3
ObjectDBX Classes
 90
        0
280
     0
281
     0
  0
CLASS
  1
ACDBDICTIONARYWDFLT
  2
AcDbDictionaryWithDefault
  3
ObjectDBX Classes
 90
        0
280
     0
281
     0
  0
CLASS
  1
ACDBPLACEHOLDER
  2
AcDbPlaceHolder
  3
ObjectDBX Classes
 90
        0
280
     0
281
     0
  0
CLASS
  1
LAYOUT
  2
AcDbLayout
  3
ObjectDBX Classes
 90
        0
280
     0
281
     0
  0
CLASS
  1
PLOTSETTINGS
  2
AcDbPlotSettings
  3
ObjectDBX Classes
 90
        0
280
     0
281
     0
  0
CLASS
  1
MATERIAL
  2
AcDbMaterial
  3
ObjectDBX Classes
 90
     1153
280
     0
281
     0
  0
CLASS
  1
VISUALSTYLE
  2
AcDbVisualStyle
  3
ObjectDBX Classes
 90
     4095
280
     0
281
     0
  0
CLASS
  1
TABLESTYLE
  2
AcDbTableStyle
  3
ObjectDBX Classes
 90
     4095
280
     0
281
     0
  0
CLASS
  1
SCALE
  2
AcDbScale
  3
ObjectDBX Classes
 90
     1153
280
     0
281
     0
  0
CLASS
  1
MLEADERSTYLE
  2
AcDbMLeaderStyle
  3
ACDB_MLEADERSTYLE_CLASS
 90
     4095
280
     0
281
     0
  0
CLASS
  1
CELLSTYLEMAP
  2
AcDbCellStyleMap
  3
ObjectDBX Classes
 90
     1152
280
     0
281
     0
  0
CLASS
  1
DIMASSOC
  2
AcDbDimAssoc
  3
"AcDbDimAssoc|Product Desc:     AcDim ARX App For Dimension|Company:          Autodesk, Inc.|WEB Address:      www.autodesk.com"
 90
        0
280
     0
281
     0
  0
CLASS
  1
ACDBQSCATEGORY
  2
AcQsCategory
  3
categories
 90
     1024
280
     0
281
     0
  0
CLASS
  1
ACDBQSPALLSTYLE
  2
AcQsPallStyle
  3
pallcart
 90
     1024
280
     0
281
     0
  0
CLASS
  1
AEC_REFEDIT_STATUS_TRACKER
  2
AecDbRefEditStatusTracker
  3
AecArchBase60|Product Desc: Autodesk Architectural Desktop 2007 |Company: Autodesk,Inc. |WEB Address: www.autodesk.com
 90
    32897
280
     0
281
     0
  0
CLASS
  1
NPOCOLLECTION
  2
AcDbImpNonPersistentObjectsCollection
  3
ObjectDBX Classes
 90
    33921
280
     0
281
     0
  0
CLASS
  1
SORTENTSTABLE
  2
AcDbSortentsTable
  3
ObjectDBX Classes
 90
        0
280
     0
281
     0
  0
ENDSEC
  0
SECTION
  2
TABLES
  0
TABLE
  2
VPORT
  5
12
102
{ACAD_XDICTIONARY
360
300
102
}
330
0
100
AcDbSymbolTable
 70
     1
  0
VPORT
  5
2AE
330
12
100
AcDbSymbolTableRecord
100
AcDbViewportTableRecord
  2
*Active
 70
     0
 10
0.0
 20
0.0
 11
1.0
 21
1.0
 12
8.52764075275445
 22
6.513160059686016
 13
0.0
 23
0.0
 14
1.0
 24
1.0
 15
1.0
 25
1.0
 16
0.0
 26
0.0
 36
1.0
 17
0.0
 27
0.0
 37
0.0
 40
17.34859516384835
 41
2.251225490196078
 42
50.0
 43
0.0
 44
0.0
 50
0.0
 51
0.0
 71
     0
 72
   100
 73
     1
 74
     0
 75
     0
 76
     0
 77
     0
 78
     2
281
     0
 65
     1
110
0.0
120
0.0
130
0.0
111
1.0
121
0.0
131
0.0
112
0.0
122
1.0
132
0.0
 79
     0
146
0.0
  0
ENDTAB
  0
TABLE
  2
LTYPE
  5
D
330
0
100
AcDbSymbolTable
 70
     7
  0
LTYPE
  5
E
330
D
100
AcDbSymbolTableRecord
100
AcDbLinetypeTableRecord
  2
BYBLOCK
 70
     0
  3

 72
    65
 73
     0
 40
0.0
  0
LTYPE
  5
F
330
D
100
AcDbSymbolTableRecord
100
AcDbLinetypeTableRecord
  2
BYLAYER
 70
     0
  3

 72
    65
 73
     0
 40
0.0
  0
LTYPE
  5
5
330
D
100
AcDbSymbolTableRecord
100
AcDbLinetypeTableRecord
  2
CONTINUOUS
 70
     0
  3
Solid line
 72
    65
 73
     0
 40
0.0
  0
LTYPE
  5
3E
330
D
100
AcDbSymbolTableRecord
100
AcDbLinetypeTableRecord
  2
ASSI
 70
     0
  3
-.-.-.-.-.-.-.-.-.-.-.-.-.-.-.-.-.-.-.-.-.-.-.-
 72
    65
 73
     4
 40
16.0
 49
10.0
 74
     0
 49
-2.0
 74
     0
 49
2.0
 74
     0
 49
-2.0
 74
     0
  0
LTYPE
  5
3F
330
D
100
AcDbSymbolTableRecord
100
AcDbLinetypeTableRecord
  2
INGOMBRI
 70
     0
  3
--..--..--..--..--..--..--..--..--..--..--..--
 72
    65
 73
     6
 40
20.0
 49
10.0
 74
     0
 49
-2.0
 74
     0
 49
2.0
 74
     0
 49
-2.0
 74
     0
 49
2.0
 74
     0
 49
-2.0
 74
     0
  0
LTYPE
  5
40
330
D
100
AcDbSymbolTableRecord
100
AcDbLinetypeTableRecord
  2
TRATTEGGIO
 70
     0
  3
- - - - - - - - - - - - - - - - - - - - - -
 72
    65
 73
     2
 40
5.5
 49
4.0
 74
     0
 49
-1.5
 74
     0
  0
LTYPE
  5
277
330
D
100
AcDbSymbolTableRecord
100
AcDbLinetypeTableRecord
  2
PUNTO
 70
     0
  3
Punto . . . . . . . . . . . . . . . . . . . . .
 72
    65
 73
     2
 40
6.349999999999999
 49
0.0
 74
     0
 49
-6.349999999999999
 74
     0
  0
LTYPE
  5
777
330
D
100
AcDbSymbolTableRecord
100
AcDbLinetypeTableRecord
  2
DASHDOTX2
 70
     0
  3
____  .  ____  .  ____  .  ____  .  ____  .  __
 72
    65
 73
     4
 40
2.0
 49
1.0
 74
     0
 49
-0.5
 74
     0
 49
0.0
 74
     0
 49
-0.5
 74
     0
  0
LTYPE
  5
852
330
D
100
AcDbSymbolTableRecord
100
AcDbLinetypeTableRecord
  2
DASHDOT2
 70
     0
  3
_._._._._._._._._._._._._._._._._._._._._._._._
 72
    65
 73
     4
 40
0.5
 49
0.25
 74
     0
 49
-0.125
 74
     0
 49
0.0
 74
     0
 49
-0.125
 74
     0
  0
ENDTAB
  0
TABLE
  2
LAYER
  5
A
102
{ACAD_XDICTIONARY
360
859
102
}
330
0
100
AcDbSymbolTable
 70
    14
  0
LAYER
  5
4
102
{ACAD_XDICTIONARY
360
37B
102
}
330
A
100
AcDbSymbolTableRecord
100
AcDbLayerTableRecord
  2
0
 70
     0
 62
     7
  6
CONTINUOUS
370
    -3
390
44
  0
LAYER
  5
118
330
A
100
AcDbSymbolTableRecord
100
AcDbLayerTableRecord
  2
Defpoints
 70
     0
 62
     7
  6
CONTINUOUS
290
     0
370
    -3
390
44
  0
LAYER
  5
6DB
102
{ACAD_XDICTIONARY
360
D84
102
}
330
A
100
AcDbSymbolTableRecord
100
AcDbLayerTableRecord
  2
P-0000
 70
     0
 62
     7
  6
CONTINUOUS
370
    -3
390
44
1001
AcAecLayerStandard
1000

1000
CORN.Q30-ASPORT./ARG.
  0
LAYER
  5
778
102
{ACAD_XDICTIONARY
360
D86
102
}
330
A
100
AcDbSymbolTableRecord
100
AcDbLayerTableRecord
  2
2
 70
     0
 62
     2
  6
CONTINUOUS
370
    -3
390
44
  0
LAYER
  5
779
102
{ACAD_XDICTIONARY
360
D88
102
}
330
A
100
AcDbSymbolTableRecord
100
AcDbLayerTableRecord
  2
TRATTEGGIO
 70
     0
 62
     6
  6
CONTINUOUS
370
    -3
390
44
  0
LAYER
  5
77A
102
{ACAD_XDICTIONARY
360
D8A
102
}
330
A
100
AcDbSymbolTableRecord
100
AcDbLayerTableRecord
  2
QUOTE
 70
     0
 62
     7
  6
CONTINUOUS
370
    -3
390
44
  0
LAYER
  5
77B
102
{ACAD_XDICTIONARY
360
D8C
102
}
330
A
100
AcDbSymbolTableRecord
100
AcDbLayerTableRecord
  2
PROFILO
 70
     0
 62
     2
  6
CONTINUOUS
370
    -3
390
44
  0
LAYER
  5
850
102
{ACAD_XDICTIONARY
360
D8E
102
}
330
A
100
AcDbSymbolTableRecord
100
AcDbLayerTableRecord
  2
P-3FC3
 70
     0
 62
     7
  6
CONTINUOUS
370
    -3
390
44
1001
AcAecLayerStandard
1000

1000
.cart
  0
LAYER
  5
9BB
102
{ACAD_XDICTIONARY
360
D90
102
}
330
A
100
AcDbSymbolTableRecord
100
AcDbLayerTableRecord
  2
P-07B0
 70
     0
 62
     7
  6
CONTINUOUS
370
    -3
390
44
1001
AcAecLayerStandard
1000

1000
.1
  0
LAYER
  5
C63
102
{ACAD_XDICTIONARY
360
C64
102
}
330
A
100
AcDbSymbolTableRecord
100
AcDbLayerTableRecord
  2
P-4FAA
 70
     0
 62
     7
  6
CONTINUOUS
370
    -3
390
44
1001
AcAecLayerStandard
1000

1000
.1
  0
LAYER
  5
CCE
102
{ACAD_XDICTIONARY
360
CCF
102
}
330
A
100
AcDbSymbolTableRecord
100
AcDbLayerTableRecord
  2
SOTTILI
 70
     0
 62
     3
  6
CONTINUOUS
370
    -3
390
44
  0
LAYER
  5
DC1
330
A
100
AcDbSymbolTableRecord
100
AcDbLayerTableRecord
  2
P-740C
 70
     0
 62
     7
  6
CONTINUOUS
370
    -3
390
44
1001
AcAecLayerStandard
1000

1000
PROF.CORNIC.Q30 ASP. ALL.ANOD.ARG.
  0
LAYER
  5
E9E
330
A
100
AcDbSymbolTableRecord
100
AcDbLayerTableRecord
  2
P-6E84
 70
     0
 62
     7
  6
CONTINUOUS
370
    -3
390
44
1001
AcAecLayerStandard
1000

1000
INSERTO FIL.M 5 TFL/ZIGRINATO
  0
LAYER
  5
EA0
330
A
100
AcDbSymbolTableRecord
100
AcDbLayerTableRecord
  2
P-279C
 70
     0
 62
     7
  6
CONTINUOUS
370
    -3
390
44
1001
AcAecLayerStandard
1000

1000
ROND.RAGG.(XVTC CR.) M5 /R.7039
  0
ENDTAB
  0
TABLE
  2
STYLE
  5
B
330
0
100
AcDbSymbolTable
 70
    10
  0
STYLE
  5
C
330
B
100
AcDbSymbolTableRecord
100
AcDbTextStyleTableRecord
  2
STANDARD
 70
     0
 40
0.0
 41
0.8
 50
0.0
 71
     0
 42
0.2
  3
romans.shx
  4

  0
STYLE
  5
1B
330
B
100
AcDbSymbolTableRecord
100
AcDbTextStyleTableRecord
  2
ROMANS
 70
     0
 40
0.0
 41
0.8
 50
0.0
 71
     0
 42
3.0
  3
ROMANS.shx
  4

  0
STYLE
  5
25
330
B
100
AcDbSymbolTableRecord
100
AcDbTextStyleTableRecord
  2

 70
     1
 40
0.0
 41
1.0
 50
0.0
 71
     0
 42
0.2
  3
ltypeshp.shx
  4

  0
STYLE
  5
35C
330
B
100
AcDbSymbolTableRecord
100
AcDbTextStyleTableRecord
  2
Stile_Quota
 70
     0
 40
0.0
 41
1.0
 50
0.0
 71
     0
 42
3.0
  3
BOD_I.TTF
  4

1001
ACAD
1000
Bodoni MT
1071
 16777234
  0
STYLE
  5
635
330
B
100
AcDbSymbolTableRecord
100
AcDbTextStyleTableRecord
  2
Stile_Quota_FISSO
 70
     0
 40
20.0
 41
1.0
 50
0.0
 71
     0
 42
3.0
  3
BOD_I.TTF
  4

1001
ACAD
1000
Bodoni MT
1071
 16777234
  0
STYLE
  5
77C
330
B
100
AcDbSymbolTableRecord
100
AcDbTextStyleTableRecord
  2
SIMPLEX
 70
     0
 40
0.0
 41
1.0
 50
0.0
 71
     0
 42
25.0
  3
SIMPLEX.shx
  4

  0
STYLE
  5
853
330
B
100
AcDbSymbolTableRecord
100
AcDbTextStyleTableRecord
  2
STYLE1
 70
     0
 40
0.0
 41
1.0
 50
0.0
 71
     0
 42
3.0
  3
eurr____.ttf
  4

1001
ACAD
1000
EuroRoman
1071
      514
  0
STYLE
  5
854
330
B
100
AcDbSymbolTableRecord
100
AcDbTextStyleTableRecord
  2
arial_ttf
 70
     0
 40
0.0
 41
1.0
 50
0.0
 71
     0
 42
0.2
  3
ARIAL.TTF
  4

1001
ACAD
1000
Arial
1071
        2
  0
STYLE
  5
855
330
B
100
AcDbSymbolTableRecord
100
AcDbTextStyleTableRecord
  2
seansi_ttf
 70
     0
 40
0.0
 41
1.0
 50
0.0
 71
     0
 42
0.2
  3
seansi.ttf
  4

  0
STYLE
  5
856
330
B
100
AcDbSymbolTableRecord
100
AcDbTextStyleTableRecord
  2
Stile_Cart
 70
     0
 40
0.0
 41
1.0
 50
0.0
 71
     0
 42
1.5
  3
TIMES.TTF
  4

1001
ACAD
1000
Times New Roman
1071
       18
  0
ENDTAB
  0
TABLE
  2
VIEW
  5
10
330
0
100
AcDbSymbolTable
 70
     0
  0
ENDTAB
  0
TABLE
  2
UCS
  5
11
330
0
100
AcDbSymbolTable
 70
     0
  0
ENDTAB
  0
TABLE
  2
APPID
  5
14
330
0
100
AcDbSymbolTable
 70
    14
  0
APPID
  5
15
330
14
100
AcDbSymbolTableRecord
100
AcDbRegAppTableRecord
  2
ACAD
 70
     0
  0
APPID
  5
53
330
14
100
AcDbSymbolTableRecord
100
AcDbRegAppTableRecord
  2
TOP
 70
     0
  0
APPID
  5
356
330
14
100
AcDbSymbolTableRecord
100
AcDbRegAppTableRecord
  2
ACAD_MLEADERVER
 70
     0
  0
APPID
  5
35A
330
14
100
AcDbSymbolTableRecord
100
AcDbRegAppTableRecord
  2
ACAD_DSTYLE_DIMJAG
 70
     0
  0
APPID
  5
35B
330
14
100
AcDbSymbolTableRecord
100
AcDbRegAppTableRecord
  2
ACAD_DSTYLE_DIMTALN
 70
     0
  0
APPID
  5
35D
330
14
100
AcDbSymbolTableRecord
100
AcDbRegAppTableRecord
  2
AcadAnnoPO
 70
     0
  0
APPID
  5
374
330
14
100
AcDbSymbolTableRecord
100
AcDbRegAppTableRecord
  2
ACAD_EXEMPT_FROM_CAD_STANDARDS
 70
     0
  0
APPID
  5
38F
330
14
100
AcDbSymbolTableRecord
100
AcDbRegAppTableRecord
  2
ACAD_PSEXT
 70
     0
  0
APPID
  5
3BC
330
14
100
AcDbSymbolTableRecord
100
AcDbRegAppTableRecord
  2
ACAD_DSTYLE_DIMBREAK
 70
     0
  0
APPID
  5
6DC
330
14
100
AcDbSymbolTableRecord
100
AcDbRegAppTableRecord
  2
AcAecLayerStandard
 70
     0
  0
APPID
  5
993
330
14
100
AcDbSymbolTableRecord
100
AcDbRegAppTableRecord
  2
Bound
 70
     0
  0
APPID
  5
996
330
14
100
AcDbSymbolTableRecord
100
AcDbRegAppTableRecord
  2
OrigLayer
 70
     0
  0
APPID
  5
AA9
330
14
100
AcDbSymbolTableRecord
100
AcDbRegAppTableRecord
  2
ACAD_DSTYLE_DIMRADIAL_EXTENSION
 70
     0
  0
APPID
  5
10CC
330
14
100
AcDbSymbolTableRecord
100
AcDbRegAppTableRecord
  2
ACAD_DSTYLE_DIMJOGGED_JOGANGLE_SYMBOL
 70
     0
  0
ENDTAB
  0
TABLE
  2
DIMSTYLE
  5
16
330
0
100
AcDbSymbolTable
 70
     9
100
AcDbDimStyleTable
 71
     6
340
1D
340
9BD
340
858
340
857
340
77D
340
3BE
  0
DIMSTYLE
105
1D
330
16
100
AcDbSymbolTableRecord
100
AcDbDimStyleTableRecord
  2
ACADTOP
 70
     0
 40
10.0
 41
2.0
 42
1.0
 43
10.0
 44
1.5
 73
     0
 74
     0
 77
     1
 78
     8
 79
     2
140
2.0
141
2.0
146
0.6
147
1.0
172
     1
176
     2
177
     2
178
     1
179
     1
271
     2
272
     2
284
     8
289
     0
340
35C
1001
ACAD_DSTYLE_DIMJAG
1070
   388
1040
1.5
1001
ACAD_DSTYLE_DIMTALN
1070
   392
1070
     0
  0
DIMSTYLE
105
3BD
330
16
100
AcDbSymbolTableRecord
100
AcDbDimStyleTableRecord
  2
DIERRE_LUNG-ALT
 70
     0
 40
10.0
 41
3.0
 42
1.0
 43
10.0
 44
1.5
 73
     0
 74
     0
 75
     1
 76
     1
 78
     8
 79
     2
140
20.0
141
2.0
146
0.6
147
1.0
172
     1
176
     3
177
     3
178
    30
179
     1
271
     1
272
     1
281
     1
282
     1
284
     8
340
635
1001
ACAD_DSTYLE_DIMBREAK
1070
   391
1040
3.75
1001
ACAD_DSTYLE_DIMJAG
1070
   388
1040
1.5
1001
ACAD_DSTYLE_DIMTALN
1070
   392
1070
     0
  0
DIMSTYLE
105
3BE
330
16
100
AcDbSymbolTableRecord
100
AcDbDimStyleTableRecord
  2
DIERRE_LARG
 70
     0
 40
10.0
 41
3.0
 42
1.0
 43
10.0
 44
1.5
 73
     0
 74
     0
 75
     1
 76
     1
 78
     8
 79
     2
140
20.0
141
2.0
146
0.6
147
1.0
172
     1
176
     4
177
     4
178
     4
179
     1
271
     1
272
     1
281
     1
282
     1
284
     8
340
635
1001
ACAD_DSTYLE_DIMBREAK
1070
   391
1040
3.75
1001
ACAD_DSTYLE_DIMJAG
1070
   388
1040
1.5
1001
ACAD_DSTYLE_DIMTALN
1070
   392
1070
     0
  0
DIMSTYLE
105
77D
330
16
100
AcDbSymbolTableRecord
100
AcDbDimStyleTableRecord
  2
CORN
 70
     0
 40
10.0
 41
25.0
 42
30.0
 44
5.0
 73
     0
 74
     0
 77
     1
 78
     8
140
25.0
144
0.033333
146
0.0072
147
8.0
172
     1
271
     2
272
     2
284
     8
285
     8
286
     8
340
77C
  0
DIMSTYLE
105
857
330
16
100
AcDbSymbolTableRecord
100
AcDbDimStyleTableRecord
  2
STANDARD
 70
     0
340
C
  0
DIMSTYLE
105
858
330
16
100
AcDbSymbolTableRecord
100
AcDbDimStyleTableRecord
  2
ISO-25
 70
     0
 41
2.5
 42
0.625
 43
3.75
 44
1.25
 73
     0
 74
     0
 77
     1
 78
     8
140
2.5
141
2.5
143
0.03937007874016
147
0.625
171
     3
172
     1
271
     2
272
     2
274
     3
278
    44
283
     0
284
     8
340
C
1001
ACAD_DSTYLE_DIMJOGGED_JOGANGLE_SYMBOL
1070
   384
1040
1.570796326794896
  0
DIMSTYLE
105
9BD
330
16
100
AcDbSymbolTableRecord
100
AcDbDimStyleTableRecord
  2
ACADTOP10_0_0_10
 70
     0
 40
10.0
 41
2.0
 42
1.0
 43
10.0
 44
1.5
 73
     0
 74
     0
 77
     1
 78
     8
 79
     2
140
2.0
141
2.0
144
0.1
146
0.6
147
1.0
172
     1
176
     2
177
     2
178
     1
179
     1
271
     2
272
     2
284
     8
289
     0
340
35C
  0
DIMSTYLE
105
C84
330
16
100
AcDbSymbolTableRecord
100
AcDbDimStyleTableRecord
  2
MECC
 70
     0
 40
10.0
 41
25.0
 42
30.0
 44
5.0
 73
     0
 74
     0
 77
     1
 78
     8
140
25.0
146
0.0072
147
8.0
172
     1
271
     2
272
     2
279
     2
284
     8
285
     8
286
     8
340
77C
  0
DIMSTYLE
105
D6D
330
16
100
AcDbSymbolTableRecord
100
AcDbDimStyleTableRecord
  2
MAURO
 70
     0
 40
10.0
 41
20.0
 42
20.0
 73
     0
 74
     0
 77
     1
140
10.0
147
2.2
172
     1
271
     1
272
     1
279
     2
340
1B
  0
ENDTAB
  0
TABLE
  2
BLOCK_RECORD
  5
1
330
0
100
AcDbSymbolTable
 70
    24
  0
BLOCK_RECORD
  5
2
330
1
100
AcDbSymbolTableRecord
100
AcDbBlockTableRecord
  2
*MODEL_SPACE
340
47
  0
BLOCK_RECORD
  5
7
330
1
100
AcDbSymbolTableRecord
100
AcDbBlockTableRecord
  2
*PAPER_SPACE
340
48
  0
BLOCK_RECORD
  5
85B
102
{ACAD_XDICTIONARY
360
974
102
}
330
1
100
AcDbSymbolTableRecord
100
AcDbBlockTableRecord
  2
TAB-A4
340
0
  0
BLOCK_RECORD
  5
9BF
330
1
100
AcDbSymbolTableRecord
100
AcDbBlockTableRecord
  2
*D1
340
0
  0
BLOCK_RECORD
  5
9D7
330
1
100
AcDbSymbolTableRecord
100
AcDbBlockTableRecord
  2
*D2
340
0
  0
BLOCK_RECORD
  5
9EF
330
1
100
AcDbSymbolTableRecord
100
AcDbBlockTableRecord
  2
*D3
340
0
  0
BLOCK_RECORD
  5
A0B
330
1
100
AcDbSymbolTableRecord
100
AcDbBlockTableRecord
  2
*D4
340
0
  0
BLOCK_RECORD
  5
A27
330
1
100
AcDbSymbolTableRecord
100
AcDbBlockTableRecord
  2
*D5
340
0
  0
BLOCK_RECORD
  5
A43
330
1
100
AcDbSymbolTableRecord
100
AcDbBlockTableRecord
  2
*D6
340
0
  0
BLOCK_RECORD
  5
A5F
330
1
100
AcDbSymbolTableRecord
100
AcDbBlockTableRecord
  2
*D7
340
0
  0
BLOCK_RECORD
  5
A77
330
1
100
AcDbSymbolTableRecord
100
AcDbBlockTableRecord
  2
*D8
340
0
  0
BLOCK_RECORD
  5
A92
330
1
100
AcDbSymbolTableRecord
100
AcDbBlockTableRecord
  2
*D9
340
0
  0
BLOCK_RECORD
  5
AAB
330
1
100
AcDbSymbolTableRecord
100
AcDbBlockTableRecord
  2
*D10
340
0
  0
BLOCK_RECORD
  5
ABB
330
1
100
AcDbSymbolTableRecord
100
AcDbBlockTableRecord
  2
*D11
340
0
  0
BLOCK_RECORD
  5
B11
330
1
100
AcDbSymbolTableRecord
100
AcDbBlockTableRecord
  2
*D12
340
0
  0
BLOCK_RECORD
  5
B38
330
1
100
AcDbSymbolTableRecord
100
AcDbBlockTableRecord
  2
*D13
340
0
  0
BLOCK_RECORD
  5
B4A
330
1
100
AcDbSymbolTableRecord
100
AcDbBlockTableRecord
  2
*D14
340
0
  0
BLOCK_RECORD
  5
B57
330
1
100
AcDbSymbolTableRecord
100
AcDbBlockTableRecord
  2
*D15
340
0
  0
BLOCK_RECORD
  5
B6F
330
1
100
AcDbSymbolTableRecord
100
AcDbBlockTableRecord
  2
*D16
340
0
  0
BLOCK_RECORD
  5
BBA
330
1
100
AcDbSymbolTableRecord
100
AcDbBlockTableRecord
  2
*D17
340
0
  0
BLOCK_RECORD
  5
BE1
330
1
100
AcDbSymbolTableRecord
100
AcDbBlockTableRecord
  2
*D18
340
0
  0
BLOCK_RECORD
  5
C2A
330
1
100
AcDbSymbolTableRecord
100
AcDbBlockTableRecord
  2
*D19
340
0
  0
BLOCK_RECORD
  5
CB6
330
1
100
AcDbSymbolTableRecord
100
AcDbBlockTableRecord
  2
A$C002022D9
340
0
  0
BLOCK_RECORD
  5
FE0
330
1
100
AcDbSymbolTableRecord
100
AcDbBlockTableRecord
  2
*D22
340
0
  0
BLOCK_RECORD
  5
101C
330
1
100
AcDbSymbolTableRecord
100
AcDbBlockTableRecord
  2
*D23
340
0
  0
ENDTAB
  0
ENDSEC
  0
SECTION
  2
BLOCKS
  0
BLOCK
  5
3
330
2
100
AcDbEntity
  8
0
100
AcDbBlockBegin
  2
*MODEL_SPACE
 70
     0
 10
0.0
 20
0.0
 30
0.0
  3
*MODEL_SPACE
  1

  0
ENDBLK
  5
6
330
2
100
AcDbEntity
  8
0
100
AcDbBlockEnd
  0
BLOCK
  5
8
330
7
100
AcDbEntity
 67
     1
  8
0
100
AcDbBlockBegin
  2
*PAPER_SPACE
 70
     0
 10
0.0
 20
0.0
 30
0.0
  3
*PAPER_SPACE
  1

  0
ENDBLK
  5
9
330
7
100
AcDbEntity
 67
     1
  8
0
100
AcDbBlockEnd
  0
BLOCK
  5
976
330
85B
100
AcDbEntity
  8
0
 62
     7
100
AcDbBlockBegin
  2
TAB-A4
 70
     2
 10
0.0
 20
0.0
 30
0.0
  3
TAB-A4
  1

  0
LINE
  5
85C
330
85B
100
AcDbEntity
  8
0
  6
Continuous
 62
     0
100
AcDbLine
 10
100.0
 20
143.5
 30
0.0
 11
-100.0
 21
143.5
 31
0.0
1001
TOP
1070
     7
  0
LINE
  5
85D
330
85B
100
AcDbEntity
  8
0
  6
Continuous
 62
     0
100
AcDbLine
 10
-100.0
 20
143.5
 30
0.0
 11
-100.0
 21
-143.5
 31
0.0
1001
TOP
1070
     7
  0
LINE
  5
85E
330
85B
100
AcDbEntity
  8
0
  6
Continuous
 62
     0
100
AcDbLine
 10
-100.0
 20
-143.5
 30
0.0
 11
100.0
 21
-143.5
 31
0.0
1001
TOP
1070
     7
  0
LINE
  5
85F
330
85B
100
AcDbEntity
  8
0
  6
Continuous
 62
     0
100
AcDbLine
 10
100.0
 20
-143.5
 30
0.0
 11
100.0
 21
143.5
 31
0.0
1001
TOP
1070
     7
  0
LINE
  5
860
330
85B
100
AcDbEntity
  8
0
  6
Continuous
 62
     0
100
AcDbLine
 10
105.0
 20
148.5
 30
0.0
 11
-105.0
 21
148.5
 31
0.0
1001
TOP
1070
     3
  0
LINE
  5
861
330
85B
100
AcDbEntity
  8
0
  6
Continuous
 62
     0
100
AcDbLine
 10
-105.0
 20
148.5
 30
0.0
 11
-105.0
 21
-148.5
 31
0.0
1001
TOP
1070
     3
  0
LINE
  5
862
330
85B
100
AcDbEntity
  8
0
  6
Continuous
 62
     0
100
AcDbLine
 10
-105.0
 20
-148.5
 30
0.0
 11
105.0
 21
-148.5
 31
0.0
1001
TOP
1070
     3
  0
LINE
  5
863
330
85B
100
AcDbEntity
  8
0
  6
Continuous
 62
     0
100
AcDbLine
 10
105.0
 20
-148.5
 30
0.0
 11
105.0
 21
148.5
 31
0.0
1001
TOP
1070
     3
  0
ATTDEF
  5
864
330
85B
100
AcDbEntity
  8
0
 62
     0
 48
35.0
100
AcDbText
 10
-76.25989897767704
 20
-84.74999999999999
 30
0.0
 40
2.5
  1

  7
Stile_Cart
 11
-76.25989897767704
 21
-83.49999999999999
 31
0.0
100
AcDbAttributeDefinition
  3

  2
DESCRIZIONE
 70
     4
 74
     2
1001
TOP
1070
     7
  0
LINE
  5
865
330
85B
100
AcDbEntity
  8
0
 62
     0
 48
35.0
100
AcDbLine
 10
100.0
 20
-138.5
 30
0.0
 11
-100.0
 21
-138.5
 31
0.0
1001
TOP
1070
     3
  0
MTEXT
  5
866
330
85B
100
AcDbEntity
  8
0
 62
     0
 48
35.0
100
AcDbMText
 10
0.0
 20
-141.0
 30
0.0
 40
1.499624999999999
 41
190.3973187722231
 71
     5
 72
     1
  1
{\C256;SI VIETA L'USO E LA RIPRODUZIONE O LA VISIONE A TERZI DEL PRESENTE DISEGNO SENZA ESPLICITA AUTORIZZAZIONE, \H1.333x;Dierre \H0.75x;TUTELERA' I PROPRI DIRITTI A NORMA DI LEGGE}
  7
Stile_Cart
 73
     1
 44
1.0
1001
TOP
1070
     3
1001
ACAD
1000
MTEXTBEGIN
1070
    73
1070
     1
1070
    44
1040
1.0
1070
    74
1070
     0
1000
MTEXTEND
  0
LINE
  5
867
330
85B
100
AcDbEntity
  8
0
 62
     0
 48
35.0
100
AcDbLine
 10
-100.0
 20
-78.5
 30
0.0
 11
100.0
 21
-78.49999999999988
 31
0.0
1001
TOP
1070
     3
  0
LINE
  5
868
330
85B
100
AcDbEntity
  8
0
 62
     0
 48
35.0
100
AcDbLine
 10
35.0
 20
-78.5
 30
0.0
 11
35.0
 21
-138.5
 31
0.0
1001
TOP
1070
     3
  0
LINE
  5
869
330
85B
100
AcDbEntity
  8
0
 62
     0
 48
35.0
100
AcDbLine
 10
-100.0
 20
-130.5
 30
0.0
 11
35.0
 21
-130.5
 31
0.0
1001
TOP
1070
     1
  0
LINE
  5
86A
330
85B
100
AcDbEntity
  8
0
 62
     0
 48
35.0
100
AcDbLine
 10
-100.0
 20
-108.5
 30
0.0
 11
35.0
 21
-108.5
 31
0.0
1001
TOP
1070
     1
  0
LINE
  5
86B
330
85B
100
AcDbEntity
  8
0
 62
     0
 48
35.0
100
AcDbLine
 10
-66.25
 20
-130.5
 30
0.0
 11
-66.25
 21
-138.5
 31
0.0
1001
TOP
1070
     7
  0
LINE
  5
86C
330
85B
100
AcDbEntity
  8
0
 62
     0
 48
35.0
100
AcDbLine
 10
-100.0
 20
-98.50000000000001
 30
0.0
 11
35.0
 21
-98.50000000000001
 31
0.0
1001
TOP
1070
     1
  0
LINE
  5
86D
330
85B
100
AcDbEntity
  8
0
 62
     0
 48
35.0
100
AcDbLine
 10
-27.5
 20
-98.50000000000001
 30
0.0
 11
-27.5
 21
-108.5
 31
0.0
1001
TOP
1070
     1
  0
TEXT
  5
86E
330
85B
100
AcDbEntity
  8
0
 62
     0
 48
35.0
100
AcDbText
 10
-99.24333629514059
 20
-84.74999999999999
 30
0.0
 40
1.6
  1
DENOMINAZIONE:
  7
STYLE1
100
AcDbText
1001
TOP
1070
     1
  0
TEXT
  5
86F
330
85B
100
AcDbEntity
  8
0
 62
     0
 48
35.0
100
AcDbText
 10
-99.24333629514059
 20
-105.5
 30
0.0
 40
1.6
  1
CLIENTE:
  7
STYLE1
100
AcDbText
1001
TOP
1070
     1
  0
LINE
  5
870
330
85B
100
AcDbEntity
  8
0
 62
     0
 48
35.0
100
AcDbLine
 10
-27.5
 20
-103.5
 30
0.0
 11
35.00000000000091
 21
-103.5
 31
0.0
1001
TOP
1070
     1
  0
TEXT
  5
871
330
85B
100
AcDbEntity
  8
0
 62
     0
 48
35.0
100
AcDbText
 10
-26.74333629514058
 20
-102.25
 30
0.0
 40
1.6
  1
COD. CLIENTE:
  7
STYLE1
100
AcDbText
1001
TOP
1070
     1
  0
TEXT
  5
872
330
85B
100
AcDbEntity
  8
0
 62
     0
 48
35.0
100
AcDbText
 10
-26.74333629514058
 20
-107.25
 30
0.0
 40
1.6
  1
CC CLIENTE:
  7
STYLE1
100
AcDbText
1001
TOP
1070
     1
  0
LINE
  5
873
330
85B
100
AcDbEntity
  8
0
 62
     0
 48
35.0
100
AcDbLine
 10
35.0
 20
-85.99999999999988
 30
0.0
 11
100.0
 21
-85.99999999999988
 31
0.0
1001
TOP
1070
     7
  0
LINE
  5
874
330
85B
100
AcDbEntity
  8
0
 62
     0
 48
35.0
100
AcDbLine
 10
35.0
 20
-93.49999999999988
 30
0.0
 11
100.0
 21
-93.49999999999988
 31
0.0
1001
TOP
1070
     7
  0
LINE
  5
875
330
85B
100
AcDbEntity
  8
0
 62
     0
 48
35.0
100
AcDbLine
 10
35.0
 20
-100.9999999999999
 30
0.0
 11
100.0
 21
-100.9999999999999
 31
0.0
1001
TOP
1070
     7
  0
TEXT
  5
876
330
85B
100
AcDbEntity
  8
0
 62
     0
 48
35.0
100
AcDbText
 10
35.75666370485942
 20
-83.99999999999989
 30
0.0
 40
1.6
  1
Data:
  7
STYLE1
100
AcDbText
1001
TOP
1070
     1
  0
TEXT
  5
877
330
85B
100
AcDbEntity
  8
0
 62
     0
 48
35.0
100
AcDbText
 10
35.75666370485942
 20
-90.74999999999988
 30
0.0
 40
1.6
  1
Diseg.:        
  7
STYLE1
100
AcDbText
1001
TOP
1070
     1
  0
TEXT
  5
878
330
85B
100
AcDbEntity
  8
0
 62
     0
 48
35.0
100
AcDbText
 10
35.75666370485942
 20
-98.49999999999988
 30
0.0
 40
1.6
  1
Rifer. ordine:
  7
STYLE1
100
AcDbText
1001
TOP
1070
     1
  0
LINE
  5
879
330
85B
100
AcDbEntity
  8
0
 62
     0
 48
35.0
100
AcDbLine
 10
72.0
 20
-78.49999999999988
 30
0.0
 11
72.0
 21
-93.49999999999999
 31
0.0
  0
TEXT
  5
87A
330
85B
100
AcDbEntity
  8
0
 62
     0
 48
35.0
100
AcDbText
 10
72.75666370485942
 20
-83.99999999999989
 30
0.0
 40
1.6
  1
Scala:
  7
STYLE1
100
AcDbText
1001
TOP
1070
     1
  0
TEXT
  5
87B
330
85B
100
AcDbEntity
  8
0
 62
     0
 48
35.0
100
AcDbText
 10
72.75666370485942
 20
-91.49999999999989
 30
0.0
 40
1.6
  1
Q.ta:
  7
STYLE1
100
AcDbText
1001
TOP
1070
     1
  0
TEXT
  5
87C
330
85B
100
AcDbEntity
  8
0
 62
     0
 48
35.0
100
AcDbText
 10
35.85819235127565
 20
-110.1249999999999
 30
0.0
 40
1.76
  1
Codice N
  7
STYLE1
100
AcDbText
1001
TOP
1070
     1
  0
LINE
  5
87D
330
85B
100
AcDbEntity
  8
0
 62
     0
 48
35.0
100
AcDbLine
 10
35.0
 20
-114.7499999999999
 30
0.0
 11
100.0
 21
-114.7499999999999
 31
0.0
1001
TOP
1070
     7
  0
LINE
  5
87E
330
85B
100
AcDbEntity
  8
0
 62
     0
 48
35.0
100
AcDbLine
 10
35.0
 20
-124.7499999999999
 30
0.0
 11
100.0
 21
-124.7499999999999
 31
0.0
1001
TOP
1070
     7
  0
LINE
  5
87F
330
85B
100
AcDbEntity
  8
0
 62
     0
 48
35.0
100
AcDbLine
 10
35.0
 20
-130.5
 30
0.0
 11
100.0
 21
-130.5
 31
0.0
1001
TOP
1070
     7
  0
CIRCLE
  5
880
330
85B
100
AcDbEntity
  8
0
  6
Continuous
 62
     0
100
AcDbCircle
 10
94.1449550471707
 20
-134.5409172698267
 30
0.0
 40
3.0
1001
TOP
1070
     2
  0
LINE
  5
881
330
85B
100
AcDbEntity
  8
0
  6
DASHDOT2
 62
     0
100
AcDbLine
 10
94.1449550471707
 20
-131.5409172698267
 30
0.0
 11
94.1449550471707
 21
-137.5409172698267
 31
0.0
1001
TOP
1070
     2
  0
CIRCLE
  5
882
330
85B
100
AcDbEntity
  8
0
  6
Continuous
 62
     0
100
AcDbCircle
 10
94.1449550471707
 20
-134.5409172698267
 30
0.0
 40
1.5
1001
TOP
1070
     2
  0
LINE
  5
883
330
85B
100
AcDbEntity
  8
0
  6
DASHDOT2
 62
     0
100
AcDbLine
 10
81.35716881113784
 20
-134.5409172698267
 30
0.0
 11
97.14495504717071
 21
-134.5409172698267
 31
0.0
1001
TOP
1070
     2
  0
LINE
  5
884
330
85B
100
AcDbEntity
  8
0
  6
Continuous
 62
     0
100
AcDbLine
 10
88.51173788868619
 20
-131.5409172698267
 30
0.0
 11
88.51173788868619
 21
-137.8298833532369
 31
0.0
1001
TOP
1070
     2
  0
LINE
  5
885
330
85B
100
AcDbEntity
  8
0
  6
Continuous
 62
     0
100
AcDbLine
 10
81.35716881113784
 20
-133.0409172698267
 30
0.0
 11
81.35716881113784
 21
-136.0409172698267
 31
0.0
1001
TOP
1070
     2
  0
LINE
  5
886
330
85B
100
AcDbEntity
  8
0
  6
Continuous
 62
     0
100
AcDbLine
 10
81.35716881113784
 20
-136.0409172698267
 30
0.0
 11
88.51173788868619
 21
-137.8298833532369
 31
0.0
1001
TOP
1070
     2
  0
LINE
  5
887
330
85B
100
AcDbEntity
  8
0
  6
Continuous
 62
     0
100
AcDbLine
 10
88.51173788868619
 20
-131.5409172698267
 30
0.0
 11
81.35716881113784
 21
-133.0409172698267
 31
0.0
1001
TOP
1070
     2
  0
LINE
  5
888
330
85B
100
AcDbEntity
  8
0
 62
     0
 48
35.0
100
AcDbLine
 10
78.5
 20
-138.5
 30
0.0
 11
78.5
 21
-130.5
 31
0.0
  0
MTEXT
  5
889
330
85B
100
AcDbEntity
  8
0
 62
     0
 48
35.0
100
AcDbMText
 10
36.70159610234714
 20
-116.147829675845
 30
0.0
 40
2.0
 41
187.0802
 71
     1
 72
     5
  1
{\C256;LE TOLLERANZE SI INTENDONO SU PEZZO\PFINITO COMPLETO DI ZINCATURA}
  7
Stile_Cart
 73
     1
 44
1.0
1001
TOP
1070
     3
1001
ACAD
1000
MTEXTBEGIN
1070
    73
1070
     1
1070
    44
1040
1.0
1070
    74
1070
     0
1000
MTEXTEND
  0
LINE
  5
88A
330
85B
100
AcDbEntity
  8
0
 62
     0
100
AcDbLine
 10
-100.0
 20
-71.0
 30
0.0
 11
99.99999999999909
 21
-71.00000000000012
 31
0.0
1001
TOP
1070
     3
  0
LINE
  5
88B
330
85B
100
AcDbEntity
  8
0
 62
     0
100
AcDbLine
 10
-100.0
 20
-67.0
 30
0.0
 11
99.99999999999909
 21
-67.0
 31
0.0
1001
TOP
1070
     3
  0
LINE
  5
88C
330
85B
100
AcDbEntity
  8
0
 62
     0
100
AcDbLine
 10
-100.0
 20
-62.0
 30
0.0
 11
99.99999999999909
 21
-61.99999999999988
 31
0.0
1001
TOP
1070
     3
  0
LINE
  5
88D
330
85B
100
AcDbEntity
  8
0
 62
     0
 48
35.0
100
AcDbLine
 10
-85.0
 20
-61.99999999999999
 30
0.0
 11
-85.0
 21
-78.5
 31
0.0
1001
TOP
1070
     1
  0
TEXT
  5
88E
330
85B
100
AcDbEntity
  8
0
 62
     0
 48
35.0
100
AcDbText
 10
-99.24333629514149
 20
-76.0
 30
0.0
 40
1.6
  1
POS.
  7
STYLE1
100
AcDbText
1001
TOP
1070
     1
  0
TEXT
  5
88F
330
85B
100
AcDbEntity
  8
0
 62
     0
 48
35.0
100
AcDbText
 10
-84.2433362951424
 20
-76.0
 30
0.0
 40
1.6
  1
MATERIALE:
  7
STYLE1
100
AcDbText
1001
TOP
1070
     1
  0
LINE
  5
890
330
85B
100
AcDbEntity
  8
0
 62
     0
 48
35.0
100
AcDbLine
 10
14.99999999999909
 20
-71.00000000000022
 30
0.0
 11
15.0
 21
-78.5
 31
0.0
1001
TOP
1070
     1
  0
TEXT
  5
891
330
85B
100
AcDbEntity
  8
0
 62
     0
 48
35.0
100
AcDbText
 10
15.75666370485669
 20
-76.0
 30
0.0
 40
1.6
  1
TRATTAMENTI:
  7
STYLE1
100
AcDbText
1001
TOP
1070
     1
  0
TEXT
  5
892
330
85B
100
AcDbEntity
  8
0
 62
     0
 48
35.0
100
AcDbText
 10
-94.94297836942587
 20
-69.79763860700177
 30
0.0
 40
1.6
  1
Rev.
  7
STYLE1
100
AcDbText
1001
TOP
1070
     1
  0
LINE
  5
893
330
85B
100
AcDbEntity
  8
0
 62
     0
 48
35.0
100
AcDbLine
 10
80.0
 20
-61.9999999999999
 30
0.0
 11
80.0000000000009
 21
-71.00000000000012
 31
0.0
1001
TOP
1070
     1
  0
LINE
  5
894
330
85B
100
AcDbEntity
  8
0
 62
     0
 48
35.0
100
AcDbLine
 10
65.00000000000032
 20
-61.99999999999991
 30
0.0
 11
65.00000000000091
 21
-71.00000000000114
 31
0.0
1001
TOP
1070
     1
  0
TEXT
  5
895
330
85B
100
AcDbEntity
  8
0
 62
     0
 48
35.0
100
AcDbText
 10
70.05702163057503
 20
-69.79763860700177
 30
0.0
 40
1.6
  1
Data
  7
STYLE1
100
AcDbText
1001
TOP
1070
     1
  0
TEXT
  5
896
330
85B
100
AcDbEntity
  8
0
 62
     0
 48
35.0
100
AcDbText
 10
87.79240430569643
 20
-69.79763860700177
 30
0.0
 40
1.6
  1
Diseg.
  7
STYLE1
100
AcDbText
1001
TOP
1070
     1
  0
LINE
  5
897
330
85B
100
AcDbEntity
  8
0
 62
     0
 48
35.0
100
AcDbLine
 10
-32.5
 20
-130.5
 30
0.0
 11
-32.5
 21
-138.5
 31
0.0
1001
TOP
1070
     7
  0
LINE
  5
898
330
85B
100
AcDbEntity
  8
0
 62
     0
 48
35.0
100
AcDbLine
 10
1.25
 20
-130.5
 30
0.0
 11
1.25
 21
-138.5
 31
0.0
1001
TOP
1070
     7
  0
LINE
  5
899
330
85B
100
AcDbEntity
  8
0
  6
Continuous
 62
     0
100
AcDbLine
 10
-84.625
 20
-135.2853677388285
 30
0.0
 11
-83.125
 21
-138.2853677388285
 31
0.0
1001
TOP
1070
     2
  0
LINE
  5
89A
330
85B
100
AcDbEntity
  8
0
  6
Continuous
 62
     0
100
AcDbLine
 10
-83.125
 20
-138.2853677388285
 30
0.0
 11
-80.12500000000001
 21
-132.2853677388285
 31
0.0
1001
TOP
1070
     2
  0
CIRCLE
  5
89B
330
85B
100
AcDbEntity
  8
0
  6
Continuous
 62
     0
100
AcDbCircle
 10
-83.125
 20
-136.1513931426129
 30
0.0
 40
0.8660254037843873
1001
TOP
1070
     2
  0
TEXT
  5
89C
330
85B
100
AcDbEntity
  8
0
  6
Continuous
 62
     0
100
AcDbText
 10
36.65725579953532
 20
-127.6856811538551
 30
0.0
 40
1.5
  1
Le QUOTE senza tolleranze si intendono h 11 / H 11
  7
Stile_Cart
100
AcDbText
1001
TOP
1070
     7
  0
TEXT
  5
89D
330
85B
100
AcDbEntity
  8
0
  6
Continuous
 62
     0
100
AcDbText
 10
36.56316783991022
 20
-136.7809056532263
 30
0.0
 40
1.5
  1
Smussi e raggi non quotati = 1 mm
  7
Stile_Cart
100
AcDbText
1001
TOP
1070
     7
  0
TEXT
  5
89E
330
85B
100
AcDbEntity
  8
0
  6
Continuous
 62
     0
100
AcDbText
 10
36.70159610234714
 20
-133.4356811538553
 30
0.0
 40
1.5
  1
Negli spigoli non quotati smussi 0,5 x 45°
  7
Stile_Cart
100
AcDbText
1001
TOP
1070
     7
  0
LINE
  5
89F
330
85B
100
AcDbEntity
  8
0
  6
Continuous
 62
     0
100
AcDbLine
 10
22.04910490551336
 20
-135.2267571184318
 30
0.0
 11
23.54910490551336
 21
-138.2267571184318
 31
0.0
1001
TOP
1070
     2
  0
LINE
  5
8A0
330
85B
100
AcDbEntity
  8
0
  6
Continuous
 62
     0
100
AcDbLine
 10
23.54910490551336
 20
-138.2267571184318
 30
0.0
 11
26.54910490551336
 21
-132.2267571184318
 31
0.0
1001
TOP
1070
     2
  0
TEXT
  5
8A1
330
85B
100
AcDbEntity
  8
0
  6
Continuous
 62
     0
100
AcDbText
 10
21.21024234627165
 20
-134.7267571184318
 30
0.0
 40
2.0
  1
0,8
  7
seansi_ttf
 11
21.21024234627165
 21
-132.7267571184318
 31
0.0
100
AcDbText
 73
     3
1001
TOP
1070
     2
  0
LINE
  5
8A2
330
85B
100
AcDbEntity
  8
0
  6
Continuous
 62
     0
100
AcDbLine
 10
14.18630267108197
 20
-135.2559419652411
 30
0.0
 11
15.68630267108197
 21
-138.2559419652411
 31
0.0
1001
TOP
1070
     2
  0
LINE
  5
8A3
330
85B
100
AcDbEntity
  8
0
  6
Continuous
 62
     0
100
AcDbLine
 10
15.68630267108197
 20
-138.2559419652411
 30
0.0
 11
17.18630267108197
 21
-135.2559419652411
 31
0.0
1001
TOP
1070
     2
  0
LINE
  5
8A4
330
85B
100
AcDbEntity
  8
0
  6
Continuous
 62
     0
100
AcDbLine
 10
17.18630267108197
 20
-135.2559419652411
 30
0.0
 11
14.18630267108197
 21
-135.2559419652411
 31
0.0
1001
TOP
1070
     2
  0
LINE
  5
8A5
330
85B
100
AcDbEntity
  8
0
  6
Continuous
 62
     0
100
AcDbLine
 10
14.18630267108197
 20
-135.2559419652411
 30
0.0
 11
12.68630267108197
 21
-138.2559419652411
 31
0.0
1001
TOP
1070
     2
  0
LINE
  5
8A6
330
85B
100
AcDbEntity
  8
0
  6
Continuous
 62
     0
100
AcDbLine
 10
12.68630267108197
 20
-138.2559419652411
 30
0.0
 11
11.18630267108197
 21
-135.2559419652411
 31
0.0
1001
TOP
1070
     2
  0
LINE
  5
8A7
330
85B
100
AcDbEntity
  8
0
  6
Continuous
 62
     0
100
AcDbLine
 10
11.18630267108197
 20
-135.2559419652411
 30
0.0
 11
14.18630267108197
 21
-135.2559419652411
 31
0.0
1001
TOP
1070
     2
  0
LINE
  5
8A8
330
85B
100
AcDbEntity
  8
0
  6
Continuous
 62
     0
100
AcDbLine
 10
11.18630267108197
 20
-135.2559419652411
 30
0.0
 11
9.686302671081968
 21
-138.2559419652411
 31
0.0
1001
TOP
1070
     2
  0
LINE
  5
8A9
330
85B
100
AcDbEntity
  8
0
  6
Continuous
 62
     0
100
AcDbLine
 10
9.686302671081968
 20
-138.2559419652411
 30
0.0
 11
8.186302671081968
 21
-135.2559419652411
 31
0.0
1001
TOP
1070
     2
  0
LINE
  5
8AA
330
85B
100
AcDbEntity
  8
0
  6
Continuous
 62
     0
100
AcDbLine
 10
8.186302671081968
 20
-135.2559419652411
 30
0.0
 11
11.18630267108197
 21
-135.2559419652411
 31
0.0
1001
TOP
1070
     2
  0
LINE
  5
8AB
330
85B
100
AcDbEntity
  8
0
  6
Continuous
 62
     0
100
AcDbLine
 10
-11.09407416882067
 20
-135.2999430320282
 30
0.0
 11
-9.594074168820668
 21
-138.2999430320282
 31
0.0
1001
TOP
1070
     2
  0
LINE
  5
8AC
330
85B
100
AcDbEntity
  8
0
  6
Continuous
 62
     0
100
AcDbLine
 10
-9.594074168820668
 20
-138.2999430320282
 30
0.0
 11
-6.594074168820668
 21
-132.2999430320282
 31
0.0
1001
TOP
1070
     2
  0
TEXT
  5
8AD
330
85B
100
AcDbEntity
  8
0
  6
Continuous
 62
     0
100
AcDbText
 10
-11.93293672806237
 20
-134.7999430320282
 30
0.0
 40
2.0
  1
1,6
  7
seansi_ttf
 11
-11.93293672806237
 21
-132.7999430320282
 31
0.0
100
AcDbText
 73
     3
1001
TOP
1070
     2
  0
LINE
  5
8AE
330
85B
100
AcDbEntity
  8
0
  6
Continuous
 62
     0
100
AcDbLine
 10
-21.65592583117933
 20
-135.2999430320282
 30
0.0
 11
-20.15592583117933
 21
-138.2999430320282
 31
0.0
1001
TOP
1070
     2
  0
LINE
  5
8AF
330
85B
100
AcDbEntity
  8
0
  6
Continuous
 62
     0
100
AcDbLine
 10
-20.15592583117933
 20
-138.2999430320282
 30
0.0
 11
-18.65592583117933
 21
-135.2999430320282
 31
0.0
1001
TOP
1070
     2
  0
LINE
  5
8B0
330
85B
100
AcDbEntity
  8
0
  6
Continuous
 62
     0
100
AcDbLine
 10
-18.65592583117933
 20
-135.2999430320282
 30
0.0
 11
-21.65592583117933
 21
-135.2999430320282
 31
0.0
1001
TOP
1070
     2
  0
LINE
  5
8B1
330
85B
100
AcDbEntity
  8
0
  6
Continuous
 62
     0
100
AcDbLine
 10
-21.65592583117933
 20
-135.2999430320282
 30
0.0
 11
-23.15592583117933
 21
-138.2999430320282
 31
0.0
1001
TOP
1070
     2
  0
LINE
  5
8B2
330
85B
100
AcDbEntity
  8
0
  6
Continuous
 62
     0
100
AcDbLine
 10
-23.15592583117933
 20
-138.2999430320282
 30
0.0
 11
-24.65592583117933
 21
-135.2999430320282
 31
0.0
1001
TOP
1070
     2
  0
LINE
  5
8B3
330
85B
100
AcDbEntity
  8
0
  6
Continuous
 62
     0
100
AcDbLine
 10
-24.65592583117933
 20
-135.2999430320282
 30
0.0
 11
-21.65592583117933
 21
-135.2999430320282
 31
0.0
1001
TOP
1070
     2
  0
LINE
  5
8B4
330
85B
100
AcDbEntity
  8
0
  6
Continuous
 62
     0
100
AcDbLine
 10
-58.06883755106941
 20
-135.3397943988076
 30
0.0
 11
-56.56883755106941
 21
-138.3397943988076
 31
0.0
1001
TOP
1070
     2
  0
LINE
  5
8B5
330
85B
100
AcDbEntity
  8
0
  6
Continuous
 62
     0
100
AcDbLine
 10
-56.56883755106941
 20
-138.3397943988076
 30
0.0
 11
-55.0688375510694
 21
-135.3397943988076
 31
0.0
1001
TOP
1070
     2
  0
LINE
  5
8B6
330
85B
100
AcDbEntity
  8
0
  6
Continuous
 62
     0
100
AcDbLine
 10
-55.0688375510694
 20
-135.3397943988076
 30
0.0
 11
-58.06883755106941
 21
-135.3397943988076
 31
0.0
1001
TOP
1070
     2
  0
LINE
  5
8B7
330
85B
100
AcDbEntity
  8
0
  6
Continuous
 62
     0
100
AcDbLine
 10
-43.68116244893059
 20
-135.3397943988076
 30
0.0
 11
-42.18116244893059
 21
-138.3397943988076
 31
0.0
1001
TOP
1070
     2
  0
LINE
  5
8B8
330
85B
100
AcDbEntity
  8
0
  6
Continuous
 62
     0
100
AcDbLine
 10
-42.18116244893059
 20
-138.3397943988076
 30
0.0
 11
-39.18116244893059
 21
-132.3397943988076
 31
0.0
1001
TOP
1070
     2
  0
TEXT
  5
8B9
330
85B
100
AcDbEntity
  8
0
  6
Continuous
 62
     0
100
AcDbText
 10
-44.52002500817229
 20
-134.8397943988076
 30
0.0
 40
2.0
  1
6,3
  7
seansi_ttf
 11
-44.52002500817229
 21
-132.8397943988076
 31
0.0
100
AcDbText
 73
     3
1001
TOP
1070
     2
  0
ATTDEF
  5
8BA
330
85B
100
AcDbEntity
  8
0
 62
     0
 48
35.0
100
AcDbText
 10
-76.25989897767704
 20
-89.74999999999999
 30
0.0
 40
2.5
  1

  7
Stile_Cart
 11
-76.25989897767704
 21
-88.49999999999999
 31
0.0
100
AcDbAttributeDefinition
  3

  2
DESCRIZIONE2
 70
     4
 74
     2
1001
TOP
1070
     7
  0
ATTDEF
  5
8BB
330
85B
100
AcDbEntity
  8
0
 62
     0
 48
35.0
100
AcDbText
 10
-76.25989897767704
 20
-94.74999999999999
 30
0.0
 40
2.5
  1

  7
Stile_Cart
 11
-76.25989897767704
 21
-93.49999999999999
 31
0.0
100
AcDbAttributeDefinition
  3

  2
DESCRIZIONE3
 70
     4
 74
     2
1001
TOP
1070
     7
  0
ATTDEF
  5
8BC
330
85B
100
AcDbEntity
  8
0
 62
     0
 48
35.0
100
AcDbText
 10
42.76829842361894
 20
-83.99999999999989
 30
0.0
 40
3.5
  1

  7
Stile_Cart
 11
42.76829842361894
 21
-82.2499999999999
 31
0.0
100
AcDbAttributeDefinition
  3

  2
DATA
 70
     4
 74
     2
1001
TOP
1070
     7
  0
ATTDEF
  5
8BD
330
85B
100
AcDbEntity
  8
0
 62
     0
 48
35.0
100
AcDbText
 10
79.15321575123653
 20
-83.99999999999989
 30
0.0
 40
3.5
  1

  7
Stile_Cart
 11
79.15321575123653
 21
-82.24999999999988
 31
0.0
100
AcDbAttributeDefinition
  3

  2
SCALA
 70
     4
 74
     2
1001
TOP
1070
     7
  0
ATTDEF
  5
8BE
330
85B
100
AcDbEntity
  8
0
 62
     0
 48
35.0
100
AcDbText
 10
79.15321575123653
 20
-91.49999999999989
 30
0.0
 40
3.5
  1

  7
Stile_Cart
 11
79.15321575123653
 21
-89.74999999999988
 31
0.0
100
AcDbAttributeDefinition
  3

  2
QTA
 70
     4
 74
     2
1001
TOP
1070
     7
  0
ATTDEF
  5
8BF
330
85B
100
AcDbEntity
  8
0
 62
     0
 48
35.0
100
AcDbText
 10
42.76829842361894
 20
-90.74999999999988
 30
0.0
 40
2.0
  1

  7
Stile_Cart
 11
42.76829842361894
 21
-89.74999999999988
 31
0.0
100
AcDbAttributeDefinition
  3

  2
DISEGNATORE
 70
     4
 74
     2
1001
TOP
1070
     7
  0
ATTDEF
  5
8C0
330
85B
100
AcDbEntity
  8
0
 62
     0
 48
35.0
100
AcDbText
 10
51.64776592404542
 20
-98.49999999999988
 30
0.0
 40
2.5
  1

  7
Stile_Cart
 11
51.64776592404542
 21
-97.24999999999988
 31
0.0
100
AcDbAttributeDefinition
  3

  2
RIF_ORDINE
 70
     4
 74
     2
1001
TOP
1070
     7
  0
ATTDEF
  5
8C1
330
85B
100
AcDbEntity
  8
0
 62
     0
 48
35.0
100
AcDbText
 10
50.29007657152305
 20
-110.1249999999999
 30
0.0
 40
4.5
  1

  7
Stile_Cart
 11
50.29007657152305
 21
-107.8749999999999
 31
0.0
100
AcDbAttributeDefinition
  3

  2
CODICE
 70
     4
 74
     2
1001
TOP
1070
     7
  0
ATTDEF
  5
8C2
330
85B
100
AcDbEntity
  8
0
 62
     0
 48
35.0
100
AcDbText
 10
-10.1983793647978
 20
-102.25
 30
0.0
 40
2.5
  1

  7
Stile_Cart
 11
-10.1983793647978
 21
-101.0
 31
0.0
100
AcDbAttributeDefinition
  3

  2
COD_CLIENTE
 70
     4
 74
     2
1001
TOP
1070
     7
  0
ATTDEF
  5
8C3
330
85B
100
AcDbEntity
  8
0
 62
     0
 48
35.0
100
AcDbText
 10
-10.18785708582345
 20
-107.25
 30
0.0
 40
2.5
  1

  7
Stile_Cart
 11
-10.18785708582345
 21
-106.0
 31
0.0
100
AcDbAttributeDefinition
  3

  2
COMMESSA
 70
     4
 74
     2
1001
TOP
1070
     7
  0
ATTDEF
  5
8C4
330
85B
100
AcDbEntity
  8
0
 62
     0
 48
35.0
100
AcDbText
 10
-87.23964845993032
 20
-105.5
 30
0.0
 40
4.0
  1

  7
Stile_Cart
 11
-87.23964845993032
 21
-103.5
 31
0.0
100
AcDbAttributeDefinition
  3

  2
CLIENTE
 70
     4
 74
     2
1001
TOP
1070
     7
  0
ATTDEF
  5
8C5
330
85B
100
AcDbEntity
  8
0
 62
     0
 48
35.0
100
AcDbText
 10
-67.95452598552799
 20
-76.0
 30
0.0
 40
2.5
  1

  7
Stile_Cart
 11
-67.95452598552799
 21
-74.75
 31
0.0
100
AcDbAttributeDefinition
  3

  2
MATERIALE
 70
     4
 74
     2
1001
TOP
1070
     7
  0
ATTDEF
  5
8C6
330
85B
100
AcDbEntity
  8
0
 62
     0
 48
35.0
100
AcDbText
 10
35.56280592835867
 20
-76.0
 30
0.0
 40
2.5
  1

  7
Stile_Cart
 11
35.56280592835867
 21
-74.75
 31
0.0
100
AcDbAttributeDefinition
  3

  2
TRATTAMENTI
 70
     4
 74
     2
1001
TOP
1070
     7
  0
ATTDEF
  5
8C7
330
85B
100
AcDbEntity
  8
0
 62
     0
 48
35.0
100
AcDbText
 10
-89.96922082042067
 20
-76.0
 30
0.0
 40
2.5
  1

  7
Stile_Cart
 72
     1
 11
-89.96922082042067
 21
-74.75
 31
0.0
100
AcDbAttributeDefinition
  3

  2
POS.
 70
     4
 74
     2
1001
TOP
1070
     7
  0
ATTDEF
  5
8C8
330
85B
100
AcDbEntity
  8
0
 62
     0
 48
35.0
100
AcDbText
 10
-92.5
 20
-65.75
 30
0.0
 40
2.5
  1

  7
Stile_Cart
 72
     1
 11
-92.5
 21
-64.5
 31
0.0
100
AcDbAttributeDefinition
  3

  2
REV
 70
     4
 74
     2
1001
TOP
1070
     7
  0
ATTDEF
  5
8C9
330
85B
100
AcDbEntity
  8
0
 62
     0
 48
35.0
100
AcDbText
 10
-83.0
 20
-65.75
 30
0.0
 40
2.5
  1

  7
Stile_Cart
 11
-83.0
 21
-64.5
 31
0.0
100
AcDbAttributeDefinition
  3

  2
MOD_REV
 70
     4
 74
     2
1001
TOP
1070
     7
  0
ATTDEF
  5
8CA
330
85B
100
AcDbEntity
  8
0
 62
     0
 48
35.0
100
AcDbText
 10
72.50000000000032
 20
-65.74999999999994
 30
0.0
 40
2.5
  1

  7
Stile_Cart
 72
     1
 11
72.50000000000032
 21
-64.49999999999994
 31
0.0
100
AcDbAttributeDefinition
  3

  2
DATA_REV
 70
     4
 74
     2
1001
TOP
1070
     7
  0
ATTDEF
  5
8CB
330
85B
100
AcDbEntity
  8
0
 62
     0
 48
35.0
100
AcDbText
 10
89.96023144605638
 20
-65.49999999999994
 30
0.0
 40
2.0
  1

 41
0.8
  7
Stile_Cart
 72
     1
 11
89.96023144605638
 21
-64.49999999999994
 31
0.0
100
AcDbAttributeDefinition
  3

  2
DISEGN_REV
 70
     4
 74
     2
1001
TOP
1070
     7
  0
TEXT
  5
8CC
330
85B
100
AcDbEntity
  8
P-0000
  6
Continuous
 62
     0
 48
35.0
100
AcDbText
 10
-46.28135167661025
 20
-113.3527525052883
 30
0.0
 40
1.846799999999999
  1
Sedi operative: Fiorano Circ.le S. Giovanni Ev.,23   41042 Spezzano (MO)
  7
STYLE1
100
AcDbText
1001
TOP
1070
     7
  0
TEXT
  5
8CD
330
85B
100
AcDbEntity
  8
P-0000
  6
Continuous
 62
     0
 48
35.0
100
AcDbText
 10
-6.340918626483258
 20
-117.0692022869476
 30
0.0
 40
1.846799999999999
  1
Tel. 0536 921322  Fax 0536 921218
  7
STYLE1
100
AcDbText
1001
TOP
1070
     7
  0
TEXT
  5
8CE
330
85B
100
AcDbEntity
  8
P-0000
  6
Continuous
 62
     0
 48
35.0
100
AcDbText
 10
-29.75490795040492
 20
-120.7856520686069
 30
0.0
 40
1.846799999999999
  1
Bologna Via Del Selciatore, 12   40127 (BO) 
  7
STYLE1
100
AcDbText
1001
TOP
1070
     7
  0
TEXT
  5
8CF
330
85B
100
AcDbEntity
  8
P-0000
  6
Continuous
 62
     0
 48
35.0
100
AcDbText
 10
-3.770224758554846
 20
-124.5021018502664
 30
0.0
 40
1.846799999999999
  1
Tel. 051 535318  Fax 051 531297
  7
STYLE1
100
AcDbText
1001
TOP
1070
     7
  0
TEXT
  5
8D0
330
85B
100
AcDbEntity
  8
P-0000
  6
Continuous
 62
     0
 48
35.0
100
AcDbText
 10
-29.75453034516
 20
-128.1147363829751
 30
0.0
 40
1.5
  1
www.dierremacap.com . tecnico@dierreprotezioni.com  
  7
STYLE1
100
AcDbText
1001
TOP
1070
     7
  0
ARC
  5
8D1
330
85B
100
AcDbEntity
  8
P-0000
  6
Continuous
 62
     0
370
     0
100
AcDbCircle
 10
-87.55587540093328
 20
-119.8343908033039
 30
0.0
 40
7.264056604142308
100
AcDbArc
 50
54.62314853322836
 51
125.3768514667716
1001
TOP
1070
    85
  0
ARC
  5
8D2
330
85B
100
AcDbEntity
  8
P-0000
  6
Continuous
 62
     0
370
     0
100
AcDbCircle
 10
-88.37772146816295
 20
-119.8661633216503
 30
0.0
 40
7.793069759999999
100
AcDbArc
 50
49.82610094250764
 51
223.428751725223
1001
TOP
1070
    85
  0
ARC
  5
8D3
330
85B
100
AcDbEntity
  8
P-0000
  6
Continuous
 62
     0
370
     0
100
AcDbCircle
 10
-87.77383862674813
 20
-119.1102130429075
 30
0.0
 40
4.056769053873
100
AcDbArc
 50
51.09712919102834
 51
223.6094645412326
1001
TOP
1070
    85
  0
ARC
  5
8D4
330
85B
100
AcDbEntity
  8
P-0000
  6
Continuous
 62
     0
370
     0
100
AcDbCircle
 10
-88.42266163376624
 20
-119.4851385567151
 30
0.0
 40
4.763630338834137
100
AcDbArc
 50
47.85430720588668
 51
226.8522865263435
1001
TOP
1070
    85
  0
ARC
  5
8D5
330
85B
100
AcDbEntity
  8
P-0000
  6
Continuous
 62
     0
370
     0
100
AcDbCircle
 10
-88.82997178899747
 20
-120.0817487520743
 30
0.0
 40
4.056769053873
100
AcDbArc
 50
231.0971291910283
 51
43.60946454123257
1001
TOP
1070
    85
  0
ARC
  5
8D6
330
85B
100
AcDbEntity
  8
P-0000
  6
Continuous
 62
     0
370
     0
100
AcDbCircle
 10
-88.18114878197755
 20
-119.7068232382669
 30
0.0
 40
4.763630338834137
100
AcDbArc
 50
227.8543072058867
 51
46.85228652634355
1001
TOP
1070
    85
  0
ARC
  5
8D7
330
85B
100
AcDbEntity
  8
P-0000
  6
Continuous
 62
     0
370
     0
100
AcDbCircle
 10
-88.37772146816295
 20
-119.8661633216503
 30
0.0
 40
7.793069759999999
100
AcDbArc
 50
230.1466606584018
 51
45.36258570986113
1001
TOP
1070
    85
  0
ARC
  5
8D8
330
85B
100
AcDbEntity
  8
P-0000
  6
Continuous
 62
     0
370
     0
100
AcDbCircle
 10
-89.52593793590565
 20
-119.7374591014475
 30
0.0
 40
7.220700683144739
100
AcDbArc
 50
237.8184274609863
 51
321.1976420062348
1001
TOP
1070
    85
  0
ARC
  5
8D9
330
85B
100
AcDbEntity
  8
P-0000
  6
Continuous
 62
     0
370
     0
100
AcDbCircle
 10
-88.50216480330599
 20
-119.1656258049447
 30
0.0
 40
5.663278842528495
100
AcDbArc
 50
171.3036725542784
 51
228.0269063594487
1001
TOP
1070
    85
  0
LINE
  5
8DA
330
85B
100
AcDbEntity
  8
P-0000
  6
Continuous
 62
     0
370
     0
100
AcDbLine
 10
-92.28966119657778
 20
-123.3760412617837
 30
0.0
 11
-94.03728088778988
 21
-125.2235249353502
 31
0.0
1001
TOP
1070
    85
  0
LINE
  5
8DB
330
85B
100
AcDbEntity
  8
P-0000
  6
Continuous
 62
     0
370
     0
100
AcDbLine
 10
-90.71117445104736
 20
-121.9083255159412
 30
0.0
 11
-91.68042069830406
 21
-122.9606500129607
 31
0.0
1001
TOP
1070
    85
  0
ARC
  5
8DC
330
85B
100
AcDbEntity
  8
P-0000
  6
Continuous
 62
     0
370
     0
100
AcDbCircle
 10
-88.54309328048001
 20
-118.4440510223681
 30
0.0
 40
5.558875133404746
100
AcDbArc
 50
125.3768514667716
 51
178.611514748478
1001
TOP
1070
    85
  0
LINE
  5
8DD
330
85B
100
AcDbEntity
  8
P-0000
  6
Continuous
 62
     0
370
     0
100
AcDbLine
 10
-53.65438013237113
 20
-115.6426918998433
 30
0.0
 11
-52.51302380375555
 21
-115.6426918998433
 31
0.0
1001
TOP
1070
     7
  0
ARC
  5
8DE
330
85B
100
AcDbEntity
  8
P-0000
  6
Continuous
 62
     0
370
     0
100
AcDbCircle
 10
-54.83784997234598
 20
-114.9033114623533
 30
0.0
 40
2.439569664000001
100
AcDbArc
 50
354.0835439993975
 51
342.3574175336751
1001
TOP
1070
     7
  0
LINE
  5
8DF
330
85B
100
AcDbEntity
  8
P-0000
  6
Continuous
 62
     0
370
     0
100
AcDbLine
 10
-56.253151669302
 20
-115.1547779670433
 30
0.0
 11
-52.39829186638807
 21
-115.1547779670433
 31
0.0
1001
TOP
1070
     7
  0
ARC
  5
8E0
330
85B
100
AcDbEntity
  8
P-0000
  6
Continuous
 62
     0
370
     0
100
AcDbCircle
 10
-67.13328107890589
 20
-114.9033114623533
 30
0.0
 40
2.439569664000001
100
AcDbArc
 50
354.0835439993975
 51
342.3574175336751
1001
TOP
1070
     7
  0
LINE
  5
8E1
330
85B
100
AcDbEntity
  8
P-0000
  6
Continuous
 62
     0
370
     0
100
AcDbLine
 10
-77.50234959180421
 20
-117.3428811263534
 30
0.0
 11
-74.57486599500507
 21
-117.3428811263534
 31
0.0
1001
TOP
1070
     7
  0
LINE
  5
8E2
330
85B
100
AcDbEntity
  8
P-0000
  6
Continuous
 62
     0
370
     0
100
AcDbLine
 10
-74.57486599500507
 20
-110.9999999999532
 30
0.0
 11
-77.50234959180421
 21
-110.9999999999532
 31
0.0
1001
TOP
1070
     7
  0
LINE
  5
8E3
330
85B
100
AcDbEntity
  8
P-0000
  6
Continuous
 62
     0
370
     0
100
AcDbLine
 10
-82.90217148550416
 20
-114.320869039862
 30
0.0
 11
-84.48030571869711
 21
-115.9543842828061
 31
0.0
1001
TOP
1070
    85
  0
ARC
  5
8E4
330
85B
100
AcDbEntity
  8
P-0000
  6
Continuous
 62
     0
370
     0
100
AcDbCircle
 10
-89.02722975211579
 20
-120.4469356245718
 30
0.0
 40
6.391989965892938
100
AcDbArc
 50
323.352977406186
 51
44.65536847523573
1001
TOP
1070
    85
  0
LINE
  5
8E5
330
85B
100
AcDbEntity
  8
P-0000
  6
Continuous
 62
     0
370
     0
100
AcDbLine
 10
-85.89263596469553
 20
-117.283636279041
 30
0.0
 11
-84.92338971744155
 21
-116.2313117820216
 31
0.0
1001
TOP
1070
    85
  0
LINE
  5
8E6
330
85B
100
AcDbEntity
  8
P-0000
  6
Continuous
 62
     0
370
     0
100
AcDbLine
 10
-77.50234959180421
 20
-110.9999999999532
 30
0.0
 11
-77.50234959180421
 21
-117.3428811263534
 31
0.0
1001
TOP
1070
     7
  0
ARC
  5
8E7
330
85B
100
AcDbEntity
  8
P-0000
  6
Continuous
 62
     0
370
     0
100
AcDbCircle
 10
-74.81882296140435
 20
-113.6835266303536
 30
0.0
 40
1.5857202816
100
AcDbArc
 50
0.0
 51
90.0
1001
TOP
1070
     7
  0
ARC
  5
8E8
330
85B
100
AcDbEntity
  8
P-0000
  6
Continuous
 62
     0
370
     0
100
AcDbCircle
 10
-74.81882296140435
 20
-114.6593544959532
 30
0.0
 40
1.5857202816
100
AcDbArc
 50
270.0
 51
0.0
1001
TOP
1070
     7
  0
ARC
  5
8E9
330
85B
100
AcDbEntity
  8
P-0000
  6
Continuous
 62
     0
370
     0
100
AcDbCircle
 10
-74.57486599500507
 20
-114.9033114623533
 30
0.0
 40
2.439569663999999
100
AcDbArc
 50
270.0
 51
0.0
1001
TOP
1070
     7
  0
ARC
  5
8EA
330
85B
100
AcDbEntity
  8
P-0000
  6
Continuous
 62
     0
370
     0
100
AcDbCircle
 10
-74.57486599500507
 20
-113.4395696639535
 30
0.0
 40
2.439569663999999
100
AcDbArc
 50
0.0
 51
90.0
1001
TOP
1070
     7
  0
LINE
  5
8EB
330
85B
100
AcDbEntity
  8
P-0000
  6
Continuous
 62
     0
370
     0
100
AcDbLine
 10
-76.40454324300486
 20
-112.0978063487534
 30
0.0
 11
-76.40454324300486
 21
-116.2450747775533
 31
0.0
1001
TOP
1070
     7
  0
LINE
  5
8EC
330
85B
100
AcDbEntity
  8
P-0000
  6
Continuous
 62
     0
370
     0
100
AcDbLine
 10
-76.40454324300486
 20
-116.2450747775533
 30
0.0
 11
-74.81882296140435
 21
-116.2450747775533
 31
0.0
1001
TOP
1070
     7
  0
LINE
  5
8ED
330
85B
100
AcDbEntity
  8
P-0000
  6
Continuous
 62
     0
370
     0
100
AcDbLine
 10
-74.81882296140435
 20
-112.0978063487534
 30
0.0
 11
-76.40454324300486
 21
-112.0978063487534
 31
0.0
1001
TOP
1070
     7
  0
LINE
  5
8EE
330
85B
100
AcDbEntity
  8
P-0000
  6
Continuous
 62
     0
370
     0
100
AcDbLine
 10
-70.30472164210562
 20
-117.3428811263534
 30
0.0
 11
-70.30472164210562
 21
-112.4637417983535
 31
0.0
1001
TOP
1070
     7
  0
LINE
  5
8EF
330
85B
100
AcDbEntity
  8
P-0000
  6
Continuous
 62
     0
370
     0
100
AcDbLine
 10
-71.4025279909076
 20
-112.4637417983535
 30
0.0
 11
-71.4025279909076
 21
-117.3428811263534
 31
0.0
1001
TOP
1070
     7
  0
LINE
  5
8F0
330
85B
100
AcDbEntity
  8
P-0000
  6
Continuous
 62
     0
370
     0
100
AcDbLine
 10
-71.4025279909076
 20
-117.3428811263534
 30
0.0
 11
-70.30472164210562
 21
-117.3428811263534
 31
0.0
1001
TOP
1070
     7
  0
LINE
  5
8F1
330
85B
100
AcDbEntity
  8
P-0000
  6
Continuous
 62
     0
370
     0
100
AcDbLine
 10
-71.4025279909076
 20
-111.9758278655534
 30
0.0
 11
-70.30472164210562
 21
-111.9758278655534
 31
0.0
1001
TOP
1070
     7
  0
LINE
  5
8F2
330
85B
100
AcDbEntity
  8
P-0000
  6
Continuous
 62
     0
370
     0
100
AcDbLine
 10
-70.30472164210562
 20
-110.9999999999532
 30
0.0
 11
-71.4025279909076
 21
-110.9999999999532
 31
0.0
1001
TOP
1070
     7
  0
HATCH
  5
8F3
330
85B
100
AcDbEntity
  8
P-0000
  6
Continuous
 62
     0
100
AcDbHatch
 10
0.0
 20
0.0
 30
0.0
210
0.0
220
0.0
230
1.0
  2
SOLID
 70
     1
 71
     0
 91
        1
 92
        1
 93
        4
 72
     1
 10
-70.30472164210627
 20
-110.9999999999534
 11
-71.40252799090693
 21
-110.9999999999534
 72
     1
 10
-71.40252799090564
 20
-110.9999999999534
 11
-71.40252799090564
 21
-111.9758278655534
 72
     1
 10
-71.40252799090564
 20
-111.9758278655535
 11
-70.30472164210498
 21
-111.9758278655535
 72
     1
 10
-70.30472164210627
 20
-111.9758278655535
 11
-70.30472164210627
 21
-110.9999999999535
 97
        0
 75
     0
 76
     1
 98
        1
 10
-136.4839087803873
 20
-204.8924935638848
1001
TOP
1070
     3
  0
LINE
  5
8F4
330
85B
100
AcDbEntity
  8
P-0000
  6
Continuous
 62
     0
370
     0
100
AcDbLine
 10
-70.30472164210562
 20
-112.4637417983535
 30
0.0
 11
-71.4025279909076
 21
-112.4637417983535
 31
0.0
1001
TOP
1070
     7
  0
LINE
  5
8F5
330
85B
100
AcDbEntity
  8
P-0000
  6
Continuous
 62
     0
370
     0
100
AcDbLine
 10
-73.23310267980318
 20
-114.6593544959532
 30
0.0
 11
-73.23310267980318
 21
-113.6835266303536
 31
0.0
1001
TOP
1070
     7
  0
LINE
  5
8F6
330
85B
100
AcDbEntity
  8
P-0000
  6
Continuous
 62
     0
370
     0
100
AcDbLine
 10
-72.13529633100447
 20
-114.9033114623533
 30
0.0
 11
-72.13529633100447
 21
-113.4395696639535
 31
0.0
1001
TOP
1070
     7
  0
LINE
  5
8F7
330
85B
100
AcDbEntity
  8
P-0000
  6
Continuous
 62
     0
370
     0
100
AcDbLine
 10
-71.4025279909076
 20
-110.9999999999532
 30
0.0
 11
-71.4025279909076
 21
-111.9758278655534
 31
0.0
1001
TOP
1070
     7
  0
LINE
  5
8F8
330
85B
100
AcDbEntity
  8
P-0000
  6
Continuous
 62
     0
370
     0
100
AcDbLine
 10
-70.30472164210562
 20
-111.9758278655534
 30
0.0
 11
-70.30472164210562
 21
-110.9999999999532
 31
0.0
1001
TOP
1070
     7
  0
LINE
  5
8F9
330
85B
100
AcDbEntity
  8
P-0000
  6
Continuous
 62
     0
370
     0
100
AcDbLine
 10
-61.67972155649409
 20
-112.4637417983535
 30
0.0
 11
-61.22362894667041
 21
-112.4637417983535
 31
0.0
1001
TOP
1070
     7
  0
ARC
  5
8FA
330
85B
100
AcDbEntity
  8
P-0000
  6
Continuous
 62
     0
370
     0
100
AcDbCircle
 10
-61.22455238416592
 20
-115.7450893416161
 30
0.0
 40
2.30551986259622
100
AcDbArc
 50
89.97705113130741
 51
144.7782320142388
1001
TOP
1070
     7
  0
LINE
  5
8FB
330
85B
100
AcDbEntity
  8
P-0000
  6
Continuous
 62
     0
370
     0
100
AcDbLine
 10
-65.94981123893105
 20
-115.6426918998433
 30
0.0
 11
-64.80845491031482
 21
-115.6426918998433
 31
0.0
1001
TOP
1070
     7
  0
LINE
  5
8FC
330
85B
100
AcDbEntity
  8
P-0000
  6
Continuous
 62
     0
370
     0
100
AcDbLine
 10
-68.54858277585996
 20
-115.1547779670433
 30
0.0
 11
-64.69372297294865
 21
-115.1547779670433
 31
0.0
1001
TOP
1070
     7
  0
ARC
  5
8FD
330
85B
100
AcDbEntity
  8
P-0000
  6
Continuous
 62
     0
370
     0
100
AcDbCircle
 10
-67.13328107890589
 20
-114.7813329791535
 30
0.0
 40
1.463741798400002
100
AcDbArc
 50
194.7813103722914
 51
323.9519363800095
1001
TOP
1070
     7
  0
ARC
  5
8FE
330
85B
100
AcDbEntity
  8
P-0000
  6
Continuous
 62
     0
370
     0
100
AcDbCircle
 10
-67.13315394981435
 20
-114.7246775057507
 30
0.0
 40
1.309503544180366
100
AcDbArc
 50
23.46032899247153
 51
156.5396710075285
1001
TOP
1070
     7
  0
LINE
  5
8FF
330
85B
100
AcDbEntity
  8
P-0000
  6
Continuous
 62
     0
370
     0
100
AcDbLine
 10
-68.33440862006644
 20
-114.2033457980831
 30
0.0
 11
-65.93189927956226
 21
-114.2033457980831
 31
0.0
1001
TOP
1070
     7
  0
LINE
  5
900
330
85B
100
AcDbEntity
  8
P-0000
  6
Continuous
 62
     0
370
     0
100
AcDbLine
 10
-63.1079911333061
 20
-117.3428811263534
 30
0.0
 11
-63.1079911333061
 21
-114.4153975295534
 31
0.0
1001
TOP
1070
     7
  0
LINE
  5
901
330
85B
100
AcDbEntity
  8
P-0000
  6
Continuous
 62
     0
370
     0
100
AcDbLine
 10
-64.2057974821061
 20
-112.4637417983535
 30
0.0
 11
-64.2057974821061
 21
-117.3428811263534
 31
0.0
1001
TOP
1070
     7
  0
LINE
  5
902
330
85B
100
AcDbEntity
  8
P-0000
  6
Continuous
 62
     0
370
     0
100
AcDbLine
 10
-64.2057974821061
 20
-117.3428811263534
 30
0.0
 11
-63.1079911333061
 21
-117.3428811263534
 31
0.0
1001
TOP
1070
     7
  0
LINE
  5
903
330
85B
100
AcDbEntity
  8
P-0000
  6
Continuous
 62
     0
370
     0
100
AcDbLine
 10
-63.1079911333061
 20
-112.4637417983535
 30
0.0
 11
-64.2057974821061
 21
-112.4637417983535
 31
0.0
1001
TOP
1070
     7
  0
ARC
  5
904
330
85B
100
AcDbEntity
  8
P-0000
  6
Continuous
 62
     0
370
     0
100
AcDbCircle
 10
-61.5678898700862
 20
-114.1605808182826
 30
0.0
 40
1.700520210299701
100
AcDbArc
 50
93.77067625261986
 51
154.9129671807329
1001
TOP
1070
     7
  0
LINE
  5
905
330
85B
100
AcDbEntity
  8
P-0000
  6
Continuous
 62
     0
370
     0
100
AcDbLine
 10
-63.1079911333061
 20
-113.4395696639535
 30
0.0
 11
-63.1079911333061
 21
-112.4637417983535
 31
0.0
1001
TOP
1070
     7
  0
LINE
  5
906
330
85B
100
AcDbEntity
  8
P-0000
  6
Continuous
 62
     0
370
     0
100
AcDbLine
 10
-63.1079911333061
 20
-112.4637417983535
 30
0.0
 11
-63.1079911333061
 21
-113.4395696639535
 31
0.0
1001
TOP
1070
     7
  0
LINE
  5
907
330
85B
100
AcDbEntity
  8
P-0000
  6
Continuous
 62
     0
370
     0
100
AcDbLine
 10
-59.39496610469735
 20
-117.3428811263534
 30
0.0
 11
-59.39496610469735
 21
-114.4153975295534
 31
0.0
1001
TOP
1070
     7
  0
LINE
  5
908
330
85B
100
AcDbEntity
  8
P-0000
  6
Continuous
 62
     0
370
     0
100
AcDbLine
 10
-60.49277245349801
 20
-112.4637417983535
 30
0.0
 11
-60.49277245349801
 21
-117.3428811263534
 31
0.0
1001
TOP
1070
     7
  0
LINE
  5
909
330
85B
100
AcDbEntity
  8
P-0000
  6
Continuous
 62
     0
370
     0
100
AcDbLine
 10
-60.49277245349801
 20
-117.3428811263534
 30
0.0
 11
-59.39496610469735
 21
-117.3428811263534
 31
0.0
1001
TOP
1070
     7
  0
ARC
  5
90A
330
85B
100
AcDbEntity
  8
P-0000
  6
Continuous
 62
     0
370
     0
100
AcDbCircle
 10
-57.8548648414781
 20
-114.1605808182826
 30
0.0
 40
1.700520210299701
100
AcDbArc
 50
93.77067625261986
 51
154.9129671807329
1001
TOP
1070
     7
  0
ARC
  5
90B
330
85B
100
AcDbEntity
  8
P-0000
  6
Continuous
 62
     0
370
     0
100
AcDbCircle
 10
-57.51152735555913
 20
-115.7450893416161
 30
0.0
 40
2.30551986259622
100
AcDbArc
 50
89.97705113130741
 51
144.7782320142388
1001
TOP
1070
     7
  0
LINE
  5
90C
330
85B
100
AcDbEntity
  8
P-0000
  6
Continuous
 62
     0
370
     0
100
AcDbLine
 10
-59.39496610469735
 20
-113.4395696639535
 30
0.0
 11
-59.39496610469735
 21
-112.4637417983535
 31
0.0
1001
TOP
1070
     7
  0
LINE
  5
90D
330
85B
100
AcDbEntity
  8
P-0000
  6
Continuous
 62
     0
370
     0
100
AcDbLine
 10
-61.22362894667041
 20
-113.4395696639535
 30
0.0
 11
-61.22362894667041
 21
-112.4637417983535
 31
0.0
1001
TOP
1070
     7
  0
LINE
  5
90E
330
85B
100
AcDbEntity
  8
P-0000
  6
Continuous
 62
     0
370
     0
100
AcDbLine
 10
-59.39496610469735
 20
-112.4637417983535
 30
0.0
 11
-59.39496610469735
 21
-113.4395696639535
 31
0.0
1001
TOP
1070
     7
  0
LINE
  5
90F
330
85B
100
AcDbEntity
  8
P-0000
  6
Continuous
 62
     0
370
     0
100
AcDbLine
 10
-59.39496610469735
 20
-112.4637417983535
 30
0.0
 11
-60.49277245349801
 21
-112.4637417983535
 31
0.0
1001
TOP
1070
     7
  0
LINE
  5
910
330
85B
100
AcDbEntity
  8
P-0000
  6
Continuous
 62
     0
370
     0
100
AcDbLine
 10
-57.5106039180623
 20
-113.4395696639535
 30
0.0
 11
-57.5106039180623
 21
-112.4637417983535
 31
0.0
1001
TOP
1070
     7
  0
LINE
  5
911
330
85B
100
AcDbEntity
  8
P-0000
  6
Continuous
 62
     0
370
     0
100
AcDbLine
 10
-57.96669652788599
 20
-112.4637417983535
 30
0.0
 11
-57.5106039180623
 21
-112.4637417983535
 31
0.0
1001
TOP
1070
     7
  0
ARC
  5
912
330
85B
100
AcDbEntity
  8
P-0000
  6
Continuous
 62
     0
370
     0
100
AcDbCircle
 10
-54.83784997234598
 20
-114.7813329791535
 30
0.0
 40
1.463741798400002
100
AcDbArc
 50
194.7813103722914
 51
323.9519363800095
1001
TOP
1070
     7
  0
ARC
  5
913
330
85B
100
AcDbEntity
  8
P-0000
  6
Continuous
 62
     0
370
     0
100
AcDbCircle
 10
-54.83772284325443
 20
-114.7246775057507
 30
0.0
 40
1.309503544180366
100
AcDbArc
 50
23.46032899247153
 51
156.5396710075285
1001
TOP
1070
     7
  0
LINE
  5
914
330
85B
100
AcDbEntity
  8
P-0000
  6
Continuous
 62
     0
370
     0
100
AcDbLine
 10
-56.03897751350586
 20
-114.2033457980831
 30
0.0
 11
-53.63646817300168
 21
-114.2033457980831
 31
0.0
1001
TOP
1070
     7
  0
HATCH
  5
915
330
85B
100
AcDbEntity
  8
P-0000
  6
Continuous
 62
     0
 48
35.0
100
AcDbHatch
 10
0.0
 20
0.0
 30
0.0
210
0.0
220
0.0
230
1.0
  2
SOLID
 70
     1
 71
     0
 91
        4
 92
        7
 72
     1
 73
     1
 93
        5
 10
-94.03728088778988
 20
-125.2235249353502
 42
0.0
 10
-92.28966119657778
 20
-123.3760412617837
 42
-0.2526825286644691
 10
-94.10033621549056
 20
-118.3093524326913
 42
-0.2365496875282557
 10
-91.7614140375581
 20
-113.911556758355
 42
-0.3189181398811662
 10
-83.35033676430748
 20
-113.9115567583528
 42
0.9456749006874259
 97
        0
 92
       23
 72
     1
 73
     1
 93
        3
 10
-91.68042069830406
 20
-122.9606500129607
 42
0.0
 10
-90.71117445104736
 20
-121.9083255159412
 42
-0.9367032511192487
 10
-85.2261793413445
 20
-115.9531879682591
 42
0.991293729556146
 97
        0
 92
       23
 72
     1
 73
     1
 93
        3
 10
-91.37763107440111
 20
-123.2387738267226
 42
0.9912937295513184
 10
-84.92338971744155
 20
-116.2313117820216
 42
0.0
 10
-85.89263596469553
 20
-117.283636279041
 42
-0.9367032511219315
 97
        0
 92
        7
 72
     1
 73
     1
 93
        4
 10
-83.89875797035076
 20
-124.2622092592821
 42
-0.3807594385329842
 10
-93.37171269560638
 20
-125.8488038677993
 42
0.9590989174885454
 10
-82.90217148550416
 20
-114.320869039862
 42
0.0
 10
-84.48030571869711
 20
-115.9543842828061
 42
-0.3704192144445529
 97
        0
 75
     0
 76
     1
 47
0.0537802133905057
 98
        4
 10
-95.28899908413293
 20
-117.9121948253558
 10
-92.51811574438377
 20
-119.1148667670212
 10
-84.53359595731015
 20
-120.3175387086872
 10
-82.20022029262763
 20
-118.4953086011877
1001
TOP
1070
     3
  0
HATCH
  5
916
330
85B
100
AcDbEntity
  8
P-0000
  6
Continuous
 62
     0
 48
35.0
100
AcDbHatch
 10
0.0
 20
0.0
 30
0.0
210
0.0
220
0.0
230
1.0
  2
SOLID
 70
     1
 71
     0
 91
        9
 92
        7
 72
     1
 73
     1
 93
        6
 10
-74.57486599500573
 20
-110.9999999999531
 42
0.0
 10
-77.50234959180421
 20
-110.9999999999531
 42
0.0
 10
-77.50234959180485
 20
-117.3428811263533
 42
0.0
 10
-74.57486599500573
 20
-117.3428811263533
 42
0.4142135623732426
 10
-72.13529633100447
 20
-114.9033114623533
 42
0.0
 10
-72.13529633100447
 20
-113.4395696639534
 42
0.4142135623732917
 97
        0
 92
       22
 72
     1
 73
     1
 93
        6
 10
-76.40454324300486
 20
-112.0978063487534
 42
0.0
 10
-74.81882296140435
 20
-112.0978063487534
 42
-0.4142135623733217
 10
-73.23310267980318
 20
-113.6835266303533
 42
0.0
 10
-73.23310267980318
 20
-114.6593544959533
 42
-0.4142135623732008
 10
-74.81882296140369
 20
-116.2450747775532
 42
0.0
 10
-76.40454324300486
 20
-116.2450747775532
 42
0.0
 97
        0
 92
        7
 72
     0
 73
     1
 93
        4
 10
-71.40252799090825
 20
-117.3428811263533
 10
-70.30472164210562
 20
-117.3428811263534
 10
-70.30472164210562
 20
-112.4637417983535
 10
-71.4025279909076
 20
-112.4637417983534
 97
        0
 92
        7
 72
     1
 73
     1
 93
        4
 10
-68.5485827758606
 20
-115.1547779670432
 42
0.0
 10
-64.70670638553077
 20
-115.1547779670432
 42
19.52759892169242
 10
-64.80845491031548
 20
-115.6426918998433
 42
0.0
 10
-65.94981123892972
 20
-115.6426918998433
 42
-0.6319943824460191
 97
        0
 92
       22
 72
     1
 73
     1
 93
        2
 10
-68.33440862006513
 20
-114.2033457980811
 42
-0.6561238478654379
 10
-65.93189927956356
 20
-114.2033457980831
 42
0.0
 97
        0
 92
        7
 72
     1
 73
     1
 93
        9
 10
-63.1079911333061
 20
-114.4153975295551
 42
-0.2437791817823871
 10
-61.22362894667041
 20
-113.4395696639536
 42
0.0
 10
-61.22362894667041
 20
-112.4637417983535
 42
0.0
 10
-61.6797215564895
 20
-112.4637417983534
 42
0.2732984134248683
 10
-63.1079911333061
 20
-113.4395696639525
 42
0.0
 10
-63.1079911333061
 20
-112.4637417983534
 42
0.0
 10
-64.20579748210546
 20
-112.4637417983534
 42
0.0
 10
-64.2057974821061
 20
-117.3428811263532
 42
0.0
 10
-63.10799113330676
 20
-117.3428811263532
 42
0.0
 97
        0
 92
        7
 72
     1
 73
     1
 93
        9
 10
-60.49277245349736
 20
-117.3428811263533
 42
0.0
 10
-59.3949661046967
 20
-117.3428811263534
 42
0.0
 10
-59.39496610469735
 20
-114.4153975295523
 42
-0.2437791817821463
 10
-57.5106039180623
 20
-113.4395696639536
 42
0.0
 10
-57.5106039180623
 20
-112.4637417983535
 42
0.0
 10
-57.9666965278814
 20
-112.4637417983534
 42
0.2732984134246251
 10
-59.39496610469735
 20
-113.4395696639511
 42
0.0
 10
-59.39496610469735
 20
-112.4637417983534
 42
0.0
 10
-60.49277245349801
 20
-112.4637417983535
 42
0.0
 97
        0
 92
        7
 72
     1
 73
     1
 93
        4
 10
-52.41127527897084
 20
-115.1547779670432
 42
19.52759892169242
 10
-52.51302380375555
 20
-115.6426918998433
 42
0.0
 10
-53.65438013237048
 20
-115.6426918998433
 42
-0.631994382445661
 10
-56.25315166930069
 20
-115.1547779670432
 42
0.0
 97
        0
 92
       22
 72
     1
 73
     1
 93
        2
 10
-56.03897751350586
 20
-114.2033457980832
 42
-0.6561238478663365
 10
-53.63646817300299
 20
-114.2033457980831
 42
0.0
 97
        0
 75
     0
 76
     1
 47
0.1054092179442032
 98
        9
 10
-77.30509361450609
 20
-111.652214293695
 10
-77.30509361450609
 20
-111.652214293695
 10
-70.92517770860029
 20
-114.0180230722183
 10
-68.97004263540313
 20
-114.9952049659171
 10
-68.97004263540313
 20
-114.9952049659171
 10
-63.41334181494616
 20
-115.2523580455926
 10
-60.12048197631124
 20
-115.1494968773671
 10
-55.90150541812637
 20
-114.429468063343
 10
-55.90150541812637
 20
-114.429468063343
1001
TOP
1070
     5
  0
MTEXT
  5
917
330
85B
100
AcDbEntity
  8
P-0000
  6
Continuous
 62
     0
100
AcDbMText
 10
-77.50752909622914
 20
-125.390962447158
 30
0.0
 40
1.5
 41
15.89275572328779
 71
     1
 72
     5
  1
{\f@Arial Unicode MS|b0|i0|c0|p34;\H2x;Group\H0.5x; srl}
  7
ROMANS
 73
     1
 44
1.0
1001
TOP
1070
     7
1001
ACAD
1000
MTEXTBEGIN
1070
    73
1070
     1
1070
    44
1040
1.0
1070
    74
1070
     0
1000
MTEXTEND
  0
LINE
  5
918
330
85B
100
AcDbEntity
  8
P-0000
  6
Continuous
 62
     0
100
AcDbLine
 10
-60.31400746853627
 20
-118.6190131723036
 30
0.0
 11
-65.10163245619105
 21
-118.6190131723036
 31
0.0
1001
TOP
1070
     7
  0
LINE
  5
919
330
85B
100
AcDbEntity
  8
P-0000
  6
Continuous
 62
     0
100
AcDbLine
 10
-65.10163245619105
 20
-118.6190131723036
 30
0.0
 11
-60.31400746853627
 21
-118.6190131723036
 31
0.0
1001
TOP
1070
     7
  0
LINE
  5
91A
330
85B
100
AcDbEntity
  8
P-0000
  6
Continuous
 62
     0
100
AcDbLine
 10
-60.60899754084211
 20
-122.4817401737899
 30
0.0
 11
-59.78513540320495
 21
-121.2719230596353
 31
0.0
1001
TOP
1070
     7
  0
LINE
  5
91B
330
85B
100
AcDbEntity
  8
P-0000
  6
Continuous
 62
     0
100
AcDbLine
 10
-60.60899754084211
 20
-122.4817401737899
 30
0.0
 11
-59.78513540320495
 21
-121.2719230596353
 31
0.0
1001
TOP
1070
     7
  0
LINE
  5
91C
330
85B
100
AcDbEntity
  8
P-0000
  6
Continuous
 62
     0
100
AcDbLine
 10
-60.60899754084211
 20
-122.4817401737899
 30
0.0
 11
-58.9612732655678
 21
-122.4817401737899
 31
0.0
1001
TOP
1070
     7
  0
LINE
  5
91D
330
85B
100
AcDbEntity
  8
P-0000
  6
Continuous
 62
     0
100
AcDbLine
 10
-58.9612732655678
 20
-122.4817401737899
 30
0.0
 11
-60.60899754084211
 21
-122.4817401737899
 31
0.0
1001
TOP
1070
     7
  0
LINE
  5
91E
330
85B
100
AcDbEntity
  8
P-0000
  6
Continuous
 62
     0
100
AcDbLine
 10
-63.4872398605242
 20
-124.055443766988
 30
0.0
 11
-56.08303094588571
 21
-124.055443766988
 31
0.0
1001
TOP
1070
     7
  0
LINE
  5
91F
330
85B
100
AcDbEntity
  8
P-0000
  6
Continuous
 62
     0
100
AcDbLine
 10
-63.4872398605242
 20
-124.055443766988
 30
0.0
 11
-56.08303094588571
 21
-124.055443766988
 31
0.0
1001
TOP
1070
     7
  0
LINE
  5
920
330
85B
100
AcDbEntity
  8
P-0000
  6
Continuous
 62
     0
100
AcDbLine
 10
-61.88263947056615
 20
-120.9225027431548
 30
0.0
 11
-60.31400746853627
 21
-118.6190131723036
 31
0.0
1001
TOP
1070
     7
  0
LINE
  5
921
330
85B
100
AcDbEntity
  8
P-0000
  6
Continuous
 62
     0
100
AcDbLine
 10
-61.88263947056615
 20
-120.9225027431548
 30
0.0
 11
-60.31400746853627
 21
-118.6190131723036
 31
0.0
1001
TOP
1070
     7
  0
LINE
  5
922
330
85B
100
AcDbEntity
  8
P-0000
  6
Continuous
 62
     0
100
AcDbLine
 10
-63.4872398605242
 20
-124.055443766988
 30
0.0
 11
-59.78513540320495
 21
-118.6190131723036
 31
0.0
1001
TOP
1070
     7
  0
LINE
  5
923
330
85B
100
AcDbEntity
  8
P-0000
  6
Continuous
 62
     0
100
AcDbLine
 10
-59.78513540320495
 20
-118.6190131723036
 30
0.0
 11
-63.4872398605242
 21
-124.055443766988
 31
0.0
1001
TOP
1070
     7
  0
LINE
  5
924
330
85B
100
AcDbEntity
  8
P-0000
  6
Continuous
 62
     0
100
AcDbLine
 10
-72.47806497115667
 20
-118.6190131723036
 30
0.0
 11
-68.77596051383742
 21
-118.6190131723036
 31
0.0
1001
TOP
1070
     7
  0
LINE
  5
925
330
85B
100
AcDbEntity
  8
P-0000
  6
Continuous
 62
     0
100
AcDbLine
 10
-72.47806497115667
 20
-118.6190131723036
 30
0.0
 11
-68.77596051383742
 21
-118.6190131723036
 31
0.0
1001
TOP
1070
     7
  0
LINE
  5
926
330
85B
100
AcDbEntity
  8
P-0000
  6
Continuous
 62
     0
100
AcDbLine
 10
-71.94919290582532
 20
-124.055443766988
 30
0.0
 11
-68.24708844850608
 21
-118.6190131723036
 31
0.0
1001
TOP
1070
     7
  0
LINE
  5
927
330
85B
100
AcDbEntity
  8
P-0000
  6
Continuous
 62
     0
100
AcDbLine
 10
-72.47806497115667
 20
-124.055443766988
 30
0.0
 11
-68.77596051383742
 21
-118.6190131723036
 31
0.0
1001
TOP
1070
     7
  0
LINE
  5
928
330
85B
100
AcDbEntity
  8
P-0000
  6
Continuous
 62
     0
100
AcDbLine
 10
-71.94919290582532
 20
-124.055443766988
 30
0.0
 11
-68.24708844850608
 21
-118.6190131723036
 31
0.0
1001
TOP
1070
     7
  0
LINE
  5
929
330
85B
100
AcDbEntity
  8
P-0000
  6
Continuous
 62
     0
100
AcDbLine
 10
-68.77596051383742
 20
-118.6190131723036
 30
0.0
 11
-72.47806497115667
 21
-124.055443766988
 31
0.0
1001
TOP
1070
     7
  0
LINE
  5
92A
330
85B
100
AcDbEntity
  8
P-0000
  6
Continuous
 62
     0
100
AcDbLine
 10
-71.94919290582532
 20
-124.055443766988
 30
0.0
 11
-64.54498399118683
 21
-124.055443766988
 31
0.0
1001
TOP
1070
     7
  0
LINE
  5
92B
330
85B
100
AcDbEntity
  8
P-0000
  6
Continuous
 62
     0
100
AcDbLine
 10
-64.54498399118683
 20
-124.055443766988
 30
0.0
 11
-71.94919290582532
 21
-124.055443766988
 31
0.0
1001
TOP
1070
     7
  0
LINE
  5
92C
330
85B
100
AcDbEntity
  8
P-0000
  6
Continuous
 62
     0
100
AcDbLine
 10
-77.50234959180421
 20
-118.6190131723036
 30
0.0
 11
-75.2546433141461
 21
-118.6190131723036
 31
0.0
1001
TOP
1070
     7
  0
LINE
  5
92D
330
85B
100
AcDbEntity
  8
P-0000
  6
Continuous
 62
     0
100
AcDbLine
 10
-77.50234959180421
 20
-124.055443766988
 30
0.0
 11
-75.2546433141461
 21
-124.055443766988
 31
0.0
1001
TOP
1070
     7
  0
LINE
  5
92E
330
85B
100
AcDbEntity
  8
P-0000
  6
Continuous
 62
     0
100
AcDbLine
 10
-75.2546433141461
 20
-124.055443766988
 30
0.0
 11
-77.50234959180421
 21
-124.055443766988
 31
0.0
1001
TOP
1070
     7
  0
LINE
  5
92F
330
85B
100
AcDbEntity
  8
P-0000
  6
Continuous
 62
     0
100
AcDbLine
 10
-77.50234959180421
 20
-118.6190131723036
 30
0.0
 11
-75.2546433141461
 21
-118.6190131723036
 31
0.0
1001
TOP
1070
     7
  0
LINE
  5
930
330
85B
100
AcDbEntity
  8
P-0000
  6
Continuous
 62
     0
100
AcDbLine
 10
-77.50234959180421
 20
-124.055443766988
 30
0.0
 11
-77.50234959180421
 21
-118.6190131723036
 31
0.0
1001
TOP
1070
     7
  0
LINE
  5
931
330
85B
100
AcDbEntity
  8
P-0000
  6
Continuous
 62
     0
100
AcDbLine
 10
-77.50234959180421
 20
-124.055443766988
 30
0.0
 11
-77.50234959180421
 21
-118.6190131723036
 31
0.0
1001
TOP
1070
     7
  0
LINE
  5
932
330
85B
100
AcDbEntity
  8
P-0000
  6
Continuous
 62
     0
100
AcDbLine
 10
-72.47806497115667
 20
-121.7664203586998
 30
0.0
 11
-73.8663541426514
 21
-124.055443766988
 31
0.0
1001
TOP
1070
     7
  0
LINE
  5
933
330
85B
100
AcDbEntity
  8
P-0000
  6
Continuous
 62
     0
100
AcDbLine
 10
-72.47806497115667
 20
-121.7664203586998
 30
0.0
 11
-72.47806497115667
 21
-124.055443766988
 31
0.0
1001
TOP
1070
     7
  0
LINE
  5
934
330
85B
100
AcDbEntity
  8
P-0000
  6
Continuous
 62
     0
100
AcDbLine
 10
-72.47806497115667
 20
-121.7664203586998
 30
0.0
 11
-73.8663541426514
 21
-124.055443766988
 31
0.0
1001
TOP
1070
     7
  0
LINE
  5
935
330
85B
100
AcDbEntity
  8
P-0000
  6
Continuous
 62
     0
100
AcDbLine
 10
-72.47806497115667
 20
-124.055443766988
 30
0.0
 11
-72.47806497115667
 21
-121.7664203586998
 31
0.0
1001
TOP
1070
     7
  0
LINE
  5
936
330
85B
100
AcDbEntity
  8
P-0000
  6
Continuous
 62
     0
100
AcDbLine
 10
-75.2546433141461
 20
-124.055443766988
 30
0.0
 11
-75.2546433141461
 21
-121.7664203586998
 31
0.0
1001
TOP
1070
     7
  0
LINE
  5
937
330
85B
100
AcDbEntity
  8
P-0000
  6
Continuous
 62
     0
100
AcDbLine
 10
-75.2546433141461
 20
-121.7664203586998
 30
0.0
 11
-75.2546433141461
 21
-124.055443766988
 31
0.0
1001
TOP
1070
     7
  0
LINE
  5
938
330
85B
100
AcDbEntity
  8
P-0000
  6
Continuous
 62
     0
100
AcDbLine
 10
-75.2546433141461
 20
-121.7664203586998
 30
0.0
 11
-73.8663541426514
 21
-124.055443766988
 31
0.0
1001
TOP
1070
     7
  0
LINE
  5
939
330
85B
100
AcDbEntity
  8
P-0000
  6
Continuous
 62
     0
100
AcDbLine
 10
-73.8663541426514
 20
-124.055443766988
 30
0.0
 11
-75.2546433141461
 21
-121.7664203586998
 31
0.0
1001
TOP
1070
     7
  0
LINE
  5
93A
330
85B
100
AcDbEntity
  8
P-0000
  6
Continuous
 62
     0
100
AcDbLine
 10
-72.47806497115667
 20
-118.6190131723036
 30
0.0
 11
-73.8663541426514
 21
-120.9080365805917
 31
0.0
1001
TOP
1070
     7
  0
LINE
  5
93B
330
85B
100
AcDbEntity
  8
P-0000
  6
Continuous
 62
     0
100
AcDbLine
 10
-73.8663541426514
 20
-120.9080365805917
 30
0.0
 11
-72.47806497115667
 21
-118.6190131723036
 31
0.0
1001
TOP
1070
     7
  0
LINE
  5
93C
330
85B
100
AcDbEntity
  8
P-0000
  6
Continuous
 62
     0
100
AcDbLine
 10
-75.2546433141461
 20
-118.6190131723036
 30
0.0
 11
-73.8663541426514
 21
-120.9080365805917
 31
0.0
1001
TOP
1070
     7
  0
LINE
  5
93D
330
85B
100
AcDbEntity
  8
P-0000
  6
Continuous
 62
     0
100
AcDbLine
 10
-75.2546433141461
 20
-118.6190131723036
 30
0.0
 11
-73.8663541426514
 21
-120.9080365805917
 31
0.0
1001
TOP
1070
     7
  0
ELLIPSE
  5
93E
330
85B
100
AcDbEntity
  8
P-0000
  6
Continuous
 62
     0
100
AcDbEllipse
 10
-65.10163245619105
 20
-120.0496528024836
 30
0.0
 11
-0.0000000000000277
 21
1.430639630180138
 31
0.0
210
0.0
220
0.0
230
-1.0
 40
0.9241881291669729
 41
4.077362244994374
 42
6.283185307179586
1001
TOP
1070
     7
  0
LINE
  5
93F
330
85B
100
AcDbEntity
  8
P-0000
  6
Continuous
 62
     0
100
AcDbLine
 10
-64.54498399118683
 20
-124.055443766988
 30
0.0
 11
-68.24708844850608
 21
-118.6190131723036
 31
0.0
1001
TOP
1070
     7
  0
LINE
  5
940
330
85B
100
AcDbEntity
  8
P-0000
  6
Continuous
 62
     0
100
AcDbLine
 10
-68.24708844850608
 20
-118.6190131723036
 30
0.0
 11
-64.54498399118683
 21
-124.055443766988
 31
0.0
1001
TOP
1070
     7
  0
ELLIPSE
  5
941
330
85B
100
AcDbEntity
  8
P-0000
  6
Continuous
 62
     0
100
AcDbEllipse
 10
-65.10163245619105
 20
-120.0496528024836
 30
0.0
 11
0.0000000000000073
 21
1.430639630180138
 31
0.0
210
0.0
220
0.0
230
1.0
 40
0.9241881291669608
 41
0.0000000000000056
 42
2.205823062185215
1001
TOP
1070
     7
  0
LINE
  5
942
330
85B
100
AcDbEntity
  8
P-0000
  6
Continuous
 62
     0
100
AcDbLine
 10
-64.01611192585551
 20
-124.055443766988
 30
0.0
 11
-66.16606131471133
 21
-120.8983068549025
 31
0.0
1001
TOP
1070
     7
  0
LINE
  5
943
330
85B
100
AcDbEntity
  8
P-0000
  6
Continuous
 62
     0
100
AcDbLine
 10
-66.16606131471133
 20
-120.8983068549025
 30
0.0
 11
-64.01611192585551
 21
-124.055443766988
 31
0.0
1001
TOP
1070
     7
  0
LINE
  5
944
330
85B
100
AcDbEntity
  8
P-0000
  6
Continuous
 62
     0
100
AcDbLine
 10
-67.42322631086892
 20
-122.4817401737899
 30
0.0
 11
-68.24708844850608
 21
-121.2719230596353
 31
0.0
1001
TOP
1070
     7
  0
LINE
  5
945
330
85B
100
AcDbEntity
  8
P-0000
  6
Continuous
 62
     0
100
AcDbLine
 10
-68.24708844850608
 20
-121.2719230596353
 30
0.0
 11
-67.42322631086892
 21
-122.4817401737899
 31
0.0
1001
TOP
1070
     7
  0
LINE
  5
946
330
85B
100
AcDbEntity
  8
P-0000
  6
Continuous
 62
     0
100
AcDbLine
 10
-69.07095058614323
 20
-122.4817401737899
 30
0.0
 11
-68.24708844850608
 21
-121.2719230596353
 31
0.0
1001
TOP
1070
     7
  0
LINE
  5
947
330
85B
100
AcDbEntity
  8
P-0000
  6
Continuous
 62
     0
100
AcDbLine
 10
-69.07095058614323
 20
-122.4817401737899
 30
0.0
 11
-68.24708844850608
 21
-121.2719230596353
 31
0.0
1001
TOP
1070
     7
  0
LINE
  5
948
330
85B
100
AcDbEntity
  8
P-0000
  6
Continuous
 62
     0
100
AcDbLine
 10
-69.07095058614323
 20
-122.4817401737899
 30
0.0
 11
-67.42322631086892
 21
-122.4817401737899
 31
0.0
1001
TOP
1070
     7
  0
LINE
  5
949
330
85B
100
AcDbEntity
  8
P-0000
  6
Continuous
 62
     0
100
AcDbLine
 10
-67.42322631086892
 20
-122.4817401737899
 30
0.0
 11
-69.07095058614323
 21
-122.4817401737899
 31
0.0
1001
TOP
1070
     7
  0
LINE
  5
94A
330
85B
100
AcDbEntity
  8
P-0000
  6
Continuous
 62
     0
100
AcDbLine
 10
-64.01611192585551
 20
-124.055443766988
 30
0.0
 11
-62.44747992382563
 21
-121.7519541961368
 31
0.0
1001
TOP
1070
     7
  0
LINE
  5
94B
330
85B
100
AcDbEntity
  8
P-0000
  6
Continuous
 62
     0
100
AcDbLine
 10
-64.01611192585551
 20
-124.055443766988
 30
0.0
 11
-62.44747992382563
 21
-121.7519541961368
 31
0.0
1001
TOP
1070
     7
  0
LINE
  5
94C
330
85B
100
AcDbEntity
  8
P-0000
  6
Continuous
 62
     0
100
AcDbLine
 10
-62.44747992382563
 20
-121.7519541961368
 30
0.0
 11
-63.46925566656012
 21
-121.7519541961368
 31
0.0
1001
TOP
1070
     7
  0
LINE
  5
94D
330
85B
100
AcDbEntity
  8
P-0000
  6
Continuous
 62
     0
100
AcDbLine
 10
-63.46925566656012
 20
-120.9225027431548
 30
0.0
 11
-61.88263947056615
 21
-120.9225027431548
 31
0.0
1001
TOP
1070
     7
  0
LINE
  5
94E
330
85B
100
AcDbEntity
  8
P-0000
  6
Continuous
 62
     0
100
AcDbLine
 10
-62.44747992382563
 20
-121.7519541961368
 30
0.0
 11
-63.46925566656012
 21
-121.7519541961368
 31
0.0
1001
TOP
1070
     7
  0
LINE
  5
94F
330
85B
100
AcDbEntity
  8
P-0000
  6
Continuous
 62
     0
100
AcDbLine
 10
-61.88263947056615
 20
-120.9225027431548
 30
0.0
 11
-63.46925566656012
 21
-120.9225027431548
 31
0.0
1001
TOP
1070
     7
  0
ELLIPSE
  5
950
330
85B
100
AcDbEntity
  8
P-0000
  6
Continuous
 62
     0
100
AcDbEllipse
 10
-63.46925566656012
 20
-121.3372284696458
 30
0.0
 11
0.0000000000000016
 21
0.4147257264910956
 31
0.0
210
0.0
220
0.0
230
-1.0
 40
0.9241881291669779
 41
3.141592653589793
 42
6.283185307179586
1001
TOP
1070
     7
  0
ELLIPSE
  5
951
330
85B
100
AcDbEntity
  8
P-0000
  6
Continuous
 62
     0
100
AcDbEllipse
 10
-63.46925566656012
 20
-121.3372284696458
 30
0.0
 11
-0.0000000000000201
 21
0.4147257264910956
 31
0.0
210
0.0
220
0.0
230
1.0
 40
0.9241881291669438
 41
-0.0000000000000524
 42
3.14159265358974
1001
TOP
1070
     7
  0
ELLIPSE
  5
952
330
85B
100
AcDbEntity
  8
P-0000
  6
Continuous
 62
     0
100
AcDbEllipse
 10
-55.55415888055438
 20
-120.3357807285197
 30
0.0
 11
-0.0000000000001066
 21
0.6294814372792618
 31
0.0
210
0.0
220
0.0
230
1.0
 40
0.9241881291669697
 41
3.141592653589633
 42
6.283185307179426
1001
TOP
1070
     7
  0
ELLIPSE
  5
953
330
85B
100
AcDbEntity
  8
P-0000
  6
Continuous
 62
     0
100
AcDbEllipse
 10
-55.55415888055438
 20
-120.3357807285197
 30
0.0
 11
0.0000000000000215
 21
0.6294814372792617
 31
0.0
210
0.0
220
0.0
230
-1.0
 40
0.9241881291669697
 41
0.0
 42
3.141592653589793
1001
TOP
1070
     7
  0
ELLIPSE
  5
954
330
85B
100
AcDbEntity
  8
P-0000
  6
Continuous
 62
     0
100
AcDbEllipse
 10
-55.55415888055438
 20
-120.3357807285197
 30
0.0
 11
0.0000000000000215
 21
1.716767556216168
 31
0.0
210
0.0
220
0.0
230
1.0
 40
0.9241881291669681
 41
3.141592653589806
 42
6.283185307179599
1001
TOP
1070
     7
  0
ELLIPSE
  5
955
330
85B
100
AcDbEntity
  8
P-0000
  6
Continuous
 62
     0
100
AcDbEllipse
 10
-55.55415888055438
 20
-120.3357807285197
 30
0.0
 11
0.0000000000000018
 21
1.716767556216167
 31
0.0
210
0.0
220
0.0
230
-1.0
 40
0.9241881291669688
 41
0.0
 42
3.141592653589793
1001
TOP
1070
     7
  0
LINE
  5
956
330
85B
100
AcDbEntity
  8
P-0000
  6
Continuous
 62
     0
100
AcDbLine
 10
-59.78513540320495
 20
-121.2719230596353
 30
0.0
 11
-58.9612732655678
 21
-122.4817401737899
 31
0.0
1001
TOP
1070
     7
  0
LINE
  5
957
330
85B
100
AcDbEntity
  8
P-0000
  6
Continuous
 62
     0
100
AcDbLine
 10
-58.9612732655678
 20
-122.4817401737899
 30
0.0
 11
-59.78513540320495
 21
-121.2719230596353
 31
0.0
1001
TOP
1070
     7
  0
LINE
  5
958
330
85B
100
AcDbEntity
  8
P-0000
  6
Continuous
 62
     0
100
AcDbLine
 10
-56.08303094588571
 20
-124.055443766988
 30
0.0
 11
-59.78513540320495
 21
-118.6190131723036
 31
0.0
1001
TOP
1070
     7
  0
LINE
  5
959
330
85B
100
AcDbEntity
  8
P-0000
  6
Continuous
 62
     0
100
AcDbLine
 10
-55.55415888055438
 20
-124.055443766988
 30
0.0
 11
-59.25626333787364
 21
-118.6190131723036
 31
0.0
1001
TOP
1070
     7
  0
LINE
  5
95A
330
85B
100
AcDbEntity
  8
P-0000
  6
Continuous
 62
     0
100
AcDbLine
 10
-55.55415888055438
 20
-124.055443766988
 30
0.0
 11
-59.25626333787364
 21
-118.6190131723036
 31
0.0
1001
TOP
1070
     7
  0
LINE
  5
95B
330
85B
100
AcDbEntity
  8
P-0000
  6
Continuous
 62
     0
100
AcDbLine
 10
-56.08303094588571
 20
-124.055443766988
 30
0.0
 11
-59.78513540320495
 21
-118.6190131723036
 31
0.0
1001
TOP
1070
     7
  0
LINE
  5
95C
330
85B
100
AcDbEntity
  8
P-0000
  6
Continuous
 62
     0
100
AcDbLine
 10
-55.55415888055438
 20
-124.055443766988
 30
0.0
 11
-55.55415888055438
 21
-122.0525482847359
 31
0.0
1001
TOP
1070
     7
  0
LINE
  5
95D
330
85B
100
AcDbEntity
  8
P-0000
  6
Continuous
 62
     0
100
AcDbLine
 10
-55.55415888055438
 20
-122.0525482847359
 30
0.0
 11
-55.55415888055438
 21
-124.055443766988
 31
0.0
1001
TOP
1070
     7
  0
LINE
  5
95E
330
85B
100
AcDbEntity
  8
P-0000
  6
Continuous
 62
     0
100
AcDbLine
 10
-59.25626333787364
 20
-118.6190131723036
 30
0.0
 11
-55.55415888055438
 21
-118.6190131723036
 31
0.0
1001
TOP
1070
     7
  0
LINE
  5
95F
330
85B
100
AcDbEntity
  8
P-0000
  6
Continuous
 62
     0
100
AcDbLine
 10
-59.25626333787364
 20
-118.6190131723036
 30
0.0
 11
-55.55415888055438
 21
-118.6190131723036
 31
0.0
1001
TOP
1070
     7
  0
LINE
  5
960
330
85B
100
AcDbEntity
  8
P-0000
  6
Continuous
 62
     0
100
AcDbLine
 10
-55.55415888055438
 20
-119.7062992912404
 30
0.0
 11
-56.41148833382832
 21
-119.7062992912404
 31
0.0
1001
TOP
1070
     7
  0
LINE
  5
961
330
85B
100
AcDbEntity
  8
P-0000
  6
Continuous
 62
     0
100
AcDbLine
 10
-56.41148833382832
 20
-119.7062992912404
 30
0.0
 11
-55.55415888055438
 21
-119.7062992912404
 31
0.0
1001
TOP
1070
     7
  0
LINE
  5
962
330
85B
100
AcDbEntity
  8
P-0000
  6
Continuous
 62
     0
100
AcDbLine
 10
-55.55415888055438
 20
-120.9652621657989
 30
0.0
 11
-56.41148833382832
 21
-119.7062992912404
 31
0.0
1001
TOP
1070
     7
  0
LINE
  5
963
330
85B
100
AcDbEntity
  8
P-0000
  6
Continuous
 62
     0
100
AcDbLine
 10
-55.55415888055438
 20
-120.9652621657989
 30
0.0
 11
-56.41148833382832
 21
-119.7062992912404
 31
0.0
1001
TOP
1070
     7
  0
LINE
  5
964
330
85B
100
AcDbEntity
  8
0
 62
     0
 48
35.0
100
AcDbLine
 10
7.000000000000056
 20
142.5
 30
0.0
 11
98.00000000000004
 21
142.5
 31
0.0
1001
TOP
1070
     1
  0
LINE
  5
965
330
85B
100
AcDbEntity
  8
0
 62
     0
100
AcDbLine
 10
7.000000000000056
 20
143.5
 30
0.0
 11
100.0
 21
143.5
 31
0.0
1001
TOP
1070
   256
  0
ARC
  5
966
330
85B
100
AcDbEntity
  8
0
 62
     0
 48
35.0
100
AcDbCircle
 10
98.00000000000004
 20
141.5
 30
0.0
 40
1.0
100
AcDbArc
 50
0.0
 51
90.0
1001
TOP
1070
     1
  0
LINE
  5
967
330
85B
100
AcDbEntity
  8
0
 62
     0
 48
35.0
100
AcDbLine
 10
99.00000000000003
 20
141.5
 30
0.0
 11
99.00000000000005
 21
113.5
 31
0.0
1001
TOP
1070
     1
  0
LINE
  5
968
330
85B
100
AcDbEntity
  8
0
 62
     0
100
AcDbLine
 10
100.0
 20
143.5
 30
0.0
 11
100.0
 21
113.5
 31
0.0
1001
TOP
1070
   256
  0
ARC
  5
969
330
85B
100
AcDbEntity
  8
0
 62
     0
 48
35.0
100
AcDbCircle
 10
98.00000000000006
 20
113.5
 30
0.0
 40
1.0
100
AcDbArc
 50
270.0
 51
0.0
1001
TOP
1070
     1
  0
ARC
  5
96A
330
85B
100
AcDbEntity
  8
0
 62
     0
100
AcDbCircle
 10
98.00000000000006
 20
113.5
 30
0.0
 40
2.0
100
AcDbArc
 50
270.0
 51
0.0
1001
TOP
1070
   256
  0
LINE
  5
96B
330
85B
100
AcDbEntity
  8
0
 62
     0
 48
35.0
100
AcDbLine
 10
98.00000000000006
 20
112.5
 30
0.0
 11
7.000000000000056
 21
112.5
 31
0.0
1001
TOP
1070
     1
  0
LINE
  5
96C
330
85B
100
AcDbEntity
  8
0
 62
     0
100
AcDbLine
 10
98.00000000000006
 20
111.4999999999999
 30
0.0
 11
7.000000000000056
 21
111.5
 31
0.0
1001
TOP
1070
   256
  0
ARC
  5
96D
330
85B
100
AcDbEntity
  8
0
 62
     0
 48
35.0
100
AcDbCircle
 10
7.000000000000056
 20
113.5
 30
0.0
 40
1.0
100
AcDbArc
 50
180.0
 51
270.0
1001
TOP
1070
     1
  0
ARC
  5
96E
330
85B
100
AcDbEntity
  8
0
 62
     0
100
AcDbCircle
 10
7.000000000000056
 20
113.5
 30
0.0
 40
2.0
100
AcDbArc
 50
180.0
 51
270.0
1001
TOP
1070
   256
  0
LINE
  5
96F
330
85B
100
AcDbEntity
  8
0
 62
     0
 48
35.0
100
AcDbLine
 10
6.000000000000056
 20
113.5
 30
0.0
 11
6.000000000000056
 21
141.5
 31
0.0
1001
TOP
1070
     1
  0
LINE
  5
970
330
85B
100
AcDbEntity
  8
0
 62
     0
100
AcDbLine
 10
5.000000000000056
 20
113.5
 30
0.0
 11
5.000000000000056
 21
141.5
 31
0.0
1001
TOP
1070
   256
  0
ARC
  5
971
330
85B
100
AcDbEntity
  8
0
 62
     0
 48
35.0
100
AcDbCircle
 10
7.000000000000056
 20
141.5
 30
0.0
 40
1.0
100
AcDbArc
 50
90.0
 51
180.0
1001
TOP
1070
     1
  0
ARC
  5
972
330
85B
100
AcDbEntity
  8
0
 62
     0
100
AcDbCircle
 10
7.000000000000056
 20
141.5
 30
0.0
 40
2.0
100
AcDbArc
 50
90.0
 51
180.0
1001
TOP
1070
   256
  0
MTEXT
  5
973
330
85B
100
AcDbEntity
  8
0
 62
     0
100
AcDbMText
 10
29.58535811428735
 20
135.6251466847724
 30
0.0
 40
6.0
 41
54.93080742428151
 71
     1
 72
     5
  1
{\fVrinda|b0|i0|c0|p2;BAR CODE\PMontaggio}
 73
     1
 44
1.0
1001
TOP
1070
   256
1001
ACAD
1000
MTEXTBEGIN
1070
    73
1070
     1
1070
    44
1040
1.0
1070
    74
1070
     0
1000
MTEXTEND
  0
ENDBLK
  5
977
330
85B
100
AcDbEntity
  8
0
 62
     7
100
AcDbBlockEnd
  0
BLOCK
  5
9C0
330
9BF
100
AcDbEntity
  8
0
 62
     3
100
AcDbBlockBegin
  2
*D1
 70
     1
 10
0.0
 20
0.0
 30
0.0
  3
*D1
  1

  0
LINE
  5
1033
330
9BF
100
AcDbEntity
  8
P-07B0
  6
Continuous
 62
     2
370
    -2
100
AcDbLine
 10
-240.5706714580916
 20
1704.161582844845
 30
0.0
 11
-207.4816953355643
 21
1704.161582844845
 31
0.0
  0
LINE
  5
1034
330
9BF
100
AcDbEntity
  8
P-07B0
  6
Continuous
 62
     2
370
    -2
100
AcDbLine
 10
-240.5706714580916
 20
1687.161582846545
 30
0.0
 11
-207.4816953355643
 21
1687.161582846545
 31
0.0
  0
LINE
  5
1035
330
9BF
100
AcDbEntity
  8
P-07B0
  6
Continuous
 62
     2
370
    -2
100
AcDbLine
 10
-222.4816953355643
 20
1724.161582844845
 30
0.0
 11
-222.4816953355643
 21
1744.161582844845
 31
0.0
  0
LINE
  5
1036
330
9BF
100
AcDbEntity
  8
P-07B0
  6
Continuous
 62
     2
370
    -2
100
AcDbLine
 10
-222.4816953355643
 20
1667.161582846545
 30
0.0
 11
-222.4816953355643
 21
1589.173244654125
 31
0.0
  0
LINE
  5
1037
330
9BF
100
AcDbEntity
  8
P-07B0
  6
Continuous
 62
     2
370
    -2
100
AcDbLine
 10
-222.4816953355643
 20
1704.161582844845
 30
0.0
 11
-222.4816953355643
 21
1687.161582846545
 31
0.0
  0
SOLID
  5
1038
330
9BF
100
AcDbEntity
  8
P-07B0
  6
Continuous
 62
     2
100
AcDbTrace
 10
-225.8150286688977
 20
1724.161582844845
 30
0.0
 11
-219.148362002231
 21
1724.161582844845
 31
0.0
 12
-222.4816953355643
 22
1704.161582844845
 32
0.0
 13
-222.4816953355643
 23
1704.161582844845
 33
0.0
  0
SOLID
  5
1039
330
9BF
100
AcDbEntity
  8
P-07B0
  6
Continuous
 62
     2
100
AcDbTrace
 10
-225.8150286688977
 20
1667.161582846545
 30
0.0
 11
-219.148362002231
 21
1667.161582846545
 31
0.0
 12
-222.4816953355643
 22
1687.161582846545
 32
0.0
 13
-222.4816953355643
 23
1687.161582846545
 33
0.0
  0
MTEXT
  5
103A
330
9BF
100
AcDbEntity
  8
P-07B0
  6
Continuous
 62
     1
100
AcDbMText
 10
-242.7805291548066
 20
1618.167413750335
 30
0.0
 40
20.0
 41
0.0
 71
     5
 72
     1
  1
\A1;1.7
  7
Stile_Quota
 11
0.0000000000000001
 21
1.0
 31
0.0
 73
     1
 44
1.0
1001
ACAD
1000
MTEXTBEGIN
1070
    73
1070
     1
1070
    44
1040
1.0
1070
    74
1070
     0
1000
MTEXTEND
  0
POINT
  5
103B
330
9BF
100
AcDbEntity
  8
Defpoints
  6
Continuous
 62
     0
100
AcDbPoint
 10
-250.5706714580916
 20
1704.161582844845
 30
0.0
  0
POINT
  5
103C
330
9BF
100
AcDbEntity
  8
Defpoints
  6
Continuous
 62
     0
100
AcDbPoint
 10
-250.5706714580916
 20
1687.161582846545
 30
0.0
  0
POINT
  5
103D
330
9BF
100
AcDbEntity
  8
Defpoints
  6
Continuous
 62
     0
100
AcDbPoint
 10
-222.4816953355643
 20
1687.161582846545
 30
0.0
  0
ENDBLK
  5
9C1
330
9BF
100
AcDbEntity
  8
0
 62
     3
100
AcDbBlockEnd
  0
BLOCK
  5
9D8
330
9D7
100
AcDbEntity
  8
0
 62
     3
100
AcDbBlockBegin
  2
*D2
 70
     1
 10
0.0
 20
0.0
 30
0.0
  3
*D2
  1

  0
LINE
  5
103E
330
9D7
100
AcDbEntity
  8
P-07B0
  6
Continuous
 62
     2
370
    -2
100
AcDbLine
 10
-277.9121224611505
 20
1694.661582845795
 30
0.0
 11
-300.8891383249762
 21
1694.661582845795
 31
0.0
  0
LINE
  5
103F
330
9D7
100
AcDbEntity
  8
P-07B0
  6
Continuous
 62
     2
370
    -2
100
AcDbLine
 10
-281.0708463847501
 20
1687.161582846545
 30
0.0
 11
-300.8891383249762
 21
1687.161582846545
 31
0.0
  0
LINE
  5
1040
330
9D7
100
AcDbEntity
  8
P-07B0
  6
Continuous
 62
     2
370
    -2
100
AcDbLine
 10
-285.8891383249762
 20
1714.661582845795
 30
0.0
 11
-285.8891383249762
 21
1734.661582845795
 31
0.0
  0
LINE
  5
1041
330
9D7
100
AcDbEntity
  8
P-07B0
  6
Continuous
 62
     2
370
    -2
100
AcDbLine
 10
-285.8891383249762
 20
1667.161582846545
 30
0.0
 11
-285.8891383249763
 21
1575.47062074742
 31
0.0
  0
LINE
  5
1042
330
9D7
100
AcDbEntity
  8
P-07B0
  6
Continuous
 62
     2
370
    -2
100
AcDbLine
 10
-285.8891383249762
 20
1694.661582845795
 30
0.0
 11
-285.8891383249762
 21
1687.161582846545
 31
0.0
  0
SOLID
  5
1043
330
9D7
100
AcDbEntity
  8
P-07B0
  6
Continuous
 62
     2
100
AcDbTrace
 10
-289.2224716583095
 20
1714.661582845795
 30
0.0
 11
-282.5558049916429
 21
1714.661582845795
 31
0.0
 12
-285.8891383249762
 22
1694.661582845795
 32
0.0
 13
-285.8891383249762
 23
1694.661582845795
 33
0.0
  0
SOLID
  5
1044
330
9D7
100
AcDbEntity
  8
P-07B0
  6
Continuous
 62
     2
100
AcDbTrace
 10
-289.2224716583095
 20
1667.161582846545
 30
0.0
 11
-282.5558049916429
 21
1667.161582846545
 31
0.0
 12
-285.8891383249762
 22
1687.161582846545
 32
0.0
 13
-285.8891383249762
 23
1687.161582846545
 33
0.0
  0
MTEXT
  5
1045
330
9D7
100
AcDbEntity
  8
P-07B0
  6
Continuous
 62
     1
100
AcDbMText
 10
-306.1879721442185
 20
1611.316101796982
 30
0.0
 40
20.0
 41
0.0
 71
     5
 72
     1
  1
\A1;0.75
  7
Stile_Quota
 11
0.0000000000000001
 21
1.0
 31
0.0
 73
     1
 44
1.0
1001
ACAD
1000
MTEXTBEGIN
1070
    73
1070
     1
1070
    44
1040
1.0
1070
    74
1070
     0
1000
MTEXTEND
  0
POINT
  5
1046
330
9D7
100
AcDbEntity
  8
Defpoints
  6
Continuous
 62
     0
100
AcDbPoint
 10
-267.9121224611506
 20
1694.661582845795
 30
0.0
  0
POINT
  5
1047
330
9D7
100
AcDbEntity
  8
Defpoints
  6
Continuous
 62
     0
100
AcDbPoint
 10
-271.0708463847501
 20
1687.161582846545
 30
0.0
  0
POINT
  5
1048
330
9D7
100
AcDbEntity
  8
Defpoints
  6
Continuous
 62
     0
100
AcDbPoint
 10
-285.8891383249762
 20
1687.161582846545
 30
0.0
  0
ENDBLK
  5
9D9
330
9D7
100
AcDbEntity
  8
0
 62
     3
100
AcDbBlockEnd
  0
BLOCK
  5
9F0
330
9EF
100
AcDbEntity
  8
0
 62
     3
100
AcDbBlockBegin
  2
*D3
 70
     1
 10
0.0
 20
0.0
 30
0.0
  3
*D3
  1

  0
LINE
  5
1049
330
9EF
100
AcDbEntity
  8
P-07B0
  6
Continuous
 62
     2
370
    -2
100
AcDbLine
 10
-279.3886827090371
 20
1688.661582846395
 30
0.0
 11
-296.6093160683524
 21
1688.661582846395
 31
0.0
  0
LINE
  5
104A
330
9EF
100
AcDbEntity
  8
P-07B0
  6
Continuous
 62
     2
370
    -2
100
AcDbLine
 10
-281.0708463847501
 20
1687.161582846545
 30
0.0
 11
-296.6093160683524
 21
1687.161582846545
 31
0.0
  0
LINE
  5
104B
330
9EF
100
AcDbEntity
  8
P-07B0
  6
Continuous
 62
     2
370
    -2
100
AcDbLine
 10
-281.6093160683524
 20
1708.661582846395
 30
0.0
 11
-281.6093160683524
 21
1728.661582846395
 31
0.0
  0
LINE
  5
104C
330
9EF
100
AcDbEntity
  8
P-07B0
  6
Continuous
 62
     2
370
    -2
100
AcDbLine
 10
-281.6093160683524
 20
1667.161582846545
 30
0.0
 11
-281.6093160683524
 21
1575.47062074742
 31
0.0
  0
LINE
  5
104D
330
9EF
100
AcDbEntity
  8
P-07B0
  6
Continuous
 62
     2
370
    -2
100
AcDbLine
 10
-281.6093160683524
 20
1688.661582846395
 30
0.0
 11
-281.6093160683524
 21
1687.161582846545
 31
0.0
  0
SOLID
  5
104E
330
9EF
100
AcDbEntity
  8
P-07B0
  6
Continuous
 62
     2
100
AcDbTrace
 10
-284.9426494016857
 20
1708.661582846395
 30
0.0
 11
-278.2759827350191
 21
1708.661582846395
 31
0.0
 12
-281.6093160683524
 22
1688.661582846395
 32
0.0
 13
-281.6093160683524
 23
1688.661582846395
 33
0.0
  0
SOLID
  5
104F
330
9EF
100
AcDbEntity
  8
P-07B0
  6
Continuous
 62
     2
100
AcDbTrace
 10
-284.9426494016857
 20
1667.161582846545
 30
0.0
 11
-278.2759827350191
 21
1667.161582846545
 31
0.0
 12
-281.6093160683524
 22
1687.161582846545
 32
0.0
 13
-281.6093160683524
 23
1687.161582846545
 33
0.0
  0
MTEXT
  5
1050
330
9EF
100
AcDbEntity
  8
P-07B0
  6
Continuous
 62
     1
100
AcDbMText
 10
-301.8352635902186
 20
1611.316101796982
 30
0.0
 40
20.0
 41
0.0
 71
     5
 72
     1
  1
\A1;0.15
  7
Stile_Quota
 11
0.0000000000000001
 21
1.0
 31
0.0
 73
     1
 44
1.0
1001
ACAD
1000
MTEXTBEGIN
1070
    73
1070
     1
1070
    44
1040
1.0
1070
    74
1070
     0
1000
MTEXTEND
  0
POINT
  5
1051
330
9EF
100
AcDbEntity
  8
Defpoints
  6
Continuous
 62
     0
100
AcDbPoint
 10
-269.3886827090371
 20
1688.661582846395
 30
0.0
  0
POINT
  5
1052
330
9EF
100
AcDbEntity
  8
Defpoints
  6
Continuous
 62
     0
100
AcDbPoint
 10
-271.0708463847501
 20
1687.161582846545
 30
0.0
  0
POINT
  5
1053
330
9EF
100
AcDbEntity
  8
Defpoints
  6
Continuous
 62
     0
100
AcDbPoint
 10
-281.6093160683524
 20
1687.161582846545
 30
0.0
  0
ENDBLK
  5
9F1
330
9EF
100
AcDbEntity
  8
0
 62
     3
100
AcDbBlockEnd
  0
BLOCK
  5
A0C
330
A0B
100
AcDbEntity
  8
0
 62
     3
100
AcDbBlockBegin
  2
*D4
 70
     1
 10
0.0
 20
0.0
 30
0.0
  3
*D4
  1

  0
LINE
  5
1054
330
A0B
100
AcDbEntity
  8
P-07B0
  6
Continuous
 62
     2
370
    -2
100
AcDbLine
 10
-242.8784064847497
 20
1690.461582846215
 30
0.0
 11
-211.7615175921881
 21
1690.461582846215
 31
0.0
  0
LINE
  5
1055
330
A0B
100
AcDbEntity
  8
P-07B0
  6
Continuous
 62
     2
370
    -2
100
AcDbLine
 10
-240.3706714581116
 20
1687.161582846545
 30
0.0
 11
-211.7615175921881
 21
1687.161582846545
 31
0.0
  0
LINE
  5
1056
330
A0B
100
AcDbEntity
  8
P-07B0
  6
Continuous
 62
     2
370
    -2
100
AcDbLine
 10
-226.7615175921881
 20
1710.461582846215
 30
0.0
 11
-226.7615175921881
 21
1730.461582846215
 31
0.0
  0
LINE
  5
1057
330
A0B
100
AcDbEntity
  8
P-07B0
  6
Continuous
 62
     2
370
    -2
100
AcDbLine
 10
-226.7615175921881
 20
1667.161582846545
 30
0.0
 11
-226.7615175921881
 21
1575.878784012726
 31
0.0
  0
LINE
  5
1058
330
A0B
100
AcDbEntity
  8
P-07B0
  6
Continuous
 62
     2
370
    -2
100
AcDbLine
 10
-226.7615175921881
 20
1690.461582846215
 30
0.0
 11
-226.7615175921881
 21
1687.161582846545
 31
0.0
  0
SOLID
  5
1059
330
A0B
100
AcDbEntity
  8
P-07B0
  6
Continuous
 62
     2
100
AcDbTrace
 10
-230.0948509255214
 20
1710.461582846215
 30
0.0
 11
-223.4281842588548
 21
1710.461582846215
 31
0.0
 12
-226.7615175921881
 22
1690.461582846215
 32
0.0
 13
-226.7615175921881
 23
1690.461582846215
 33
0.0
  0
SOLID
  5
105A
330
A0B
100
AcDbEntity
  8
P-07B0
  6
Continuous
 62
     2
100
AcDbTrace
 10
-230.0948509255214
 20
1667.161582846545
 30
0.0
 11
-223.4281842588548
 21
1667.161582846545
 31
0.0
 12
-226.7615175921881
 22
1687.161582846545
 32
0.0
 13
-226.7615175921881
 23
1687.161582846545
 33
0.0
  0
MTEXT
  5
105B
330
A0B
100
AcDbEntity
  8
P-07B0
  6
Continuous
 62
     1
100
AcDbMText
 10
-246.9874651140543
 20
1611.520183429635
 30
0.0
 40
20.0
 41
0.0
 71
     5
 72
     1
  1
\A1;0.33
  7
Stile_Quota
 11
0.0000000000000001
 21
1.0
 31
0.0
 73
     1
 44
1.0
1001
ACAD
1000
MTEXTBEGIN
1070
    73
1070
     1
1070
    44
1040
1.0
1070
    74
1070
     0
1000
MTEXTEND
  0
POINT
  5
105C
330
A0B
100
AcDbEntity
  8
Defpoints
  6
Continuous
 62
     0
100
AcDbPoint
 10
-252.8784064847497
 20
1690.461582846215
 30
0.0
  0
POINT
  5
105D
330
A0B
100
AcDbEntity
  8
Defpoints
  6
Continuous
 62
     0
100
AcDbPoint
 10
-250.3706714581116
 20
1687.161582846545
 30
0.0
  0
POINT
  5
105E
330
A0B
100
AcDbEntity
  8
Defpoints
  6
Continuous
 62
     0
100
AcDbPoint
 10
-226.7615175921881
 20
1687.161582846545
 30
0.0
  0
ENDBLK
  5
A0D
330
A0B
100
AcDbEntity
  8
0
 62
     3
100
AcDbBlockEnd
  0
BLOCK
  5
A28
330
A27
100
AcDbEntity
  8
0
 62
     3
100
AcDbBlockBegin
  2
*D5
 70
     1
 10
0.0
 20
0.0
 30
0.0
  3
*D5
  1

  0
LINE
  5
105F
330
A27
100
AcDbEntity
  8
P-07B0
  6
Continuous
 62
     2
370
    -2
100
AcDbLine
 10
-242.8784064847497
 20
1690.461582846215
 30
0.0
 11
-216.1305025631586
 21
1690.461582846215
 31
0.0
  0
LINE
  5
1060
330
A27
100
AcDbEntity
  8
P-07B0
  6
Continuous
 62
     2
370
    -2
100
AcDbLine
 10
-242.5706714578915
 20
1691.861582846075
 30
0.0
 11
-216.1305025631586
 21
1691.861582846075
 31
0.0
  0
LINE
  5
1061
330
A27
100
AcDbEntity
  8
P-07B0
  6
Continuous
 62
     2
370
    -2
100
AcDbLine
 10
-231.1305025631586
 20
1670.461582846214
 30
0.0
 11
-231.1305025631586
 21
1650.461582846214
 31
0.0
  0
LINE
  5
1062
330
A27
100
AcDbEntity
  8
P-07B0
  6
Continuous
 62
     2
370
    -2
100
AcDbLine
 10
-231.1305025631586
 20
1711.861582846075
 30
0.0
 11
-231.1305025631585
 21
1803.465081388349
 31
0.0
  0
LINE
  5
1063
330
A27
100
AcDbEntity
  8
P-07B0
  6
Continuous
 62
     2
370
    -2
100
AcDbLine
 10
-231.1305025631586
 20
1690.461582846215
 30
0.0
 11
-231.1305025631586
 21
1691.861582846075
 31
0.0
  0
SOLID
  5
1064
330
A27
100
AcDbEntity
  8
P-07B0
  6
Continuous
 62
     2
100
AcDbTrace
 10
-234.4638358964919
 20
1670.461582846214
 30
0.0
 11
-227.7971692298252
 21
1670.461582846214
 31
0.0
 12
-231.1305025631586
 22
1690.461582846215
 32
0.0
 13
-231.1305025631586
 23
1690.461582846215
 33
0.0
  0
SOLID
  5
1065
330
A27
100
AcDbEntity
  8
P-07B0
  6
Continuous
 62
     2
100
AcDbTrace
 10
-234.4638358964919
 20
1711.861582846075
 30
0.0
 11
-227.7971692298252
 21
1711.861582846075
 31
0.0
 12
-231.1305025631586
 22
1691.861582846075
 32
0.0
 13
-231.1305025631586
 23
1691.861582846075
 33
0.0
  0
MTEXT
  5
1066
330
A27
100
AcDbEntity
  8
P-07B0
  6
Continuous
 62
     1
100
AcDbMText
 10
-251.3564500850247
 20
1767.663332117212
 30
0.0
 40
20.0
 41
0.0
 71
     5
 72
     1
  1
\A1;0.14
  7
Stile_Quota
 11
0.0000000000000001
 21
1.0
 31
0.0
 73
     1
 44
1.0
1001
ACAD
1000
MTEXTBEGIN
1070
    73
1070
     1
1070
    44
1040
1.0
1070
    74
1070
     0
1000
MTEXTEND
  0
POINT
  5
1067
330
A27
100
AcDbEntity
  8
Defpoints
  6
Continuous
 62
     0
100
AcDbPoint
 10
-252.8784064847497
 20
1690.461582846215
 30
0.0
  0
POINT
  5
1068
330
A27
100
AcDbEntity
  8
Defpoints
  6
Continuous
 62
     0
100
AcDbPoint
 10
-252.5706714578915
 20
1691.861582846075
 30
0.0
  0
POINT
  5
1069
330
A27
100
AcDbEntity
  8
Defpoints
  6
Continuous
 62
     0
100
AcDbPoint
 10
-231.1305025631586
 20
1691.861582846075
 30
0.0
  0
ENDBLK
  5
A29
330
A27
100
AcDbEntity
  8
0
 62
     3
100
AcDbBlockEnd
  0
BLOCK
  5
A44
330
A43
100
AcDbEntity
  8
0
 62
     3
100
AcDbBlockBegin
  2
*D6
 70
     1
 10
0.0
 20
0.0
 30
0.0
  3
*D6
  1

  0
LINE
  5
A52
330
A43
100
AcDbEntity
  8
P-07B0
  6
Continuous
 62
     2
370
    -2
100
AcDbLine
 10
-133.1888526479085
 20
1878.841716189145
 30
0.0
 11
-133.1888526479085
 21
2042.937888193513
 31
0.0
  0
LINE
  5
A53
330
A43
100
AcDbEntity
  8
P-07B0
  6
Continuous
 62
     2
370
    -2
100
AcDbLine
 10
-113.1888526499096
 20
1894.228856201742
 30
0.0
 11
-113.1888526499096
 21
2042.937888193513
 31
0.0
  0
LINE
  5
A54
330
A43
100
AcDbEntity
  8
P-07B0
  6
Continuous
 62
     2
370
    -2
100
AcDbLine
 10
-153.1888526479085
 20
2027.937888193513
 30
0.0
 11
-173.1888526479085
 21
2027.937888193513
 31
0.0
  0
LINE
  5
A55
330
A43
100
AcDbEntity
  8
P-07B0
  6
Continuous
 62
     2
370
    -2
100
AcDbLine
 10
-93.18885264990965
 20
2027.937888193513
 30
0.0
 11
-39.79235119218372
 21
2027.937888193513
 31
0.0
  0
LINE
  5
A56
330
A43
100
AcDbEntity
  8
P-07B0
  6
Continuous
 62
     2
370
    -2
100
AcDbLine
 10
-133.1888526479085
 20
2027.937888193513
 30
0.0
 11
-113.1888526499096
 21
2027.937888193513
 31
0.0
  0
SOLID
  5
A57
330
A43
100
AcDbEntity
  8
P-07B0
  6
Continuous
 62
     2
100
AcDbTrace
 10
-153.1888526479085
 20
2031.271221526846
 30
0.0
 11
-153.1888526479085
 21
2024.60455486018
 31
0.0
 12
-133.1888526479085
 22
2027.937888193513
 32
0.0
 13
-133.1888526479085
 23
2027.937888193513
 33
0.0
  0
SOLID
  5
A58
330
A43
100
AcDbEntity
  8
P-07B0
  6
Continuous
 62
     2
100
AcDbTrace
 10
-93.18885264990965
 20
2031.271221526846
 30
0.0
 11
-93.18885264990965
 21
2024.60455486018
 31
0.0
 12
-113.1888526499096
 22
2027.937888193513
 32
0.0
 13
-113.1888526499096
 23
2027.937888193513
 33
0.0
  0
MTEXT
  5
A59
330
A43
100
AcDbEntity
  8
P-07B0
  6
Continuous
 62
     1
100
AcDbMText
 10
-56.49060192104669
 20
2047.937888193513
 30
0.0
 40
20.0
 41
0.0
 71
     5
 72
     1
  1
\A1;2
  7
Stile_Quota
 73
     1
 44
1.0
1001
ACAD
1000
MTEXTBEGIN
1070
    73
1070
     1
1070
    44
1040
1.0
1070
    74
1070
     0
1000
MTEXTEND
  0
POINT
  5
A5A
330
A43
100
AcDbEntity
  8
Defpoints
  6
Continuous
 62
     0
100
AcDbPoint
 10
-133.1888526479085
 20
1868.841716189145
 30
0.0
  0
POINT
  5
A5B
330
A43
100
AcDbEntity
  8
Defpoints
  6
Continuous
 62
     0
100
AcDbPoint
 10
-113.1888526499096
 20
1884.228856201742
 30
0.0
  0
POINT
  5
A5C
330
A43
100
AcDbEntity
  8
Defpoints
  6
Continuous
 62
     0
100
AcDbPoint
 10
-113.1888526499096
 20
2027.937888193513
 30
0.0
  0
ENDBLK
  5
A45
330
A43
100
AcDbEntity
  8
0
 62
     3
100
AcDbBlockEnd
  0
BLOCK
  5
A60
330
A5F
100
AcDbEntity
  8
0
 62
     3
100
AcDbBlockBegin
  2
*D7
 70
     1
 10
0.0
 20
0.0
 30
0.0
  3
*D7
  1

  0
LINE
  5
A6C
330
A5F
100
AcDbEntity
  8
P-07B0
  6
Continuous
 62
     2
370
    -2
100
AcDbLine
 10
-113.1888526499096
 20
1894.228856201742
 30
0.0
 11
-113.1888526499096
 21
2096.40055036749
 31
0.0
  0
LINE
  5
A6D
330
A5F
100
AcDbEntity
  8
P-07B0
  6
Continuous
 62
     2
370
    -2
100
AcDbLine
 10
-243.1888526369093
 20
1857.317803232239
 30
0.0
 11
-243.1888526369093
 21
2096.40055036749
 31
0.0
  0
LINE
  5
A6E
330
A5F
100
AcDbEntity
  8
P-07B0
  6
Continuous
 62
     2
370
    -2
100
AcDbLine
 10
-133.1888526499096
 20
2081.40055036749
 30
0.0
 11
-223.1888526369093
 21
2081.40055036749
 31
0.0
  0
SOLID
  5
A6F
330
A5F
100
AcDbEntity
  8
P-07B0
  6
Continuous
 62
     2
100
AcDbTrace
 10
-133.1888526499096
 20
2084.733883700824
 30
0.0
 11
-133.1888526499096
 21
2078.067217034156
 31
0.0
 12
-113.1888526499096
 22
2081.40055036749
 32
0.0
 13
-113.1888526499096
 23
2081.40055036749
 33
0.0
  0
SOLID
  5
A70
330
A5F
100
AcDbEntity
  8
P-07B0
  6
Continuous
 62
     2
100
AcDbTrace
 10
-223.1888526369093
 20
2084.733883700824
 30
0.0
 11
-223.1888526369093
 21
2078.067217034156
 31
0.0
 12
-243.1888526369093
 22
2081.40055036749
 32
0.0
 13
-243.1888526369093
 23
2081.40055036749
 33
0.0
  0
MTEXT
  5
A71
330
A5F
100
AcDbEntity
  8
P-07B0
  6
Continuous
 62
     1
100
AcDbMText
 10
-178.1888526434095
 20
2101.61192062988
 30
0.0
 40
20.0
 41
0.0
 71
     5
 72
     1
  1
\A1;13
  7
Stile_Quota
 73
     1
 44
1.0
1001
ACAD
1000
MTEXTBEGIN
1070
    73
1070
     1
1070
    44
1040
1.0
1070
    74
1070
     0
1000
MTEXTEND
  0
POINT
  5
A72
330
A5F
100
AcDbEntity
  8
Defpoints
  6
Continuous
 62
     0
100
AcDbPoint
 10
-113.1888526499096
 20
1884.228856201742
 30
0.0
  0
POINT
  5
A73
330
A5F
100
AcDbEntity
  8
Defpoints
  6
Continuous
 62
     0
100
AcDbPoint
 10
-243.1888526369093
 20
1847.317803232239
 30
0.0
  0
POINT
  5
A74
330
A5F
100
AcDbEntity
  8
Defpoints
  6
Continuous
 62
     0
100
AcDbPoint
 10
-243.1888526369093
 20
2081.40055036749
 30
0.0
  0
ENDBLK
  5
A61
330
A5F
100
AcDbEntity
  8
0
 62
     3
100
AcDbBlockEnd
  0
BLOCK
  5
A78
330
A77
100
AcDbEntity
  8
0
 62
     3
100
AcDbBlockBegin
  2
*D8
 70
     1
 10
0.0
 20
0.0
 30
0.0
  3
*D8
  1

  0
LINE
  5
A84
330
A77
100
AcDbEntity
  8
P-07B0
  6
Continuous
 62
     2
370
    -2
100
AcDbLine
 10
-113.1888526499096
 20
1894.228856201742
 30
0.0
 11
-113.1888526499096
 21
2142.78147555086
 31
0.0
  0
LINE
  5
A85
330
A77
100
AcDbEntity
  8
P-07B0
  6
Continuous
 62
     2
370
    -2
100
AcDbLine
 10
-328.1900454176386
 20
1734.303452925807
 30
0.0
 11
-328.1900454176386
 21
2142.78147555086
 31
0.0
  0
LINE
  5
A86
330
A77
100
AcDbEntity
  8
P-07B0
  6
Continuous
 62
     2
370
    -2
100
AcDbLine
 10
-133.1888526499096
 20
2127.78147555086
 30
0.0
 11
-308.1900454176385
 21
2127.78147555086
 31
0.0
  0
SOLID
  5
A87
330
A77
100
AcDbEntity
  8
P-07B0
  6
Continuous
 62
     2
100
AcDbTrace
 10
-133.1888526499096
 20
2131.114808884193
 30
0.0
 11
-133.1888526499096
 21
2124.448142217526
 31
0.0
 12
-113.1888526499096
 22
2127.78147555086
 32
0.0
 13
-113.1888526499096
 23
2127.78147555086
 33
0.0
  0
SOLID
  5
A88
330
A77
100
AcDbEntity
  8
P-07B0
  6
Continuous
 62
     2
100
AcDbTrace
 10
-308.1900454176385
 20
2131.114808884193
 30
0.0
 11
-308.1900454176385
 21
2124.448142217526
 31
0.0
 12
-328.1900454176386
 22
2127.78147555086
 32
0.0
 13
-328.1900454176386
 23
2127.78147555086
 33
0.0
  0
MTEXT
  5
A89
330
A77
100
AcDbEntity
  8
P-07B0
  6
Continuous
 62
     1
100
AcDbMText
 10
-220.6894490337741
 20
2148.007423072725
 30
0.0
 40
20.0
 41
0.0
 71
     5
 72
     1
  1
\A1;21.5
  7
Stile_Quota
 73
     1
 44
1.0
1001
ACAD
1000
MTEXTBEGIN
1070
    73
1070
     1
1070
    44
1040
1.0
1070
    74
1070
     0
1000
MTEXTEND
  0
POINT
  5
A8A
330
A77
100
AcDbEntity
  8
Defpoints
  6
Continuous
 62
     0
100
AcDbPoint
 10
-113.1888526499096
 20
1884.228856201742
 30
0.0
  0
POINT
  5
A8B
330
A77
100
AcDbEntity
  8
Defpoints
  6
Continuous
 62
     0
100
AcDbPoint
 10
-328.1900454176386
 20
1724.303452925807
 30
0.0
  0
POINT
  5
A8C
330
A77
100
AcDbEntity
  8
Defpoints
  6
Continuous
 62
     0
100
AcDbPoint
 10
-328.1900454176386
 20
2127.78147555086
 30
0.0
  0
ENDBLK
  5
A79
330
A77
100
AcDbEntity
  8
0
 62
     3
100
AcDbBlockEnd
  0
BLOCK
  5
A93
330
A92
100
AcDbEntity
  8
0
 62
     3
100
AcDbBlockBegin
  2
*D9
 70
     1
 10
0.0
 20
0.0
 30
0.0
  3
*D9
  1

  0
LINE
  5
106A
330
A92
100
AcDbEntity
  8
P-07B0
  6
Continuous
 62
     2
370
    -2
100
AcDbLine
 10
-263.5712268077081
 20
1697.161582846545
 30
0.0
 11
-306.9038917196183
 21
1697.161582846545
 31
0.0
  0
LINE
  5
106B
330
A92
100
AcDbEntity
  8
P-07B0
  6
Continuous
 62
     2
370
    -2
100
AcDbLine
 10
-281.0708463847501
 20
1687.161582846545
 30
0.0
 11
-306.9038917196183
 21
1687.161582846545
 31
0.0
  0
LINE
  5
106C
330
A92
100
AcDbEntity
  8
P-07B0
  6
Continuous
 62
     2
370
    -2
100
AcDbLine
 10
-291.9038917196184
 20
1717.161582846545
 30
0.0
 11
-291.9038917196184
 21
1737.161582846544
 31
0.0
  0
LINE
  5
106D
330
A92
100
AcDbEntity
  8
P-07B0
  6
Continuous
 62
     2
370
    -2
100
AcDbLine
 10
-291.9038917196184
 20
1667.161582846545
 30
0.0
 11
-291.9038917196184
 21
1617.278200922347
 31
0.0
  0
LINE
  5
106E
330
A92
100
AcDbEntity
  8
P-07B0
  6
Continuous
 62
     2
370
    -2
100
AcDbLine
 10
-291.9038917196184
 20
1697.161582846545
 30
0.0
 11
-291.9038917196184
 21
1687.161582846545
 31
0.0
  0
SOLID
  5
106F
330
A92
100
AcDbEntity
  8
P-07B0
  6
Continuous
 62
     2
100
AcDbTrace
 10
-295.2372250529517
 20
1717.161582846545
 30
0.0
 11
-288.570558386285
 21
1717.161582846545
 31
0.0
 12
-291.9038917196184
 22
1697.161582846545
 32
0.0
 13
-291.9038917196184
 23
1697.161582846545
 33
0.0
  0
SOLID
  5
1070
330
A92
100
AcDbEntity
  8
P-07B0
  6
Continuous
 62
     2
100
AcDbTrace
 10
-295.2372250529517
 20
1667.161582846545
 30
0.0
 11
-288.570558386285
 21
1667.161582846545
 31
0.0
 12
-291.9038917196184
 22
1687.161582846545
 32
0.0
 13
-291.9038917196184
 23
1687.161582846545
 33
0.0
  0
MTEXT
  5
1071
330
A92
100
AcDbEntity
  8
P-07B0
  6
Continuous
 62
     1
100
AcDbMText
 10
-311.9038917196186
 20
1632.219891884445
 30
0.0
 40
20.0
 41
0.0
 71
     5
 72
     1
  1
\A1;1
  7
Stile_Quota
 11
0.0000000000000001
 21
1.0
 31
0.0
 73
     1
 44
1.0
1001
ACAD
1000
MTEXTBEGIN
1070
    73
1070
     1
1070
    44
1040
1.0
1070
    74
1070
     0
1000
MTEXTEND
  0
POINT
  5
1072
330
A92
100
AcDbEntity
  8
Defpoints
  6
Continuous
 62
     0
100
AcDbPoint
 10
-253.5712268077081
 20
1697.161582846545
 30
0.0
  0
POINT
  5
1073
330
A92
100
AcDbEntity
  8
Defpoints
  6
Continuous
 62
     0
100
AcDbPoint
 10
-271.0708463847501
 20
1687.161582846545
 30
0.0
  0
POINT
  5
1074
330
A92
100
AcDbEntity
  8
Defpoints
  6
Continuous
 62
     0
100
AcDbPoint
 10
-291.9038917196184
 20
1687.161582846545
 30
0.0
  0
ENDBLK
  5
A94
330
A92
100
AcDbEntity
  8
0
 62
     3
100
AcDbBlockEnd
  0
BLOCK
  5
AAC
330
AAB
100
AcDbEntity
  8
0
 62
     3
100
AcDbBlockBegin
  2
*D10
 70
     1
 10
0.0
 20
0.0
 30
0.0
  3
*D10
  1

  0
LINE
  5
FED
330
AAB
100
AcDbEntity
  8
P-07B0
  6
Continuous
 62
     2
370
    -2
100
AcDbLine
 10
-257.1018429467263
 20
1882.590728332888
 30
0.0
 11
-319.2212391513217
 21
1986.281895454286
 31
0.0
  0
LINE
  5
FEE
330
AAB
100
AcDbEntity
  8
P-07B0
  6
Continuous
 62
     2
370
    -2
100
AcDbLine
 10
-160.7784888188708
 20
1721.805504702107
 30
0.0
 11
-246.8235250990774
 21
1865.433916792783
 31
0.0
  0
SOLID
  5
FEF
330
AAB
100
AcDbEntity
  8
P-07B0
  6
Continuous
 62
     2
100
AcDbTrace
 10
-254.2423743567086
 20
1884.303781307497
 30
0.0
 11
-259.9613115367439
 21
1880.87767535828
 31
0.0
 12
-246.8235250990774
 22
1865.433916792783
 32
0.0
 13
-246.8235250990774
 23
1865.433916792783
 33
0.0
  0
MTEXT
  5
FF0
330
AAB
100
AcDbEntity
  8
P-07B0
  6
Continuous
 62
     1
100
AcDbMText
 10
-277.6143240211622
 20
1956.329005318776
 30
0.0
 40
20.0
 41
0.0
 71
     5
 72
     1
  1
\A1;R16.7
  7
Stile_Quota
 11
0.5139158923824424
 21
-0.8578405770052835
 31
0.0
 73
     1
 44
1.0
1001
ACAD
1000
MTEXTBEGIN
1070
    73
1070
     1
1070
    44
1040
1.0
1070
    74
1070
     0
1000
MTEXTEND
  0
POINT
  5
FF1
330
AAB
100
AcDbEntity
  8
Defpoints
  6
Continuous
 62
     0
100
AcDbPoint
 10
-246.8235250990774
 20
1865.433916792783
 30
0.0
  0
POINT
  5
FF2
330
AAB
100
AcDbEntity
  8
Defpoints
  6
Continuous
 62
     0
100
AcDbPoint
 10
-160.7784888188708
 20
1721.805504702107
 30
0.0
  0
ENDBLK
  5
AAD
330
AAB
100
AcDbEntity
  8
0
 62
     3
100
AcDbBlockEnd
  0
BLOCK
  5
ABC
330
ABB
100
AcDbEntity
  8
0
 62
     3
100
AcDbBlockBegin
  2
*D11
 70
     1
 10
0.0
 20
0.0
 30
0.0
  3
*D11
  1

  0
LINE
  5
FF3
330
ABB
100
AcDbEntity
  8
P-07B0
  6
Continuous
 62
     2
370
    -2
100
AcDbLine
 10
-198.6101369928053
 20
1889.883634331303
 30
0.0
 11
-217.626532157871
 21
1976.583576269711
 31
0.0
  0
LINE
  5
FF4
330
ABB
100
AcDbEntity
  8
P-07B0
  6
Continuous
 62
     2
370
    -2
100
AcDbLine
 10
-162.188852644731
 20
1723.830961840504
 30
0.0
 11
-194.3252800103008
 21
1870.34802580125
 31
0.0
  0
SOLID
  5
FF5
330
ABB
100
AcDbEntity
  8
P-07B0
  6
Continuous
 62
     2
100
AcDbTrace
 10
-195.3542022377964
 20
1890.597777161721
 30
0.0
 11
-201.8660717478141
 21
1889.169491500886
 31
0.0
 12
-194.3252800103008
 22
1870.34802580125
 32
0.0
 13
-194.3252800103008
 23
1870.34802580125
 33
0.0
  0
MTEXT
  5
FF6
330
ABB
100
AcDbEntity
  8
P-07B0
  6
Continuous
 62
     1
100
AcDbMText
 10
-190.5044534197619
 20
1947.334674188876
 30
0.0
 40
20.0
 41
0.0
 71
     5
 72
     1
  1
\A1;R15
  7
Stile_Quota
 11
0.2142428491252231
 21
-0.9767804265026541
 31
0.0
 73
     1
 44
1.0
1001
ACAD
1000
MTEXTBEGIN
1070
    73
1070
     1
1070
    44
1040
1.0
1070
    74
1070
     0
1000
MTEXTEND
  0
POINT
  5
FF7
330
ABB
100
AcDbEntity
  8
Defpoints
  6
Continuous
 62
     0
100
AcDbPoint
 10
-194.3252800103008
 20
1870.34802580125
 30
0.0
  0
POINT
  5
FF8
330
ABB
100
AcDbEntity
  8
Defpoints
  6
Continuous
 62
     0
100
AcDbPoint
 10
-162.188852644731
 20
1723.830961840504
 30
0.0
  0
ENDBLK
  5
ABD
330
ABB
100
AcDbEntity
  8
0
 62
     3
100
AcDbBlockEnd
  0
BLOCK
  5
B12
330
B11
100
AcDbEntity
  8
0
 62
     3
100
AcDbBlockBegin
  2
*D12
 70
     1
 10
0.0
 20
0.0
 30
0.0
  3
*D12
  1

  0
LINE
  5
1075
330
B11
100
AcDbEntity
  8
P-07B0
  6
Continuous
 62
     2
370
    -2
100
AcDbLine
 10
-244.6890734386224
 20
1687.419247694931
 30
0.0
 11
-224.5277474505858
 21
1687.419247694931
 31
0.0
  0
LINE
  5
1076
330
B11
100
AcDbEntity
  8
P-07B0
  6
Continuous
 62
     2
370
    -2
100
AcDbLine
 10
-240.3706714581116
 20
1687.161582846545
 30
0.0
 11
-224.5277474505858
 21
1687.161582846545
 31
0.0
  0
LINE
  5
1077
330
B11
100
AcDbEntity
  8
P-07B0
  6
Continuous
 62
     2
370
    -2
100
AcDbLine
 10
-239.5277474505858
 20
1707.419247694931
 30
0.0
 11
-239.5277474505858
 21
1727.419247694931
 31
0.0
  0
LINE
  5
1078
330
B11
100
AcDbEntity
  8
P-07B0
  6
Continuous
 62
     2
370
    -2
100
AcDbLine
 10
-239.5277474505858
 20
1667.161582846545
 30
0.0
 11
-239.5277474505858
 21
1614.625139697857
 31
0.0
  0
LINE
  5
1079
330
B11
100
AcDbEntity
  8
P-07B0
  6
Continuous
 62
     2
370
    -2
100
AcDbLine
 10
-239.5277474505858
 20
1687.419247694931
 30
0.0
 11
-239.5277474505858
 21
1687.161582846545
 31
0.0
  0
SOLID
  5
107A
330
B11
100
AcDbEntity
  8
P-07B0
  6
Continuous
 62
     2
100
AcDbTrace
 10
-242.8610807839191
 20
1707.419247694931
 30
0.0
 11
-236.1944141172524
 21
1707.419247694931
 31
0.0
 12
-239.5277474505858
 22
1687.419247694931
 32
0.0
 13
-239.5277474505858
 23
1687.419247694931
 33
0.0
  0
SOLID
  5
107B
330
B11
100
AcDbEntity
  8
P-07B0
  6
Continuous
 62
     2
100
AcDbTrace
 10
-242.8610807839191
 20
1667.161582846545
 30
0.0
 11
-236.1944141172524
 21
1667.161582846545
 31
0.0
 12
-239.5277474505858
 22
1687.161582846545
 32
0.0
 13
-239.5277474505858
 23
1687.161582846545
 33
0.0
  0
MTEXT
  5
107C
330
B11
100
AcDbEntity
  8
P-07B0
  6
Continuous
 62
     1
100
AcDbMText
 10
-259.7536949724519
 20
1630.893361272201
 30
0.0
 40
20.0
 41
0.0
 71
     5
 72
     1
  1
\A1;0
  7
Stile_Quota
 11
0.0000000000000001
 21
1.0
 31
0.0
 73
     1
 44
1.0
1001
ACAD
1000
MTEXTBEGIN
1070
    73
1070
     1
1070
    44
1040
1.0
1070
    74
1070
     0
1000
MTEXTEND
  0
POINT
  5
107D
330
B11
100
AcDbEntity
  8
Defpoints
  6
Continuous
 62
     0
100
AcDbPoint
 10
-254.6890734386225
 20
1687.419247694931
 30
0.0
  0
POINT
  5
107E
330
B11
100
AcDbEntity
  8
Defpoints
  6
Continuous
 62
     0
100
AcDbPoint
 10
-250.3706714581116
 20
1687.161582846545
 30
0.0
  0
POINT
  5
107F
330
B11
100
AcDbEntity
  8
Defpoints
  6
Continuous
 62
     0
100
AcDbPoint
 10
-239.5277474505858
 20
1687.161582846545
 30
0.0
  0
ENDBLK
  5
B13
330
B11
100
AcDbEntity
  8
0
 62
     3
100
AcDbBlockEnd
  0
BLOCK
  5
B39
330
B38
100
AcDbEntity
  8
0
 62
     3
100
AcDbBlockBegin
  2
*D13
 70
     1
 10
0.0
 20
0.0
 30
0.0
  3
*D13
  1

  0
LINE
  5
1091
330
B38
100
AcDbEntity
  8
P-07B0
  6
Continuous
 62
     2
370
    -2
100
AcDbLine
 10
-235.5350298216775
 20
1700.617609397089
 30
0.0
 11
-138.4750999496569
 21
1758.573751981418
 31
0.0
  0
LINE
  5
1092
330
B38
100
AcDbEntity
  8
P-07B0
  6
Continuous
 62
     2
370
    -2
100
AcDbLine
 10
-252.8784064847499
 20
1690.261582846235
 30
0.0
 11
-252.7066898841421
 21
1690.36411776257
 31
0.0
  0
SOLID
  5
1093
330
B38
100
AcDbEntity
  8
P-07B0
  6
Continuous
 62
     2
100
AcDbTrace
 10
-237.2439450940974
 20
1703.479552740833
 30
0.0
 11
-233.8261145492577
 21
1697.755666053345
 31
0.0
 12
-252.7066898841421
 22
1690.36411776257
 32
0.0
 13
-252.7066898841421
 23
1690.36411776257
 33
0.0
  0
MTEXT
  5
1094
330
B38
100
AcDbEntity
  8
P-07B0
  6
Continuous
 62
     1
100
AcDbMText
 10
-188.7885640402366
 20
1752.088081270879
 30
0.0
 40
20.0
 41
0.0
 71
     5
 72
     1
  1
\A1;R0.02
  7
Stile_Quota
 11
0.8585830031232248
 21
0.5126745817259759
 31
0.0
 73
     1
 44
1.0
1001
ACAD
1000
MTEXTBEGIN
1070
    73
1070
     1
1070
    44
1040
1.0
1070
    74
1070
     0
1000
MTEXTEND
  0
POINT
  5
1095
330
B38
100
AcDbEntity
  8
Defpoints
  6
Continuous
 62
     0
100
AcDbPoint
 10
-252.7066898841421
 20
1690.36411776257
 30
0.0
  0
POINT
  5
1096
330
B38
100
AcDbEntity
  8
Defpoints
  6
Continuous
 62
     0
100
AcDbPoint
 10
-252.8784064847499
 20
1690.261582846235
 30
0.0
  0
ENDBLK
  5
B3A
330
B38
100
AcDbEntity
  8
0
 62
     3
100
AcDbBlockEnd
  0
BLOCK
  5
B4B
330
B4A
100
AcDbEntity
  8
0
 62
     3
100
AcDbBlockBegin
  2
*D14
 70
     1
 10
0.0
 20
0.0
 30
0.0
  3
*D14
  1

  0
LINE
  5
C20
330
B4A
100
AcDbEntity
  8
P-07B0
  6
Continuous
 62
     2
370
    -2
100
AcDbLine
 10
-239.5230450996653
 20
1709.228856218242
 30
0.0
 11
-239.5230450996653
 21
1593.604670650275
 31
0.0
  0
LINE
  5
C21
330
B4A
100
AcDbEntity
  8
P-07B0
  6
Continuous
 62
     2
370
    -2
100
AcDbLine
 10
-156.8546601825536
 20
1709.228856218242
 30
0.0
 11
-156.8546601825536
 21
1593.604670650275
 31
0.0
  0
LINE
  5
C22
330
B4A
100
AcDbEntity
  8
P-07B0
  6
Continuous
 62
     2
370
    -2
100
AcDbLine
 10
-219.5230450996652
 20
1608.604670650275
 30
0.0
 11
-176.8546601825535
 21
1608.604670650275
 31
0.0
  0
SOLID
  5
C23
330
B4A
100
AcDbEntity
  8
P-07B0
  6
Continuous
 62
     2
100
AcDbTrace
 10
-219.5230450996652
 20
1611.938003983608
 30
0.0
 11
-219.5230450996652
 21
1605.271337316941
 31
0.0
 12
-239.5230450996653
 22
1608.604670650275
 32
0.0
 13
-239.5230450996653
 23
1608.604670650275
 33
0.0
  0
SOLID
  5
C24
330
B4A
100
AcDbEntity
  8
P-07B0
  6
Continuous
 62
     2
100
AcDbTrace
 10
-176.8546601825535
 20
1611.938003983608
 30
0.0
 11
-176.8546601825535
 21
1605.271337316941
 31
0.0
 12
-156.8546601825536
 22
1608.604670650275
 32
0.0
 13
-156.8546601825536
 23
1608.604670650275
 33
0.0
  0
MTEXT
  5
C25
330
B4A
100
AcDbEntity
  8
P-07B0
  6
Continuous
 62
     1
100
AcDbMText
 10
-212.0685744871389
 20
1628.903504469517
 30
0.0
 40
20.0
 41
0.0
 71
     5
 72
     1
  1
\A1;8.27
  7
Stile_Quota
 73
     1
 44
1.0
1001
ACAD
1000
MTEXTBEGIN
1070
    73
1070
     1
1070
    44
1040
1.0
1070
    74
1070
     0
1000
MTEXTEND
  0
POINT
  5
C26
330
B4A
100
AcDbEntity
  8
Defpoints
  6
Continuous
 62
     0
100
AcDbPoint
 10
-239.5230450996653
 20
1719.228856218242
 30
0.0
  0
POINT
  5
C27
330
B4A
100
AcDbEntity
  8
Defpoints
  6
Continuous
 62
     0
100
AcDbPoint
 10
-156.8546601825536
 20
1719.228856218242
 30
0.0
  0
POINT
  5
C28
330
B4A
100
AcDbEntity
  8
Defpoints
  6
Continuous
 62
     0
100
AcDbPoint
 10
-156.8546601825536
 20
1608.604670650275
 30
0.0
  0
ENDBLK
  5
B4C
330
B4A
100
AcDbEntity
  8
0
 62
     3
100
AcDbBlockEnd
  0
BLOCK
  5
B58
330
B57
100
AcDbEntity
  8
0
 62
     3
100
AcDbBlockBegin
  2
*D15
 70
     1
 10
0.0
 20
0.0
 30
0.0
  3
*D15
  1

  0
LINE
  5
B64
330
B57
100
AcDbEntity
  8
P-07B0
  6
Continuous
 62
     2
370
    -2
100
AcDbLine
 10
-198.1888526411094
 20
1704.272411426859
 30
0.0
 11
-198.1888526411094
 21
1543.259940948391
 31
0.0
  0
LINE
  5
B65
330
B57
100
AcDbEntity
  8
P-07B0
  6
Continuous
 62
     2
370
    -2
100
AcDbLine
 10
-113.1888526499096
 20
1712.228856217942
 30
0.0
 11
-113.1888526499097
 21
1543.259940948391
 31
0.0
  0
LINE
  5
B66
330
B57
100
AcDbEntity
  8
P-07B0
  6
Continuous
 62
     2
370
    -2
100
AcDbLine
 10
-178.1888526411094
 20
1558.259940948391
 30
0.0
 11
-133.1888526499096
 21
1558.259940948391
 31
0.0
  0
SOLID
  5
B67
330
B57
100
AcDbEntity
  8
P-07B0
  6
Continuous
 62
     2
100
AcDbTrace
 10
-178.1888526411094
 20
1561.593274281724
 30
0.0
 11
-178.1888526411094
 21
1554.926607615058
 31
0.0
 12
-198.1888526411094
 22
1558.259940948391
 32
0.0
 13
-198.1888526411094
 23
1558.259940948391
 33
0.0
  0
SOLID
  5
B68
330
B57
100
AcDbEntity
  8
P-07B0
  6
Continuous
 62
     2
100
AcDbTrace
 10
-133.1888526499096
 20
1561.593274281724
 30
0.0
 11
-133.1888526499096
 21
1554.926607615058
 31
0.0
 12
-113.1888526499097
 22
1558.259940948391
 32
0.0
 13
-113.1888526499097
 23
1558.259940948391
 33
0.0
  0
MTEXT
  5
B69
330
B57
100
AcDbEntity
  8
P-07B0
  6
Continuous
 62
     1
100
AcDbMText
 10
-155.6888526455095
 20
1578.485888470257
 30
0.0
 40
20.0
 41
0.0
 71
     5
 72
     1
  1
\A1;8.5
  7
Stile_Quota
 73
     1
 44
1.0
1001
ACAD
1000
MTEXTBEGIN
1070
    73
1070
     1
1070
    44
1040
1.0
1070
    74
1070
     0
1000
MTEXTEND
  0
POINT
  5
B6A
330
B57
100
AcDbEntity
  8
Defpoints
  6
Continuous
 62
     0
100
AcDbPoint
 10
-198.1888526411094
 20
1714.272411426858
 30
0.0
  0
POINT
  5
B6B
330
B57
100
AcDbEntity
  8
Defpoints
  6
Continuous
 62
     0
100
AcDbPoint
 10
-113.1888526499096
 20
1722.228856217942
 30
0.0
  0
POINT
  5
B6C
330
B57
100
AcDbEntity
  8
Defpoints
  6
Continuous
 62
     0
100
AcDbPoint
 10
-113.1888526499097
 20
1558.259940948391
 30
0.0
  0
ENDBLK
  5
B59
330
B57
100
AcDbEntity
  8
0
 62
     3
100
AcDbBlockEnd
  0
BLOCK
  5
B70
330
B6F
100
AcDbEntity
  8
0
 62
     3
100
AcDbBlockBegin
  2
*D16
 70
     1
 10
0.0
 20
0.0
 30
0.0
  3
*D16
  1

  0
LINE
  5
BF8
330
B6F
100
AcDbEntity
  8
P-07B0
  6
Continuous
 62
     2
370
    -2
100
AcDbLine
 10
-160.7784888188706
 20
1710.89510273659
 30
0.0
 11
-160.7784888188706
 21
1431.55138182619
 31
0.0
  0
LINE
  5
BF9
330
B6F
100
AcDbEntity
  8
P-07B0
  6
Continuous
 62
     2
370
    -2
100
AcDbLine
 10
-328.1900454176394
 20
1714.30345292576
 30
0.0
 11
-328.1900454176394
 21
1431.55138182619
 31
0.0
  0
LINE
  5
BFA
330
B6F
100
AcDbEntity
  8
P-07B0
  6
Continuous
 62
     2
370
    -2
100
AcDbLine
 10
-180.7784888188706
 20
1446.551381826189
 30
0.0
 11
-308.1900454176393
 21
1446.551381826189
 31
0.0
  0
SOLID
  5
BFB
330
B6F
100
AcDbEntity
  8
P-07B0
  6
Continuous
 62
     2
100
AcDbTrace
 10
-180.7784888188706
 20
1449.884715159523
 30
0.0
 11
-180.7784888188706
 21
1443.218048492856
 31
0.0
 12
-160.7784888188706
 22
1446.551381826189
 32
0.0
 13
-160.7784888188706
 23
1446.551381826189
 33
0.0
  0
SOLID
  5
BFC
330
B6F
100
AcDbEntity
  8
P-07B0
  6
Continuous
 62
     2
100
AcDbTrace
 10
-308.1900454176393
 20
1449.884715159523
 30
0.0
 11
-308.1900454176393
 21
1443.218048492856
 31
0.0
 12
-328.1900454176394
 22
1446.551381826189
 32
0.0
 13
-328.1900454176394
 23
1446.551381826189
 33
0.0
  0
MTEXT
  5
BFD
330
B6F
100
AcDbEntity
  8
P-07B0
  6
Continuous
 62
     1
100
AcDbMText
 10
-244.484267118255
 20
1466.850215645432
 30
0.0
 40
20.0
 41
0.0
 71
     5
 72
     1
  1
\A1;16.7
  7
Stile_Quota
 73
     1
 44
1.0
1001
ACAD
1000
MTEXTBEGIN
1070
    73
1070
     1
1070
    44
1040
1.0
1070
    74
1070
     0
1000
MTEXTEND
  0
POINT
  5
BFE
330
B6F
100
AcDbEntity
  8
Defpoints
  6
Continuous
 62
     0
100
AcDbPoint
 10
-160.7784888188706
 20
1720.89510273659
 30
0.0
  0
POINT
  5
BFF
330
B6F
100
AcDbEntity
  8
Defpoints
  6
Continuous
 62
     0
100
AcDbPoint
 10
-328.1900454176394
 20
1724.30345292576
 30
0.0
  0
POINT
  5
C00
330
B6F
100
AcDbEntity
  8
Defpoints
  6
Continuous
 62
     0
100
AcDbPoint
 10
-328.1900454176394
 20
1446.551381826189
 30
0.0
  0
ENDBLK
  5
B71
330
B6F
100
AcDbEntity
  8
0
 62
     3
100
AcDbBlockEnd
  0
BLOCK
  5
BBB
330
BBA
100
AcDbEntity
  8
0
 62
     3
100
AcDbBlockBegin
  2
*D17
 70
     1
 10
0.0
 20
0.0
 30
0.0
  3
*D17
  1

  0
LINE
  5
1086
330
BBA
100
AcDbEntity
  8
P-07B0
  6
Continuous
 62
     2
370
    -2
100
AcDbLine
 10
-244.8813399946333
 20
1687.621793408771
 30
0.0
 11
-219.1280696983511
 21
1687.621793408771
 31
0.0
  0
LINE
  5
1087
330
BBA
100
AcDbEntity
  8
P-07B0
  6
Continuous
 62
     2
370
    -2
100
AcDbLine
 10
-240.3706714581116
 20
1687.161582846545
 30
0.0
 11
-219.1280696983511
 21
1687.161582846545
 31
0.0
  0
LINE
  5
1088
330
BBA
100
AcDbEntity
  8
P-07B0
  6
Continuous
 62
     2
370
    -2
100
AcDbLine
 10
-234.1280696983511
 20
1707.621793408771
 30
0.0
 11
-234.1280696983511
 21
1727.621793408771
 31
0.0
  0
LINE
  5
1089
330
BBA
100
AcDbEntity
  8
P-07B0
  6
Continuous
 62
     2
370
    -2
100
AcDbLine
 10
-234.1280696983511
 20
1667.161582846545
 30
0.0
 11
-234.1280696983511
 21
1614.625139697857
 31
0.0
  0
LINE
  5
108A
330
BBA
100
AcDbEntity
  8
P-07B0
  6
Continuous
 62
     2
370
    -2
100
AcDbLine
 10
-234.1280696983511
 20
1687.621793408771
 30
0.0
 11
-234.1280696983511
 21
1687.161582846545
 31
0.0
  0
SOLID
  5
108B
330
BBA
100
AcDbEntity
  8
P-07B0
  6
Continuous
 62
     2
100
AcDbTrace
 10
-237.4614030316844
 20
1707.621793408771
 30
0.0
 11
-230.7947363650177
 21
1707.621793408771
 31
0.0
 12
-234.1280696983511
 22
1687.621793408771
 32
0.0
 13
-234.1280696983511
 23
1687.621793408771
 33
0.0
  0
SOLID
  5
108C
330
BBA
100
AcDbEntity
  8
P-07B0
  6
Continuous
 62
     2
100
AcDbTrace
 10
-237.4614030316844
 20
1667.161582846545
 30
0.0
 11
-230.7947363650177
 21
1667.161582846545
 31
0.0
 12
-234.1280696983511
 22
1687.161582846545
 32
0.0
 13
-234.1280696983511
 23
1687.161582846545
 33
0.0
  0
MTEXT
  5
108D
330
BBA
100
AcDbEntity
  8
P-07B0
  6
Continuous
 62
     1
100
AcDbMText
 10
-254.3540172202172
 20
1630.893361272201
 30
0.0
 40
20.0
 41
0.0
 71
     5
 72
     1
  1
\A1;0
  7
Stile_Quota
 11
0.0000000000000001
 21
1.0
 31
0.0
 73
     1
 44
1.0
1001
ACAD
1000
MTEXTBEGIN
1070
    73
1070
     1
1070
    44
1040
1.0
1070
    74
1070
     0
1000
MTEXTEND
  0
POINT
  5
108E
330
BBA
100
AcDbEntity
  8
Defpoints
  6
Continuous
 62
     0
100
AcDbPoint
 10
-254.8813399946333
 20
1687.621793408771
 30
0.0
  0
POINT
  5
108F
330
BBA
100
AcDbEntity
  8
Defpoints
  6
Continuous
 62
     0
100
AcDbPoint
 10
-250.3706714581116
 20
1687.161582846545
 30
0.0
  0
POINT
  5
1090
330
BBA
100
AcDbEntity
  8
Defpoints
  6
Continuous
 62
     0
100
AcDbPoint
 10
-234.1280696983511
 20
1687.161582846545
 30
0.0
  0
ENDBLK
  5
BBC
330
BBA
100
AcDbEntity
  8
0
 62
     3
100
AcDbBlockEnd
  0
BLOCK
  5
BE2
330
BE1
100
AcDbEntity
  8
0
 62
     3
100
AcDbBlockBegin
  2
*D18
 70
     1
 10
0.0
 20
0.0
 30
0.0
  3
*D18
  1

  0
LINE
  5
BEE
330
BE1
100
AcDbEntity
  8
P-07B0
  6
Continuous
 62
     2
370
    -2
100
AcDbLine
 10
-162.1888526447308
 20
1712.749902826759
 30
0.0
 11
-162.1888526447308
 21
1486.953508860669
 31
0.0
  0
LINE
  5
BEF
330
BE1
100
AcDbEntity
  8
P-07B0
  6
Continuous
 62
     2
370
    -2
100
AcDbLine
 10
-328.1900454176394
 20
1714.30345292576
 30
0.0
 11
-328.1900454176394
 21
1486.953508860669
 31
0.0
  0
LINE
  5
BF0
330
BE1
100
AcDbEntity
  8
P-07B0
  6
Continuous
 62
     2
370
    -2
100
AcDbLine
 10
-182.1888526447308
 20
1501.953508860669
 30
0.0
 11
-308.1900454176393
 21
1501.953508860669
 31
0.0
  0
SOLID
  5
BF1
330
BE1
100
AcDbEntity
  8
P-07B0
  6
Continuous
 62
     2
100
AcDbTrace
 10
-182.1888526447308
 20
1505.286842194002
 30
0.0
 11
-182.1888526447308
 21
1498.620175527336
 31
0.0
 12
-162.1888526447308
 22
1501.953508860669
 32
0.0
 13
-162.1888526447308
 23
1501.953508860669
 33
0.0
  0
SOLID
  5
BF2
330
BE1
100
AcDbEntity
  8
P-07B0
  6
Continuous
 62
     2
100
AcDbTrace
 10
-308.1900454176393
 20
1505.286842194002
 30
0.0
 11
-308.1900454176393
 21
1498.620175527336
 31
0.0
 12
-328.1900454176394
 22
1501.953508860669
 32
0.0
 13
-328.1900454176394
 23
1501.953508860669
 33
0.0
  0
MTEXT
  5
BF3
330
BE1
100
AcDbEntity
  8
P-07B0
  6
Continuous
 62
     1
100
AcDbMText
 10
-245.189449031185
 20
1522.179456382535
 30
0.0
 40
20.0
 41
0.0
 71
     5
 72
     1
  1
\A1;16.6
  7
Stile_Quota
 73
     1
 44
1.0
1001
ACAD
1000
MTEXTBEGIN
1070
    73
1070
     1
1070
    44
1040
1.0
1070
    74
1070
     0
1000
MTEXTEND
  0
POINT
  5
BF4
330
BE1
100
AcDbEntity
  8
Defpoints
  6
Continuous
 62
     0
100
AcDbPoint
 10
-162.1888526447308
 20
1722.74990282676
 30
0.0
  0
POINT
  5
BF5
330
BE1
100
AcDbEntity
  8
Defpoints
  6
Continuous
 62
     0
100
AcDbPoint
 10
-328.1900454176394
 20
1724.30345292576
 30
0.0
  0
POINT
  5
BF6
330
BE1
100
AcDbEntity
  8
Defpoints
  6
Continuous
 62
     0
100
AcDbPoint
 10
-328.1900454176394
 20
1501.953508860669
 30
0.0
  0
ENDBLK
  5
BE3
330
BE1
100
AcDbEntity
  8
0
 62
     3
100
AcDbBlockEnd
  0
BLOCK
  5
C2B
330
C2A
100
AcDbEntity
  8
0
 62
     3
100
AcDbBlockBegin
  2
*D19
 70
     1
 10
0.0
 20
0.0
 30
0.0
  3
*D19
  1

  0
LINE
  5
C39
330
C2A
100
AcDbEntity
  8
P-07B0
  6
Continuous
 62
     2
370
    -2
100
AcDbLine
 10
-134.5341521085958
 20
1757.889110253085
 30
0.0
 11
81.53773441771784
 21
2132.136595803929
 31
0.0
  0
LINE
  5
C3A
330
C2A
100
AcDbEntity
  8
P-07B0
  6
Continuous
 62
     2
370
    -2
100
AcDbLine
 10
-261.8435531736253
 20
1757.889110253088
 30
0.0
 11
-477.9154396999564
 21
2132.136595803913
 31
0.0
  0
ARC
  5
C3B
330
C2A
100
AcDbEntity
  8
P-07B0
  6
Continuous
 62
     2
370
    -2
100
AcDbCircle
 10
-198.1888526411054
 20
1647.635934790193
 30
0.0
 40
544.4531741176591
100
AcDbArc
 50
62.10482752854098
 51
117.8951724714623
  0
SOLID
  5
C3C
330
C2A
100
AcDbEntity
  8
P-07B0
  6
Continuous
 62
     2
100
AcDbTrace
 10
58.14984199453025
 20
2131.743277319854
 30
0.0
 11
54.92311318301858
 21
2125.90952504354
 31
0.0
 12
74.03773441771801
 22
2119.146214747162
 32
0.0
 13
74.03773441771801
 23
2119.146214747162
 33
0.0
  0
SOLID
  5
C3D
330
C2A
100
AcDbEntity
  8
P-07B0
  6
Continuous
 62
     2
100
AcDbTrace
 10
-451.3008184652568
 20
2125.909525043525
 30
0.0
 11
-454.5275472767688
 21
2131.74327731984
 31
0.0
 12
-470.4154396999558
 22
2119.146214747146
 32
0.0
 13
-470.4154396999558
 23
2119.146214747146
 33
0.0
  0
MTEXT
  5
C3E
330
C2A
100
AcDbEntity
  8
P-07B0
  6
Continuous
 62
     1
100
AcDbMText
 10
-198.188852641121
 20
2212.315056429718
 30
0.0
 40
20.0
 41
0.0
 71
     5
 72
     1
  1
\A1;60\U+00B0
  7
Stile_Quota
 73
     1
 44
1.0
1001
ACAD
1000
MTEXTBEGIN
1070
    73
1070
     1
1070
    44
1040
1.0
1070
    74
1070
     0
1000
MTEXTEND
  0
POINT
  5
C3F
330
C2A
100
AcDbEntity
  8
Defpoints
  6
Continuous
 62
     0
100
AcDbPoint
 10
-103.6455511306106
 20
2183.817641813372
 30
0.0
  0
POINT
  5
C40
330
C2A
100
AcDbEntity
  8
Defpoints
  6
Continuous
 62
     0
100
AcDbPoint
 10
-243.8531721181542
 20
1726.728856217491
 30
0.0
  0
POINT
  5
C41
330
C2A
100
AcDbEntity
  8
Defpoints
  6
Continuous
 62
     0
100
AcDbPoint
 10
-152.5245331640617
 20
1726.728856217492
 30
0.0
  0
POINT
  5
C42
330
C2A
100
AcDbEntity
  8
Defpoints
  6
Continuous
 62
     0
100
AcDbPoint
 10
-139.5341521085956
 20
1749.22885621524
 30
0.0
  0
POINT
  5
C43
330
C2A
100
AcDbEntity
  8
Defpoints
  6
Continuous
 62
     0
100
AcDbPoint
 10
-256.843553173625
 20
1749.228856215244
 30
0.0
  0
ENDBLK
  5
C2C
330
C2A
100
AcDbEntity
  8
0
 62
     3
100
AcDbBlockEnd
  0
BLOCK
  5
CB7
330
CB6
100
AcDbEntity
  8
0
100
AcDbBlockBegin
  2
A$C002022D9
 70
     0
 10
0.0
 20
0.0
 30
0.0
  3
A$C002022D9
  1

  0
CIRCLE
  5
CB8
330
CB6
100
AcDbEntity
  8
2
 62
     0
100
AcDbCircle
 10
10.48566487356584
 20
10.48566859561924
 30
0.0
 40
8.5
1001
TOP
1070
   256
  0
LINE
  5
CB9
330
CB6
100
AcDbEntity
  8
2
 62
     0
100
AcDbLine
 10
6.625201661480787
 20
11.23566859561924
 30
0.0
 11
8.735664873564928
 21
11.23566859561924
 31
0.0
1001
TOP
1070
   256
  0
CIRCLE
  5
CBA
330
CB6
100
AcDbEntity
  8
2
 62
     0
100
AcDbCircle
 10
10.48566487356584
 20
10.48566859561924
 30
0.0
 40
5.5
1001
TOP
1070
   256
  0
CIRCLE
  5
CBB
330
CB6
100
AcDbEntity
  8
2
 62
     0
100
AcDbCircle
 10
10.48566487356584
 20
10.48566859561924
 30
0.0
 40
5.0
1001
TOP
1070
   256
  0
LINE
  5
CBC
330
CB6
100
AcDbEntity
  8
2
 62
     0
100
AcDbLine
 10
9.735664873566747
 20
14.34613180770429
 30
0.0
 11
9.735664873564928
 21
12.23566859561924
 31
0.0
1001
TOP
1070
   256
  0
LINE
  5
CBD
330
CB6
100
AcDbEntity
  8
2
 62
     0
100
AcDbLine
 10
11.23566487356584
 20
14.34613180770429
 30
0.0
 11
11.23566487356584
 21
12.23566859561924
 31
0.0
1001
TOP
1070
   256
  0
LINE
  5
CBE
330
CB6
100
AcDbEntity
  8
2
 62
     0
100
AcDbLine
 10
6.625201661480787
 20
9.735668595619245
 30
0.0
 11
8.735664873565838
 21
9.735668595619245
 31
0.0
1001
TOP
1070
   256
  0
LINE
  5
CBF
330
CB6
100
AcDbEntity
  8
2
 62
     0
100
AcDbLine
 10
12.23566487356584
 20
11.23566859561924
 30
0.0
 11
14.34612808565089
 21
11.23566859561924
 31
0.0
1001
TOP
1070
   256
  0
LINE
  5
CC0
330
CB6
100
AcDbEntity
  8
2
 62
     0
100
AcDbLine
 10
9.735664873565838
 20
8.735668595619245
 30
0.0
 11
9.735664873566747
 21
6.625205383534193
 31
0.0
1001
TOP
1070
   256
  0
LINE
  5
CC1
330
CB6
100
AcDbEntity
  8
2
 62
     0
100
AcDbLine
 10
12.23566487356675
 20
9.735668595619245
 30
0.0
 11
14.34612808565089
 21
9.735668595618335
 31
0.0
1001
TOP
1070
   256
  0
LINE
  5
CC2
330
CB6
100
AcDbEntity
  8
2
 62
     0
100
AcDbLine
 10
11.23566487356675
 20
8.735668595619245
 30
0.0
 11
11.23566487356765
 21
6.625205383534193
 31
0.0
1001
TOP
1070
   256
  0
ARC
  5
CC3
330
CB6
100
AcDbEntity
  8
2
 62
     0
100
AcDbCircle
 10
12.23566487356584
 20
12.23566859561924
 30
0.0
 40
1.0
100
AcDbArc
 50
180.0000000000124
 51
270.0
1001
TOP
1070
   256
  0
ARC
  5
CC4
330
CB6
100
AcDbEntity
  8
2
 62
     0
100
AcDbCircle
 10
12.23566487356675
 20
8.735668595619245
 30
0.0
 40
1.0
100
AcDbArc
 50
89.99999999998756
 51
180.0
1001
TOP
1070
   256
  0
ARC
  5
CC5
330
CB6
100
AcDbEntity
  8
2
 62
     0
100
AcDbCircle
 10
8.735664873565838
 20
8.735668595619245
 30
0.0
 40
1.0
100
AcDbArc
 50
0.0000000000124169
 51
90.0
1001
TOP
1070
   256
  0
ARC
  5
CC6
330
CB6
100
AcDbEntity
  8
2
 62
     0
100
AcDbCircle
 10
8.735664873564928
 20
12.23566859561924
 30
0.0
 40
1.0
100
AcDbArc
 50
270.0
 51
359.9999999999876
1001
TOP
1070
   256
  0
ARC
  5
CC7
330
CB6
100
AcDbEntity
  8
2
 62
     0
100
AcDbCircle
 10
10.48566487356584
 20
10.48566859561924
 30
0.0
 40
3.932642395624498
100
AcDbArc
 50
349.0056925043656
 51
10.99430749562142
1001
TOP
1070
   256
  0
ARC
  5
CC8
330
CB6
100
AcDbEntity
  8
2
 62
     0
100
AcDbCircle
 10
10.48566487356584
 20
10.48566859561924
 30
0.0
 40
3.932642395624498
100
AcDbArc
 50
79.00569250439158
 51
100.9943074956084
1001
TOP
1070
   256
  0
ARC
  5
CC9
330
CB6
100
AcDbEntity
  8
2
 62
     0
100
AcDbCircle
 10
10.48566487356584
 20
10.48566859561924
 30
0.0
 40
3.932642395624498
100
AcDbArc
 50
169.0056925043916
 51
190.9943074956084
1001
TOP
1070
   256
  0
ARC
  5
CCA
330
CB6
100
AcDbEntity
  8
2
 62
     0
100
AcDbCircle
 10
10.48566487356584
 20
10.48566859561924
 30
0.0
 40
3.932642395624498
100
AcDbArc
 50
259.0056925044046
 51
280.9943074956344
1001
TOP
1070
   256
  0
LINE
  5
CCB
330
CB6
100
AcDbEntity
  8
SOTTILI
  6
DASHDOTX2
 62
     0
100
AcDbLine
 10
10.48566487356584
 20
20.97134054013259
 30
0.0
 11
10.48566487356584
 21
-0.0000033488931876
 31
0.0
1001
TOP
1070
   256
  0
LINE
  5
CCC
330
CB6
100
AcDbEntity
  8
SOTTILI
  6
DASHDOTX2
 62
     0
100
AcDbLine
 10
-0.000007070947504
 20
10.48566859561924
 30
0.0
 11
20.97133681807827
 21
10.48566859561924
 31
0.0
1001
TOP
1070
   256
  0
ENDBLK
  5
CCD
330
CB6
100
AcDbEntity
  8
0
100
AcDbBlockEnd
  0
BLOCK
  5
FE1
330
FE0
100
AcDbEntity
  8
0
 62
     7
100
AcDbBlockBegin
  2
*D22
 70
     1
 10
0.0
 20
0.0
 30
0.0
  3
*D22
  1

  0
MTEXT
  5
FE3
330
FE0
100
AcDbEntity
  8
P-740C
  6
Continuous
 62
    30
100
AcDbMText
 10
1707.505104791452
 20
1776.738998198243
 30
0.0
 40
20.0
 41
0.0
 71
     5
 72
     1
  1
\A1;1000
  7
Stile_Quota_FISSO
 73
     1
 44
1.0
1001
ACAD
1000
MTEXTBEGIN
1070
    73
1070
     1
1070
    44
1040
1.0
1070
    74
1070
     0
1000
MTEXTEND
  0
POINT
  5
FE4
330
FE0
100
AcDbEntity
  8
Defpoints
  6
Continuous
 62
     0
100
AcDbPoint
 10
1207.505104791455
 20
1731.805378655425
 30
0.0
  0
POINT
  5
FE5
330
FE0
100
AcDbEntity
  8
Defpoints
  6
Continuous
 62
     0
100
AcDbPoint
 10
2207.505104791455
 20
1731.805378655425
 30
0.0
  0
POINT
  5
FE6
330
FE0
100
AcDbEntity
  8
Defpoints
  6
Continuous
 62
     0
100
AcDbPoint
 10
2207.505104791455
 20
1776.738998198243
 30
0.0
  0
ENDBLK
  5
FE2
330
FE0
100
AcDbEntity
  8
0
 62
     7
100
AcDbBlockEnd
  0
BLOCK
  5
101D
330
101C
100
AcDbEntity
  8
0
 62
     7
100
AcDbBlockBegin
  2
*D23
 70
     1
 10
0.0
 20
0.0
 30
0.0
  3
*D23
  1

  0
LINE
  5
1029
330
101C
100
AcDbEntity
  8
P-0000
  6
Continuous
 62
     2
370
    -2
100
AcDbLine
 10
-108.1888526494094
 20
1889.228856201242
 30
0.0
 11
-101.1888526496095
 21
1889.228856201242
 31
0.0
  0
LINE
  5
102A
330
101C
100
AcDbEntity
  8
P-0000
  6
Continuous
 62
     2
370
    -2
100
AcDbLine
 10
-108.1888526494095
 20
1719.228856218241
 30
0.0
 11
-101.1888526496095
 21
1719.228856218241
 31
0.0
  0
LINE
  5
102B
330
101C
100
AcDbEntity
  8
P-0000
  6
Continuous
 62
     2
370
    -2
100
AcDbLine
 10
-116.1888526496095
 20
1869.228856201242
 30
0.0
 11
-116.1888526496095
 21
1739.228856218241
 31
0.0
  0
SOLID
  5
102C
330
101C
100
AcDbEntity
  8
P-0000
  6
Continuous
 62
     2
100
AcDbTrace
 10
-119.5221859829428
 20
1869.228856201242
 30
0.0
 11
-112.8555193162762
 21
1869.228856201242
 31
0.0
 12
-116.1888526496095
 22
1889.228856201242
 32
0.0
 13
-116.1888526496095
 23
1889.228856201242
 33
0.0
  0
SOLID
  5
102D
330
101C
100
AcDbEntity
  8
P-0000
  6
Continuous
 62
     2
100
AcDbTrace
 10
-119.5221859829429
 20
1739.228856218241
 30
0.0
 11
-112.8555193162762
 21
1739.228856218241
 31
0.0
 12
-116.1888526496095
 22
1719.228856218241
 32
0.0
 13
-116.1888526496095
 23
1719.228856218241
 33
0.0
  0
MTEXT
  5
102E
330
101C
100
AcDbEntity
  8
P-0000
  6
Continuous
 62
     1
100
AcDbMText
 10
-136.4876864688518
 20
1804.228856209742
 30
0.0
 40
20.0
 41
0.0
 71
     5
 72
     1
  1
\A1;170
  7
Stile_Quota
 11
0.0000000000000001
 21
1.0
 31
0.0
 73
     1
 44
1.0
1001
ACAD
1000
MTEXTBEGIN
1070
    73
1070
     1
1070
    44
1040
1.0
1070
    74
1070
     0
1000
MTEXTEND
  0
POINT
  5
102F
330
101C
100
AcDbEntity
  8
Defpoints
  6
Continuous
 62
     0
100
AcDbPoint
 10
-118.1888526494094
 20
1889.228856201242
 30
0.0
  0
POINT
  5
1030
330
101C
100
AcDbEntity
  8
Defpoints
  6
Continuous
 62
     0
100
AcDbPoint
 10
-118.1888526494095
 20
1719.228856218241
 30
0.0
  0
POINT
  5
1031
330
101C
100
AcDbEntity
  8
Defpoints
  6
Continuous
 62
     0
100
AcDbPoint
 10
-116.1888526496095
 20
1719.228856218241
 30
0.0
  0
ENDBLK
  5
101E
330
101C
100
AcDbEntity
  8
0
 62
     7
100
AcDbBlockEnd
  0
ENDSEC
  0
SECTION
  2
ENTITIES
  0
LINE
  5
997
330
2
100
AcDbEntity
  8
P-07B0
  6
Continuous
 62
   144
100
AcDbLine
 10
15.38444319948033
 20
-1.249999999874944
 30
0.0
 11
16.68348130502693
 21
0.9999999998997282
 31
0.0
1001
OrigLayer
1000
P-0000
1001
TOP
1070
     7
  0
ARC
  5
998
330
2
100
AcDbEntity
  8
P-07B0
  6
Continuous
 62
   144
100
AcDbCircle
 10
1.476560247886595
 20
4.999999999500005
 30
0.0
 40
0.49999999995
100
AcDbArc
 50
90.0
 51
153.1908575464935
1001
ACAD
1000
ASC_BOUNDS
1002
{
1070
    19
1005
7D8
1002
}
1001
OrigLayer
1000
P-0000
1001
TOP
1070
     7
  0
LINE
  5
999
330
2
100
AcDbEntity
  8
P-07B0
  6
Continuous
 62
   144
100
AcDbLine
 10
1.476560247886595
 20
5.49999999945021
 30
0.0
 11
6.31801125219556
 21
5.49999999945021
 31
0.0
1001
ACAD
1000
ASC_BOUNDS
1002
{
1070
    19
1005
7D8
1002
}
1001
OrigLayer
1000
P-0000
1001
TOP
1070
     7
  0
ARC
  5
99A
330
2
100
AcDbEntity
  8
P-07B0
  6
Continuous
 62
   144
100
AcDbCircle
 10
14.41801125141339
 20
-1.539789437573972
 30
0.0
 40
14.9999999985
100
AcDbArc
 50
153.1908575464935
 51
173.9041312721607
1001
ACAD
1000
ASC_BOUNDS
1002
{
1070
    19
1005
7D8
1002
}
1001
OrigLayer
1000
P-0000
1001
TOP
1070
     7
  0
ARC
  5
99B
330
2
100
AcDbEntity
  8
P-07B0
  6
Continuous
 62
   144
100
AcDbCircle
 10
0.0
 20
0.0
 30
0.0
 40
0.49999999995
100
AcDbArc
 50
173.9041312721607
 51
270.0
1001
ACAD
1000
ASC_BOUNDS
1002
{
1070
    19
1005
7D8
1002
}
1001
OrigLayer
1000
P-0000
1001
TOP
1070
     7
  0
ARC
  5
99C
330
2
100
AcDbEntity
  8
P-07B0
  6
Continuous
 62
   144
100
AcDbCircle
 10
2.544806171845891
 20
0.0
 30
0.0
 40
0.49999999995
100
AcDbArc
 50
270.0
 51
0.0
1001
ACAD
1000
ASC_BOUNDS
1002
{
1070
    19
1005
7D8
1002
}
1001
OrigLayer
1000
P-0000
1001
TOP
1070
     7
  0
LINE
  5
99D
330
2
100
AcDbEntity
  8
P-07B0
  6
Continuous
 62
   144
100
AcDbLine
 10
0.0
 20
-0.4999999999499778
 30
0.0
 11
2.544806171845891
 21
-0.4999999999499778
 31
0.0
1001
ACAD
1000
ASC_BOUNDS
1002
{
1070
    19
1005
7D8
1002
}
1001
OrigLayer
1000
P-0000
1001
TOP
1070
     7
  0
ARC
  5
99E
330
2
100
AcDbEntity
  8
P-07B0
  6
Continuous
 62
   144
100
AcDbCircle
 10
5.125746279263694
 20
1.099999999890087
 30
0.0
 40
0.19999999998
100
AcDbArc
 50
90.0
 51
209.9999999999698
1001
ACAD
1000
ASC_BOUNDS
1002
{
1070
    19
1005
7D8
1002
}
1001
OrigLayer
1000
P-0000
1001
TOP
1070
     7
  0
ARC
  5
99F
330
2
100
AcDbEntity
  8
P-07B0
  6
Continuous
 62
   144
100
AcDbCircle
 10
16.51027622428739
 20
1.09999999988986
 30
0.0
 40
0.19999999998
100
AcDbArc
 50
330.0000000000302
 51
90.0
1001
ACAD
1000
ASC_BOUNDS
1002
{
1070
    19
1005
7D8
1002
}
1001
OrigLayer
1000
P-0000
1001
TOP
1070
     7
  0
ARC
  5
9A0
330
2
100
AcDbEntity
  8
P-07B0
  6
Continuous
 62
   144
100
AcDbCircle
 10
15.81745590132905
 20
-1.49999999985016
 30
0.0
 40
0.49999999995
100
AcDbArc
 50
150.0000000000301
 51
270.0
1001
ACAD
1000
ASC_BOUNDS
1002
{
1070
    19
1005
7D8
1002
}
1001
OrigLayer
1000
P-0000
1001
TOP
1070
     7
  0
ARC
  5
9A1
330
2
100
AcDbEntity
  8
P-07B0
  6
Continuous
 62
   144
100
AcDbCircle
 10
5.818566602222006
 20
-1.49999999985016
 30
0.0
 40
0.49999999995
100
AcDbArc
 50
270.0
 51
29.99999999996984
1001
ACAD
1000
ASC_BOUNDS
1002
{
1070
    19
1005
7D8
1002
}
1001
OrigLayer
1000
P-0000
1001
TOP
1070
     7
  0
ARC
  5
9A2
330
2
100
AcDbEntity
  8
P-07B0
  6
Continuous
 62
   144
100
AcDbCircle
 10
19.01801125092552
 20
-1.699999999830197
 30
0.0
 40
0.29999999997
100
AcDbArc
 50
270.0
 51
0.0
1001
ACAD
1000
ASC_BOUNDS
1002
{
1070
    19
1005
7D8
1002
}
1001
OrigLayer
1000
P-0000
1001
TOP
1070
     7
  0
LINE
  5
9A3
330
2
100
AcDbEntity
  8
P-07B0
  6
Continuous
 62
   144
100
AcDbLine
 10
15.81745590132905
 20
-1.999999999800138
 30
0.0
 11
19.01801125092552
 21
-1.999999999800138
 31
0.0
1001
ACAD
1000
ASC_BOUNDS
1002
{
1070
    19
1005
7D8
1002
}
1001
OrigLayer
1000
P-0000
1001
TOP
1070
     7
  0
LINE
  5
9A4
330
2
100
AcDbEntity
  8
P-07B0
  6
Continuous
 62
   144
100
AcDbLine
 10
19.31801125089552
 20
14.49999999854981
 30
0.0
 11
19.31801125089552
 21
-1.699999999830197
 31
0.0
1001
ACAD
1000
ASC_BOUNDS
1002
{
1070
    19
1005
7D8
1005
7D8
1002
}
1001
OrigLayer
1000
P-0000
1001
TOP
1070
     7
  0
LINE
  5
9A5
330
2
100
AcDbEntity
  8
P-07B0
  6
Continuous
 62
   144
100
AcDbLine
 10
5.125746279263694
 20
1.299999999870351
 30
0.0
 11
16.51027622428739
 21
1.299999999869669
 31
0.0
1001
ACAD
1000
ASC_BOUNDS
1002
{
1070
    19
1005
7D8
1005
7D8
1002
}
1001
OrigLayer
1000
P-0000
1001
TOP
1070
     7
  0
ARC
  5
9A6
330
2
100
AcDbEntity
  8
P-07B0
  6
Continuous
 62
   144
100
AcDbCircle
 10
16.81801125114563
 20
3.19999999968013
 30
0.0
 40
0.49999999995
100
AcDbArc
 50
270.0
 51
0.0
1001
ACAD
1000
ASC_BOUNDS
1002
{
1070
    19
1005
7D8
1002
}
1001
OrigLayer
1000
P-0000
1001
TOP
1070
     7
  0
LINE
  5
9A7
330
2
100
AcDbEntity
  8
P-07B0
  6
Continuous
 62
   144
100
AcDbLine
 10
17.31801125109561
 20
3.19999999968013
 30
0.0
 11
17.31801125109561
 21
12.96128599729013
 31
0.0
1001
ACAD
1000
ASC_BOUNDS
1002
{
1070
    19
1005
7D8
1005
7D8
1002
}
1001
OrigLayer
1000
P-0000
1001
TOP
1070
     7
  0
LINE
  5
9A8
330
2
100
AcDbEntity
  8
P-07B0
  6
Continuous
 62
   144
100
AcDbLine
 10
3.044806171795869
 20
2.199999999779947
 30
0.0
 11
3.044806171795869
 21
0.0
 31
0.0
1001
ACAD
1000
ASC_BOUNDS
1002
{
1070
    19
1005
7D8
1002
}
1001
OrigLayer
1000
P-0000
1001
TOP
1070
     7
  0
ARC
  5
9A9
330
2
100
AcDbEntity
  8
P-07B0
  6
Continuous
 62
   144
100
AcDbCircle
 10
3.544806171745847
 20
2.199999999779947
 30
0.0
 40
0.49999999995
100
AcDbArc
 50
90.0
 51
180.0
1001
ACAD
1000
ASC_BOUNDS
1002
{
1070
    19
1005
7D8
1002
}
1001
OrigLayer
1000
P-0000
1001
TOP
1070
     7
  0
LINE
  5
9AA
330
2
100
AcDbEntity
  8
P-07B0
  6
Continuous
 62
   144
100
AcDbLine
 10
3.544806171745847
 20
2.699999999729925
 30
0.0
 11
16.81801125114563
 21
2.699999999729925
 31
0.0
1001
ACAD
1000
ASC_BOUNDS
1002
{
1070
    19
1005
7D8
1005
7D8
1002
}
1001
OrigLayer
1000
P-0000
1001
TOP
1070
     7
  0
LINE
  5
9AB
330
2
100
AcDbEntity
  8
P-07B0
  6
Continuous
 62
   144
100
AcDbLine
 10
-1.682163675712956
 20
-1.999999999800138
 30
0.0
 11
5.818566602222006
 21
-1.999999999800138
 31
0.0
1001
ACAD
1000
ASC_BOUNDS
1002
{
1070
    19
1005
7D8
1002
}
1001
OrigLayer
1000
P-0000
1001
TOP
1070
     7
  0
ARC
  5
9AC
330
2
100
AcDbEntity
  8
P-07B0
  6
Continuous
 62
   144
100
AcDbCircle
 10
-1.682163675712956
 20
-1.49999999985016
 30
0.0
 40
0.49999999995
100
AcDbArc
 50
179.1451529773806
 51
270.0
1001
ACAD
1000
ASC_BOUNDS
1002
{
1070
    19
1005
7D8
1002
}
1001
OrigLayer
1000
P-0000
1001
TOP
1070
     7
  0
LINE
  5
9AD
330
2
100
AcDbEntity
  8
P-07B0
  6
Continuous
 62
   144
100
AcDbLine
 10
6.31801125219556
 20
5.49999999945021
 30
0.0
 11
6.31801125219556
 21
6.499851110874942
 31
0.0
1001
ACAD
1000
ASC_BOUNDS
1002
{
1070
    19
1005
7D8
1002
}
1001
OrigLayer
1000
P-0000
1001
TOP
1070
     7
  0
LINE
  5
9AE
330
2
100
AcDbEntity
  8
P-07B0
  6
Continuous
 62
   144
100
AcDbLine
 10
6.31801125219556
 20
9.499851110574809
 30
0.0
 11
6.31801125219556
 21
10.80889470159968
 31
0.0
1001
ACAD
1000
ASC_BOUNDS
1002
{
1070
    19
1005
7D8
1002
}
1001
OrigLayer
1000
P-0000
1001
TOP
1070
     7
  0
ARC
  5
9AF
330
2
100
AcDbEntity
  8
P-07B0
  6
Continuous
 62
   144
100
AcDbCircle
 10
6.818011252145595
 20
10.80889470159968
 30
0.0
 40
0.49999999995
100
AcDbArc
 50
121.6102273072401
 51
180.0
1001
ACAD
1000
ASC_BOUNDS
1002
{
1070
    19
1005
7D8
1002
}
1001
OrigLayer
1000
P-0000
1001
TOP
1070
     7
  0
LINE
  5
9B0
330
2
100
AcDbEntity
  8
P-07B0
  6
Continuous
 62
   144
100
AcDbLine
 10
4.818011252345627
 20
7.999851110724875
 30
0.0
 11
6.31801125219556
 21
9.499851110575264
 31
0.0
1001
ACAD
1000
ASC_BOUNDS
1002
{
1070
    19
1005
7D8
1002
}
1001
OrigLayer
1000
P-0000
1001
TOP
1070
     7
  0
LINE
  5
9B1
330
2
100
AcDbEntity
  8
P-07B0
  6
Continuous
 62
   144
100
AcDbLine
 10
4.818011252345627
 20
7.999851110724875
 30
0.0
 11
6.31801125219556
 21
6.499851110874942
 31
0.0
1001
ACAD
1000
ASC_BOUNDS
1002
{
1070
    19
1005
7D8
1002
}
1001
OrigLayer
1000
P-0000
1001
TOP
1070
     7
  0
ARC
  5
9B2
330
2
100
AcDbEntity
  8
P-07B0
  6
Continuous
 62
   144
100
AcDbCircle
 10
18.81801125094554
 20
14.49999999854981
 30
0.0
 40
0.49999999995
100
AcDbArc
 50
0.0
 51
90.0
1001
ACAD
1000
ASC_BOUNDS
1002
{
1070
    19
1005
7D8
1002
}
1001
OrigLayer
1000
P-0000
1001
TOP
1070
     7
  0
ARC
  5
9B3
330
2
100
AcDbEntity
  8
P-07B0
  6
Continuous
 62
   144
100
AcDbCircle
 10
16.81801125114563
 20
12.96128599729013
 30
0.0
 40
0.49999999995
100
AcDbArc
 50
0.0
 51
93.75857179206537
1001
ACAD
1000
ASC_BOUNDS
1002
{
1070
    19
1005
7D8
1002
}
1001
OrigLayer
1000
P-0000
1001
TOP
1070
     7
  0
LINE
  5
9B4
330
2
100
AcDbEntity
  8
P-07B0
  6
Continuous
 62
   144
100
AcDbLine
 10
16.78523504406169
 20
13.46021056092604
 30
0.0
 11
14.41801125141339
 21
13.46021056092604
 31
0.0
1001
ACAD
1000
ASC_BOUNDS
1002
{
1070
    19
1005
7D8
1002
}
1001
OrigLayer
1000
P-0000
1001
TOP
1070
     7
  0
LINE
  5
9B5
330
2
100
AcDbEntity
  8
P-07B0
  6
Continuous
 62
   144
100
AcDbLine
 10
18.81801125094554
 20
14.99999999849979
 30
0.0
 11
14.40770692739372
 21
14.99999999849979
 31
0.0
1001
ACAD
1000
ASC_BOUNDS
1002
{
1070
    19
1005
7D8
1002
}
1001
OrigLayer
1000
P-0000
1001
TOP
1070
     7
  0
ARC
  5
9B6
330
2
100
AcDbEntity
  8
P-07B0
  6
Continuous
 62
   144
100
AcDbCircle
 10
14.55904763399942
 20
-1.742335151413726
 30
0.0
 40
16.74301915072391
100
AcDbArc
 50
90.51790550806673
 51
179.1451529773806
1001
ACAD
1000
ASC_BOUNDS
1002
{
1070
    19
1005
7D8
1002
}
1001
OrigLayer
1000
P-0000
1001
TOP
1070
     7
  0
ARC
  5
9B7
330
2
100
AcDbEntity
  8
P-07B0
  6
Continuous
 62
   144
100
AcDbCircle
 10
14.41801125141339
 20
-1.539789437573972
 30
0.0
 40
14.9999999985
100
AcDbArc
 50
90.0
 51
121.6102273072401
1001
ACAD
1000
ASC_BOUNDS
1002
{
1070
    19
1005
7D8
1002
}
1001
OrigLayer
1000
P-0000
1001
TOP
1070
     7
  0
LINE
  5
C14
330
2
100
AcDbEntity
  8
P-07B0
  6
Continuous
 62
   144
100
AcDbLine
 10
6.251579304071071
 20
-1.249999999875171
 30
0.0
 11
4.952541198523988
 21
0.9999999999001829
 31
0.0
1001
OrigLayer
1000
P-0000
1001
TOP
1070
     7
  0
ENDSEC
  0
SECTION
  2
OBJECTS
  0
DICTIONARY
  5
1A
330
0
100
AcDbDictionary
281
     1
  3
ACAD_2007HEADERVARS_RT
350
109D
  3
ACAD_COLOR
350
2C5
  3
ACAD_GROUP
350
18
  3
ACAD_LAYOUT
350
45
  3
ACAD_MATERIAL
350
2B0
  3
ACAD_MLEADERSTYLE
350
354
  3
ACAD_MLINESTYLE
350
19
  3
ACAD_PLOTSETTINGS
350
46
  3
ACAD_PLOTSTYLENAME
350
43
  3
ACAD_SCALELIST
350
332
  3
ACAD_TABLESTYLE
350
2C6
  3
ACAD_VISUALSTYLE
350
2B4
  3
ACDB_RECOMPOSE_DATA
350
109B
  3
AcDbVariableDictionary
350
2AA
  3
AEC_PROPERTY_SET_DEFS
350
6EA
  3
DWGPROPS
350
109C
  3
qs_topprt_diz
350
50
  3
QSCATDICT
350
6D9
  3
QsPallStyleDict
350
6EB
  3
QsTop499
350
FF9
  3
TopSpotLight
350
6E0
  0
DICTIONARY
  5
300
330
12
100
AcDbDictionary
280
     1
281
     1
  0
DICTIONARY
  5
859
330
A
100
AcDbDictionary
280
     1
281
     1
  3
ACAD_LAYERSTATES
360
85A
  0
DICTIONARY
  5
37B
330
4
100
AcDbDictionary
280
     1
281
     1
  3
ADSK_XREC_LAYER_RECONCILED
360
D83
  0
DICTIONARY
  5
D84
330
6DB
100
AcDbDictionary
280
     1
281
     1
  3
ADSK_XREC_LAYER_RECONCILED
360
D85
  0
DICTIONARY
  5
D86
330
778
100
AcDbDictionary
280
     1
281
     1
  3
ADSK_XREC_LAYER_RECONCILED
360
D87
  0
DICTIONARY
  5
D88
330
779
100
AcDbDictionary
280
     1
281
     1
  3
ADSK_XREC_LAYER_RECONCILED
360
D89
  0
DICTIONARY
  5
D8A
330
77A
100
AcDbDictionary
280
     1
281
     1
  3
ADSK_XREC_LAYER_RECONCILED
360
D8B
  0
DICTIONARY
  5
D8C
330
77B
100
AcDbDictionary
280
     1
281
     1
  3
ADSK_XREC_LAYER_RECONCILED
360
D8D
  0
DICTIONARY
  5
D8E
330
850
100
AcDbDictionary
280
     1
281
     1
  3
ADSK_XREC_LAYER_RECONCILED
360
D8F
  0
DICTIONARY
  5
D90
330
9BB
100
AcDbDictionary
280
     1
281
     1
  3
ADSK_XREC_LAYER_RECONCILED
360
D91
  0
DICTIONARY
  5
C64
330
C63
100
AcDbDictionary
280
     1
281
     1
  3
ADSK_XREC_LAYER_RECONCILED
360
D92
  0
DICTIONARY
  5
CCF
330
CCE
100
AcDbDictionary
280
     1
281
     1
  3
ADSK_XREC_LAYER_RECONCILED
360
D93
  0
DICTIONARY
  5
974
330
85B
100
AcDbDictionary
280
     1
281
     1
  3
ACAD_SORTENTS
360
975
  0
DICTIONARY
  5
109D
102
{ACAD_REACTORS
330
1A
102
}
330
1A
100
AcDbDictionary
281
     1
  3
INTERFEREVPVS
350
109E
  0
DICTIONARY
  5
2C5
102
{ACAD_REACTORS
330
1A
102
}
330
1A
100
AcDbDictionary
281
     1
  0
DICTIONARY
  5
18
102
{ACAD_REACTORS
330
1A
102
}
330
1A
100
AcDbDictionary
281
     1
  0
DICTIONARY
  5
45
102
{ACAD_REACTORS
330
1A
102
}
330
1A
100
AcDbDictionary
281
     1
  3
Layout1
350
48
  3
Model
350
47
  0
DICTIONARY
  5
2B0
102
{ACAD_REACTORS
330
1A
102
}
330
1A
100
AcDbDictionary
281
     1
  3
ByBlock
350
2B2
  3
ByLayer
350
2B1
  3
Global
350
2B3
  0
DICTIONARY
  5
354
102
{ACAD_REACTORS
330
1A
102
}
330
1A
100
AcDbDictionary
281
     1
  3
Standard
350
355
  0
DICTIONARY
  5
19
102
{ACAD_REACTORS
330
1A
102
}
330
1A
100
AcDbDictionary
281
     1
  3
STANDARD
350
1C
  0
DICTIONARY
  5
46
102
{ACAD_REACTORS
330
1A
102
}
330
1A
100
AcDbDictionary
281
     1
  3
Kyocera_1010 OR
350
F7D
  3
Kyocera_1010 VER
350
F7E
  3
Olivetti_200 A3
350
F7F
  3
Olivetti_200 A4
350
F80
  3
PLOTTER
350
F81
  0
ACDBDICTIONARYWDFLT
  5
43
102
{ACAD_REACTORS
330
1A
102
}
330
1A
100
AcDbDictionary
281
     1
  3
Normal
350
44
100
AcDbDictionaryWithDefault
340
44
  0
DICTIONARY
  5
332
102
{ACAD_REACTORS
330
1A
102
}
330
1A
100
AcDbDictionary
281
     1
  3
A0
350
333
  3
A1
350
334
  3
A2
350
335
  3
A3
350
336
  3
A4
350
337
  3
A5
350
338
  3
A6
350
339
  3
A7
350
33A
  3
A8
350
33B
  3
A9
350
33C
  3
B0
350
33D
  3
B1
350
33E
  3
B2
350
33F
  3
B3
350
340
  3
B4
350
341
  3
B5
350
342
  3
B6
350
343
  3
B7
350
344
  3
B8
350
345
  3
B9
350
346
  3
C0
350
347
  3
C1
350
348
  3
C2
350
349
  3
C3
350
34A
  3
C4
350
34B
  3
C5
350
34C
  3
C6
350
34D
  3
C7
350
34E
  3
C8
350
34F
  3
C9
350
350
  3
D0
350
351
  3
D1
350
352
  3
D2
350
353
  0
DICTIONARY
  5
2C6
102
{ACAD_REACTORS
330
1A
102
}
330
1A
100
AcDbDictionary
281
     1
  3
QSTABFORI
350
31A
  3
QSTABREGION
350
2CC
  3
Standard
350
2C7
  0
DICTIONARY
  5
2B4
102
{ACAD_REACTORS
330
1A
102
}
330
1A
100
AcDbDictionary
281
     1
  3
2dWireframe
350
2BA
  3
3D Hidden
350
2BC
  3
3dWireframe
350
2BB
  3
Basic
350
2B9
  3
Brighten
350
2C0
  3
ColorChange
350
2C4
  3
Conceptual
350
2BD
  3
Dim
350
2BF
  3
EdgeColorOff
350
100E
  3
Facepattern
350
2C3
  3
Flat
350
2B5
  3
FlatWithEdges
350
2B6
  3
Gouraud
350
2B7
  3
GouraudWithEdges
350
2B8
  3
Hidden
350
1006
  3
JitterOff
350
100C
  3
Linepattern
350
2C2
  3
OverhangOff
350
100D
  3
Realistic
350
2BE
  3
Shaded
350
100B
  3
Shaded with edges
350
100A
  3
Shades of Gray
350
1007
  3
Sketchy
350
1008
  3
Thicken
350
2C1
  3
Wireframe
350
1005
  3
X-Ray
350
1009
  0
XRECORD
  5
109B
102
{ACAD_REACTORS
330
1A
102
}
330
1A
100
AcDbXrecord
280
     1
 90
        1
330
2C7
330
2CC
330
31A
  0
DICTIONARY
  5
2AA
102
{ACAD_REACTORS
330
1A
102
}
330
1A
100
AcDbDictionary
281
     1
  3
CANNOSCALE
350
36B
  3
CMLEADERSTYLE
350
369
  3
CTABLESTYLE
350
312
  3
DIMASSOC
350
2AB
  3
DRAWORDERCTL
350
DA8
  3
INDEXCTL
350
314
  3
LAYEREVAL
350
DAA
  3
LAYERNOTIFY
350
DAB
  3
LIGHTINGUNITS
350
36C
  3
MLEADERSCALE
350
DA9
  3
MSLTSCALE
350
36A
  3
SORTENTS
350
313
  3
XCLIPFRAME
350
1097
  0
DICTIONARY
  5
6EA
102
{ACAD_REACTORS
330
1A
102
}
330
1A
100
AcDbDictionary
281
     1
  0
XRECORD
  5
109C
102
{ACAD_REACTORS
330
1A
102
}
330
1A
100
AcDbXrecord
280
     1
  1
DWGPROPS COOKIE
  2

  3

  4

  6

  7

  8
mpistoia
  9

300
=
301
=
302
=
303
=
304
=
305
=
306
=
307
=
308
=
309
=
 40
0.0794876967592593
 41
2455049.395896076
 42
2455646.499868739
  1

 90
        0
  0
DICTIONARY
  5
50
102
{ACAD_REACTORS
330
1A
102
}
330
1A
100
AcDbDictionary
281
     1
  3
UCNT
350
51
  0
DICTIONARY
  5
6D9
102
{ACAD_REACTORS
330
1A
102
}
330
1A
100
AcDbDictionary
280
     1
281
     1
  3
DEFAULT
360
6DA
  0
DICTIONARY
  5
6EB
102
{ACAD_REACTORS
330
1A
102
}
330
1A
100
AcDbDictionary
281
     1
  3
DEFAULT
350
6EC
  0
DICTIONARY
  5
FF9
102
{ACAD_REACTORS
330
1A
102
}
330
1A
100
AcDbDictionary
281
     1
  3
TOP
350
1000
  3
X241f
350
FFA
  3
X2d74
350
FFB
  3
X4a2a
350
FFC
  3
X55a4
350
FFE
  3
X7054
350
FFD
  3
X783a
350
FFF
  0
DICTIONARY
  5
6E0
102
{ACAD_REACTORS
330
1A
102
}
330
1A
100
AcDbDictionary
281
     1
  3
colors
350
6E1
  0
DICTIONARY
  5
85A
102
{ACAD_REACTORS
330
859
102
}
330
859
100
AcDbDictionary
281
     1
  0
XRECORD
  5
D83
102
{ACAD_REACTORS
330
37B
102
}
330
37B
100
AcDbXrecord
280
     1
290
     1
  0
XRECORD
  5
D85
102
{ACAD_REACTORS
330
D84
102
}
330
D84
100
AcDbXrecord
280
     1
290
     1
  0
XRECORD
  5
D87
102
{ACAD_REACTORS
330
D86
102
}
330
D86
100
AcDbXrecord
280
     1
290
     1
  0
XRECORD
  5
D89
102
{ACAD_REACTORS
330
D88
102
}
330
D88
100
AcDbXrecord
280
     1
290
     1
  0
XRECORD
  5
D8B
102
{ACAD_REACTORS
330
D8A
102
}
330
D8A
100
AcDbXrecord
280
     1
290
     1
  0
XRECORD
  5
D8D
102
{ACAD_REACTORS
330
D8C
102
}
330
D8C
100
AcDbXrecord
280
     1
290
     1
  0
XRECORD
  5
D8F
102
{ACAD_REACTORS
330
D8E
102
}
330
D8E
100
AcDbXrecord
280
     1
290
     1
  0
XRECORD
  5
D91
102
{ACAD_REACTORS
330
D90
102
}
330
D90
100
AcDbXrecord
280
     1
290
     1
  0
XRECORD
  5
D92
102
{ACAD_REACTORS
330
C64
102
}
330
C64
100
AcDbXrecord
280
     1
290
     1
  0
XRECORD
  5
D93
102
{ACAD_REACTORS
330
CCF
102
}
330
CCF
100
AcDbXrecord
280
     1
290
     1
  0
SORTENTSTABLE
  5
975
102
{ACAD_REACTORS
330
974
102
}
330
974
100
AcDbSortentsTable
330
85B
331
894
  5
8B3
331
8AC
  5
87C
331
8B0
  5
876
331
8B4
  5
86E
331
85D
  5
861
331
879
  5
895
331
861
  5
85D
331
87D
  5
899
331
899
  5
86C
331
881
  5
89D
331
89D
  5
8A5
331
885
  5
8A1
331
86D
  5
88B
331
8B9
  5
8B8
331
889
  5
8A8
331
871
  5
874
331
8A1
  5
889
331
8A5
  5
881
331
88D
  5
8AC
331
875
  5
891
331
8A9
  5
885
331
891
  5
8B0
331
8AD
  5
87D
331
895
  5
8B4
331
8B1
  5
878
331
8B5
  5
871
331
85E
  5
862
331
862
  5
85E
331
87A
  5
896
331
87E
  5
89A
331
89A
  5
86F
331
882
  5
89E
331
89E
  5
8A2
331
886
  5
8A3
331
86E
  5
88C
331
8A2
  5
87E
331
88A
  5
8A9
331
872
  5
877
331
8A6
  5
882
331
88E
  5
8AD
331
876
  5
893
331
892
  5
8B1
331
8AA
  5
886
331
896
  5
8B5
331
8AE
  5
872
331
8B2
  5
879
331
8B6
  5
870
331
85F
  5
863
331
863
  5
85F
331
87B
  5
898
331
87F
  5
89B
331
89B
  5
873
331
883
  5
89F
331
89F
  5
887
331
86F
  5
88D
331
887
  5
8A6
331
873
  5
890
331
88B
  5
8AA
331
8A3
  5
87F
331
877
  5
892
331
88F
  5
8AE
331
8A7
  5
883
331
893
  5
8B2
331
8AB
  5
87B
331
897
  5
8B7
331
8AF
  5
875
331
8B3
  5
87A
331
85C
  5
860
331
8B7
  5
8B6
331
878
  5
894
331
860
  5
85C
331
87C
  5
897
331
898
  5
8B9
331
880
  5
89C
331
89C
  5
8A4
331
86C
  5
88A
331
884
  5
8A0
331
8B8
  5
86D
331
8A0
  5
888
331
870
  5
88E
331
888
  5
8A7
331
8A4
  5
880
331
874
  5
88F
331
88C
  5
8AB
331
8A8
  5
884
331
890
  5
8AF
  0
XRECORD
  5
109E
102
{ACAD_REACTORS
330
109D
102
}
330
109D
100
AcDbXrecord
280
     1
340
2BB
  0
LAYOUT
  5
48
102
{ACAD_XDICTIONARY
360
10A1
102
}
102
{ACAD_REACTORS
330
45
102
}
330
45
100
AcDbPlotSettings
  1

  2
RICOH Aficio 270 PCL 6 A4
  4

  6

 40
0.0
 41
0.0
 42
0.0
 43
0.0
 44
0.0
 45
0.0
 46
0.0
 47
0.0
 48
0.0
 49
0.0
140
0.0
141
0.0
142
1.0
143
1.0
 70
   688
 72
     0
 73
     0
 74
     5
  7
DIERRE BN.ctb
 75
    16
147
1.0
148
0.0
149
0.0
100
AcDbLayout
  1
Layout1
 70
     0
 71
     1
 10
0.0
 20
0.0
 11
12.0
 21
9.0
 12
0.0
 22
0.0
 32
0.0
 14
1.000000000000000E+20
 24
1.000000000000000E+20
 34
1.000000000000000E+20
 15
-1.000000000000000E+20
 25
-1.000000000000000E+20
 35
-1.000000000000000E+20
146
0.0
 13
0.0
 23
0.0
 33
0.0
 16
1.0
 26
0.0
 36
0.0
 17
0.0
 27
1.0
 37
0.0
 76
     0
330
7
  0
LAYOUT
  5
47
102
{ACAD_XDICTIONARY
360
109F
102
}
102
{ACAD_REACTORS
330
45
102
}
330
45
100
AcDbPlotSettings
  1
Olivetti_200 A4
  2
Olivetti_200.pc3
  4
A4
  6

 40
4.984749794006347
 41
5.154074668884277
 42
5.111740112304687
 43
4.9847412109375
 44
210.0156707763672
 45
297.0106506347656
 46
51.67548120477697
 47
0.0
 48
0.0
 49
0.0
140
0.0
141
0.0
142
1.0
143
0.4718508448115938
 70
 11956
 72
     1
 73
     0
 74
     1
  7
DIERRE BN.ctb
 75
     0
147
2.119313785268927
148
-222.4649060220283
149
-239.0808115236937
100
AcDbLayout
  1
Model
 70
     1
 71
     0
 10
0.0
 20
0.0
 11
12.0
 21
9.0
 12
0.0
 22
0.0
 32
0.0
 14
0.0
 24
0.0
 34
0.0
 15
0.0
 25
0.0
 35
0.0
146
0.0
 13
0.0
 23
0.0
 33
0.0
 16
1.0
 26
0.0
 36
0.0
 17
0.0
 27
1.0
 37
0.0
 76
     0
330
2
331
2AE
1001
ACAD_PSEXT
1000
Olivetti_200.pc3
1000
Olivetti d-Copia 200MF KX
1000
IP_192.168.1.151
1000

1070
     0
  0
MATERIAL
  5
2B2
102
{ACAD_XDICTIONARY
360
10A5
102
}
102
{ACAD_REACTORS
330
2B0
102
}
330
2B0
100
AcDbMaterial
  1
ByBlock
 73
     1
 78
     1
172
     1
176
     1
270
     1
274
     1
  0
MATERIAL
  5
2B1
102
{ACAD_XDICTIONARY
360
10A3
102
}
102
{ACAD_REACTORS
330
2B0
102
}
330
2B0
100
AcDbMaterial
  1
ByLayer
 73
     1
 78
     1
172
     1
176
     1
270
     1
274
     1
  0
MATERIAL
  5
2B3
102
{ACAD_XDICTIONARY
360
10A7
102
}
102
{ACAD_REACTORS
330
2B0
102
}
330
2B0
100
AcDbMaterial
  1
Global
 73
     1
 78
     1
172
     1
176
     1
270
     1
274
     1
  0
MLEADERSTYLE
  5
355
102
{ACAD_REACTORS
330
354
102
}
330
354
100
AcDbMLeaderStyle
170
     2
171
     1
172
     0
 90
        2
 40
0.0
 41
0.0
173
     1
 91
-1056964608
340
E
 92
       -2
290
     1
 42
2.0
291
     1
 43
0.36
  3
Standard
 44
4.0
300

342
C
174
     1
178
     6
175
     1
176
     0
 93
-1056964608
 45
4.0
292
     0
297
     0
 46
4.0
 94
-1056964608
 47
1.0
 49
1.0
140
1.0
293
     1
141
0.0
294
     1
177
     0
142
1.0
295
     0
296
     0
143
0.125
1001
ACAD_MLEADERVER
1070
     2
  0
MLINESTYLE
  5
1C
102
{ACAD_REACTORS
330
19
102
}
330
19
100
AcDbMlineStyle
  2
STANDARD
 70
     0
  3

 62
     0
 51
90.0
 52
90.0
 71
     2
 49
0.5
 62
   256
  6
BYLAYER
 49
-0.5
 62
   256
  6
BYLAYER
  0
PLOTSETTINGS
  5
F7D
102
{ACAD_XDICTIONARY
360
10CD
102
}
102
{ACAD_REACTORS
330
46
102
}
330
46
100
AcDbPlotSettings
  1
Kyocera_1010 OR
  2
Kyocera_1010.pc3
  4
A4
  6

 40
4.984749794006347
 41
5.154074668884277
 42
5.111740112304687
 43
4.9847412109375
 44
210.0156707763672
 45
297.0106506347656
 46
0.0
 47
109.7870247470818
 48
0.0
 49
0.0
140
0.0
141
0.0
142
1.0
143
0.6770771918566143
 70
 11956
 72
     1
 73
     1
 74
     1
  7
DIERRE BN.ctb
 75
     0
147
1.476936473458659
148
-222.4649060220283
149
-239.0808115236937
1001
ACAD_PSEXT
1000
Kyocera_1010.pc3
1000
Kyocera Mita FS-1010 KX
1000
\\PC5
1000

1070
     0
  0
PLOTSETTINGS
  5
F7E
102
{ACAD_XDICTIONARY
360
10CF
102
}
102
{ACAD_REACTORS
330
46
102
}
330
46
100
AcDbPlotSettings
  1
Kyocera_1010 VER
  2
Kyocera_1010.pc3
  4
A4
  6

 40
4.984749794006347
 41
5.154074668884277
 42
5.111740112304687
 43
4.9847412109375
 44
210.0156707763672
 45
297.0106506347656
 46
51.67548120477697
 47
0.0
 48
0.0
 49
0.0
140
0.0
141
0.0
142
1.0
143
0.4718508448115938
 70
 11956
 72
     1
 73
     0
 74
     1
  7
DIERRE BN.ctb
 75
     0
147
2.119313785268927
148
-222.4649060220283
149
-239.0808115236937
1001
ACAD_PSEXT
1000
Kyocera_1010.pc3
1000
Kyocera Mita FS-1010 KX
1000
\\PC5
1000

1070
     0
  0
PLOTSETTINGS
  5
F7F
102
{ACAD_XDICTIONARY
360
10D1
102
}
102
{ACAD_REACTORS
330
46
102
}
330
46
100
AcDbPlotSettings
  1
Olivetti_200 A3
  2
Olivetti_200.pc3
  4
A3
  6

 40
4.984749794006347
 41
5.111746788024902
 42
5.154083251953125
 43
4.9847412109375
 44
297.0106506347656
 45
419.9889831542968
 46
0.0
 47
156.6621412366913
 48
0.0
 49
0.0
140
0.0
141
0.0
142
1.0
143
0.4718508730467012
 70
 11956
 72
     1
 73
     1
 74
     1
  7
DIERRE BN.ctb
 75
     0
147
2.119313658451206
148
-222.4649060220283
149
-239.0808115236937
1001
ACAD_PSEXT
1000
Olivetti_200.pc3
1000
Olivetti d-Copia 200MF KX
1000
IP_192.168.1.151
1000

1070
     0
  0
PLOTSETTINGS
  5
F80
102
{ACAD_XDICTIONARY
360
10D3
102
}
102
{ACAD_REACTORS
330
46
102
}
330
46
100
AcDbPlotSettings
  1
Olivetti_200 A4
  2
Olivetti_200.pc3
  4
A4
  6

 40
4.984749794006347
 41
5.154074668884277
 42
5.111740112304687
 43
4.9847412109375
 44
210.0156707763672
 45
297.0106506347656
 46
51.67548120477697
 47
0.0
 48
0.0
 49
0.0
140
0.0
141
0.0
142
1.0
143
0.4718508448115938
 70
 11956
 72
     1
 73
     0
 74
     1
  7
DIERRE BN.ctb
 75
     0
147
2.119313785268927
148
-222.4649060220283
149
-239.0808115236937
1001
ACAD_PSEXT
1000
Olivetti_200.pc3
1000
Olivetti d-Copia 200MF KX
1000
IP_192.168.1.151
1000

1070
     0
  0
PLOTSETTINGS
  5
F81
102
{ACAD_XDICTIONARY
360
10D5
102
}
102
{ACAD_REACTORS
330
46
102
}
330
46
100
AcDbPlotSettings
  1
PLOTTER
  2
PLOTTER.pc3
  4
User622
  6

 40
0.0
 41
0.0
 42
0.0
 43
0.0
 44
841.0
 45
1189.0
 46
0.0
 47
0.0
 48
0.0
 49
0.0
140
0.0
141
0.0
142
1.0
143
1.0
 70
 11936
 72
     1
 73
     0
 74
     1
  7
DIERRE BN.ctb
 75
     0
147
2.194137304425714
148
-222.4649060220283
149
-239.0808115236937
1001
ACAD_PSEXT
1000
PLOTTER.pc3
1000
HP DesignJet 430 (E/A0) by HP
1000
\\SERVER2003
1000

1070
     0
  0
ACDBPLACEHOLDER
  5
44
102
{ACAD_REACTORS
330
43
102
}
330
43
  0
SCALE
  5
333
102
{ACAD_REACTORS
330
332
102
}
330
332
100
AcDbScale
 70
     0
300
1:1
140
1.0
141
1.0
290
     1
  0
SCALE
  5
334
102
{ACAD_REACTORS
330
332
102
}
330
332
100
AcDbScale
 70
     0
300
1:2
140
1.0
141
2.0
290
     0
  0
SCALE
  5
335
102
{ACAD_REACTORS
330
332
102
}
330
332
100
AcDbScale
 70
     0
300
1:4
140
1.0
141
4.0
290
     0
  0
SCALE
  5
336
102
{ACAD_REACTORS
330
332
102
}
330
332
100
AcDbScale
 70
     0
300
1:5
140
1.0
141
5.0
290
     0
  0
SCALE
  5
337
102
{ACAD_REACTORS
330
332
102
}
330
332
100
AcDbScale
 70
     0
300
1:8
140
1.0
141
8.0
290
     0
  0
SCALE
  5
338
102
{ACAD_REACTORS
330
332
102
}
330
332
100
AcDbScale
 70
     0
300
1:10
140
1.0
141
10.0
290
     0
  0
SCALE
  5
339
102
{ACAD_REACTORS
330
332
102
}
330
332
100
AcDbScale
 70
     0
300
1:16
140
1.0
141
16.0
290
     0
  0
SCALE
  5
33A
102
{ACAD_REACTORS
330
332
102
}
330
332
100
AcDbScale
 70
     0
300
1:20
140
1.0
141
20.0
290
     0
  0
SCALE
  5
33B
102
{ACAD_REACTORS
330
332
102
}
330
332
100
AcDbScale
 70
     0
300
1:30
140
1.0
141
30.0
290
     0
  0
SCALE
  5
33C
102
{ACAD_REACTORS
330
332
102
}
330
332
100
AcDbScale
 70
     0
300
1:40
140
1.0
141
40.0
290
     0
  0
SCALE
  5
33D
102
{ACAD_REACTORS
330
332
102
}
330
332
100
AcDbScale
 70
     0
300
1:50
140
1.0
141
50.0
290
     0
  0
SCALE
  5
33E
102
{ACAD_REACTORS
330
332
102
}
330
332
100
AcDbScale
 70
     0
300
1:100
140
1.0
141
100.0
290
     0
  0
SCALE
  5
33F
102
{ACAD_REACTORS
330
332
102
}
330
332
100
AcDbScale
 70
     0
300
2:1
140
2.0
141
1.0
290
     0
  0
SCALE
  5
340
102
{ACAD_REACTORS
330
332
102
}
330
332
100
AcDbScale
 70
     0
300
4:1
140
4.0
141
1.0
290
     0
  0
SCALE
  5
341
102
{ACAD_REACTORS
330
332
102
}
330
332
100
AcDbScale
 70
     0
300
8:1
140
8.0
141
1.0
290
     0
  0
SCALE
  5
342
102
{ACAD_REACTORS
330
332
102
}
330
332
100
AcDbScale
 70
     0
300
10:1
140
10.0
141
1.0
290
     0
  0
SCALE
  5
343
102
{ACAD_REACTORS
330
332
102
}
330
332
100
AcDbScale
 70
     0
300
100:1
140
100.0
141
1.0
290
     0
  0
SCALE
  5
344
102
{ACAD_REACTORS
330
332
102
}
330
332
100
AcDbScale
 70
     0
300
1/128" = 1'-0"
140
0.0078125
141
12.0
290
     0
  0
SCALE
  5
345
102
{ACAD_REACTORS
330
332
102
}
330
332
100
AcDbScale
 70
     0
300
1/64" = 1'-0"
140
0.015625
141
12.0
290
     0
  0
SCALE
  5
346
102
{ACAD_REACTORS
330
332
102
}
330
332
100
AcDbScale
 70
     0
300
1/32" = 1'-0"
140
0.03125
141
12.0
290
     0
  0
SCALE
  5
347
102
{ACAD_REACTORS
330
332
102
}
330
332
100
AcDbScale
 70
     0
300
1/16" = 1'-0"
140
0.0625
141
12.0
290
     0
  0
SCALE
  5
348
102
{ACAD_REACTORS
330
332
102
}
330
332
100
AcDbScale
 70
     0
300
3/32" = 1'-0"
140
0.09375
141
12.0
290
     0
  0
SCALE
  5
349
102
{ACAD_REACTORS
330
332
102
}
330
332
100
AcDbScale
 70
     0
300
1/8" = 1'-0"
140
0.125
141
12.0
290
     0
  0
SCALE
  5
34A
102
{ACAD_REACTORS
330
332
102
}
330
332
100
AcDbScale
 70
     0
300
3/16" = 1'-0"
140
0.1875
141
12.0
290
     0
  0
SCALE
  5
34B
102
{ACAD_REACTORS
330
332
102
}
330
332
100
AcDbScale
 70
     0
300
1/4" = 1'-0"
140
0.25
141
12.0
290
     0
  0
SCALE
  5
34C
102
{ACAD_REACTORS
330
332
102
}
330
332
100
AcDbScale
 70
     0
300
3/8" = 1'-0"
140
0.375
141
12.0
290
     0
  0
SCALE
  5
34D
102
{ACAD_REACTORS
330
332
102
}
330
332
100
AcDbScale
 70
     0
300
1/2" = 1'-0"
140
0.5
141
12.0
290
     0
  0
SCALE
  5
34E
102
{ACAD_REACTORS
330
332
102
}
330
332
100
AcDbScale
 70
     0
300
3/4" = 1'-0"
140
0.75
141
12.0
290
     0
  0
SCALE
  5
34F
102
{ACAD_REACTORS
330
332
102
}
330
332
100
AcDbScale
 70
     0
300
1" = 1'-0"
140
1.0
141
12.0
290
     0
  0
SCALE
  5
350
102
{ACAD_REACTORS
330
332
102
}
330
332
100
AcDbScale
 70
     0
300
1-1/2" = 1'-0"
140
1.5
141
12.0
290
     0
  0
SCALE
  5
351
102
{ACAD_REACTORS
330
332
102
}
330
332
100
AcDbScale
 70
     0
300
3" = 1'-0"
140
3.0
141
12.0
290
     0
  0
SCALE
  5
352
102
{ACAD_REACTORS
330
332
102
}
330
332
100
AcDbScale
 70
     0
300
6" = 1'-0"
140
6.0
141
12.0
290
     0
  0
SCALE
  5
353
102
{ACAD_REACTORS
330
332
102
}
330
332
100
AcDbScale
 70
     0
300
1'-0" = 1'-0"
140
12.0
141
12.0
290
     0
  0
TABLESTYLE
  5
31A
102
{ACAD_XDICTIONARY
360
366
102
}
102
{ACAD_REACTORS
330
2C6
102
}
330
2C6
100
AcDbTableStyle
  3
Standard
 70
     1
 71
     0
 40
1.5
 41
1.5
280
     1
281
     0
  7
ROMANS
140
3.0
170
     5
 62
     7
 63
     7
283
     0
274
    -2
284
     1
 64
     0
275
    -2
285
     1
 65
     0
276
    -2
286
     1
 66
     0
277
    -2
287
     1
 67
     0
278
    -2
288
     1
 68
     0
279
    -2
289
     1
 69
     0
  7
ROMANS
140
6.0
170
     5
 62
     1
 63
     7
283
     0
274
    -2
284
     1
 64
     0
275
    -2
285
     1
 65
     0
276
    -2
286
     1
 66
     0
277
    -2
287
     1
 67
     0
278
    -2
288
     1
 68
     0
279
    -2
289
     1
 69
     0
  7
ROMANS
140
3.5
170
     5
 62
     3
 63
     7
283
     0
274
    -2
284
     1
 64
     0
275
    -2
285
     1
 65
     0
276
    -2
286
     1
 66
     0
277
    -2
287
     1
 67
     0
278
    -2
288
     1
 68
     0
279
    -2
289
     1
 69
     0
  0
TABLESTYLE
  5
2CC
102
{ACAD_XDICTIONARY
360
364
102
}
102
{ACAD_REACTORS
330
2C6
102
}
330
2C6
100
AcDbTableStyle
  3
Standard
 70
     0
 71
     0
 40
1.5
 41
1.5
280
     0
281
     0
  7
ROMANS
140
4.5
170
     5
 62
     7
 63
     7
283
     0
274
    -2
284
     1
 64
     0
275
    -2
285
     1
 65
     0
276
    -2
286
     1
 66
     0
277
    -2
287
     1
 67
     0
278
    -2
288
     1
 68
     0
279
    -2
289
     1
 69
     0
  7
ROMANS
140
6.0
170
     5
 62
     1
 63
     7
283
     0
274
    -2
284
     1
 64
     0
275
    -2
285
     1
 65
     0
276
    -2
286
     1
 66
     0
277
    -2
287
     1
 67
     0
278
    -2
288
     1
 68
     0
279
    -2
289
     1
 69
     0
  7
ROMANS
140
5.0
170
     5
 62
     3
 63
     7
283
     0
274
    -2
284
     1
 64
     0
275
    -2
285
     1
 65
     0
276
    -2
286
     1
 66
     0
277
    -2
287
     1
 67
     0
278
    -2
288
     1
 68
     0
279
    -2
289
     1
 69
     0
  0
TABLESTYLE
  5
2C7
102
{ACAD_XDICTIONARY
360
362
102
}
102
{ACAD_REACTORS
330
2C6
102
}
330
2C6
100
AcDbTableStyle
  3
Standard
 70
     0
 71
     0
 40
1.5
 41
1.5
280
     0
281
     0
  7
STANDARD
140
4.5
170
     2
 62
     0
 63
     7
283
     0
274
    -2
284
     1
 64
     0
275
    -2
285
     1
 65
     0
276
    -2
286
     1
 66
     0
277
    -2
287
     1
 67
     0
278
    -2
288
     1
 68
     0
279
    -2
289
     1
 69
     0
  7
STANDARD
140
6.0
170
     5
 62
     0
 63
     7
283
     0
274
    -2
284
     1
 64
     0
275
    -2
285
     1
 65
     0
276
    -2
286
     1
 66
     0
277
    -2
287
     1
 67
     0
278
    -2
288
     1
 68
     0
279
    -2
289
     1
 69
     0
  7
STANDARD
140
4.5
170
     5
 62
     0
 63
     7
283
     0
274
    -2
284
     1
 64
     0
275
    -2
285
     1
 65
     0
276
    -2
286
     1
 66
     0
277
    -2
287
     1
 67
     0
278
    -2
288
     1
 68
     0
279
    -2
289
     1
 69
     0
  0
VISUALSTYLE
  5
2BA
102
{ACAD_XDICTIONARY
360
10B3
102
}
102
{ACAD_REACTORS
330
2B4
102
}
330
2B4
100
AcDbVisualStyle
  2
2dWireframe
 70
     4
 71
     0
 72
     2
 73
     0
 90
        0
 40
-0.6
 41
-30.0
 62
     5
 63
     7
 74
     1
 91
        4
 64
     7
 65
   257
 75
     1
175
     1
 42
1.0
 92
        0
 66
   257
 43
1.0
 76
     1
 77
     6
 78
     2
 67
     7
 79
     5
170
     0
171
     0
290
     0
174
     0
 93
        1
 44
0.0
173
     0
291
     0
 45
0.0
1001
ACAD
1000
AcDbSavedByObjectVersion
1070
     0
  0
VISUALSTYLE
  5
2BC
102
{ACAD_XDICTIONARY
360
10B7
102
}
102
{ACAD_REACTORS
330
2B4
102
}
330
2B4
100
AcDbVisualStyle
  2
3D Hidden
 70
     6
 71
     1
 72
     2
 73
     2
 90
        0
 40
-0.6
 41
-30.0
 62
     5
 63
     7
 74
     2
 91
        2
 64
     7
 65
   257
 75
     2
175
     1
 42
40.0
 92
        0
 66
   257
 43
1.0
 76
     1
 77
     6
 78
     2
 67
     7
 79
     3
170
     0
171
     0
290
     0
174
     0
 93
        1
 44
0.0
173
     0
291
     0
 45
0.0
1001
ACAD
1000
AcDbSavedByObjectVersion
1070
     0
  0
VISUALSTYLE
  5
2BB
102
{ACAD_XDICTIONARY
360
10B5
102
}
102
{ACAD_REACTORS
330
2B4
102
}
330
2B4
100
AcDbVisualStyle
  2
3dWireframe
 70
     5
 71
     0
 72
     2
 73
     0
 90
        0
 40
-0.6
 41
-30.0
 62
     5
 63
     7
 74
     1
 91
        4
 64
     7
 65
   257
 75
     1
175
     1
 42
1.0
 92
        0
 66
   257
 43
1.0
 76
     1
 77
     6
 78
     2
 67
     7
 79
     5
170
     0
171
     0
290
     0
174
     0
 93
        1
 44
0.0
173
     0
291
     0
 45
0.0
1001
ACAD
1000
AcDbSavedByObjectVersion
1070
     0
  0
VISUALSTYLE
  5
2B9
102
{ACAD_XDICTIONARY
360
10B1
102
}
102
{ACAD_REACTORS
330
2B4
102
}
330
2B4
100
AcDbVisualStyle
  2
Basic
 70
     7
 71
     1
 72
     0
 73
     1
 90
        0
 40
-0.6
 41
-30.0
 62
     5
 63
     7
 74
     0
 91
        4
 64
     7
 65
   257
 75
     1
175
     1
 42
1.0
 92
        8
 66
     7
 43
1.0
 76
     1
 77
     6
 78
     2
 67
     7
 79
     5
170
     0
171
     0
290
     0
174
     0
 93
        1
 44
0.0
173
     0
291
     1
 45
0.0
1001
ACAD
1000
AcDbSavedByObjectVersion
1070
     0
  0
VISUALSTYLE
  5
2C0
102
{ACAD_XDICTIONARY
360
10BF
102
}
102
{ACAD_REACTORS
330
2B4
102
}
330
2B4
100
AcDbVisualStyle
  2
Brighten
 70
    12
 71
     2
 72
     2
 73
     0
 90
        0
 40
-0.6
 41
-30.0
 62
     5
 63
     7
 74
     1
 91
        4
 64
     7
 65
   257
 75
     1
175
     1
 42
1.0
 92
        8
 66
     7
 43
1.0
 76
     1
 77
     6
 78
     2
 67
     7
 79
     5
170
     0
171
     0
290
     0
174
     0
 93
        1
 44
50.0
173
     0
291
     1
 45
0.0
1001
ACAD
1000
AcDbSavedByObjectVersion
1070
     0
  0
VISUALSTYLE
  5
2C4
102
{ACAD_XDICTIONARY
360
10C7
102
}
102
{ACAD_REACTORS
330
2B4
102
}
330
2B4
100
AcDbVisualStyle
  2
ColorChange
 70
    16
 71
     2
 72
     2
 73
     3
 90
        0
 40
-0.6
 41
-30.0
 62
     5
 63
     8
 74
     1
 91
        4
 64
     7
 65
   257
 75
     1
175
     1
 42
1.0
 92
        8
 66
     8
 43
1.0
 76
     1
 77
     6
 78
     2
 67
     7
 79
     5
170
     0
171
     0
290
     0
174
     0
 93
        1
 44
0.0
173
     0
291
     1
 45
0.0
1001
ACAD
1000
AcDbSavedByObjectVersion
1070
     0
  0
VISUALSTYLE
  5
2BD
102
{ACAD_XDICTIONARY
360
10B9
102
}
102
{ACAD_REACTORS
330
2B4
102
}
330
2B4
100
AcDbVisualStyle
  2
Conceptual
 70
     9
 71
     3
 72
     2
 73
     0
 90
        0
 40
-0.6
 41
-30.0
 62
     5
 63
     7
 74
     2
 91
        2
 64
     7
 65
   257
 75
     1
175
     1
 42
40.0
 92
        8
 66
     7
 43
1.0
 76
     1
 77
     6
 78
     2
 67
     7
 79
     3
170
     0
171
     0
290
     0
174
     0
 93
        1
 44
0.0
173
     0
291
     0
 45
0.0
1001
ACAD
1000
AcDbSavedByObjectVersion
1070
     0
  0
VISUALSTYLE
  5
2BF
102
{ACAD_XDICTIONARY
360
10BD
102
}
102
{ACAD_REACTORS
330
2B4
102
}
330
2B4
100
AcDbVisualStyle
  2
Dim
 70
    11
 71
     2
 72
     2
 73
     0
 90
        0
 40
-0.6
 41
-30.0
 62
     5
 63
     7
 74
     1
 91
        4
 64
     7
 65
   257
 75
     1
175
     1
 42
1.0
 92
        8
 66
     7
 43
1.0
 76
     1
 77
     6
 78
     2
 67
     7
 79
     5
170
     0
171
     0
290
     0
174
     0
 93
        1
 44
-50.0
173
     0
291
     1
 45
0.0
1001
ACAD
1000
AcDbSavedByObjectVersion
1070
     0
  0
VISUALSTYLE
  5
100E
102
{ACAD_XDICTIONARY
360
10E9
102
}
102
{ACAD_REACTORS
330
2B4
102
}
330
2B4
100
AcDbVisualStyle
  2
EdgeColorOff
 70
    22
 71
     2
 72
     2
 73
     0
 90
        0
 40
-0.6
 41
-30.0
 62
     5
 63
     7
 74
     1
 91
        4
 64
     7
 65
   257
 75
     1
175
     1
 42
1.0
 92
        8
 66
     7
 43
1.0
 76
     1
 77
     6
 78
     2
 67
     7
 79
     5
170
     0
171
     0
290
     0
174
     0
 93
        1
 44
0.0
173
     0
291
     1
 45
0.0
1001
ACAD
1000
AcDbSavedByObjectVersion
1070
     0
  0
VISUALSTYLE
  5
2C3
102
{ACAD_XDICTIONARY
360
10C5
102
}
102
{ACAD_REACTORS
330
2B4
102
}
330
2B4
100
AcDbVisualStyle
  2
Facepattern
 70
    15
 71
     2
 72
     2
 73
     0
 90
        0
 40
-0.6
 41
-30.0
 62
     5
 63
     7
 74
     1
 91
        4
 64
     7
 65
   257
 75
     1
175
     1
 42
1.0
 92
        8
 66
     7
 43
1.0
 76
     1
 77
     6
 78
     2
 67
     7
 79
     5
170
     0
171
     0
290
     0
174
     0
 93
        1
 44
0.0
173
     0
291
     1
 45
0.0
1001
ACAD
1000
AcDbSavedByObjectVersion
1070
     0
  0
VISUALSTYLE
  5
2B5
102
{ACAD_XDICTIONARY
360
10A9
102
}
102
{ACAD_REACTORS
330
2B4
102
}
330
2B4
100
AcDbVisualStyle
  2
Flat
 70
     0
 71
     2
 72
     1
 73
     1
 90
        2
 40
-0.6
 41
30.0
 62
     5
 63
     7
 74
     0
 91
        4
 64
     7
 65
   257
 75
     1
175
     1
 42
1.0
 92
        8
 66
     7
 43
1.0
 76
     1
 77
     6
 78
     2
 67
     7
 79
     5
170
     0
171
     0
290
     0
174
     0
 93
       13
 44
0.0
173
     0
291
     1
 45
0.0
1001
ACAD
1000
AcDbSavedByObjectVersion
1070
     0
  0
VISUALSTYLE
  5
2B6
102
{ACAD_XDICTIONARY
360
10AB
102
}
102
{ACAD_REACTORS
330
2B4
102
}
330
2B4
100
AcDbVisualStyle
  2
FlatWithEdges
 70
     1
 71
     2
 72
     1
 73
     1
 90
        2
 40
-0.6
 41
30.0
 62
     5
 63
     7
 74
     1
 91
        4
 64
     7
 65
   257
 75
     1
175
     1
 42
1.0
 92
        0
 66
   257
 43
1.0
 76
     1
 77
     6
 78
     2
 67
     7
 79
     5
170
     0
171
     0
290
     0
174
     0
 93
       13
 44
0.0
173
     0
291
     1
 45
0.0
1001
ACAD
1000
AcDbSavedByObjectVersion
1070
     0
  0
VISUALSTYLE
  5
2B7
102
{ACAD_XDICTIONARY
360
10AD
102
}
102
{ACAD_REACTORS
330
2B4
102
}
330
2B4
100
AcDbVisualStyle
  2
Gouraud
 70
     2
 71
     2
 72
     2
 73
     1
 90
        2
 40
-0.6
 41
30.0
 62
     5
 63
     7
 74
     0
 91
        4
 64
     7
 65
   257
 75
     1
175
     1
 42
1.0
 92
        0
 66
     7
 43
1.0
 76
     1
 77
     6
 78
     2
 67
     7
 79
     5
170
     0
171
     0
290
     0
174
     0
 93
       13
 44
0.0
173
     0
291
     1
 45
0.0
1001
ACAD
1000
AcDbSavedByObjectVersion
1070
     0
  0
VISUALSTYLE
  5
2B8
102
{ACAD_XDICTIONARY
360
10AF
102
}
102
{ACAD_REACTORS
330
2B4
102
}
330
2B4
100
AcDbVisualStyle
  2
GouraudWithEdges
 70
     3
 71
     2
 72
     2
 73
     1
 90
        2
 40
-0.6
 41
30.0
 62
     5
 63
     7
 74
     1
 91
        4
 64
     7
 65
   257
 75
     1
175
     1
 42
1.0
 92
        0
 66
   257
 43
1.0
 76
     1
 77
     6
 78
     2
 67
     7
 79
     5
170
     0
171
     0
290
     0
174
     0
 93
       13
 44
0.0
173
     0
291
     1
 45
0.0
1001
ACAD
1000
AcDbSavedByObjectVersion
1070
     0
  0
VISUALSTYLE
  5
1006
102
{ACAD_XDICTIONARY
360
10D9
102
}
102
{ACAD_REACTORS
330
2B4
102
}
330
2B4
100
AcDbVisualStyle
  2
Hidden
 70
     6
 71
     1
 72
     2
 73
     2
 90
        0
 40
-0.6
 41
-30.0
 62
     5
 63
     7
 74
     2
 91
        2
 64
     7
 65
   257
 75
     2
175
     1
 42
40.0
 92
        0
 66
   257
 43
1.0
 76
     1
 77
     6
 78
     2
 67
     7
 79
     3
170
     0
171
     0
290
     0
174
     0
 93
        1
 44
0.0
173
     0
291
     0
 45
0.0
1001
ACAD
1000
AcDbSavedByObjectVersion
1070
     0
  0
VISUALSTYLE
  5
100C
102
{ACAD_XDICTIONARY
360
10E5
102
}
102
{ACAD_REACTORS
330
2B4
102
}
330
2B4
100
AcDbVisualStyle
  2
JitterOff
 70
    20
 71
     2
 72
     2
 73
     0
 90
        0
 40
-0.6
 41
-30.0
 62
     5
 63
     7
 74
     1
 91
        4
 64
     7
 65
   257
 75
     1
175
     1
 42
1.0
 92
       10
 66
     7
 43
1.0
 76
     1
 77
     6
 78
     2
 67
     7
 79
     5
170
     0
171
     0
290
     0
174
     0
 93
        1
 44
0.0
173
     0
291
     1
 45
0.0
1001
ACAD
1000
AcDbSavedByObjectVersion
1070
     0
  0
VISUALSTYLE
  5
2C2
102
{ACAD_XDICTIONARY
360
10C3
102
}
102
{ACAD_REACTORS
330
2B4
102
}
330
2B4
100
AcDbVisualStyle
  2
Linepattern
 70
    14
 71
     2
 72
     2
 73
     0
 90
        0
 40
-0.6
 41
-30.0
 62
     5
 63
     7
 74
     1
 91
        4
 64
     7
 65
   257
 75
     7
175
     7
 42
1.0
 92
        8
 66
     7
 43
1.0
 76
     1
 77
     6
 78
     2
 67
     7
 79
     5
170
     0
171
     0
290
     0
174
     0
 93
        1
 44
0.0
173
     0
291
     1
 45
0.0
1001
ACAD
1000
AcDbSavedByObjectVersion
1070
     0
  0
VISUALSTYLE
  5
100D
102
{ACAD_XDICTIONARY
360
10E7
102
}
102
{ACAD_REACTORS
330
2B4
102
}
330
2B4
100
AcDbVisualStyle
  2
OverhangOff
 70
    21
 71
     2
 72
     2
 73
     0
 90
        0
 40
-0.6
 41
-30.0
 62
     5
 63
     7
 74
     1
 91
        4
 64
     7
 65
   257
 75
     1
175
     1
 42
1.0
 92
        9
 66
     7
 43
1.0
 76
     1
 77
     6
 78
     2
 67
     7
 79
     5
170
     0
171
     0
290
     0
174
     0
 93
        1
 44
0.0
173
     0
291
     1
 45
0.0
1001
ACAD
1000
AcDbSavedByObjectVersion
1070
     0
  0
VISUALSTYLE
  5
2BE
102
{ACAD_XDICTIONARY
360
10BB
102
}
102
{ACAD_REACTORS
330
2B4
102
}
330
2B4
100
AcDbVisualStyle
  2
Realistic
 70
     8
 71
     2
 72
     2
 73
     0
 90
        0
 40
-0.6
 41
-30.0
 62
     5
 63
     7
 74
     1
 91
        0
 64
     7
 65
   257
 75
     1
175
     1
 42
1.0
 92
        8
 66
     8
 43
1.0
 76
     1
 77
     6
 78
     2
 67
     7
 79
     5
170
     0
171
     0
290
     0
174
     0
 93
       13
 44
0.0
173
     0
291
     0
 45
0.0
1001
ACAD
1000
AcDbSavedByObjectVersion
1070
     0
  0
VISUALSTYLE
  5
100B
102
{ACAD_XDICTIONARY
360
10E3
102
}
102
{ACAD_REACTORS
330
2B4
102
}
330
2B4
100
AcDbVisualStyle
  2
Shaded
 70
    27
 71
     2
 72
     2
 73
     1
 90
        2
 40
-0.6
 41
30.0
 62
     5
 63
     7
 74
     0
 91
        4
 64
     7
 65
   257
 75
     1
175
     1
 42
1.0
 92
        8
 66
   257
 43
1.0
 76
     1
 77
     6
 78
     2
 67
     8
 79
     3
170
     0
171
     0
290
     0
174
     0
 93
        5
 44
0.0
173
     0
291
     0
 45
0.0
1001
ACAD
1000
AcDbSavedByObjectVersion
1070
     0
  0
VISUALSTYLE
  5
100A
102
{ACAD_XDICTIONARY
360
10E1
102
}
102
{ACAD_REACTORS
330
2B4
102
}
330
2B4
100
AcDbVisualStyle
  2
Shaded with edges
 70
    26
 71
     2
 72
     2
 73
     1
 90
        2
 40
-0.6
 41
30.0
 62
     5
 63
     7
 74
     1
 91
       10
 64
     7
 65
   257
 75
     2
175
     1
 42
1.0
 92
        8
 66
   257
 43
1.0
 76
     1
 77
     6
 78
     2
 67
     7
 79
     3
170
     0
171
     0
290
     0
174
     0
 93
        5
 44
0.0
173
     0
291
     0
 45
0.0
1001
ACAD
1000
AcDbSavedByObjectVersion
1070
     0
  0
VISUALSTYLE
  5
1007
102
{ACAD_XDICTIONARY
360
10DB
102
}
102
{ACAD_REACTORS
330
2B4
102
}
330
2B4
100
AcDbVisualStyle
  2
Shades of Gray
 70
    23
 71
     2
 72
     2
 73
     3
 90
        0
 40
-0.6
 41
-30.0
 62
     5
 63
     7
 74
     2
 91
        2
 64
     7
 65
     7
 75
     1
175
     1
 42
40.0
 92
        8
 66
     7
 43
1.0
 76
     1
 77
     6
 78
     2
 67
     7
 79
     3
170
     0
171
     0
290
     0
174
     0
 93
        1
 44
0.0
173
     0
291
     0
 45
0.0
1001
ACAD
1000
AcDbSavedByObjectVersion
1070
     0
  0
VISUALSTYLE
  5
1008
102
{ACAD_XDICTIONARY
360
10DD
102
}
102
{ACAD_REACTORS
330
2B4
102
}
330
2B4
100
AcDbVisualStyle
  2
Sketchy
 70
    24
 71
     1
 72
     2
 73
     2
 90
        0
 40
-0.6
 41
-30.0
 62
     5
 63
     7
 74
     2
 91
        2
 64
     7
 65
     7
 75
     1
175
     1
 42
40.0
 92
       11
 66
     7
 43
1.0
 76
     1
 77
     6
 78
     2
 67
     7
 79
     6
170
     0
171
     0
290
     0
174
     0
 93
        1
 44
0.0
173
     0
291
     0
 45
0.0
1001
ACAD
1000
AcDbSavedByObjectVersion
1070
     0
  0
VISUALSTYLE
  5
2C1
102
{ACAD_XDICTIONARY
360
10C1
102
}
102
{ACAD_REACTORS
330
2B4
102
}
330
2B4
100
AcDbVisualStyle
  2
Thicken
 70
    13
 71
     2
 72
     2
 73
     0
 90
        0
 40
-0.6
 41
-30.0
 62
     5
 63
     7
 74
     1
 91
        4
 64
     7
 65
   257
 75
     1
175
     1
 42
1.0
 92
       12
 66
     7
 43
1.0
 76
     1
 77
     6
 78
     2
 67
     7
 79
     5
170
     0
171
     0
290
     0
174
     0
 93
        1
 44
0.0
173
     0
291
     1
 45
0.0
1001
ACAD
1000
AcDbSavedByObjectVersion
1070
     0
  0
VISUALSTYLE
  5
1005
102
{ACAD_XDICTIONARY
360
10D7
102
}
102
{ACAD_REACTORS
330
2B4
102
}
330
2B4
100
AcDbVisualStyle
  2
Wireframe
 70
     5
 71
     0
 72
     2
 73
     0
 90
        0
 40
-0.6
 41
-30.0
 62
     5
 63
     7
 74
     1
 91
        4
 64
     7
 65
   257
 75
     1
175
     1
 42
1.0
 92
        0
 66
   257
 43
1.0
 76
     1
 77
     6
 78
     2
 67
     7
 79
     3
170
     0
171
     0
290
     0
174
     0
 93
        1
 44
0.0
173
     0
291
     0
 45
0.0
1001
ACAD
1000
AcDbSavedByObjectVersion
1070
     0
  0
VISUALSTYLE
  5
1009
102
{ACAD_XDICTIONARY
360
10DF
102
}
102
{ACAD_REACTORS
330
2B4
102
}
330
2B4
100
AcDbVisualStyle
  2
X-Ray
 70
    25
 71
     2
 72
     2
 73
     1
 90
        1
 40
0.5
 41
-30.0
 62
     5
 63
     7
 74
     1
 91
        0
 64
     7
 65
   257
 75
     1
175
     1
 42
1.0
 92
        8
 66
     7
 43
1.0
 76
     1
 77
     6
 78
     2
 67
     7
 79
     3
170
     0
171
     0
290
     0
174
     0
 93
       13
 44
0.0
173
     0
291
     0
 45
0.0
1001
ACAD
1000
AcDbSavedByObjectVersion
1070
     0
  0
DICTIONARYVAR
  5
36B
102
{ACAD_REACTORS
330
2AA
102
}
330
2AA
100
DictionaryVariables
280
     0
  1
1:1
  0
DICTIONARYVAR
  5
369
102
{ACAD_REACTORS
330
2AA
102
}
330
2AA
100
DictionaryVariables
280
     0
  1
STANDARD
  0
DICTIONARYVAR
  5
312
102
{ACAD_REACTORS
330
2AA
102
}
330
2AA
100
DictionaryVariables
280
     0
  1
STANDARD
  0
DICTIONARYVAR
  5
2AB
102
{ACAD_REACTORS
330
2AA
102
}
330
2AA
100
DictionaryVariables
280
     0
  1
2
  0
DICTIONARYVAR
  5
DA8
102
{ACAD_REACTORS
330
2AA
102
}
330
2AA
100
DictionaryVariables
280
     0
  1
0
  0
DICTIONARYVAR
  5
314
102
{ACAD_REACTORS
330
2AA
102
}
330
2AA
100
DictionaryVariables
280
     0
  1
0
  0
DICTIONARYVAR
  5
DAA
102
{ACAD_REACTORS
330
2AA
102
}
330
2AA
100
DictionaryVariables
280
     0
  1
1
  0
DICTIONARYVAR
  5
DAB
102
{ACAD_REACTORS
330
2AA
102
}
330
2AA
100
DictionaryVariables
280
     0
  1
15
  0
DICTIONARYVAR
  5
36C
102
{ACAD_REACTORS
330
2AA
102
}
330
2AA
100
DictionaryVariables
280
     0
  1
0
  0
DICTIONARYVAR
  5
DA9
102
{ACAD_REACTORS
330
2AA
102
}
330
2AA
100
DictionaryVariables
280
     0
  1
10.000000
  0
DICTIONARYVAR
  5
36A
102
{ACAD_REACTORS
330
2AA
102
}
330
2AA
100
DictionaryVariables
280
     0
  1
0
  0
DICTIONARYVAR
  5
313
102
{ACAD_REACTORS
330
2AA
102
}
330
2AA
100
DictionaryVariables
280
     0
  1
127
  0
DICTIONARYVAR
  5
1097
102
{ACAD_REACTORS
330
2AA
102
}
330
2AA
100
DictionaryVariables
280
     0
  1
0
  0
XRECORD
  5
51
102
{ACAD_REACTORS
330
50
102
}
330
50
100
AcDbXrecord
280
     1
 91
        5
  0
ACAD_PROXY_OBJECT
  5
6DA
102
{ACAD_REACTORS
330
6D9
102
}
330
6D9
100
AcDbProxyObject
 90
      499
 91
      512
 95
  3276827
 70
     0
 93
      153
310
407907440045004600410055004C0054007A00CC
 94
        0
1001
ACAD
1000
AcRTDxfName
1000
ACDBQSCATEGORY
  0
ACAD_PROXY_OBJECT
  5
6EC
102
{ACAD_REACTORS
330
6EB
102
}
330
6EB
100
AcDbProxyObject
 90
      499
 91
      513
 95
  3276827
 70
     0
 93
     2908
310
40B520280D55480A0281203520280A0280C0000000000000A200000000000000448080C00000000000019200000000000000688120280A0280A0E88008A008C008200AA009800A80082280027802980170020E88008A008C008200AA009800A80080A180202860120C86009E008800920086008A008A220024802680228027
310
00298024802780270024802F8022002480268018801680220024802680190024EA2007400B800A200A600BE00A4008A00A8008A00B80082009A00840092008A009C00A8009200B800A8009E00A000BE00880092008A00A400A4008A00B800A8008200840060005C008800AE008E0095A8801D002E00288029802F802900228
310
02A0022802E002080268021002480228027002A0024802E002A00278028002F802200248022802900290022802E002A00278028002F802800208026002600170022002B80238020C86009E008800920086008A0085A200228029802180290024802D00248027802700228050413C
 94
        0
1001
ACAD
1000
AcRTDxfName
1000
ACDBQSPALLSTYLE
  0
XRECORD
  5
1000
102
{ACAD_REACTORS
330
FF9
102
}
330
FF9
100
AcDbXrecord
280
     1
  9
X241f
  0
XRECORD
  5
FFA
102
{ACAD_REACTORS
330
FF9
102
}
330
FF9
100
AcDbXrecord
280
     1
  2
CORN.Q30-ASPORT./ARG.
  3
P-0000
280
     1
310
6465736372697A696F6E6500434F524E2E5133302D4153504F52542E2F4152472E00444154410030352F30382F303900554D004D4C0052455600300044495345474E41544F5245004D6172636F20412E005343414C4100313A3130005452415454414D454E544900414E4F442E415247454E544F005154410031004E4F544500414E5449434F524F44414C204C454741363036302F554E49203930303631004D4154455249414C4500414C4C554D494E494F00434F444943450058423236333330002E666D7400340000
 10
0.0
 20
0.0
 30
0.0
  0
XRECORD
  5
FFB
102
{ACAD_REACTORS
330
FF9
102
}
330
FF9
100
AcDbXrecord
280
     1
  2
.cart
  3
P-3FC3
  6
X241f
280
     1
310
6465736372697A696F6E65002E6361727400444154410030352F30382F30390064697365676E61746F7265004D6172636F20412E00717461003100554D004E52005245560030005343414C4100313A31300000
 10
0.0
 20
0.0
 30
0.0
  0
XRECORD
  5
FFC
102
{ACAD_REACTORS
330
FF9
102
}
330
FF9
100
AcDbXrecord
280
     1
  2
.1
  3
P-07B0
  6
X241f
280
     1
310
6465736372697A696F6E65002E3100444154410030352F30382F30390064697365676E61746F7265004D6172636F20412E00717461003100554D004E52005245560030005343414C4100313A310000
 10
0.0
 20
0.0
 30
0.0
  0
XRECORD
  5
FFE
102
{ACAD_REACTORS
330
FF9
102
}
330
FF9
100
AcDbXrecord
280
     1
  2
INSERTO FIL.M 5 TFL/ZIGRINATO
  3
P-6E84
  6
X7054
280
     1
310
6465736372697A696F6E6500494E534552544F2046494C2E4D20352054464C2F5A494752494E41544F00444154410030332F31322F30390064697365676E61746F7265004D6172636F20412E007174610031005245560030004445534352495A494F4E453200303839420024736F7572636500416E61677261666963612047657374696F6E616C6500434F444943450058433135323035004D4154455249414C4500414C4C554D494E494F0000
 10
0.0
 20
0.0
 30
0.0
  0
XRECORD
  5
FFD
102
{ACAD_REACTORS
330
FF9
102
}
330
FF9
100
AcDbXrecord
280
     1
  2
PROF.CORNIC.Q30 ASP. ALL.ANOD.ARG.
  3
P-740C
  6
X241f
280
     2
310
6465736372697A696F6E650050524F462E434F524E49432E513330204153502E20414C4C2E414E4F442E4152472E00444154410030362F30382F30390064697365676E61746F7265004D6172636F20412E00717461003100554D004D4C0052455600300044494D3100313030300044494D454E53494F4E495F44494D312D44494D3200313030300024736F7572636500416E61677261666963612047657374696F6E616C6500434F444943450058423236333330005452415454414D454E544900414E4F442E415247454E544F004E4F544500414E5449434F524F44414C204C454741363036302F554E49203930303631004D4154455249414C4500414C4C
311
554D494E494F0000
 10
1207.505104791455
 20
1731.805378655424
 30
0.0
  0
XRECORD
  5
FFF
102
{ACAD_REACTORS
330
FF9
102
}
330
FF9
100
AcDbXrecord
280
     1
  2
ROND.RAGG.(XVTC CR.) M5 /R.7039
  3
P-279C
  6
X7054
280
     1
310
6465736372697A696F6E6500524F4E442E524147472E28585654432043522E29204D35202F522E3730333900444154410030332F31322F30390064697365676E61746F7265004D6172636F20412E007174610031005245560030004445534352495A494F4E453200303339430024736F7572636500416E61677261666963612047657374696F6E616C6500434F44494345005846353236303547004D4154455249414C45004E594C4F4E0000
 10
0.0
 20
0.0
 30
0.0
  0
XRECORD
  5
6E1
102
{ACAD_REACTORS
330
6E0
102
}
330
6E0
100
AcDbXrecord
280
     1
 90
      202
 91
      144
  0
DICTIONARY
  5
10A1
330
48
100
AcDbDictionary
280
     1
281
     1
  3
ACAD_XREC_ROUNDTRIP
360
10A2
  0
DICTIONARY
  5
109F
330
47
100
AcDbDictionary
280
     1
281
     1
  3
ACAD_XREC_ROUNDTRIP
360
10A0
  0
DICTIONARY
  5
10A5
330
2B2
100
AcDbDictionary
280
     1
281
     1
  3
ACAD_XREC_ROUNDTRIP
360
10A6
  0
DICTIONARY
  5
10A3
330
2B1
100
AcDbDictionary
280
     1
281
     1
  3
ACAD_XREC_ROUNDTRIP
360
10A4
  0
DICTIONARY
  5
10A7
330
2B3
100
AcDbDictionary
280
     1
281
     1
  3
ACAD_XREC_ROUNDTRIP
360
10A8
  0
DICTIONARY
  5
10CD
330
F7D
100
AcDbDictionary
280
     1
281
     1
  3
ACAD_XREC_ROUNDTRIP
360
10CE
  0
DICTIONARY
  5
10CF
330
F7E
100
AcDbDictionary
280
     1
281
     1
  3
ACAD_XREC_ROUNDTRIP
360
10D0
  0
DICTIONARY
  5
10D1
330
F7F
100
AcDbDictionary
280
     1
281
     1
  3
ACAD_XREC_ROUNDTRIP
360
10D2
  0
DICTIONARY
  5
10D3
330
F80
100
AcDbDictionary
280
     1
281
     1
  3
ACAD_XREC_ROUNDTRIP
360
10D4
  0
DICTIONARY
  5
10D5
330
F81
100
AcDbDictionary
280
     1
281
     1
  3
ACAD_XREC_ROUNDTRIP
360
10D6
  0
DICTIONARY
  5
366
330
31A
100
AcDbDictionary
280
     1
281
     1
  3
ACAD_ROUNDTRIP_2008_TABLESTYLE_CELLSTYLEMAP
360
109A
  3
ACAD_XREC_ROUNDTRIP
360
10CB
  0
DICTIONARY
  5
364
330
2CC
100
AcDbDictionary
280
     1
281
     1
  3
ACAD_ROUNDTRIP_2008_TABLESTYLE_CELLSTYLEMAP
360
1099
  3
ACAD_XREC_ROUNDTRIP
360
10CA
  0
DICTIONARY
  5
362
330
2C7
100
AcDbDictionary
280
     1
281
     1
  3
ACAD_ROUNDTRIP_2008_TABLESTYLE_CELLSTYLEMAP
360
1098
  3
ACAD_XREC_ROUNDTRIP
360
10C9
  0
DICTIONARY
  5
10B3
330
2BA
100
AcDbDictionary
280
     1
281
     1
  3
ACAD_XREC_ROUNDTRIP
360
10B4
  0
DICTIONARY
  5
10B7
330
2BC
100
AcDbDictionary
280
     1
281
     1
  3
ACAD_XREC_ROUNDTRIP
360
10B8
  0
DICTIONARY
  5
10B5
330
2BB
100
AcDbDictionary
280
     1
281
     1
  3
ACAD_XREC_ROUNDTRIP
360
10B6
  0
DICTIONARY
  5
10B1
330
2B9
100
AcDbDictionary
280
     1
281
     1
  3
ACAD_XREC_ROUNDTRIP
360
10B2
  0
DICTIONARY
  5
10BF
330
2C0
100
AcDbDictionary
280
     1
281
     1
  3
ACAD_XREC_ROUNDTRIP
360
10C0
  0
DICTIONARY
  5
10C7
330
2C4
100
AcDbDictionary
280
     1
281
     1
  3
ACAD_XREC_ROUNDTRIP
360
10C8
  0
DICTIONARY
  5
10B9
330
2BD
100
AcDbDictionary
280
     1
281
     1
  3
ACAD_XREC_ROUNDTRIP
360
10BA
  0
DICTIONARY
  5
10BD
330
2BF
100
AcDbDictionary
280
     1
281
     1
  3
ACAD_XREC_ROUNDTRIP
360
10BE
  0
DICTIONARY
  5
10E9
330
100E
100
AcDbDictionary
280
     1
281
     1
  3
ACAD_XREC_ROUNDTRIP
360
10EA
  0
DICTIONARY
  5
10C5
330
2C3
100
AcDbDictionary
280
     1
281
     1
  3
ACAD_XREC_ROUNDTRIP
360
10C6
  0
DICTIONARY
  5
10A9
330
2B5
100
AcDbDictionary
280
     1
281
     1
  3
ACAD_XREC_ROUNDTRIP
360
10AA
  0
DICTIONARY
  5
10AB
330
2B6
100
AcDbDictionary
280
     1
281
     1
  3
ACAD_XREC_ROUNDTRIP
360
10AC
  0
DICTIONARY
  5
10AD
330
2B7
100
AcDbDictionary
280
     1
281
     1
  3
ACAD_XREC_ROUNDTRIP
360
10AE
  0
DICTIONARY
  5
10AF
330
2B8
100
AcDbDictionary
280
     1
281
     1
  3
ACAD_XREC_ROUNDTRIP
360
10B0
  0
DICTIONARY
  5
10D9
330
1006
100
AcDbDictionary
280
     1
281
     1
  3
ACAD_XREC_ROUNDTRIP
360
10DA
  0
DICTIONARY
  5
10E5
330
100C
100
AcDbDictionary
280
     1
281
     1
  3
ACAD_XREC_ROUNDTRIP
360
10E6
  0
DICTIONARY
  5
10C3
330
2C2
100
AcDbDictionary
280
     1
281
     1
  3
ACAD_XREC_ROUNDTRIP
360
10C4
  0
DICTIONARY
  5
10E7
330
100D
100
AcDbDictionary
280
     1
281
     1
  3
ACAD_XREC_ROUNDTRIP
360
10E8
  0
DICTIONARY
  5
10BB
330
2BE
100
AcDbDictionary
280
     1
281
     1
  3
ACAD_XREC_ROUNDTRIP
360
10BC
  0
DICTIONARY
  5
10E3
330
100B
100
AcDbDictionary
280
     1
281
     1
  3
ACAD_XREC_ROUNDTRIP
360
10E4
  0
DICTIONARY
  5
10E1
330
100A
100
AcDbDictionary
280
     1
281
     1
  3
ACAD_XREC_ROUNDTRIP
360
10E2
  0
DICTIONARY
  5
10DB
330
1007
100
AcDbDictionary
280
     1
281
     1
  3
ACAD_XREC_ROUNDTRIP
360
10DC
  0
DICTIONARY
  5
10DD
330
1008
100
AcDbDictionary
280
     1
281
     1
  3
ACAD_XREC_ROUNDTRIP
360
10DE
  0
DICTIONARY
  5
10C1
330
2C1
100
AcDbDictionary
280
     1
281
     1
  3
ACAD_XREC_ROUNDTRIP
360
10C2
  0
DICTIONARY
  5
10D7
330
1005
100
AcDbDictionary
280
     1
281
     1
  3
ACAD_XREC_ROUNDTRIP
360
10D8
  0
DICTIONARY
  5
10DF
330
1009
100
AcDbDictionary
280
     1
281
     1
  3
ACAD_XREC_ROUNDTRIP
360
10E0
  0
XRECORD
  5
10A2
102
{ACAD_REACTORS
330
10A1
102
}
330
10A1
100
AcDbXrecord
280
     1
102
SHADEPLOT
 70
     0
102
SHADEPLOTRESLEVEL
 70
     2
102
SHADEPLOTCUSTOMDPI
 70
   300
  0
XRECORD
  5
10A0
102
{ACAD_REACTORS
330
109F
102
}
330
109F
100
AcDbXrecord
280
     1
102
SHADEPLOT
 70
     0
102
SHADEPLOTRESLEVEL
 70
     2
102
SHADEPLOTCUSTOMDPI
 70
   300
  0
XRECORD
  5
10A6
102
{ACAD_REACTORS
330
10A5
102
}
330
10A5
100
AcDbXrecord
280
     1
102
MATERIAL
148
0.0
149
0.0
149
0.0
 93
        0
 94
       63
282
     0
 72
     1
 77
     1
171
     1
175
     1
179
     1
273
     0
  0
XRECORD
  5
10A4
102
{ACAD_REACTORS
330
10A3
102
}
330
10A3
100
AcDbXrecord
280
     1
102
MATERIAL
148
0.0
149
0.0
149
0.0
 93
        0
 94
       63
282
     0
 72
     1
 77
     1
171
     1
175
     1
179
     1
273
     0
  0
XRECORD
  5
10A8
102
{ACAD_REACTORS
330
10A7
102
}
330
10A7
100
AcDbXrecord
280
     1
102
MATERIAL
148
0.0
149
0.0
149
0.0
 93
        0
 94
       63
282
     0
 72
     1
 77
     1
171
     1
175
     1
179
     1
273
     0
  0
XRECORD
  5
10CE
102
{ACAD_REACTORS
330
10CD
102
}
330
10CD
100
AcDbXrecord
280
     1
102
SHADEPLOT
 70
     0
102
SHADEPLOTRESLEVEL
 70
     2
102
SHADEPLOTCUSTOMDPI
 70
   300
  0
XRECORD
  5
10D0
102
{ACAD_REACTORS
330
10CF
102
}
330
10CF
100
AcDbXrecord
280
     1
102
SHADEPLOT
 70
     0
102
SHADEPLOTRESLEVEL
 70
     2
102
SHADEPLOTCUSTOMDPI
 70
   300
  0
XRECORD
  5
10D2
102
{ACAD_REACTORS
330
10D1
102
}
330
10D1
100
AcDbXrecord
280
     1
102
SHADEPLOT
 70
     0
102
SHADEPLOTRESLEVEL
 70
     2
102
SHADEPLOTCUSTOMDPI
 70
   300
  0
XRECORD
  5
10D4
102
{ACAD_REACTORS
330
10D3
102
}
330
10D3
100
AcDbXrecord
280
     1
102
SHADEPLOT
 70
     0
102
SHADEPLOTRESLEVEL
 70
     2
102
SHADEPLOTCUSTOMDPI
 70
   300
  0
XRECORD
  5
10D6
102
{ACAD_REACTORS
330
10D5
102
}
330
10D5
100
AcDbXrecord
280
     1
102
SHADEPLOT
 70
     0
102
SHADEPLOTRESLEVEL
 70
     2
102
SHADEPLOTCUSTOMDPI
 70
   300
  0
CELLSTYLEMAP
  5
109A
102
{ACAD_REACTORS
330
366
102
}
330
366
100
AcDbCellStyleMap
 90
        3
300
CELLSTYLE
  1
TABLEFORMAT_BEGIN
 90
        5
170
     1
 91
        0
 92
    32768
 62
   257
 93
        1
300
CONTENTFORMAT
  1
CONTENTFORMAT_BEGIN
 90
        0
 91
        0
 92
      512
 93
        0
300

 40
0.0
140
1.0
 94
        5
 62
     1
340
1B
144
6.0
309
CONTENTFORMAT_END
171
     1
301
MARGIN
  1
CELLMARGIN_BEGIN
 40
1.5
 40
1.5
 40
1.5
 40
1.5
 40
0.18
 40
0.18
309
CELLMARGIN_END
 94
        6
 95
        1
302
GRIDFORMAT
  1
GRIDFORMAT_BEGIN
 90
        0
 91
        1
 62
     0
 92
       -2
340
0
 93
        0
 40
0.045
309
GRIDFORMAT_END
 95
        2
302
GRIDFORMAT
  1
GRIDFORMAT_BEGIN
 90
        0
 91
        1
 62
     0
 92
       -2
340
0
 93
        0
 40
0.045
309
GRIDFORMAT_END
 95
        4
302
GRIDFORMAT
  1
GRIDFORMAT_BEGIN
 90
        0
 91
        1
 62
     0
 92
       -2
340
0
 93
        0
 40
0.045
309
GRIDFORMAT_END
 95
        8
302
GRIDFORMAT
  1
GRIDFORMAT_BEGIN
 90
        0
 91
        1
 62
     0
 92
       -2
340
0
 93
        0
 40
0.045
309
GRIDFORMAT_END
 95
       16
302
GRIDFORMAT
  1
GRIDFORMAT_BEGIN
 90
        0
 91
        1
 62
     0
 92
       -2
340
0
 93
        0
 40
0.045
309
GRIDFORMAT_END
 95
       32
302
GRIDFORMAT
  1
GRIDFORMAT_BEGIN
 90
        0
 91
        1
 62
     0
 92
       -2
340
0
 93
        0
 40
0.045
309
GRIDFORMAT_END
309
TABLEFORMAT_END
  1
CELLSTYLE_BEGIN
 90
        1
 91
        1
300
_TITLE
309
CELLSTYLE_END
300
CELLSTYLE
  1
TABLEFORMAT_BEGIN
 90
        5
170
     1
 91
        0
 92
        0
 62
   257
 93
        1
300
CONTENTFORMAT
  1
CONTENTFORMAT_BEGIN
 90
        0
 91
        0
 92
      512
 93
        0
300

 40
0.0
140
1.0
 94
        5
 62
     3
340
1B
144
3.5
309
CONTENTFORMAT_END
171
     1
301
MARGIN
  1
CELLMARGIN_BEGIN
 40
1.5
 40
1.5
 40
1.5
 40
1.5
 40
0.18
 40
0.18
309
CELLMARGIN_END
 94
        6
 95
        1
302
GRIDFORMAT
  1
GRIDFORMAT_BEGIN
 90
        0
 91
        1
 62
     0
 92
       -2
340
0
 93
        0
 40
0.045
309
GRIDFORMAT_END
 95
        2
302
GRIDFORMAT
  1
GRIDFORMAT_BEGIN
 90
        0
 91
        1
 62
     0
 92
       -2
340
0
 93
        0
 40
0.045
309
GRIDFORMAT_END
 95
        4
302
GRIDFORMAT
  1
GRIDFORMAT_BEGIN
 90
        0
 91
        1
 62
     0
 92
       -2
340
0
 93
        0
 40
0.045
309
GRIDFORMAT_END
 95
        8
302
GRIDFORMAT
  1
GRIDFORMAT_BEGIN
 90
        0
 91
        1
 62
     0
 92
       -2
340
0
 93
        0
 40
0.045
309
GRIDFORMAT_END
 95
       16
302
GRIDFORMAT
  1
GRIDFORMAT_BEGIN
 90
        0
 91
        1
 62
     0
 92
       -2
340
0
 93
        0
 40
0.045
309
GRIDFORMAT_END
 95
       32
302
GRIDFORMAT
  1
GRIDFORMAT_BEGIN
 90
        0
 91
        1
 62
     0
 92
       -2
340
0
 93
        0
 40
0.045
309
GRIDFORMAT_END
309
TABLEFORMAT_END
  1
CELLSTYLE_BEGIN
 90
        2
 91
        1
300
_HEADER
309
CELLSTYLE_END
300
CELLSTYLE
  1
TABLEFORMAT_BEGIN
 90
        5
170
     1
 91
        0
 92
        0
 62
   257
 93
        1
300
CONTENTFORMAT
  1
CONTENTFORMAT_BEGIN
 90
        0
 91
        0
 92
      512
 93
        0
300

 40
0.0
140
1.0
 94
        5
 62
     7
340
1B
144
3.0
309
CONTENTFORMAT_END
171
     1
301
MARGIN
  1
CELLMARGIN_BEGIN
 40
1.5
 40
1.5
 40
1.5
 40
1.5
 40
0.18
 40
0.18
309
CELLMARGIN_END
 94
        6
 95
        1
302
GRIDFORMAT
  1
GRIDFORMAT_BEGIN
 90
        0
 91
        1
 62
     0
 92
       -2
340
0
 93
        0
 40
0.045
309
GRIDFORMAT_END
 95
        2
302
GRIDFORMAT
  1
GRIDFORMAT_BEGIN
 90
        0
 91
        1
 62
     0
 92
       -2
340
0
 93
        0
 40
0.045
309
GRIDFORMAT_END
 95
        4
302
GRIDFORMAT
  1
GRIDFORMAT_BEGIN
 90
        0
 91
        1
 62
     0
 92
       -2
340
0
 93
        0
 40
0.045
309
GRIDFORMAT_END
 95
        8
302
GRIDFORMAT
  1
GRIDFORMAT_BEGIN
 90
        0
 91
        1
 62
     0
 92
       -2
340
0
 93
        0
 40
0.045
309
GRIDFORMAT_END
 95
       16
302
GRIDFORMAT
  1
GRIDFORMAT_BEGIN
 90
        0
 91
        1
 62
     0
 92
       -2
340
0
 93
        0
 40
0.045
309
GRIDFORMAT_END
 95
       32
302
GRIDFORMAT
  1
GRIDFORMAT_BEGIN
 90
        0
 91
        1
 62
     0
 92
       -2
340
0
 93
        0
 40
0.045
309
GRIDFORMAT_END
309
TABLEFORMAT_END
  1
CELLSTYLE_BEGIN
 90
        3
 91
        2
300
_DATA
309
CELLSTYLE_END
  0
XRECORD
  5
10CB
102
{ACAD_REACTORS
330
366
102
}
330
366
100
AcDbXrecord
280
     1
102
ACAD_ROUNDTRIP_PRE2007_TABLESTYLE
 90
      512
 91
        0
  1

 92
      512
 93
        0
  2

 94
      512
 95
        0
  3

  0
CELLSTYLEMAP
  5
1099
102
{ACAD_REACTORS
330
364
102
}
330
364
100
AcDbCellStyleMap
 90
        3
300
CELLSTYLE
  1
TABLEFORMAT_BEGIN
 90
        5
170
     1
 91
        0
 92
    32768
 62
   257
 93
        1
300
CONTENTFORMAT
  1
CONTENTFORMAT_BEGIN
 90
        0
 91
        0
 92
      512
 93
        0
300

 40
0.0
140
1.0
 94
        5
 62
     1
340
1B
144
6.0
309
CONTENTFORMAT_END
171
     1
301
MARGIN
  1
CELLMARGIN_BEGIN
 40
1.5
 40
1.5
 40
1.5
 40
1.5
 40
0.18
 40
0.18
309
CELLMARGIN_END
 94
        6
 95
        1
302
GRIDFORMAT
  1
GRIDFORMAT_BEGIN
 90
        0
 91
        1
 62
     0
 92
       -2
340
0
 93
        0
 40
0.045
309
GRIDFORMAT_END
 95
        2
302
GRIDFORMAT
  1
GRIDFORMAT_BEGIN
 90
        0
 91
        1
 62
     0
 92
       -2
340
0
 93
        0
 40
0.045
309
GRIDFORMAT_END
 95
        4
302
GRIDFORMAT
  1
GRIDFORMAT_BEGIN
 90
        0
 91
        1
 62
     0
 92
       -2
340
0
 93
        0
 40
0.045
309
GRIDFORMAT_END
 95
        8
302
GRIDFORMAT
  1
GRIDFORMAT_BEGIN
 90
        0
 91
        1
 62
     0
 92
       -2
340
0
 93
        0
 40
0.045
309
GRIDFORMAT_END
 95
       16
302
GRIDFORMAT
  1
GRIDFORMAT_BEGIN
 90
        0
 91
        1
 62
     0
 92
       -2
340
0
 93
        0
 40
0.045
309
GRIDFORMAT_END
 95
       32
302
GRIDFORMAT
  1
GRIDFORMAT_BEGIN
 90
        0
 91
        1
 62
     0
 92
       -2
340
0
 93
        0
 40
0.045
309
GRIDFORMAT_END
309
TABLEFORMAT_END
  1
CELLSTYLE_BEGIN
 90
        1
 91
        1
300
_TITLE
309
CELLSTYLE_END
300
CELLSTYLE
  1
TABLEFORMAT_BEGIN
 90
        5
170
     1
 91
        0
 92
        0
 62
   257
 93
        1
300
CONTENTFORMAT
  1
CONTENTFORMAT_BEGIN
 90
        0
 91
        0
 92
      512
 93
        0
300

 40
0.0
140
1.0
 94
        5
 62
     3
340
1B
144
5.0
309
CONTENTFORMAT_END
171
     1
301
MARGIN
  1
CELLMARGIN_BEGIN
 40
1.5
 40
1.5
 40
1.5
 40
1.5
 40
0.18
 40
0.18
309
CELLMARGIN_END
 94
        6
 95
        1
302
GRIDFORMAT
  1
GRIDFORMAT_BEGIN
 90
        0
 91
        1
 62
     0
 92
       -2
340
0
 93
        0
 40
0.045
309
GRIDFORMAT_END
 95
        2
302
GRIDFORMAT
  1
GRIDFORMAT_BEGIN
 90
        0
 91
        1
 62
     0
 92
       -2
340
0
 93
        0
 40
0.045
309
GRIDFORMAT_END
 95
        4
302
GRIDFORMAT
  1
GRIDFORMAT_BEGIN
 90
        0
 91
        1
 62
     0
 92
       -2
340
0
 93
        0
 40
0.045
309
GRIDFORMAT_END
 95
        8
302
GRIDFORMAT
  1
GRIDFORMAT_BEGIN
 90
        0
 91
        1
 62
     0
 92
       -2
340
0
 93
        0
 40
0.045
309
GRIDFORMAT_END
 95
       16
302
GRIDFORMAT
  1
GRIDFORMAT_BEGIN
 90
        0
 91
        1
 62
     0
 92
       -2
340
0
 93
        0
 40
0.045
309
GRIDFORMAT_END
 95
       32
302
GRIDFORMAT
  1
GRIDFORMAT_BEGIN
 90
        0
 91
        1
 62
     0
 92
       -2
340
0
 93
        0
 40
0.045
309
GRIDFORMAT_END
309
TABLEFORMAT_END
  1
CELLSTYLE_BEGIN
 90
        2
 91
        1
300
_HEADER
309
CELLSTYLE_END
300
CELLSTYLE
  1
TABLEFORMAT_BEGIN
 90
        5
170
     1
 91
        0
 92
        0
 62
   257
 93
        1
300
CONTENTFORMAT
  1
CONTENTFORMAT_BEGIN
 90
        0
 91
        0
 92
      512
 93
        0
300

 40
0.0
140
1.0
 94
        5
 62
     7
340
1B
144
4.5
309
CONTENTFORMAT_END
171
     1
301
MARGIN
  1
CELLMARGIN_BEGIN
 40
1.5
 40
1.5
 40
1.5
 40
1.5
 40
0.18
 40
0.18
309
CELLMARGIN_END
 94
        6
 95
        1
302
GRIDFORMAT
  1
GRIDFORMAT_BEGIN
 90
        0
 91
        1
 62
     0
 92
       -2
340
0
 93
        0
 40
0.045
309
GRIDFORMAT_END
 95
        2
302
GRIDFORMAT
  1
GRIDFORMAT_BEGIN
 90
        0
 91
        1
 62
     0
 92
       -2
340
0
 93
        0
 40
0.045
309
GRIDFORMAT_END
 95
        4
302
GRIDFORMAT
  1
GRIDFORMAT_BEGIN
 90
        0
 91
        1
 62
     0
 92
       -2
340
0
 93
        0
 40
0.045
309
GRIDFORMAT_END
 95
        8
302
GRIDFORMAT
  1
GRIDFORMAT_BEGIN
 90
        0
 91
        1
 62
     0
 92
       -2
340
0
 93
        0
 40
0.045
309
GRIDFORMAT_END
 95
       16
302
GRIDFORMAT
  1
GRIDFORMAT_BEGIN
 90
        0
 91
        1
 62
     0
 92
       -2
340
0
 93
        0
 40
0.045
309
GRIDFORMAT_END
 95
       32
302
GRIDFORMAT
  1
GRIDFORMAT_BEGIN
 90
        0
 91
        1
 62
     0
 92
       -2
340
0
 93
        0
 40
0.045
309
GRIDFORMAT_END
309
TABLEFORMAT_END
  1
CELLSTYLE_BEGIN
 90
        3
 91
        2
300
_DATA
309
CELLSTYLE_END
  0
XRECORD
  5
10CA
102
{ACAD_REACTORS
330
364
102
}
330
364
100
AcDbXrecord
280
     1
102
ACAD_ROUNDTRIP_PRE2007_TABLESTYLE
 90
      512
 91
        0
  1

 92
      512
 93
        0
  2

 94
      512
 95
        0
  3

  0
CELLSTYLEMAP
  5
1098
102
{ACAD_REACTORS
330
362
102
}
330
362
100
AcDbCellStyleMap
 90
        3
300
CELLSTYLE
  1
TABLEFORMAT_BEGIN
 90
        5
170
     1
 91
        0
 92
    32768
 62
   257
 93
        1
300
CONTENTFORMAT
  1
CONTENTFORMAT_BEGIN
 90
        0
 91
        0
 92
      512
 93
        0
300

 40
0.0
140
1.0
 94
        5
 62
     0
340
C
144
6.0
309
CONTENTFORMAT_END
171
     1
301
MARGIN
  1
CELLMARGIN_BEGIN
 40
1.5
 40
1.5
 40
1.5
 40
1.5
 40
0.18
 40
0.18
309
CELLMARGIN_END
 94
        6
 95
        1
302
GRIDFORMAT
  1
GRIDFORMAT_BEGIN
 90
        0
 91
        1
 62
     0
 92
       -2
340
0
 93
        0
 40
0.045
309
GRIDFORMAT_END
 95
        2
302
GRIDFORMAT
  1
GRIDFORMAT_BEGIN
 90
        0
 91
        1
 62
     0
 92
       -2
340
0
 93
        0
 40
0.045
309
GRIDFORMAT_END
 95
        4
302
GRIDFORMAT
  1
GRIDFORMAT_BEGIN
 90
        0
 91
        1
 62
     0
 92
       -2
340
0
 93
        0
 40
0.045
309
GRIDFORMAT_END
 95
        8
302
GRIDFORMAT
  1
GRIDFORMAT_BEGIN
 90
        0
 91
        1
 62
     0
 92
       -2
340
0
 93
        0
 40
0.045
309
GRIDFORMAT_END
 95
       16
302
GRIDFORMAT
  1
GRIDFORMAT_BEGIN
 90
        0
 91
        1
 62
     0
 92
       -2
340
0
 93
        0
 40
0.045
309
GRIDFORMAT_END
 95
       32
302
GRIDFORMAT
  1
GRIDFORMAT_BEGIN
 90
        0
 91
        1
 62
     0
 92
       -2
340
0
 93
        0
 40
0.045
309
GRIDFORMAT_END
309
TABLEFORMAT_END
  1
CELLSTYLE_BEGIN
 90
        1
 91
        1
300
_TITLE
309
CELLSTYLE_END
300
CELLSTYLE
  1
TABLEFORMAT_BEGIN
 90
        5
170
     1
 91
        0
 92
        0
 62
   257
 93
        1
300
CONTENTFORMAT
  1
CONTENTFORMAT_BEGIN
 90
        0
 91
        0
 92
      512
 93
        0
300

 40
0.0
140
1.0
 94
        5
 62
     0
340
C
144
4.5
309
CONTENTFORMAT_END
171
     1
301
MARGIN
  1
CELLMARGIN_BEGIN
 40
1.5
 40
1.5
 40
1.5
 40
1.5
 40
0.18
 40
0.18
309
CELLMARGIN_END
 94
        6
 95
        1
302
GRIDFORMAT
  1
GRIDFORMAT_BEGIN
 90
        0
 91
        1
 62
     0
 92
       -2
340
0
 93
        0
 40
0.045
309
GRIDFORMAT_END
 95
        2
302
GRIDFORMAT
  1
GRIDFORMAT_BEGIN
 90
        0
 91
        1
 62
     0
 92
       -2
340
0
 93
        0
 40
0.045
309
GRIDFORMAT_END
 95
        4
302
GRIDFORMAT
  1
GRIDFORMAT_BEGIN
 90
        0
 91
        1
 62
     0
 92
       -2
340
0
 93
        0
 40
0.045
309
GRIDFORMAT_END
 95
        8
302
GRIDFORMAT
  1
GRIDFORMAT_BEGIN
 90
        0
 91
        1
 62
     0
 92
       -2
340
0
 93
        0
 40
0.045
309
GRIDFORMAT_END
 95
       16
302
GRIDFORMAT
  1
GRIDFORMAT_BEGIN
 90
        0
 91
        1
 62
     0
 92
       -2
340
0
 93
        0
 40
0.045
309
GRIDFORMAT_END
 95
       32
302
GRIDFORMAT
  1
GRIDFORMAT_BEGIN
 90
        0
 91
        1
 62
     0
 92
       -2
340
0
 93
        0
 40
0.045
309
GRIDFORMAT_END
309
TABLEFORMAT_END
  1
CELLSTYLE_BEGIN
 90
        2
 91
        1
300
_HEADER
309
CELLSTYLE_END
300
CELLSTYLE
  1
TABLEFORMAT_BEGIN
 90
        5
170
     1
 91
        0
 92
        0
 62
   257
 93
        1
300
CONTENTFORMAT
  1
CONTENTFORMAT_BEGIN
 90
        0
 91
        0
 92
      512
 93
        0
300

 40
0.0
140
1.0
 94
        2
 62
     0
340
C
144
4.5
309
CONTENTFORMAT_END
171
     1
301
MARGIN
  1
CELLMARGIN_BEGIN
 40
1.5
 40
1.5
 40
1.5
 40
1.5
 40
0.18
 40
0.18
309
CELLMARGIN_END
 94
        6
 95
        1
302
GRIDFORMAT
  1
GRIDFORMAT_BEGIN
 90
        0
 91
        1
 62
     0
 92
       -2
340
0
 93
        0
 40
0.045
309
GRIDFORMAT_END
 95
        2
302
GRIDFORMAT
  1
GRIDFORMAT_BEGIN
 90
        0
 91
        1
 62
     0
 92
       -2
340
0
 93
        0
 40
0.045
309
GRIDFORMAT_END
 95
        4
302
GRIDFORMAT
  1
GRIDFORMAT_BEGIN
 90
        0
 91
        1
 62
     0
 92
       -2
340
0
 93
        0
 40
0.045
309
GRIDFORMAT_END
 95
        8
302
GRIDFORMAT
  1
GRIDFORMAT_BEGIN
 90
        0
 91
        1
 62
     0
 92
       -2
340
0
 93
        0
 40
0.045
309
GRIDFORMAT_END
 95
       16
302
GRIDFORMAT
  1
GRIDFORMAT_BEGIN
 90
        0
 91
        1
 62
     0
 92
       -2
340
0
 93
        0
 40
0.045
309
GRIDFORMAT_END
 95
       32
302
GRIDFORMAT
  1
GRIDFORMAT_BEGIN
 90
        0
 91
        1
 62
     0
 92
       -2
340
0
 93
        0
 40
0.045
309
GRIDFORMAT_END
309
TABLEFORMAT_END
  1
CELLSTYLE_BEGIN
 90
        3
 91
        2
300
_DATA
309
CELLSTYLE_END
  0
XRECORD
  5
10C9
102
{ACAD_REACTORS
330
362
102
}
330
362
100
AcDbXrecord
280
     1
102
ACAD_ROUNDTRIP_PRE2007_TABLESTYLE
 90
      512
 91
        0
  1

 92
      512
 93
        0
  2

 94
      512
 95
        0
  3

  0
XRECORD
  5
10B4
102
{ACAD_REACTORS
330
10B3
102
}
330
10B3
100
AcDbXrecord
280
     1
102
RTVSPropertyOp0
 70
     1
102
RTVSPropertyOp1
 70
     1
102
RTVSPropertyOp2
 70
     1
102
RTVSPropertyOp3
 70
     1
102
RTVSPropertyOp4
 70
     1
102
RTVSPropertyOp5
 70
     1
102
RTVSPropertyOp6
 70
     1
102
RTVSPropertyOp7
 70
     1
102
RTVSPropertyOp8
 70
     1
102
RTVSPropertyOp9
 70
     1
102
RTVSPropertyOp10
 70
     1
102
RTVSPropertyOp11
 70
     1
102
RTVSPropertyOp12
 70
     1
102
RTVSPropertyOp13
 70
     1
102
RTVSPropertyOp14
 70
     1
102
RTVSPropertyOp15
 70
     1
102
RTVSPropertyOp16
 70
     1
102
RTVSPropertyOp17
 70
     1
102
RTVSPropertyOp18
 70
     1
102
RTVSPropertyOp19
 70
     1
102
RTVSPropertyOp20
 70
     1
102
RTVSPropertyOp21
 70
     1
102
RTVSPropertyOp22
 70
     1
102
RTVSPropertyOp23
 70
     1
102
RTVSPropertyOp24
 70
     1
102
RTVSPropertyOp25
 70
     1
102
RTVSPropertyOp26
 70
     1
102
RTVSPropertyOp27
 70
     1
102
RTVSPropertyOp28
 70
     1
102
RTVSPropertyOp29
 70
     1
102
RTVSPropertyOp30
 70
     1
102
RTVSPropertyOp31
 70
     1
102
RTVSPropertyOp32
 70
     1
  0
XRECORD
  5
10B8
102
{ACAD_REACTORS
330
10B7
102
}
330
10B7
100
AcDbXrecord
280
     1
102
RTVSPropertyOp0
 70
     1
102
RTVSPropertyOp1
 70
     1
102
RTVSPropertyOp2
 70
     1
102
RTVSPropertyOp3
 70
     1
102
RTVSPropertyOp4
 70
     1
102
RTVSPropertyOp5
 70
     1
102
RTVSPropertyOp6
 70
     1
102
RTVSPropertyOp7
 70
     1
102
RTVSPropertyOp8
 70
     1
102
RTVSPropertyOp9
 70
     1
102
RTVSPropertyOp10
 70
     1
102
RTVSPropertyOp11
 70
     1
102
RTVSPropertyOp12
 70
     1
102
RTVSPropertyOp13
 70
     1
102
RTVSPropertyOp14
 70
     1
102
RTVSPropertyOp15
 70
     1
102
RTVSPropertyOp16
 70
     1
102
RTVSPropertyOp17
 70
     1
102
RTVSPropertyOp18
 70
     1
102
RTVSPropertyOp19
 70
     1
102
RTVSPropertyOp20
 70
     1
102
RTVSPropertyOp21
 70
     1
102
RTVSPropertyOp22
 70
     1
102
RTVSPropertyOp23
 70
     1
102
RTVSPropertyOp24
 70
     1
102
RTVSPropertyOp25
 70
     1
102
RTVSPropertyOp26
 70
     1
102
RTVSPropertyOp27
 70
     1
102
RTVSPropertyOp28
 70
     1
102
RTVSPropertyOp29
 70
     1
102
RTVSPropertyOp30
 70
     1
102
RTVSPropertyOp31
 70
     1
102
RTVSPropertyOp32
 70
     1
  0
XRECORD
  5
10B6
102
{ACAD_REACTORS
330
10B5
102
}
330
10B5
100
AcDbXrecord
280
     1
102
RTVSPropertyOp0
 70
     1
102
RTVSPropertyOp1
 70
     1
102
RTVSPropertyOp2
 70
     1
102
RTVSPropertyOp3
 70
     1
102
RTVSPropertyOp4
 70
     1
102
RTVSPropertyOp5
 70
     1
102
RTVSPropertyOp6
 70
     1
102
RTVSPropertyOp7
 70
     1
102
RTVSPropertyOp8
 70
     1
102
RTVSPropertyOp9
 70
     1
102
RTVSPropertyOp10
 70
     1
102
RTVSPropertyOp11
 70
     1
102
RTVSPropertyOp12
 70
     1
102
RTVSPropertyOp13
 70
     1
102
RTVSPropertyOp14
 70
     1
102
RTVSPropertyOp15
 70
     1
102
RTVSPropertyOp16
 70
     1
102
RTVSPropertyOp17
 70
     1
102
RTVSPropertyOp18
 70
     1
102
RTVSPropertyOp19
 70
     1
102
RTVSPropertyOp20
 70
     1
102
RTVSPropertyOp21
 70
     1
102
RTVSPropertyOp22
 70
     1
102
RTVSPropertyOp23
 70
     1
102
RTVSPropertyOp24
 70
     1
102
RTVSPropertyOp25
 70
     1
102
RTVSPropertyOp26
 70
     1
102
RTVSPropertyOp27
 70
     1
102
RTVSPropertyOp28
 70
     1
102
RTVSPropertyOp29
 70
     1
102
RTVSPropertyOp30
 70
     1
102
RTVSPropertyOp31
 70
     1
102
RTVSPropertyOp32
 70
     1
  0
XRECORD
  5
10B2
102
{ACAD_REACTORS
330
10B1
102
}
330
10B1
100
AcDbXrecord
280
     1
102
RTVSPropertyOp0
 70
     1
102
RTVSPropertyOp1
 70
     1
102
RTVSPropertyOp2
 70
     1
102
RTVSPropertyOp3
 70
     1
102
RTVSPropertyOp4
 70
     1
102
RTVSPropertyOp5
 70
     1
102
RTVSPropertyOp6
 70
     1
102
RTVSPropertyOp7
 70
     1
102
RTVSPropertyOp8
 70
     1
102
RTVSPropertyOp9
 70
     1
102
RTVSPropertyOp10
 70
     1
102
RTVSPropertyOp11
 70
     1
102
RTVSPropertyOp12
 70
     1
102
RTVSPropertyOp13
 70
     1
102
RTVSPropertyOp14
 70
     1
102
RTVSPropertyOp15
 70
     1
102
RTVSPropertyOp16
 70
     1
102
RTVSPropertyOp17
 70
     1
102
RTVSPropertyOp18
 70
     1
102
RTVSPropertyOp19
 70
     1
102
RTVSPropertyOp20
 70
     1
102
RTVSPropertyOp21
 70
     1
102
RTVSPropertyOp22
 70
     1
102
RTVSPropertyOp23
 70
     1
102
RTVSPropertyOp24
 70
     1
102
RTVSPropertyOp25
 70
     1
102
RTVSPropertyOp26
 70
     1
102
RTVSPropertyOp27
 70
     1
102
RTVSPropertyOp28
 70
     1
102
RTVSPropertyOp29
 70
     1
102
RTVSPropertyOp30
 70
     1
102
RTVSPropertyOp31
 70
     1
102
RTVSPropertyOp32
 70
     1
  0
XRECORD
  5
10C0
102
{ACAD_REACTORS
330
10BF
102
}
330
10BF
100
AcDbXrecord
280
     1
102
RTVSPropertyOp0
 70
     1
102
RTVSPropertyOp1
 70
     1
102
RTVSPropertyOp2
 70
     1
102
RTVSPropertyOp3
 70
     1
102
RTVSPropertyOp4
 70
     1
102
RTVSPropertyOp5
 70
     1
102
RTVSPropertyOp6
 70
     1
102
RTVSPropertyOp7
 70
     1
102
RTVSPropertyOp8
 70
     1
102
RTVSPropertyOp9
 70
     1
102
RTVSPropertyOp10
 70
     1
102
RTVSPropertyOp11
 70
     1
102
RTVSPropertyOp12
 70
     1
102
RTVSPropertyOp13
 70
     1
102
RTVSPropertyOp14
 70
     1
102
RTVSPropertyOp15
 70
     1
102
RTVSPropertyOp16
 70
     1
102
RTVSPropertyOp17
 70
     1
102
RTVSPropertyOp18
 70
     1
102
RTVSPropertyOp19
 70
     1
102
RTVSPropertyOp20
 70
     1
102
RTVSPropertyOp21
 70
     1
102
RTVSPropertyOp22
 70
     1
102
RTVSPropertyOp23
 70
     1
102
RTVSPropertyOp24
 70
     1
102
RTVSPropertyOp25
 70
     1
102
RTVSPropertyOp26
 70
     1
102
RTVSPropertyOp27
 70
     1
102
RTVSPropertyOp28
 70
     1
102
RTVSPropertyOp29
 70
     1
102
RTVSPropertyOp30
 70
     1
102
RTVSPropertyOp31
 70
     1
102
RTVSPropertyOp32
 70
     1
  0
XRECORD
  5
10C8
102
{ACAD_REACTORS
330
10C7
102
}
330
10C7
100
AcDbXrecord
280
     1
102
RTVSPropertyOp0
 70
     1
102
RTVSPropertyOp1
 70
     1
102
RTVSPropertyOp2
 70
     1
102
RTVSPropertyOp3
 70
     1
102
RTVSPropertyOp4
 70
     1
102
RTVSPropertyOp5
 70
     1
102
RTVSPropertyOp6
 70
     1
102
RTVSPropertyOp7
 70
     1
102
RTVSPropertyOp8
 70
     1
102
RTVSPropertyOp9
 70
     1
102
RTVSPropertyOp10
 70
     1
102
RTVSPropertyOp11
 70
     1
102
RTVSPropertyOp12
 70
     1
102
RTVSPropertyOp13
 70
     1
102
RTVSPropertyOp14
 70
     1
102
RTVSPropertyOp15
 70
     1
102
RTVSPropertyOp16
 70
     1
102
RTVSPropertyOp17
 70
     1
102
RTVSPropertyOp18
 70
     1
102
RTVSPropertyOp19
 70
     1
102
RTVSPropertyOp20
 70
     1
102
RTVSPropertyOp21
 70
     1
102
RTVSPropertyOp22
 70
     1
102
RTVSPropertyOp23
 70
     1
102
RTVSPropertyOp24
 70
     1
102
RTVSPropertyOp25
 70
     1
102
RTVSPropertyOp26
 70
     1
102
RTVSPropertyOp27
 70
     1
102
RTVSPropertyOp28
 70
     1
102
RTVSPropertyOp29
 70
     1
102
RTVSPropertyOp30
 70
     1
102
RTVSPropertyOp31
 70
     1
102
RTVSPropertyOp32
 70
     1
  0
XRECORD
  5
10BA
102
{ACAD_REACTORS
330
10B9
102
}
330
10B9
100
AcDbXrecord
280
     1
102
RTVSPropertyOp0
 70
     1
102
RTVSPropertyOp1
 70
     1
102
RTVSPropertyOp2
 70
     1
102
RTVSPropertyOp3
 70
     1
102
RTVSPropertyOp4
 70
     1
102
RTVSPropertyOp5
 70
     1
102
RTVSPropertyOp6
 70
     1
102
RTVSPropertyOp7
 70
     1
102
RTVSPropertyOp8
 70
     1
102
RTVSPropertyOp9
 70
     1
102
RTVSPropertyOp10
 70
     1
102
RTVSPropertyOp11
 70
     1
102
RTVSPropertyOp12
 70
     1
102
RTVSPropertyOp13
 70
     1
102
RTVSPropertyOp14
 70
     1
102
RTVSPropertyOp15
 70
     1
102
RTVSPropertyOp16
 70
     1
102
RTVSPropertyOp17
 70
     1
102
RTVSPropertyOp18
 70
     1
102
RTVSPropertyOp19
 70
     1
102
RTVSPropertyOp20
 70
     1
102
RTVSPropertyOp21
 70
     1
102
RTVSPropertyOp22
 70
     1
102
RTVSPropertyOp23
 70
     1
102
RTVSPropertyOp24
 70
     1
102
RTVSPropertyOp25
 70
     1
102
RTVSPropertyOp26
 70
     1
102
RTVSPropertyOp27
 70
     1
102
RTVSPropertyOp28
 70
     1
102
RTVSPropertyOp29
 70
     1
102
RTVSPropertyOp30
 70
     1
102
RTVSPropertyOp31
 70
     1
102
RTVSPropertyOp32
 70
     1
  0
XRECORD
  5
10BE
102
{ACAD_REACTORS
330
10BD
102
}
330
10BD
100
AcDbXrecord
280
     1
102
RTVSPropertyOp0
 70
     1
102
RTVSPropertyOp1
 70
     1
102
RTVSPropertyOp2
 70
     1
102
RTVSPropertyOp3
 70
     1
102
RTVSPropertyOp4
 70
     1
102
RTVSPropertyOp5
 70
     1
102
RTVSPropertyOp6
 70
     1
102
RTVSPropertyOp7
 70
     1
102
RTVSPropertyOp8
 70
     1
102
RTVSPropertyOp9
 70
     1
102
RTVSPropertyOp10
 70
     1
102
RTVSPropertyOp11
 70
     1
102
RTVSPropertyOp12
 70
     1
102
RTVSPropertyOp13
 70
     1
102
RTVSPropertyOp14
 70
     1
102
RTVSPropertyOp15
 70
     1
102
RTVSPropertyOp16
 70
     1
102
RTVSPropertyOp17
 70
     1
102
RTVSPropertyOp18
 70
     1
102
RTVSPropertyOp19
 70
     1
102
RTVSPropertyOp20
 70
     1
102
RTVSPropertyOp21
 70
     1
102
RTVSPropertyOp22
 70
     1
102
RTVSPropertyOp23
 70
     1
102
RTVSPropertyOp24
 70
     1
102
RTVSPropertyOp25
 70
     1
102
RTVSPropertyOp26
 70
     1
102
RTVSPropertyOp27
 70
     1
102
RTVSPropertyOp28
 70
     1
102
RTVSPropertyOp29
 70
     1
102
RTVSPropertyOp30
 70
     1
102
RTVSPropertyOp31
 70
     1
102
RTVSPropertyOp32
 70
     1
  0
XRECORD
  5
10EA
102
{ACAD_REACTORS
330
10E9
102
}
330
10E9
100
AcDbXrecord
280
     1
102
RTVSPropertyOp0
 70
     0
102
RTVSPropertyOp1
 70
     0
102
RTVSPropertyOp2
 70
     0
102
RTVSPropertyOp3
 70
     0
102
RTVSPropertyOp4
 70
     0
102
RTVSPropertyOp5
 70
     0
102
RTVSPropertyOp6
 70
     0
102
RTVSPropertyOp7
 70
     0
102
RTVSPropertyOp8
 70
     0
102
RTVSPropertyOp9
 70
     0
102
RTVSPropertyOp10
 70
     0
102
RTVSPropertyOp11
 70
     0
102
RTVSPropertyOp12
 70
     0
102
RTVSPropertyOp13
 70
     0
102
RTVSPropertyOp14
 70
     2
102
RTVSPropertyOp15
 70
     0
102
RTVSPropertyOp16
 70
     0
102
RTVSPropertyOp17
 70
     0
102
RTVSPropertyOp18
 70
     0
102
RTVSPropertyOp19
 70
     0
102
RTVSPropertyOp20
 70
     0
102
RTVSPropertyOp21
 70
     0
102
RTVSPropertyOp22
 70
     0
102
RTVSPropertyOp23
 70
     0
102
RTVSPropertyOp24
 70
     0
102
RTVSPropertyOp25
 70
     0
102
RTVSPropertyOp26
 70
     0
102
RTVSPropertyOp27
 70
     0
102
RTVSPropertyOp28
 70
     0
102
RTVSPropertyOp29
 70
     0
102
RTVSPropertyOp30
 70
     0
102
RTVSPropertyOp31
 70
     0
102
RTVSPropertyOp32
 70
     0
  0
XRECORD
  5
10C6
102
{ACAD_REACTORS
330
10C5
102
}
330
10C5
100
AcDbXrecord
280
     1
102
RTVSPropertyOp0
 70
     1
102
RTVSPropertyOp1
 70
     1
102
RTVSPropertyOp2
 70
     1
102
RTVSPropertyOp3
 70
     1
102
RTVSPropertyOp4
 70
     1
102
RTVSPropertyOp5
 70
     1
102
RTVSPropertyOp6
 70
     1
102
RTVSPropertyOp7
 70
     1
102
RTVSPropertyOp8
 70
     1
102
RTVSPropertyOp9
 70
     1
102
RTVSPropertyOp10
 70
     1
102
RTVSPropertyOp11
 70
     1
102
RTVSPropertyOp12
 70
     1
102
RTVSPropertyOp13
 70
     1
102
RTVSPropertyOp14
 70
     1
102
RTVSPropertyOp15
 70
     1
102
RTVSPropertyOp16
 70
     1
102
RTVSPropertyOp17
 70
     1
102
RTVSPropertyOp18
 70
     1
102
RTVSPropertyOp19
 70
     1
102
RTVSPropertyOp20
 70
     1
102
RTVSPropertyOp21
 70
     1
102
RTVSPropertyOp22
 70
     1
102
RTVSPropertyOp23
 70
     1
102
RTVSPropertyOp24
 70
     1
102
RTVSPropertyOp25
 70
     1
102
RTVSPropertyOp26
 70
     1
102
RTVSPropertyOp27
 70
     1
102
RTVSPropertyOp28
 70
     1
102
RTVSPropertyOp29
 70
     1
102
RTVSPropertyOp30
 70
     1
102
RTVSPropertyOp31
 70
     1
102
RTVSPropertyOp32
 70
     1
  0
XRECORD
  5
10AA
102
{ACAD_REACTORS
330
10A9
102
}
330
10A9
100
AcDbXrecord
280
     1
102
RTVSPropertyOp0
 70
     1
102
RTVSPropertyOp1
 70
     1
102
RTVSPropertyOp2
 70
     1
102
RTVSPropertyOp3
 70
     1
102
RTVSPropertyOp4
 70
     1
102
RTVSPropertyOp5
 70
     1
102
RTVSPropertyOp6
 70
     1
102
RTVSPropertyOp7
 70
     1
102
RTVSPropertyOp8
 70
     1
102
RTVSPropertyOp9
 70
     1
102
RTVSPropertyOp10
 70
     1
102
RTVSPropertyOp11
 70
     1
102
RTVSPropertyOp12
 70
     1
102
RTVSPropertyOp13
 70
     1
102
RTVSPropertyOp14
 70
     1
102
RTVSPropertyOp15
 70
     1
102
RTVSPropertyOp16
 70
     1
102
RTVSPropertyOp17
 70
     1
102
RTVSPropertyOp18
 70
     1
102
RTVSPropertyOp19
 70
     1
102
RTVSPropertyOp20
 70
     1
102
RTVSPropertyOp21
 70
     1
102
RTVSPropertyOp22
 70
     1
102
RTVSPropertyOp23
 70
     1
102
RTVSPropertyOp24
 70
     1
102
RTVSPropertyOp25
 70
     1
102
RTVSPropertyOp26
 70
     1
102
RTVSPropertyOp27
 70
     1
102
RTVSPropertyOp28
 70
     1
102
RTVSPropertyOp29
 70
     1
102
RTVSPropertyOp30
 70
     1
102
RTVSPropertyOp31
 70
     1
102
RTVSPropertyOp32
 70
     1
  0
XRECORD
  5
10AC
102
{ACAD_REACTORS
330
10AB
102
}
330
10AB
100
AcDbXrecord
280
     1
102
RTVSPropertyOp0
 70
     1
102
RTVSPropertyOp1
 70
     1
102
RTVSPropertyOp2
 70
     1
102
RTVSPropertyOp3
 70
     1
102
RTVSPropertyOp4
 70
     1
102
RTVSPropertyOp5
 70
     1
102
RTVSPropertyOp6
 70
     1
102
RTVSPropertyOp7
 70
     1
102
RTVSPropertyOp8
 70
     1
102
RTVSPropertyOp9
 70
     1
102
RTVSPropertyOp10
 70
     1
102
RTVSPropertyOp11
 70
     1
102
RTVSPropertyOp12
 70
     1
102
RTVSPropertyOp13
 70
     1
102
RTVSPropertyOp14
 70
     1
102
RTVSPropertyOp15
 70
     1
102
RTVSPropertyOp16
 70
     1
102
RTVSPropertyOp17
 70
     1
102
RTVSPropertyOp18
 70
     1
102
RTVSPropertyOp19
 70
     1
102
RTVSPropertyOp20
 70
     1
102
RTVSPropertyOp21
 70
     1
102
RTVSPropertyOp22
 70
     1
102
RTVSPropertyOp23
 70
     1
102
RTVSPropertyOp24
 70
     1
102
RTVSPropertyOp25
 70
     1
102
RTVSPropertyOp26
 70
     1
102
RTVSPropertyOp27
 70
     1
102
RTVSPropertyOp28
 70
     1
102
RTVSPropertyOp29
 70
     1
102
RTVSPropertyOp30
 70
     1
102
RTVSPropertyOp31
 70
     1
102
RTVSPropertyOp32
 70
     1
  0
XRECORD
  5
10AE
102
{ACAD_REACTORS
330
10AD
102
}
330
10AD
100
AcDbXrecord
280
     1
102
RTVSPropertyOp0
 70
     1
102
RTVSPropertyOp1
 70
     1
102
RTVSPropertyOp2
 70
     1
102
RTVSPropertyOp3
 70
     1
102
RTVSPropertyOp4
 70
     1
102
RTVSPropertyOp5
 70
     1
102
RTVSPropertyOp6
 70
     1
102
RTVSPropertyOp7
 70
     1
102
RTVSPropertyOp8
 70
     1
102
RTVSPropertyOp9
 70
     1
102
RTVSPropertyOp10
 70
     1
102
RTVSPropertyOp11
 70
     1
102
RTVSPropertyOp12
 70
     1
102
RTVSPropertyOp13
 70
     1
102
RTVSPropertyOp14
 70
     1
102
RTVSPropertyOp15
 70
     1
102
RTVSPropertyOp16
 70
     1
102
RTVSPropertyOp17
 70
     1
102
RTVSPropertyOp18
 70
     1
102
RTVSPropertyOp19
 70
     1
102
RTVSPropertyOp20
 70
     1
102
RTVSPropertyOp21
 70
     1
102
RTVSPropertyOp22
 70
     1
102
RTVSPropertyOp23
 70
     1
102
RTVSPropertyOp24
 70
     1
102
RTVSPropertyOp25
 70
     1
102
RTVSPropertyOp26
 70
     1
102
RTVSPropertyOp27
 70
     1
102
RTVSPropertyOp28
 70
     1
102
RTVSPropertyOp29
 70
     1
102
RTVSPropertyOp30
 70
     1
102
RTVSPropertyOp31
 70
     1
102
RTVSPropertyOp32
 70
     1
  0
XRECORD
  5
10B0
102
{ACAD_REACTORS
330
10AF
102
}
330
10AF
100
AcDbXrecord
280
     1
102
RTVSPropertyOp0
 70
     1
102
RTVSPropertyOp1
 70
     1
102
RTVSPropertyOp2
 70
     1
102
RTVSPropertyOp3
 70
     1
102
RTVSPropertyOp4
 70
     1
102
RTVSPropertyOp5
 70
     1
102
RTVSPropertyOp6
 70
     1
102
RTVSPropertyOp7
 70
     1
102
RTVSPropertyOp8
 70
     1
102
RTVSPropertyOp9
 70
     1
102
RTVSPropertyOp10
 70
     1
102
RTVSPropertyOp11
 70
     1
102
RTVSPropertyOp12
 70
     1
102
RTVSPropertyOp13
 70
     1
102
RTVSPropertyOp14
 70
     1
102
RTVSPropertyOp15
 70
     1
102
RTVSPropertyOp16
 70
     1
102
RTVSPropertyOp17
 70
     1
102
RTVSPropertyOp18
 70
     1
102
RTVSPropertyOp19
 70
     1
102
RTVSPropertyOp20
 70
     1
102
RTVSPropertyOp21
 70
     1
102
RTVSPropertyOp22
 70
     1
102
RTVSPropertyOp23
 70
     1
102
RTVSPropertyOp24
 70
     1
102
RTVSPropertyOp25
 70
     1
102
RTVSPropertyOp26
 70
     1
102
RTVSPropertyOp27
 70
     1
102
RTVSPropertyOp28
 70
     1
102
RTVSPropertyOp29
 70
     1
102
RTVSPropertyOp30
 70
     1
102
RTVSPropertyOp31
 70
     1
102
RTVSPropertyOp32
 70
     1
  0
XRECORD
  5
10DA
102
{ACAD_REACTORS
330
10D9
102
}
330
10D9
100
AcDbXrecord
280
     1
102
RTVSPropertyOp0
 70
     1
102
RTVSPropertyOp1
 70
     1
102
RTVSPropertyOp2
 70
     1
102
RTVSPropertyOp3
 70
     1
102
RTVSPropertyOp4
 70
     1
102
RTVSPropertyOp5
 70
     1
102
RTVSPropertyOp6
 70
     1
102
RTVSPropertyOp7
 70
     1
102
RTVSPropertyOp8
 70
     1
102
RTVSPropertyOp9
 70
     1
102
RTVSPropertyOp10
 70
     1
102
RTVSPropertyOp11
 70
     1
102
RTVSPropertyOp12
 70
     1
102
RTVSPropertyOp13
 70
     1
102
RTVSPropertyOp14
 70
     1
102
RTVSPropertyOp15
 70
     1
102
RTVSPropertyOp16
 70
     1
102
RTVSPropertyOp17
 70
     1
102
RTVSPropertyOp18
 70
     1
102
RTVSPropertyOp19
 70
     1
102
RTVSPropertyOp20
 70
     1
102
RTVSPropertyOp21
 70
     1
102
RTVSPropertyOp22
 70
     1
102
RTVSPropertyOp23
 70
     1
102
RTVSPropertyOp24
 70
     1
102
RTVSPropertyOp25
 70
     1
102
RTVSPropertyOp26
 70
     1
102
RTVSPropertyOp27
 70
     1
102
RTVSPropertyOp28
 70
     1
102
RTVSPropertyOp29
 70
     1
102
RTVSPropertyOp30
 70
     1
102
RTVSPropertyOp31
 70
     1
102
RTVSPropertyOp32
 70
     1
  0
XRECORD
  5
10E6
102
{ACAD_REACTORS
330
10E5
102
}
330
10E5
100
AcDbXrecord
280
     1
102
RTVSPropertyOp0
 70
     0
102
RTVSPropertyOp1
 70
     0
102
RTVSPropertyOp2
 70
     0
102
RTVSPropertyOp3
 70
     0
102
RTVSPropertyOp4
 70
     0
102
RTVSPropertyOp5
 70
     0
102
RTVSPropertyOp6
 70
     0
102
RTVSPropertyOp7
 70
     0
102
RTVSPropertyOp8
 70
     0
102
RTVSPropertyOp9
 70
     0
102
RTVSPropertyOp10
 70
     0
102
RTVSPropertyOp11
 70
     0
102
RTVSPropertyOp12
 70
     0
102
RTVSPropertyOp13
 70
     0
102
RTVSPropertyOp14
 70
     2
102
RTVSPropertyOp15
 70
     0
102
RTVSPropertyOp16
 70
     0
102
RTVSPropertyOp17
 70
     0
102
RTVSPropertyOp18
 70
     0
102
RTVSPropertyOp19
 70
     0
102
RTVSPropertyOp20
 70
     0
102
RTVSPropertyOp21
 70
     0
102
RTVSPropertyOp22
 70
     0
102
RTVSPropertyOp23
 70
     0
102
RTVSPropertyOp24
 70
     0
102
RTVSPropertyOp25
 70
     0
102
RTVSPropertyOp26
 70
     0
102
RTVSPropertyOp27
 70
     0
102
RTVSPropertyOp28
 70
     0
102
RTVSPropertyOp29
 70
     0
102
RTVSPropertyOp30
 70
     0
102
RTVSPropertyOp31
 70
     0
102
RTVSPropertyOp32
 70
     0
  0
XRECORD
  5
10C4
102
{ACAD_REACTORS
330
10C3
102
}
330
10C3
100
AcDbXrecord
280
     1
102
RTVSPropertyOp0
 70
     1
102
RTVSPropertyOp1
 70
     1
102
RTVSPropertyOp2
 70
     1
102
RTVSPropertyOp3
 70
     1
102
RTVSPropertyOp4
 70
     1
102
RTVSPropertyOp5
 70
     1
102
RTVSPropertyOp6
 70
     1
102
RTVSPropertyOp7
 70
     1
102
RTVSPropertyOp8
 70
     1
102
RTVSPropertyOp9
 70
     1
102
RTVSPropertyOp10
 70
     1
102
RTVSPropertyOp11
 70
     1
102
RTVSPropertyOp12
 70
     1
102
RTVSPropertyOp13
 70
     1
102
RTVSPropertyOp14
 70
     1
102
RTVSPropertyOp15
 70
     1
102
RTVSPropertyOp16
 70
     1
102
RTVSPropertyOp17
 70
     1
102
RTVSPropertyOp18
 70
     1
102
RTVSPropertyOp19
 70
     1
102
RTVSPropertyOp20
 70
     1
102
RTVSPropertyOp21
 70
     1
102
RTVSPropertyOp22
 70
     1
102
RTVSPropertyOp23
 70
     1
102
RTVSPropertyOp24
 70
     1
102
RTVSPropertyOp25
 70
     1
102
RTVSPropertyOp26
 70
     1
102
RTVSPropertyOp27
 70
     1
102
RTVSPropertyOp28
 70
     1
102
RTVSPropertyOp29
 70
     1
102
RTVSPropertyOp30
 70
     1
102
RTVSPropertyOp31
 70
     1
102
RTVSPropertyOp32
 70
     1
  0
XRECORD
  5
10E8
102
{ACAD_REACTORS
330
10E7
102
}
330
10E7
100
AcDbXrecord
280
     1
102
RTVSPropertyOp0
 70
     0
102
RTVSPropertyOp1
 70
     0
102
RTVSPropertyOp2
 70
     0
102
RTVSPropertyOp3
 70
     0
102
RTVSPropertyOp4
 70
     0
102
RTVSPropertyOp5
 70
     0
102
RTVSPropertyOp6
 70
     0
102
RTVSPropertyOp7
 70
     0
102
RTVSPropertyOp8
 70
     0
102
RTVSPropertyOp9
 70
     0
102
RTVSPropertyOp10
 70
     0
102
RTVSPropertyOp11
 70
     0
102
RTVSPropertyOp12
 70
     0
102
RTVSPropertyOp13
 70
     0
102
RTVSPropertyOp14
 70
     2
102
RTVSPropertyOp15
 70
     0
102
RTVSPropertyOp16
 70
     0
102
RTVSPropertyOp17
 70
     0
102
RTVSPropertyOp18
 70
     0
102
RTVSPropertyOp19
 70
     0
102
RTVSPropertyOp20
 70
     0
102
RTVSPropertyOp21
 70
     0
102
RTVSPropertyOp22
 70
     0
102
RTVSPropertyOp23
 70
     0
102
RTVSPropertyOp24
 70
     0
102
RTVSPropertyOp25
 70
     0
102
RTVSPropertyOp26
 70
     0
102
RTVSPropertyOp27
 70
     0
102
RTVSPropertyOp28
 70
     0
102
RTVSPropertyOp29
 70
     0
102
RTVSPropertyOp30
 70
     0
102
RTVSPropertyOp31
 70
     0
102
RTVSPropertyOp32
 70
     0
  0
XRECORD
  5
10BC
102
{ACAD_REACTORS
330
10BB
102
}
330
10BB
100
AcDbXrecord
280
     1
102
RTVSPropertyOp0
 70
     1
102
RTVSPropertyOp1
 70
     1
102
RTVSPropertyOp2
 70
     1
102
RTVSPropertyOp3
 70
     1
102
RTVSPropertyOp4
 70
     1
102
RTVSPropertyOp5
 70
     1
102
RTVSPropertyOp6
 70
     1
102
RTVSPropertyOp7
 70
     1
102
RTVSPropertyOp8
 70
     1
102
RTVSPropertyOp9
 70
     1
102
RTVSPropertyOp10
 70
     1
102
RTVSPropertyOp11
 70
     1
102
RTVSPropertyOp12
 70
     1
102
RTVSPropertyOp13
 70
     1
102
RTVSPropertyOp14
 70
     1
102
RTVSPropertyOp15
 70
     1
102
RTVSPropertyOp16
 70
     1
102
RTVSPropertyOp17
 70
     1
102
RTVSPropertyOp18
 70
     1
102
RTVSPropertyOp19
 70
     1
102
RTVSPropertyOp20
 70
     1
102
RTVSPropertyOp21
 70
     1
102
RTVSPropertyOp22
 70
     1
102
RTVSPropertyOp23
 70
     1
102
RTVSPropertyOp24
 70
     1
102
RTVSPropertyOp25
 70
     1
102
RTVSPropertyOp26
 70
     1
102
RTVSPropertyOp27
 70
     1
102
RTVSPropertyOp28
 70
     1
102
RTVSPropertyOp29
 70
     1
102
RTVSPropertyOp30
 70
     1
102
RTVSPropertyOp31
 70
     1
102
RTVSPropertyOp32
 70
     1
  0
XRECORD
  5
10E4
102
{ACAD_REACTORS
330
10E3
102
}
330
10E3
100
AcDbXrecord
280
     1
102
RTVSPropertyOp0
 70
     1
102
RTVSPropertyOp1
 70
     1
102
RTVSPropertyOp2
 70
     1
102
RTVSPropertyOp3
 70
     1
102
RTVSPropertyOp4
 70
     1
102
RTVSPropertyOp5
 70
     1
102
RTVSPropertyOp6
 70
     1
102
RTVSPropertyOp7
 70
     1
102
RTVSPropertyOp8
 70
     1
102
RTVSPropertyOp9
 70
     1
102
RTVSPropertyOp10
 70
     1
102
RTVSPropertyOp11
 70
     1
102
RTVSPropertyOp12
 70
     1
102
RTVSPropertyOp13
 70
     1
102
RTVSPropertyOp14
 70
     1
102
RTVSPropertyOp15
 70
     1
102
RTVSPropertyOp16
 70
     1
102
RTVSPropertyOp17
 70
     1
102
RTVSPropertyOp18
 70
     1
102
RTVSPropertyOp19
 70
     1
102
RTVSPropertyOp20
 70
     1
102
RTVSPropertyOp21
 70
     1
102
RTVSPropertyOp22
 70
     1
102
RTVSPropertyOp23
 70
     1
102
RTVSPropertyOp24
 70
     1
102
RTVSPropertyOp25
 70
     1
102
RTVSPropertyOp26
 70
     1
102
RTVSPropertyOp27
 70
     1
102
RTVSPropertyOp28
 70
     1
102
RTVSPropertyOp29
 70
     1
102
RTVSPropertyOp30
 70
     1
102
RTVSPropertyOp31
 70
     1
102
RTVSPropertyOp32
 70
     1
  0
XRECORD
  5
10E2
102
{ACAD_REACTORS
330
10E1
102
}
330
10E1
100
AcDbXrecord
280
     1
102
RTVSPropertyOp0
 70
     1
102
RTVSPropertyOp1
 70
     1
102
RTVSPropertyOp2
 70
     1
102
RTVSPropertyOp3
 70
     1
102
RTVSPropertyOp4
 70
     1
102
RTVSPropertyOp5
 70
     1
102
RTVSPropertyOp6
 70
     1
102
RTVSPropertyOp7
 70
     1
102
RTVSPropertyOp8
 70
     1
102
RTVSPropertyOp9
 70
     1
102
RTVSPropertyOp10
 70
     1
102
RTVSPropertyOp11
 70
     1
102
RTVSPropertyOp12
 70
     1
102
RTVSPropertyOp13
 70
     1
102
RTVSPropertyOp14
 70
     1
102
RTVSPropertyOp15
 70
     1
102
RTVSPropertyOp16
 70
     1
102
RTVSPropertyOp17
 70
     1
102
RTVSPropertyOp18
 70
     1
102
RTVSPropertyOp19
 70
     1
102
RTVSPropertyOp20
 70
     1
102
RTVSPropertyOp21
 70
     1
102
RTVSPropertyOp22
 70
     1
102
RTVSPropertyOp23
 70
     1
102
RTVSPropertyOp24
 70
     1
102
RTVSPropertyOp25
 70
     1
102
RTVSPropertyOp26
 70
     1
102
RTVSPropertyOp27
 70
     1
102
RTVSPropertyOp28
 70
     1
102
RTVSPropertyOp29
 70
     1
102
RTVSPropertyOp30
 70
     1
102
RTVSPropertyOp31
 70
     1
102
RTVSPropertyOp32
 70
     1
  0
XRECORD
  5
10DC
102
{ACAD_REACTORS
330
10DB
102
}
330
10DB
100
AcDbXrecord
280
     1
102
RTVSPropertyOp0
 70
     1
102
RTVSPropertyOp1
 70
     1
102
RTVSPropertyOp2
 70
     1
102
RTVSPropertyOp3
 70
     1
102
RTVSPropertyOp4
 70
     1
102
RTVSPropertyOp5
 70
     1
102
RTVSPropertyOp6
 70
     1
102
RTVSPropertyOp7
 70
     1
102
RTVSPropertyOp8
 70
     1
102
RTVSPropertyOp9
 70
     1
102
RTVSPropertyOp10
 70
     1
102
RTVSPropertyOp11
 70
     1
102
RTVSPropertyOp12
 70
     1
102
RTVSPropertyOp13
 70
     1
102
RTVSPropertyOp14
 70
     1
102
RTVSPropertyOp15
 70
     1
102
RTVSPropertyOp16
 70
     1
102
RTVSPropertyOp17
 70
     1
102
RTVSPropertyOp18
 70
     1
102
RTVSPropertyOp19
 70
     1
102
RTVSPropertyOp20
 70
     1
102
RTVSPropertyOp21
 70
     1
102
RTVSPropertyOp22
 70
     1
102
RTVSPropertyOp23
 70
     1
102
RTVSPropertyOp24
 70
     1
102
RTVSPropertyOp25
 70
     1
102
RTVSPropertyOp26
 70
     1
102
RTVSPropertyOp27
 70
     1
102
RTVSPropertyOp28
 70
     1
102
RTVSPropertyOp29
 70
     1
102
RTVSPropertyOp30
 70
     1
102
RTVSPropertyOp31
 70
     1
102
RTVSPropertyOp32
 70
     1
  0
XRECORD
  5
10DE
102
{ACAD_REACTORS
330
10DD
102
}
330
10DD
100
AcDbXrecord
280
     1
102
RTVSPropertyOp0
 70
     1
102
RTVSPropertyOp1
 70
     1
102
RTVSPropertyOp2
 70
     1
102
RTVSPropertyOp3
 70
     1
102
RTVSPropertyOp4
 70
     1
102
RTVSPropertyOp5
 70
     1
102
RTVSPropertyOp6
 70
     1
102
RTVSPropertyOp7
 70
     1
102
RTVSPropertyOp8
 70
     1
102
RTVSPropertyOp9
 70
     1
102
RTVSPropertyOp10
 70
     1
102
RTVSPropertyOp11
 70
     1
102
RTVSPropertyOp12
 70
     1
102
RTVSPropertyOp13
 70
     1
102
RTVSPropertyOp14
 70
     1
102
RTVSPropertyOp15
 70
     1
102
RTVSPropertyOp16
 70
     1
102
RTVSPropertyOp17
 70
     1
102
RTVSPropertyOp18
 70
     1
102
RTVSPropertyOp19
 70
     1
102
RTVSPropertyOp20
 70
     1
102
RTVSPropertyOp21
 70
     1
102
RTVSPropertyOp22
 70
     1
102
RTVSPropertyOp23
 70
     1
102
RTVSPropertyOp24
 70
     1
102
RTVSPropertyOp25
 70
     1
102
RTVSPropertyOp26
 70
     1
102
RTVSPropertyOp27
 70
     1
102
RTVSPropertyOp28
 70
     1
102
RTVSPropertyOp29
 70
     1
102
RTVSPropertyOp30
 70
     1
102
RTVSPropertyOp31
 70
     1
102
RTVSPropertyOp32
 70
     1
  0
XRECORD
  5
10C2
102
{ACAD_REACTORS
330
10C1
102
}
330
10C1
100
AcDbXrecord
280
     1
102
RTVSPropertyOp0
 70
     1
102
RTVSPropertyOp1
 70
     1
102
RTVSPropertyOp2
 70
     1
102
RTVSPropertyOp3
 70
     1
102
RTVSPropertyOp4
 70
     1
102
RTVSPropertyOp5
 70
     1
102
RTVSPropertyOp6
 70
     1
102
RTVSPropertyOp7
 70
     1
102
RTVSPropertyOp8
 70
     1
102
RTVSPropertyOp9
 70
     1
102
RTVSPropertyOp10
 70
     1
102
RTVSPropertyOp11
 70
     1
102
RTVSPropertyOp12
 70
     1
102
RTVSPropertyOp13
 70
     1
102
RTVSPropertyOp14
 70
     1
102
RTVSPropertyOp15
 70
     1
102
RTVSPropertyOp16
 70
     1
102
RTVSPropertyOp17
 70
     1
102
RTVSPropertyOp18
 70
     1
102
RTVSPropertyOp19
 70
     1
102
RTVSPropertyOp20
 70
     1
102
RTVSPropertyOp21
 70
     1
102
RTVSPropertyOp22
 70
     1
102
RTVSPropertyOp23
 70
     1
102
RTVSPropertyOp24
 70
     1
102
RTVSPropertyOp25
 70
     1
102
RTVSPropertyOp26
 70
     1
102
RTVSPropertyOp27
 70
     1
102
RTVSPropertyOp28
 70
     1
102
RTVSPropertyOp29
 70
     1
102
RTVSPropertyOp30
 70
     1
102
RTVSPropertyOp31
 70
     1
102
RTVSPropertyOp32
 70
     1
  0
XRECORD
  5
10D8
102
{ACAD_REACTORS
330
10D7
102
}
330
10D7
100
AcDbXrecord
280
     1
102
RTVSPropertyOp0
 70
     1
102
RTVSPropertyOp1
 70
     1
102
RTVSPropertyOp2
 70
     1
102
RTVSPropertyOp3
 70
     1
102
RTVSPropertyOp4
 70
     1
102
RTVSPropertyOp5
 70
     1
102
RTVSPropertyOp6
 70
     1
102
RTVSPropertyOp7
 70
     1
102
RTVSPropertyOp8
 70
     1
102
RTVSPropertyOp9
 70
     1
102
RTVSPropertyOp10
 70
     1
102
RTVSPropertyOp11
 70
     1
102
RTVSPropertyOp12
 70
     1
102
RTVSPropertyOp13
 70
     1
102
RTVSPropertyOp14
 70
     1
102
RTVSPropertyOp15
 70
     1
102
RTVSPropertyOp16
 70
     1
102
RTVSPropertyOp17
 70
     1
102
RTVSPropertyOp18
 70
     1
102
RTVSPropertyOp19
 70
     1
102
RTVSPropertyOp20
 70
     1
102
RTVSPropertyOp21
 70
     1
102
RTVSPropertyOp22
 70
     1
102
RTVSPropertyOp23
 70
     1
102
RTVSPropertyOp24
 70
     1
102
RTVSPropertyOp25
 70
     1
102
RTVSPropertyOp26
 70
     1
102
RTVSPropertyOp27
 70
     1
102
RTVSPropertyOp28
 70
     1
102
RTVSPropertyOp29
 70
     1
102
RTVSPropertyOp30
 70
     1
102
RTVSPropertyOp31
 70
     1
102
RTVSPropertyOp32
 70
     1
  0
XRECORD
  5
10E0
102
{ACAD_REACTORS
330
10DF
102
}
330
10DF
100
AcDbXrecord
280
     1
102
RTVSPropertyOp0
 70
     1
102
RTVSPropertyOp1
 70
     1
102
RTVSPropertyOp2
 70
     1
102
RTVSPropertyOp3
 70
     1
102
RTVSPropertyOp4
 70
     1
102
RTVSPropertyOp5
 70
     1
102
RTVSPropertyOp6
 70
     1
102
RTVSPropertyOp7
 70
     1
102
RTVSPropertyOp8
 70
     1
102
RTVSPropertyOp9
 70
     1
102
RTVSPropertyOp10
 70
     1
102
RTVSPropertyOp11
 70
     1
102
RTVSPropertyOp12
 70
     1
102
RTVSPropertyOp13
 70
     1
102
RTVSPropertyOp14
 70
     1
102
RTVSPropertyOp15
 70
     1
102
RTVSPropertyOp16
 70
     1
102
RTVSPropertyOp17
 70
     1
102
RTVSPropertyOp18
 70
     1
102
RTVSPropertyOp19
 70
     1
102
RTVSPropertyOp20
 70
     1
102
RTVSPropertyOp21
 70
     1
102
RTVSPropertyOp22
 70
     1
102
RTVSPropertyOp23
 70
     1
102
RTVSPropertyOp24
 70
     1
102
RTVSPropertyOp25
 70
     1
102
RTVSPropertyOp26
 70
     1
102
RTVSPropertyOp27
 70
     1
102
RTVSPropertyOp28
 70
     1
102
RTVSPropertyOp29
 70
     1
102
RTVSPropertyOp30
 70
     1
102
RTVSPropertyOp31
 70
     1
102
RTVSPropertyOp32
 70
     1
  0
ENDSEC
  0
EOF
