  0
SECTION
  2
HEADER
  9
$ACADVER
  1
AC1015
  9
$ACADMAINTVER
 70
    20
  9
$DWGCODEPAGE
  3
ANSI_1252
  9
$INSBASE
 10
0.0
 20
0.0
 30
0.0
  9
$EXTMIN
 10
-2.686837005304369
 20
-2.630688458609256
 30
-0.0000000232798671
  9
$EXTMAX
 10
57.5139180053784
 20
27.50617945683007
 30
0.0000000349233531
  9
$LIMMIN
 10
0.0
 20
0.0
  9
$LIMMAX
 10
420.0
 20
300.0
  9
$ORTHOMODE
 70
     0
  9
$REGENMODE
 70
     1
  9
$FILLMODE
 70
     1
  9
$QTEXTMODE
 70
     0
  9
$MIRRTEXT
 70
     0
  9
$LTSCALE
 40
10.0
  9
$ATTMODE
 70
     1
  9
$TEXTSIZE
 40
3.0
  9
$TRACEWID
 40
0.05
  9
$TEXTSTYLE
  7
ROMANS
  9
$CLAYER
  8
P-0000
  9
$CELTYPE
  6
CONTINUOUS
  9
$CECOLOR
 62
     3
  9
$CELTSCALE
 40
1.0
  9
$DISPSILH
 70
     0
  9
$DIMSCALE
 40
10.0
  9
$DIMASZ
 40
2.0
  9
$DIMEXO
 40
1.0
  9
$DIMDLI
 40
10.0
  9
$DIMRND
 40
0.0
  9
$DIMDLE
 40
0.0
  9
$DIMEXE
 40
1.5
  9
$DIMTP
 40
0.0
  9
$DIMTM
 40
0.0
  9
$DIMTXT
 40
2.0
  9
$DIMCEN
 40
2.0
  9
$DIMTSZ
 40
0.0
  9
$DIMTOL
 70
     0
  9
$DIMLIM
 70
     0
  9
$DIMTIH
 70
     0
  9
$DIMTOH
 70
     0
  9
$DIMSE1
 70
     0
  9
$DIMSE2
 70
     0
  9
$DIMTAD
 70
     1
  9
$DIMZIN
 70
     8
  9
$DIMBLK
  1

  9
$DIMASO
 70
     1
  9
$DIMSHO
 70
     1
  9
$DIMPOST
  1

  9
$DIMAPOST
  1

  9
$DIMALT
 70
     0
  9
$DIMALTD
 70
     2
  9
$DIMALTF
 40
25.4
  9
$DIMLFAC
 40
1.0
  9
$DIMTOFL
 70
     1
  9
$DIMTVP
 40
0.0
  9
$DIMTIX
 70
     0
  9
$DIMSOXD
 70
     0
  9
$DIMSAH
 70
     0
  9
$DIMBLK1
  1

  9
$DIMBLK2
  1

  9
$DIMSTYLE
  2
ACADTOP
  9
$DIMCLRD
 70
     2
  9
$DIMCLRE
 70
     2
  9
$DIMCLRT
 70
     1
  9
$DIMTFAC
 40
0.6
  9
$DIMGAP
 40
1.0
  9
$DIMJUST
 70
     0
  9
$DIMSD1
 70
     0
  9
$DIMSD2
 70
     0
  9
$DIMTOLJ
 70
     1
  9
$DIMTZIN
 70
     8
  9
$DIMALTZ
 70
     0
  9
$DIMALTTZ
 70
     0
  9
$DIMUPT
 70
     0
  9
$DIMDEC
 70
     2
  9
$DIMTDEC
 70
     2
  9
$DIMALTU
 70
     2
  9
$DIMALTTD
 70
     2
  9
$DIMTXSTY
  7
Stile_Quota
  9
$DIMAUNIT
 70
     0
  9
$DIMADEC
 70
     1
  9
$DIMALTRND
 40
0.0
  9
$DIMAZIN
 70
     2
  9
$DIMDSEP
 70
    46
  9
$DIMATFIT
 70
     0
  9
$DIMFRAC
 70
     0
  9
$DIMLDRBLK
  1

  9
$DIMLUNIT
 70
     2
  9
$DIMLWD
 70
    -2
  9
$DIMLWE
 70
    -2
  9
$DIMTMOVE
 70
     0
  9
$LUNITS
 70
     2
  9
$LUPREC
 70
     3
  9
$SKETCHINC
 40
0.1
  9
$FILLETRAD
 40
0.0
  9
$AUNITS
 70
     0
  9
$AUPREC
 70
     3
  9
$MENU
  1
.
  9
$ELEVATION
 40
0.0
  9
$PELEVATION
 40
0.0
  9
$THICKNESS
 40
0.0
  9
$LIMCHECK
 70
     0
  9
$CHAMFERA
 40
0.5
  9
$CHAMFERB
 40
0.5
  9
$CHAMFERC
 40
1.0
  9
$CHAMFERD
 40
0.0
  9
$SKPOLY
 70
     1
  9
$TDCREATE
 40
2455049.297061262
  9
$TDUCREATE
 40
2455049.255394595
  9
$TDUPDATE
 40
2455646.487936516
  9
$TDUUPDATE
 40
2455646.446269849
  9
$TDINDWG
 40
0.1025130787
  9
$TDUSRTIMER
 40
0.1025130787
  9
$USRTIMER
 70
     1
  9
$ANGBASE
 50
0.0
  9
$ANGDIR
 70
     0
  9
$PDMODE
 70
     0
  9
$PDSIZE
 40
0.0
  9
$PLINEWID
 40
0.0
  9
$SPLFRAME
 70
     0
  9
$SPLINETYPE
 70
     6
  9
$SPLINESEGS
 70
     8
  9
$HANDSEED
  5
1BAC
  9
$SURFTAB1
 70
     6
  9
$SURFTAB2
 70
     6
  9
$SURFTYPE
 70
     6
  9
$SURFU
 70
     6
  9
$SURFV
 70
     6
  9
$UCSBASE
  2

  9
$UCSNAME
  2

  9
$UCSORG
 10
0.0
 20
0.0
 30
0.0
  9
$UCSXDIR
 10
1.0
 20
0.0
 30
0.0
  9
$UCSYDIR
 10
0.0
 20
1.0
 30
0.0
  9
$UCSORTHOREF
  2

  9
$UCSORTHOVIEW
 70
     0
  9
$UCSORGTOP
 10
0.0
 20
0.0
 30
0.0
  9
$UCSORGBOTTOM
 10
0.0
 20
0.0
 30
0.0
  9
$UCSORGLEFT
 10
0.0
 20
0.0
 30
0.0
  9
$UCSORGRIGHT
 10
0.0
 20
0.0
 30
0.0
  9
$UCSORGFRONT
 10
0.0
 20
0.0
 30
0.0
  9
$UCSORGBACK
 10
0.0
 20
0.0
 30
0.0
  9
$PUCSBASE
  2

  9
$PUCSNAME
  2

  9
$PUCSORG
 10
0.0
 20
0.0
 30
0.0
  9
$PUCSXDIR
 10
1.0
 20
0.0
 30
0.0
  9
$PUCSYDIR
 10
0.0
 20
1.0
 30
0.0
  9
$PUCSORTHOREF
  2

  9
$PUCSORTHOVIEW
 70
     0
  9
$PUCSORGTOP
 10
0.0
 20
0.0
 30
0.0
  9
$PUCSORGBOTTOM
 10
0.0
 20
0.0
 30
0.0
  9
$PUCSORGLEFT
 10
0.0
 20
0.0
 30
0.0
  9
$PUCSORGRIGHT
 10
0.0
 20
0.0
 30
0.0
  9
$PUCSORGFRONT
 10
0.0
 20
0.0
 30
0.0
  9
$PUCSORGBACK
 10
0.0
 20
0.0
 30
0.0
  9
$USERI1
 70
     0
  9
$USERI2
 70
     0
  9
$USERI3
 70
     0
  9
$USERI4
 70
     0
  9
$USERI5
 70
     0
  9
$USERR1
 40
0.0
  9
$USERR2
 40
0.0
  9
$USERR3
 40
0.0
  9
$USERR4
 40
0.0
  9
$USERR5
 40
0.0
  9
$WORLDVIEW
 70
     1
  9
$SHADEDGE
 70
     3
  9
$SHADEDIF
 70
    70
  9
$TILEMODE
 70
     1
  9
$MAXACTVP
 70
    48
  9
$PINSBASE
 10
0.0
 20
0.0
 30
0.0
  9
$PLIMCHECK
 70
     0
  9
$PEXTMIN
 10
1.000000000000000E+20
 20
1.000000000000000E+20
 30
1.000000000000000E+20
  9
$PEXTMAX
 10
-1.000000000000000E+20
 20
-1.000000000000000E+20
 30
-1.000000000000000E+20
  9
$PLIMMIN
 10
0.0
 20
0.0
  9
$PLIMMAX
 10
12.0
 20
9.0
  9
$UNITMODE
 70
     0
  9
$VISRETAIN
 70
     1
  9
$PLINEGEN
 70
     0
  9
$PSLTSCALE
 70
     0
  9
$TREEDEPTH
 70
  3020
  9
$CMLSTYLE
  2
STANDARD
  9
$CMLJUST
 70
     0
  9
$CMLSCALE
 40
1.0
  9
$PROXYGRAPHICS
 70
     1
  9
$MEASUREMENT
 70
     1
  9
$CELWEIGHT
370
    -1
  9
$ENDCAPS
280
     0
  9
$JOINSTYLE
280
     0
  9
$LWDISPLAY
290
     0
  9
$INSUNITS
 70
     0
  9
$HYPERLINKBASE
  1

  9
$STYLESHEET
  1

  9
$XEDIT
290
     1
  9
$CEPSNTYPE
380
     0
  9
$PSTYLEMODE
290
     1
  9
$FINGERPRINTGUID
  2
{AF2BD6DE-5FD6-4753-B946-CBD8FDDA7F4E}
  9
$VERSIONGUID
  2
{EA7238FD-FF3B-4AEF-AC67-50D664D88D12}
  9
$EXTNAMES
290
     1
  9
$PSVPSCALE
 40
0.0
  9
$OLESTARTUP
290
     0
  0
ENDSEC
  0
SECTION
  2
CLASSES
  0
CLASS
  1
DICTIONARYVAR
  2
AcDbDictionaryVar
  3
ObjectDBX Classes
 90
        0
280
     0
281
     0
  0
CLASS
  1
ACDBDICTIONARYWDFLT
  2
AcDbDictionaryWithDefault
  3
ObjectDBX Classes
 90
        0
280
     0
281
     0
  0
CLASS
  1
ACDBPLACEHOLDER
  2
AcDbPlaceHolder
  3
ObjectDBX Classes
 90
        0
280
     0
281
     0
  0
CLASS
  1
LAYOUT
  2
AcDbLayout
  3
ObjectDBX Classes
 90
        0
280
     0
281
     0
  0
CLASS
  1
PLOTSETTINGS
  2
AcDbPlotSettings
  3
ObjectDBX Classes
 90
        0
280
     0
281
     0
  0
CLASS
  1
MATERIAL
  2
AcDbMaterial
  3
ObjectDBX Classes
 90
     1153
280
     0
281
     0
  0
CLASS
  1
VISUALSTYLE
  2
AcDbVisualStyle
  3
ObjectDBX Classes
 90
     4095
280
     0
281
     0
  0
CLASS
  1
TABLESTYLE
  2
AcDbTableStyle
  3
ObjectDBX Classes
 90
     4095
280
     0
281
     0
  0
CLASS
  1
SCALE
  2
AcDbScale
  3
ObjectDBX Classes
 90
     1153
280
     0
281
     0
  0
CLASS
  1
MLEADERSTYLE
  2
AcDbMLeaderStyle
  3
ACDB_MLEADERSTYLE_CLASS
 90
     4095
280
     0
281
     0
  0
CLASS
  1
CELLSTYLEMAP
  2
AcDbCellStyleMap
  3
ObjectDBX Classes
 90
     1152
280
     0
281
     0
  0
CLASS
  1
DIMASSOC
  2
AcDbDimAssoc
  3
"AcDbDimAssoc|Product Desc:     AcDim ARX App For Dimension|Company:          Autodesk, Inc.|WEB Address:      www.autodesk.com"
 90
        0
280
     0
281
     0
  0
CLASS
  1
ACDBQSCATEGORY
  2
AcQsCategory
  3
categories
 90
     1024
280
     0
281
     0
  0
CLASS
  1
ACDBQSPALLSTYLE
  2
AcQsPallStyle
  3
pallcart
 90
     1024
280
     0
281
     0
  0
CLASS
  1
AEC_REFEDIT_STATUS_TRACKER
  2
AecDbRefEditStatusTracker
  3
AecArchBase60|Product Desc: Autodesk Architectural Desktop 2007 |Company: Autodesk,Inc. |WEB Address: www.autodesk.com
 90
    32897
280
     0
281
     0
  0
CLASS
  1
NPOCOLLECTION
  2
AcDbImpNonPersistentObjectsCollection
  3
ObjectDBX Classes
 90
    33921
280
     0
281
     0
  0
CLASS
  1
SORTENTSTABLE
  2
AcDbSortentsTable
  3
ObjectDBX Classes
 90
        0
280
     0
281
     0
  0
ENDSEC
  0
SECTION
  2
TABLES
  0
TABLE
  2
VPORT
  5
12
102
{ACAD_XDICTIONARY
360
300
102
}
330
0
100
AcDbSymbolTable
 70
     1
  0
VPORT
  5
2AE
330
12
100
AcDbSymbolTableRecord
100
AcDbViewportTableRecord
  2
*Active
 70
     0
 10
0.0
 20
0.0
 11
1.0
 21
1.0
 12
27.41354050003701
 22
12.43774549911041
 13
0.0
 23
0.0
 14
1.0
 24
1.0
 15
1.0
 25
1.0
 16
0.0
 26
0.0
 36
1.0
 17
0.0
 27
0.0
 37
0.0
 40
30.35819130282322
 41
2.251225490196078
 42
50.0
 43
0.0
 44
0.0
 50
0.0
 51
0.0
 71
     0
 72
   100
 73
     1
 74
     0
 75
     0
 76
     0
 77
     0
 78
     0
281
     0
 65
     1
110
0.0
120
0.0
130
0.0
111
1.0
121
0.0
131
0.0
112
0.0
122
1.0
132
0.0
 79
     0
146
0.0
  0
ENDTAB
  0
TABLE
  2
LTYPE
  5
D
330
0
100
AcDbSymbolTable
 70
     6
  0
LTYPE
  5
E
330
D
100
AcDbSymbolTableRecord
100
AcDbLinetypeTableRecord
  2
BYBLOCK
 70
     0
  3

 72
    65
 73
     0
 40
0.0
  0
LTYPE
  5
F
330
D
100
AcDbSymbolTableRecord
100
AcDbLinetypeTableRecord
  2
BYLAYER
 70
     0
  3

 72
    65
 73
     0
 40
0.0
  0
LTYPE
  5
5
330
D
100
AcDbSymbolTableRecord
100
AcDbLinetypeTableRecord
  2
CONTINUOUS
 70
     0
  3
Solid line
 72
    65
 73
     0
 40
0.0
  0
LTYPE
  5
114B
330
D
100
AcDbSymbolTableRecord
100
AcDbLinetypeTableRecord
  2
DASHDOT2
 70
     0
  3
_._._._._._._._._._._._._._._._._._._._._._._._
 72
    65
 73
     4
 40
0.5
 49
0.25
 74
     0
 49
-0.125
 74
     0
 49
0.0
 74
     0
 49
-0.125
 74
     0
  0
LTYPE
  5
114C
330
D
100
AcDbSymbolTableRecord
100
AcDbLinetypeTableRecord
  2
ASSI
 70
     0
  3
-.-.-.-.-.-.-.-.-.-.-.-.-.-.-.-.-.-.-.-.-.-.-.-
 72
    65
 73
     4
 40
16.0
 49
10.0
 74
     0
 49
-2.0
 74
     0
 49
2.0
 74
     0
 49
-2.0
 74
     0
  0
LTYPE
  5
114D
330
D
100
AcDbSymbolTableRecord
100
AcDbLinetypeTableRecord
  2
INGOMBRI
 70
     0
  3
--..--..--..--..--..--..--..--..--..--..--..--
 72
    65
 73
     6
 40
20.0
 49
10.0
 74
     0
 49
-2.0
 74
     0
 49
2.0
 74
     0
 49
-2.0
 74
     0
 49
2.0
 74
     0
 49
-2.0
 74
     0
  0
LTYPE
  5
114E
330
D
100
AcDbSymbolTableRecord
100
AcDbLinetypeTableRecord
  2
TRATTEGGIO
 70
     0
  3
- - - - - - - - - - - - - - - - - - - - - -
 72
    65
 73
     2
 40
5.5
 49
4.0
 74
     0
 49
-1.5
 74
     0
  0
LTYPE
  5
114F
330
D
100
AcDbSymbolTableRecord
100
AcDbLinetypeTableRecord
  2
PUNTO
 70
     0
  3
Punto . . . . . . . . . . . . . . . . . . . . .
 72
    65
 73
     2
 40
6.349999999999999
 49
0.0
 74
     0
 49
-6.349999999999999
 74
     0
  0
ENDTAB
  0
TABLE
  2
LAYER
  5
A
102
{ACAD_XDICTIONARY
360
115E
102
}
330
0
100
AcDbSymbolTable
 70
     8
  0
LAYER
  5
4
102
{ACAD_XDICTIONARY
360
37B
102
}
330
A
100
AcDbSymbolTableRecord
100
AcDbLayerTableRecord
  2
0
 70
     0
 62
     7
  6
CONTINUOUS
370
    -3
390
44
  0
LAYER
  5
118
330
A
100
AcDbSymbolTableRecord
100
AcDbLayerTableRecord
  2
Defpoints
 70
     0
 62
     7
  6
CONTINUOUS
290
     0
370
    -3
390
44
  0
LAYER
  5
6DB
102
{ACAD_XDICTIONARY
360
1922
102
}
330
A
100
AcDbSymbolTableRecord
100
AcDbLayerTableRecord
  2
P-0000
 70
     0
 62
     7
  6
CONTINUOUS
370
    -3
390
44
1001
AcAecLayerStandard
1000

1000
PROFIL.60x30-TUBO/ARG. 
  0
LAYER
  5
1149
102
{ACAD_XDICTIONARY
360
1924
102
}
330
A
100
AcDbSymbolTableRecord
100
AcDbLayerTableRecord
  2
P-3369
 70
     0
 62
     7
  6
CONTINUOUS
370
    -3
390
44
1001
AcAecLayerStandard
1000

1000
.cart
  0
LAYER
  5
130C
102
{ACAD_XDICTIONARY
360
1926
102
}
330
A
100
AcDbSymbolTableRecord
100
AcDbLayerTableRecord
  2
P-55C6
 70
     0
 62
     7
  6
CONTINUOUS
370
    -3
390
44
1001
AcAecLayerStandard
1000

1000
.1
  0
LAYER
  5
16E7
102
{ACAD_XDICTIONARY
360
16E8
102
}
330
A
100
AcDbSymbolTableRecord
100
AcDbLayerTableRecord
  2
QUOTE
 70
     0
 62
     7
  6
CONTINUOUS
370
    -3
390
44
  0
LAYER
  5
16E9
102
{ACAD_XDICTIONARY
360
16EA
102
}
330
A
100
AcDbSymbolTableRecord
100
AcDbLayerTableRecord
  2
DIMENSIONI
 70
     0
 62
     7
  6
CONTINUOUS
370
    -3
390
44
  0
LAYER
  5
1A5D
330
A
100
AcDbSymbolTableRecord
100
AcDbLayerTableRecord
  2
P-503E
 70
     0
 62
     7
  6
CONTINUOUS
370
    -3
390
44
1001
AcAecLayerStandard
1000

1000
PROF. 60x30   TUBO   ALL.ANOD.ARG.
  0
ENDTAB
  0
TABLE
  2
STYLE
  5
B
330
0
100
AcDbSymbolTable
 70
    10
  0
STYLE
  5
C
330
B
100
AcDbSymbolTableRecord
100
AcDbTextStyleTableRecord
  2
STANDARD
 70
     0
 40
0.0
 41
0.8
 50
0.0
 71
     0
 42
0.2
  3
romans.shx
  4

  0
STYLE
  5
1B
330
B
100
AcDbSymbolTableRecord
100
AcDbTextStyleTableRecord
  2
ROMANS
 70
     0
 40
0.0
 41
0.8
 50
0.0
 71
     0
 42
3.0
  3
ROMANS.shx
  4

  0
STYLE
  5
35C
330
B
100
AcDbSymbolTableRecord
100
AcDbTextStyleTableRecord
  2
Stile_Quota
 70
     0
 40
0.0
 41
1.0
 50
0.0
 71
     0
 42
3.0
  3
BOD_I.TTF
  4

1001
ACAD
1000
Bodoni MT
1071
 16777234
  0
STYLE
  5
1150
330
B
100
AcDbSymbolTableRecord
100
AcDbTextStyleTableRecord
  2
STYLE1
 70
     0
 40
0.0
 41
1.0
 50
0.0
 71
     0
 42
3.0
  3
eurr____.ttf
  4

1001
ACAD
1000
EuroRoman
1071
      514
  0
STYLE
  5
1151
330
B
100
AcDbSymbolTableRecord
100
AcDbTextStyleTableRecord
  2
arial_ttf
 70
     0
 40
0.0
 41
1.0
 50
0.0
 71
     0
 42
0.2
  3
ARIAL.TTF
  4

1001
ACAD
1000
Arial
1071
        2
  0
STYLE
  5
1152
330
B
100
AcDbSymbolTableRecord
100
AcDbTextStyleTableRecord
  2
seansi_ttf
 70
     0
 40
0.0
 41
1.0
 50
0.0
 71
     0
 42
0.2
  3
seansi.ttf
  4

  0
STYLE
  5
1153
330
B
100
AcDbSymbolTableRecord
100
AcDbTextStyleTableRecord
  2
Stile_Cart
 70
     0
 40
0.0
 41
1.0
 50
0.0
 71
     0
 42
1.5
  3
TIMES.TTF
  4

1001
ACAD
1000
Times New Roman
1071
       18
  0
STYLE
  5
1154
330
B
100
AcDbSymbolTableRecord
100
AcDbTextStyleTableRecord
  2

 70
     1
 40
0.0
 41
1.0
 50
0.0
 71
     0
 42
0.2
  3
ltypeshp.shx
  4

  0
STYLE
  5
1155
330
B
100
AcDbSymbolTableRecord
100
AcDbTextStyleTableRecord
  2
Stile_Quota_FISSO
 70
     0
 40
20.0
 41
1.0
 50
0.0
 71
     0
 42
3.0
  3
BOD_I.TTF
  4

1001
ACAD
1000
Bodoni MT
1071
 16777234
  0
STYLE
  5
16EB
330
B
100
AcDbSymbolTableRecord
100
AcDbTextStyleTableRecord
  2
SIMPLEX
 70
     0
 40
0.0
 41
1.0
 50
0.0
 71
     0
 42
0.2
  3
SIMPLEX.shx
  4

  0
ENDTAB
  0
TABLE
  2
VIEW
  5
10
330
0
100
AcDbSymbolTable
 70
     0
  0
ENDTAB
  0
TABLE
  2
UCS
  5
11
330
0
100
AcDbSymbolTable
 70
     0
  0
ENDTAB
  0
TABLE
  2
APPID
  5
14
330
0
100
AcDbSymbolTable
 70
    14
  0
APPID
  5
15
330
14
100
AcDbSymbolTableRecord
100
AcDbRegAppTableRecord
  2
ACAD
 70
     0
  0
APPID
  5
53
330
14
100
AcDbSymbolTableRecord
100
AcDbRegAppTableRecord
  2
TOP
 70
     0
  0
APPID
  5
356
330
14
100
AcDbSymbolTableRecord
100
AcDbRegAppTableRecord
  2
ACAD_MLEADERVER
 70
     0
  0
APPID
  5
35A
330
14
100
AcDbSymbolTableRecord
100
AcDbRegAppTableRecord
  2
ACAD_DSTYLE_DIMJAG
 70
     0
  0
APPID
  5
35B
330
14
100
AcDbSymbolTableRecord
100
AcDbRegAppTableRecord
  2
ACAD_DSTYLE_DIMTALN
 70
     0
  0
APPID
  5
35D
330
14
100
AcDbSymbolTableRecord
100
AcDbRegAppTableRecord
  2
AcadAnnoPO
 70
     0
  0
APPID
  5
374
330
14
100
AcDbSymbolTableRecord
100
AcDbRegAppTableRecord
  2
ACAD_EXEMPT_FROM_CAD_STANDARDS
 70
     0
  0
APPID
  5
38F
330
14
100
AcDbSymbolTableRecord
100
AcDbRegAppTableRecord
  2
ACAD_PSEXT
 70
     0
  0
APPID
  5
3BC
330
14
100
AcDbSymbolTableRecord
100
AcDbRegAppTableRecord
  2
ACAD_DSTYLE_DIMBREAK
 70
     0
  0
APPID
  5
6DC
330
14
100
AcDbSymbolTableRecord
100
AcDbRegAppTableRecord
  2
AcAecLayerStandard
 70
     0
  0
APPID
  5
10D4
330
14
100
AcDbSymbolTableRecord
100
AcDbRegAppTableRecord
  2
ACAD_DSTYLE_DIMRADIAL_EXTENSION
 70
     0
  0
APPID
  5
1298
330
14
100
AcDbSymbolTableRecord
100
AcDbRegAppTableRecord
  2
Bound
 70
     0
  0
APPID
  5
129B
330
14
100
AcDbSymbolTableRecord
100
AcDbRegAppTableRecord
  2
OrigLayer
 70
     0
  0
APPID
  5
1B8B
330
14
100
AcDbSymbolTableRecord
100
AcDbRegAppTableRecord
  2
ACAD_DSTYLE_DIMJOGGED_JOGANGLE_SYMBOL
 70
     0
  0
ENDTAB
  0
TABLE
  2
DIMSTYLE
  5
16
330
0
100
AcDbSymbolTable
 70
     8
100
AcDbDimStyleTable
 71
     6
340
1D
340
130E
340
1159
340
1158
340
1157
340
1156
  0
DIMSTYLE
105
1D
330
16
100
AcDbSymbolTableRecord
100
AcDbDimStyleTableRecord
  2
ACADTOP
 70
     0
 40
10.0
 41
2.0
 42
1.0
 43
10.0
 44
1.5
 73
     0
 74
     0
 77
     1
 78
     8
 79
     2
140
2.0
141
2.0
146
0.6
147
1.0
172
     1
176
     2
177
     2
178
     1
179
     1
271
     2
272
     2
284
     8
289
     0
340
35C
1001
ACAD_DSTYLE_DIMJAG
1070
   388
1040
1.5
1001
ACAD_DSTYLE_DIMTALN
1070
   392
1070
     0
  0
DIMSTYLE
105
1156
330
16
100
AcDbSymbolTableRecord
100
AcDbDimStyleTableRecord
  2
STANDARD
 70
     0
340
C
  0
DIMSTYLE
105
1157
330
16
100
AcDbSymbolTableRecord
100
AcDbDimStyleTableRecord
  2
DIERRE_LUNG-ALT
 70
     0
 41
3.0
 42
1.0
 43
10.0
 44
1.5
 73
     0
 74
     0
 75
     1
 76
     1
 78
     8
 79
     2
140
20.0
141
2.0
146
0.6
147
1.0
172
     1
176
     3
177
     3
178
    30
179
     1
271
     1
272
     1
281
     1
282
     1
284
     8
340
1155
1001
ACAD_DSTYLE_DIMBREAK
1070
   391
1040
3.75
1001
ACAD_DSTYLE_DIMJAG
1070
   388
1040
1.5
1001
ACAD_DSTYLE_DIMTALN
1070
   392
1070
     0
  0
DIMSTYLE
105
1158
330
16
100
AcDbSymbolTableRecord
100
AcDbDimStyleTableRecord
  2
DIERRE_LARG
 70
     0
 41
3.0
 42
1.0
 43
10.0
 44
1.5
 73
     0
 74
     0
 75
     1
 76
     1
 78
     8
 79
     2
140
20.0
141
2.0
146
0.6
147
1.0
172
     1
176
     4
177
     4
178
     4
179
     1
271
     1
272
     1
281
     1
282
     1
284
     8
340
1155
1001
ACAD_DSTYLE_DIMBREAK
1070
   391
1040
3.75
1001
ACAD_DSTYLE_DIMJAG
1070
   388
1040
1.5
1001
ACAD_DSTYLE_DIMTALN
1070
   392
1070
     0
  0
DIMSTYLE
105
1159
330
16
100
AcDbSymbolTableRecord
100
AcDbDimStyleTableRecord
  2
ISO-25
 70
     0
 41
2.5
 42
0.625
 43
3.75
 44
1.25
 73
     0
 74
     0
 77
     1
 78
     8
140
2.5
141
2.5
143
0.03937007874016
147
0.625
171
     3
172
     1
271
     2
272
     2
274
     3
278
    44
283
     0
284
     8
340
C
1001
ACAD_DSTYLE_DIMJOGGED_JOGANGLE_SYMBOL
1070
   384
1040
1.570796326794896
  0
DIMSTYLE
105
130E
330
16
100
AcDbSymbolTableRecord
100
AcDbDimStyleTableRecord
  2
ACADTOP10_0_0_10
 70
     0
 40
10.0
 41
2.0
 42
1.0
 43
10.0
 44
1.5
 73
     0
 74
     0
 77
     1
 78
     8
 79
     2
140
2.0
141
2.0
144
0.1
146
0.6
147
1.0
172
     1
176
     2
177
     2
178
     1
179
     1
271
     2
272
     2
284
     8
289
     0
340
35C
  0
DIMSTYLE
105
16EC
330
16
100
AcDbSymbolTableRecord
100
AcDbDimStyleTableRecord
  2
MECC
 70
     0
 40
10.0
 41
25.0
 42
30.0
 44
5.0
 73
     0
 74
     0
 77
     1
 78
     8
140
25.0
146
0.0072
147
8.0
172
     1
271
     2
272
     2
279
     2
284
     8
285
     8
286
     8
340
16EB
  0
DIMSTYLE
105
1A13
330
16
100
AcDbSymbolTableRecord
100
AcDbDimStyleTableRecord
  2
MAURO
 70
     0
 40
10.0
 41
20.0
 42
20.0
 73
     0
 74
     0
 77
     1
140
10.0
147
2.2
172
     1
271
     1
272
     1
279
     2
340
1B
  0
ENDTAB
  0
TABLE
  2
BLOCK_RECORD
  5
1
330
0
100
AcDbSymbolTable
 70
    47
  0
BLOCK_RECORD
  5
2
330
1
100
AcDbSymbolTableRecord
100
AcDbBlockTableRecord
  2
*MODEL_SPACE
340
47
  0
BLOCK_RECORD
  5
7
330
1
100
AcDbSymbolTableRecord
100
AcDbBlockTableRecord
  2
*PAPER_SPACE
340
48
  0
BLOCK_RECORD
  5
1160
102
{ACAD_XDICTIONARY
360
1279
102
}
330
1
100
AcDbSymbolTableRecord
100
AcDbBlockTableRecord
  2
TAB-A4
340
0
  0
BLOCK_RECORD
  5
1310
330
1
100
AcDbSymbolTableRecord
100
AcDbBlockTableRecord
  2
*D1
340
0
  0
BLOCK_RECORD
  5
1328
330
1
100
AcDbSymbolTableRecord
100
AcDbBlockTableRecord
  2
*D2
340
0
  0
BLOCK_RECORD
  5
1344
330
1
100
AcDbSymbolTableRecord
100
AcDbBlockTableRecord
  2
*D3
340
0
  0
BLOCK_RECORD
  5
135C
330
1
100
AcDbSymbolTableRecord
100
AcDbBlockTableRecord
  2
*D4
340
0
  0
BLOCK_RECORD
  5
1378
330
1
100
AcDbSymbolTableRecord
100
AcDbBlockTableRecord
  2
*D5
340
0
  0
BLOCK_RECORD
  5
1394
330
1
100
AcDbSymbolTableRecord
100
AcDbBlockTableRecord
  2
*D6
340
0
  0
BLOCK_RECORD
  5
13B0
330
1
100
AcDbSymbolTableRecord
100
AcDbBlockTableRecord
  2
*D7
340
0
  0
BLOCK_RECORD
  5
13E4
330
1
100
AcDbSymbolTableRecord
100
AcDbBlockTableRecord
  2
*D8
340
0
  0
BLOCK_RECORD
  5
13F5
330
1
100
AcDbSymbolTableRecord
100
AcDbBlockTableRecord
  2
*D9
340
0
  0
BLOCK_RECORD
  5
1451
330
1
100
AcDbSymbolTableRecord
100
AcDbBlockTableRecord
  2
*D10
340
0
  0
BLOCK_RECORD
  5
1469
330
1
100
AcDbSymbolTableRecord
100
AcDbBlockTableRecord
  2
*D11
340
0
  0
BLOCK_RECORD
  5
1481
330
1
100
AcDbSymbolTableRecord
100
AcDbBlockTableRecord
  2
*D12
340
0
  0
BLOCK_RECORD
  5
1499
330
1
100
AcDbSymbolTableRecord
100
AcDbBlockTableRecord
  2
*D13
340
0
  0
BLOCK_RECORD
  5
14B5
330
1
100
AcDbSymbolTableRecord
100
AcDbBlockTableRecord
  2
*D14
340
0
  0
BLOCK_RECORD
  5
14D1
330
1
100
AcDbSymbolTableRecord
100
AcDbBlockTableRecord
  2
*D15
340
0
  0
BLOCK_RECORD
  5
14E9
330
1
100
AcDbSymbolTableRecord
100
AcDbBlockTableRecord
  2
*D16
340
0
  0
BLOCK_RECORD
  5
150E
330
1
100
AcDbSymbolTableRecord
100
AcDbBlockTableRecord
  2
*D17
340
0
  0
BLOCK_RECORD
  5
1526
330
1
100
AcDbSymbolTableRecord
100
AcDbBlockTableRecord
  2
*D18
340
0
  0
BLOCK_RECORD
  5
1542
330
1
100
AcDbSymbolTableRecord
100
AcDbBlockTableRecord
  2
*D19
340
0
  0
BLOCK_RECORD
  5
155A
330
1
100
AcDbSymbolTableRecord
100
AcDbBlockTableRecord
  2
*D20
340
0
  0
BLOCK_RECORD
  5
1576
330
1
100
AcDbSymbolTableRecord
100
AcDbBlockTableRecord
  2
*D21
340
0
  0
BLOCK_RECORD
  5
158E
330
1
100
AcDbSymbolTableRecord
100
AcDbBlockTableRecord
  2
*D22
340
0
  0
BLOCK_RECORD
  5
15AA
330
1
100
AcDbSymbolTableRecord
100
AcDbBlockTableRecord
  2
*D23
340
0
  0
BLOCK_RECORD
  5
15C6
330
1
100
AcDbSymbolTableRecord
100
AcDbBlockTableRecord
  2
*D24
340
0
  0
BLOCK_RECORD
  5
15FA
330
1
100
AcDbSymbolTableRecord
100
AcDbBlockTableRecord
  2
*D25
340
0
  0
BLOCK_RECORD
  5
160B
330
1
100
AcDbSymbolTableRecord
100
AcDbBlockTableRecord
  2
*D26
340
0
  0
BLOCK_RECORD
  5
1630
330
1
100
AcDbSymbolTableRecord
100
AcDbBlockTableRecord
  2
*D27
340
0
  0
BLOCK_RECORD
  5
1652
330
1
100
AcDbSymbolTableRecord
100
AcDbBlockTableRecord
  2
*D28
340
0
  0
BLOCK_RECORD
  5
1660
330
1
100
AcDbSymbolTableRecord
100
AcDbBlockTableRecord
  2
*D29
340
0
  0
BLOCK_RECORD
  5
166E
330
1
100
AcDbSymbolTableRecord
100
AcDbBlockTableRecord
  2
*D30
340
0
  0
BLOCK_RECORD
  5
167C
330
1
100
AcDbSymbolTableRecord
100
AcDbBlockTableRecord
  2
*D31
340
0
  0
BLOCK_RECORD
  5
16A0
330
1
100
AcDbSymbolTableRecord
100
AcDbBlockTableRecord
  2
*D32
340
0
  0
BLOCK_RECORD
  5
16E1
330
1
100
AcDbSymbolTableRecord
100
AcDbBlockTableRecord
  2
A$C677C2356
340
0
  0
BLOCK_RECORD
  5
1719
330
1
100
AcDbSymbolTableRecord
100
AcDbBlockTableRecord
  2
*D34
340
0
  0
BLOCK_RECORD
  5
1740
330
1
100
AcDbSymbolTableRecord
100
AcDbBlockTableRecord
  2
*D35
340
0
  0
BLOCK_RECORD
  5
175C
330
1
100
AcDbSymbolTableRecord
100
AcDbBlockTableRecord
  2
*D36
340
0
  0
BLOCK_RECORD
  5
178E
330
1
100
AcDbSymbolTableRecord
100
AcDbBlockTableRecord
  2
*D37
340
0
  0
BLOCK_RECORD
  5
17AA
330
1
100
AcDbSymbolTableRecord
100
AcDbBlockTableRecord
  2
*D38
340
0
  0
BLOCK_RECORD
  5
17C6
330
1
100
AcDbSymbolTableRecord
100
AcDbBlockTableRecord
  2
*D39
340
0
  0
BLOCK_RECORD
  5
17E2
330
1
100
AcDbSymbolTableRecord
100
AcDbBlockTableRecord
  2
*D40
340
0
  0
BLOCK_RECORD
  5
17FE
330
1
100
AcDbSymbolTableRecord
100
AcDbBlockTableRecord
  2
*D41
340
0
  0
BLOCK_RECORD
  5
181A
330
1
100
AcDbSymbolTableRecord
100
AcDbBlockTableRecord
  2
*D42
340
0
  0
BLOCK_RECORD
  5
1841
330
1
100
AcDbSymbolTableRecord
100
AcDbBlockTableRecord
  2
*D43
340
0
  0
BLOCK_RECORD
  5
1B19
330
1
100
AcDbSymbolTableRecord
100
AcDbBlockTableRecord
  2
*D45
340
0
  0
BLOCK_RECORD
  5
1B41
330
1
100
AcDbSymbolTableRecord
100
AcDbBlockTableRecord
  2
*D46
340
0
  0
ENDTAB
  0
ENDSEC
  0
SECTION
  2
BLOCKS
  0
BLOCK
  5
3
330
2
100
AcDbEntity
  8
0
100
AcDbBlockBegin
  2
*MODEL_SPACE
 70
     0
 10
0.0
 20
0.0
 30
0.0
  3
*MODEL_SPACE
  1

  0
ENDBLK
  5
6
330
2
100
AcDbEntity
  8
0
100
AcDbBlockEnd
  0
BLOCK
  5
8
330
7
100
AcDbEntity
 67
     1
  8
0
100
AcDbBlockBegin
  2
*PAPER_SPACE
 70
     0
 10
0.0
 20
0.0
 30
0.0
  3
*PAPER_SPACE
  1

  0
ENDBLK
  5
9
330
7
100
AcDbEntity
 67
     1
  8
0
100
AcDbBlockEnd
  0
BLOCK
  5
127B
330
1160
100
AcDbEntity
  8
0
 62
     7
100
AcDbBlockBegin
  2
TAB-A4
 70
     2
 10
0.0
 20
0.0
 30
0.0
  3
TAB-A4
  1

  0
LINE
  5
1161
330
1160
100
AcDbEntity
  8
0
  6
Continuous
 62
     0
100
AcDbLine
 10
100.0
 20
143.5
 30
0.0
 11
-100.0
 21
143.5
 31
0.0
1001
TOP
1070
     7
  0
LINE
  5
1162
330
1160
100
AcDbEntity
  8
0
  6
Continuous
 62
     0
100
AcDbLine
 10
-100.0
 20
143.5
 30
0.0
 11
-100.0
 21
-143.5
 31
0.0
1001
TOP
1070
     7
  0
LINE
  5
1163
330
1160
100
AcDbEntity
  8
0
  6
Continuous
 62
     0
100
AcDbLine
 10
-100.0
 20
-143.5
 30
0.0
 11
100.0
 21
-143.5
 31
0.0
1001
TOP
1070
     7
  0
LINE
  5
1164
330
1160
100
AcDbEntity
  8
0
  6
Continuous
 62
     0
100
AcDbLine
 10
100.0
 20
-143.5
 30
0.0
 11
100.0
 21
143.5
 31
0.0
1001
TOP
1070
     7
  0
LINE
  5
1165
330
1160
100
AcDbEntity
  8
0
  6
Continuous
 62
     0
100
AcDbLine
 10
105.0
 20
148.5
 30
0.0
 11
-105.0
 21
148.5
 31
0.0
1001
TOP
1070
     3
  0
LINE
  5
1166
330
1160
100
AcDbEntity
  8
0
  6
Continuous
 62
     0
100
AcDbLine
 10
-105.0
 20
148.5
 30
0.0
 11
-105.0
 21
-148.5
 31
0.0
1001
TOP
1070
     3
  0
LINE
  5
1167
330
1160
100
AcDbEntity
  8
0
  6
Continuous
 62
     0
100
AcDbLine
 10
-105.0
 20
-148.5
 30
0.0
 11
105.0
 21
-148.5
 31
0.0
1001
TOP
1070
     3
  0
LINE
  5
1168
330
1160
100
AcDbEntity
  8
0
  6
Continuous
 62
     0
100
AcDbLine
 10
105.0
 20
-148.5
 30
0.0
 11
105.0
 21
148.5
 31
0.0
1001
TOP
1070
     3
  0
ATTDEF
  5
1169
330
1160
100
AcDbEntity
  8
0
 62
     0
 48
35.0
100
AcDbText
 10
-76.25989897767704
 20
-84.74999999999999
 30
0.0
 40
2.5
  1

  7
Stile_Cart
 11
-76.25989897767704
 21
-83.49999999999999
 31
0.0
100
AcDbAttributeDefinition
  3

  2
DESCRIZIONE
 70
     4
 74
     2
1001
TOP
1070
     7
  0
LINE
  5
116A
330
1160
100
AcDbEntity
  8
0
 62
     0
 48
35.0
100
AcDbLine
 10
100.0
 20
-138.5
 30
0.0
 11
-100.0
 21
-138.5
 31
0.0
1001
TOP
1070
     3
  0
MTEXT
  5
116B
330
1160
100
AcDbEntity
  8
0
 62
     0
 48
35.0
100
AcDbMText
 10
0.0
 20
-141.0
 30
0.0
 40
1.499624999999999
 41
190.3973187722231
 71
     5
 72
     1
  1
{\C256;SI VIETA L'USO E LA RIPRODUZIONE O LA VISIONE A TERZI DEL PRESENTE DISEGNO SENZA ESPLICITA AUTORIZZAZIONE, \H1.333x;Dierre \H0.75x;TUTELERA' I PROPRI DIRITTI A NORMA DI LEGGE}
  7
Stile_Cart
 73
     1
 44
1.0
1001
TOP
1070
     3
1001
ACAD
1000
MTEXTBEGIN
1070
    73
1070
     1
1070
    44
1040
1.0
1070
    74
1070
     0
1000
MTEXTEND
  0
LINE
  5
116C
330
1160
100
AcDbEntity
  8
0
 62
     0
 48
35.0
100
AcDbLine
 10
-100.0
 20
-78.5
 30
0.0
 11
100.0
 21
-78.49999999999988
 31
0.0
1001
TOP
1070
     3
  0
LINE
  5
116D
330
1160
100
AcDbEntity
  8
0
 62
     0
 48
35.0
100
AcDbLine
 10
35.0
 20
-78.5
 30
0.0
 11
35.0
 21
-138.5
 31
0.0
1001
TOP
1070
     3
  0
LINE
  5
116E
330
1160
100
AcDbEntity
  8
0
 62
     0
 48
35.0
100
AcDbLine
 10
-100.0
 20
-130.5
 30
0.0
 11
35.0
 21
-130.5
 31
0.0
1001
TOP
1070
     1
  0
LINE
  5
116F
330
1160
100
AcDbEntity
  8
0
 62
     0
 48
35.0
100
AcDbLine
 10
-100.0
 20
-108.5
 30
0.0
 11
35.0
 21
-108.5
 31
0.0
1001
TOP
1070
     1
  0
LINE
  5
1170
330
1160
100
AcDbEntity
  8
0
 62
     0
 48
35.0
100
AcDbLine
 10
-66.25
 20
-130.5
 30
0.0
 11
-66.25
 21
-138.5
 31
0.0
1001
TOP
1070
     7
  0
LINE
  5
1171
330
1160
100
AcDbEntity
  8
0
 62
     0
 48
35.0
100
AcDbLine
 10
-100.0
 20
-98.50000000000001
 30
0.0
 11
35.0
 21
-98.50000000000001
 31
0.0
1001
TOP
1070
     1
  0
LINE
  5
1172
330
1160
100
AcDbEntity
  8
0
 62
     0
 48
35.0
100
AcDbLine
 10
-27.5
 20
-98.50000000000001
 30
0.0
 11
-27.5
 21
-108.5
 31
0.0
1001
TOP
1070
     1
  0
TEXT
  5
1173
330
1160
100
AcDbEntity
  8
0
 62
     0
 48
35.0
100
AcDbText
 10
-99.24333629514059
 20
-84.74999999999999
 30
0.0
 40
1.6
  1
DENOMINAZIONE:
  7
STYLE1
100
AcDbText
1001
TOP
1070
     1
  0
TEXT
  5
1174
330
1160
100
AcDbEntity
  8
0
 62
     0
 48
35.0
100
AcDbText
 10
-99.24333629514059
 20
-105.5
 30
0.0
 40
1.6
  1
CLIENTE:
  7
STYLE1
100
AcDbText
1001
TOP
1070
     1
  0
LINE
  5
1175
330
1160
100
AcDbEntity
  8
0
 62
     0
 48
35.0
100
AcDbLine
 10
-27.5
 20
-103.5
 30
0.0
 11
35.00000000000091
 21
-103.5
 31
0.0
1001
TOP
1070
     1
  0
TEXT
  5
1176
330
1160
100
AcDbEntity
  8
0
 62
     0
 48
35.0
100
AcDbText
 10
-26.74333629514058
 20
-102.25
 30
0.0
 40
1.6
  1
COD. CLIENTE:
  7
STYLE1
100
AcDbText
1001
TOP
1070
     1
  0
TEXT
  5
1177
330
1160
100
AcDbEntity
  8
0
 62
     0
 48
35.0
100
AcDbText
 10
-26.74333629514058
 20
-107.25
 30
0.0
 40
1.6
  1
CC CLIENTE:
  7
STYLE1
100
AcDbText
1001
TOP
1070
     1
  0
LINE
  5
1178
330
1160
100
AcDbEntity
  8
0
 62
     0
 48
35.0
100
AcDbLine
 10
35.0
 20
-85.99999999999988
 30
0.0
 11
100.0
 21
-85.99999999999988
 31
0.0
1001
TOP
1070
     7
  0
LINE
  5
1179
330
1160
100
AcDbEntity
  8
0
 62
     0
 48
35.0
100
AcDbLine
 10
35.0
 20
-93.49999999999988
 30
0.0
 11
100.0
 21
-93.49999999999988
 31
0.0
1001
TOP
1070
     7
  0
LINE
  5
117A
330
1160
100
AcDbEntity
  8
0
 62
     0
 48
35.0
100
AcDbLine
 10
35.0
 20
-100.9999999999999
 30
0.0
 11
100.0
 21
-100.9999999999999
 31
0.0
1001
TOP
1070
     7
  0
TEXT
  5
117B
330
1160
100
AcDbEntity
  8
0
 62
     0
 48
35.0
100
AcDbText
 10
35.75666370485942
 20
-83.99999999999989
 30
0.0
 40
1.6
  1
Data:
  7
STYLE1
100
AcDbText
1001
TOP
1070
     1
  0
TEXT
  5
117C
330
1160
100
AcDbEntity
  8
0
 62
     0
 48
35.0
100
AcDbText
 10
35.75666370485942
 20
-90.74999999999988
 30
0.0
 40
1.6
  1
Diseg.:        
  7
STYLE1
100
AcDbText
1001
TOP
1070
     1
  0
TEXT
  5
117D
330
1160
100
AcDbEntity
  8
0
 62
     0
 48
35.0
100
AcDbText
 10
35.75666370485942
 20
-98.49999999999988
 30
0.0
 40
1.6
  1
Rifer. ordine:
  7
STYLE1
100
AcDbText
1001
TOP
1070
     1
  0
LINE
  5
117E
330
1160
100
AcDbEntity
  8
0
 62
     0
 48
35.0
100
AcDbLine
 10
72.0
 20
-78.49999999999988
 30
0.0
 11
72.0
 21
-93.49999999999999
 31
0.0
  0
TEXT
  5
117F
330
1160
100
AcDbEntity
  8
0
 62
     0
 48
35.0
100
AcDbText
 10
72.75666370485942
 20
-83.99999999999989
 30
0.0
 40
1.6
  1
Scala:
  7
STYLE1
100
AcDbText
1001
TOP
1070
     1
  0
TEXT
  5
1180
330
1160
100
AcDbEntity
  8
0
 62
     0
 48
35.0
100
AcDbText
 10
72.75666370485942
 20
-91.49999999999989
 30
0.0
 40
1.6
  1
Q.ta:
  7
STYLE1
100
AcDbText
1001
TOP
1070
     1
  0
TEXT
  5
1181
330
1160
100
AcDbEntity
  8
0
 62
     0
 48
35.0
100
AcDbText
 10
35.85819235127565
 20
-110.1249999999999
 30
0.0
 40
1.76
  1
Codice N
  7
STYLE1
100
AcDbText
1001
TOP
1070
     1
  0
LINE
  5
1182
330
1160
100
AcDbEntity
  8
0
 62
     0
 48
35.0
100
AcDbLine
 10
35.0
 20
-114.7499999999999
 30
0.0
 11
100.0
 21
-114.7499999999999
 31
0.0
1001
TOP
1070
     7
  0
LINE
  5
1183
330
1160
100
AcDbEntity
  8
0
 62
     0
 48
35.0
100
AcDbLine
 10
35.0
 20
-124.7499999999999
 30
0.0
 11
100.0
 21
-124.7499999999999
 31
0.0
1001
TOP
1070
     7
  0
LINE
  5
1184
330
1160
100
AcDbEntity
  8
0
 62
     0
 48
35.0
100
AcDbLine
 10
35.0
 20
-130.5
 30
0.0
 11
100.0
 21
-130.5
 31
0.0
1001
TOP
1070
     7
  0
CIRCLE
  5
1185
330
1160
100
AcDbEntity
  8
0
  6
Continuous
 62
     0
100
AcDbCircle
 10
94.1449550471707
 20
-134.5409172698267
 30
0.0
 40
3.0
1001
TOP
1070
     2
  0
LINE
  5
1186
330
1160
100
AcDbEntity
  8
0
  6
DASHDOT2
 62
     0
100
AcDbLine
 10
94.1449550471707
 20
-131.5409172698267
 30
0.0
 11
94.1449550471707
 21
-137.5409172698267
 31
0.0
1001
TOP
1070
     2
  0
CIRCLE
  5
1187
330
1160
100
AcDbEntity
  8
0
  6
Continuous
 62
     0
100
AcDbCircle
 10
94.1449550471707
 20
-134.5409172698267
 30
0.0
 40
1.5
1001
TOP
1070
     2
  0
LINE
  5
1188
330
1160
100
AcDbEntity
  8
0
  6
DASHDOT2
 62
     0
100
AcDbLine
 10
81.35716881113784
 20
-134.5409172698267
 30
0.0
 11
97.14495504717071
 21
-134.5409172698267
 31
0.0
1001
TOP
1070
     2
  0
LINE
  5
1189
330
1160
100
AcDbEntity
  8
0
  6
Continuous
 62
     0
100
AcDbLine
 10
88.51173788868619
 20
-131.5409172698267
 30
0.0
 11
88.51173788868619
 21
-137.8298833532369
 31
0.0
1001
TOP
1070
     2
  0
LINE
  5
118A
330
1160
100
AcDbEntity
  8
0
  6
Continuous
 62
     0
100
AcDbLine
 10
81.35716881113784
 20
-133.0409172698267
 30
0.0
 11
81.35716881113784
 21
-136.0409172698267
 31
0.0
1001
TOP
1070
     2
  0
LINE
  5
118B
330
1160
100
AcDbEntity
  8
0
  6
Continuous
 62
     0
100
AcDbLine
 10
81.35716881113784
 20
-136.0409172698267
 30
0.0
 11
88.51173788868619
 21
-137.8298833532369
 31
0.0
1001
TOP
1070
     2
  0
LINE
  5
118C
330
1160
100
AcDbEntity
  8
0
  6
Continuous
 62
     0
100
AcDbLine
 10
88.51173788868619
 20
-131.5409172698267
 30
0.0
 11
81.35716881113784
 21
-133.0409172698267
 31
0.0
1001
TOP
1070
     2
  0
LINE
  5
118D
330
1160
100
AcDbEntity
  8
0
 62
     0
 48
35.0
100
AcDbLine
 10
78.5
 20
-138.5
 30
0.0
 11
78.5
 21
-130.5
 31
0.0
  0
MTEXT
  5
118E
330
1160
100
AcDbEntity
  8
0
 62
     0
 48
35.0
100
AcDbMText
 10
36.70159610234714
 20
-116.147829675845
 30
0.0
 40
2.0
 41
187.0802
 71
     1
 72
     5
  1
{\C256;LE TOLLERANZE SI INTENDONO SU PEZZO\PFINITO COMPLETO DI ZINCATURA}
  7
Stile_Cart
 73
     1
 44
1.0
1001
TOP
1070
     3
1001
ACAD
1000
MTEXTBEGIN
1070
    73
1070
     1
1070
    44
1040
1.0
1070
    74
1070
     0
1000
MTEXTEND
  0
LINE
  5
118F
330
1160
100
AcDbEntity
  8
0
 62
     0
100
AcDbLine
 10
-100.0
 20
-71.0
 30
0.0
 11
99.99999999999909
 21
-71.00000000000012
 31
0.0
1001
TOP
1070
     3
  0
LINE
  5
1190
330
1160
100
AcDbEntity
  8
0
 62
     0
100
AcDbLine
 10
-100.0
 20
-67.0
 30
0.0
 11
99.99999999999909
 21
-67.0
 31
0.0
1001
TOP
1070
     3
  0
LINE
  5
1191
330
1160
100
AcDbEntity
  8
0
 62
     0
100
AcDbLine
 10
-100.0
 20
-62.0
 30
0.0
 11
99.99999999999909
 21
-61.99999999999988
 31
0.0
1001
TOP
1070
     3
  0
LINE
  5
1192
330
1160
100
AcDbEntity
  8
0
 62
     0
 48
35.0
100
AcDbLine
 10
-85.0
 20
-61.99999999999999
 30
0.0
 11
-85.0
 21
-78.5
 31
0.0
1001
TOP
1070
     1
  0
TEXT
  5
1193
330
1160
100
AcDbEntity
  8
0
 62
     0
 48
35.0
100
AcDbText
 10
-99.24333629514149
 20
-76.0
 30
0.0
 40
1.6
  1
POS.
  7
STYLE1
100
AcDbText
1001
TOP
1070
     1
  0
TEXT
  5
1194
330
1160
100
AcDbEntity
  8
0
 62
     0
 48
35.0
100
AcDbText
 10
-84.2433362951424
 20
-76.0
 30
0.0
 40
1.6
  1
MATERIALE:
  7
STYLE1
100
AcDbText
1001
TOP
1070
     1
  0
LINE
  5
1195
330
1160
100
AcDbEntity
  8
0
 62
     0
 48
35.0
100
AcDbLine
 10
14.99999999999909
 20
-71.00000000000022
 30
0.0
 11
15.0
 21
-78.5
 31
0.0
1001
TOP
1070
     1
  0
TEXT
  5
1196
330
1160
100
AcDbEntity
  8
0
 62
     0
 48
35.0
100
AcDbText
 10
15.75666370485669
 20
-76.0
 30
0.0
 40
1.6
  1
TRATTAMENTI:
  7
STYLE1
100
AcDbText
1001
TOP
1070
     1
  0
TEXT
  5
1197
330
1160
100
AcDbEntity
  8
0
 62
     0
 48
35.0
100
AcDbText
 10
-94.94297836942587
 20
-69.79763860700177
 30
0.0
 40
1.6
  1
Rev.
  7
STYLE1
100
AcDbText
1001
TOP
1070
     1
  0
LINE
  5
1198
330
1160
100
AcDbEntity
  8
0
 62
     0
 48
35.0
100
AcDbLine
 10
80.0
 20
-61.9999999999999
 30
0.0
 11
80.0000000000009
 21
-71.00000000000012
 31
0.0
1001
TOP
1070
     1
  0
LINE
  5
1199
330
1160
100
AcDbEntity
  8
0
 62
     0
 48
35.0
100
AcDbLine
 10
65.00000000000032
 20
-61.99999999999991
 30
0.0
 11
65.00000000000091
 21
-71.00000000000114
 31
0.0
1001
TOP
1070
     1
  0
TEXT
  5
119A
330
1160
100
AcDbEntity
  8
0
 62
     0
 48
35.0
100
AcDbText
 10
70.05702163057503
 20
-69.79763860700177
 30
0.0
 40
1.6
  1
Data
  7
STYLE1
100
AcDbText
1001
TOP
1070
     1
  0
TEXT
  5
119B
330
1160
100
AcDbEntity
  8
0
 62
     0
 48
35.0
100
AcDbText
 10
87.79240430569643
 20
-69.79763860700177
 30
0.0
 40
1.6
  1
Diseg.
  7
STYLE1
100
AcDbText
1001
TOP
1070
     1
  0
LINE
  5
119C
330
1160
100
AcDbEntity
  8
0
 62
     0
 48
35.0
100
AcDbLine
 10
-32.5
 20
-130.5
 30
0.0
 11
-32.5
 21
-138.5
 31
0.0
1001
TOP
1070
     7
  0
LINE
  5
119D
330
1160
100
AcDbEntity
  8
0
 62
     0
 48
35.0
100
AcDbLine
 10
1.25
 20
-130.5
 30
0.0
 11
1.25
 21
-138.5
 31
0.0
1001
TOP
1070
     7
  0
LINE
  5
119E
330
1160
100
AcDbEntity
  8
0
  6
Continuous
 62
     0
100
AcDbLine
 10
-84.625
 20
-135.2853677388285
 30
0.0
 11
-83.125
 21
-138.2853677388285
 31
0.0
1001
TOP
1070
     2
  0
LINE
  5
119F
330
1160
100
AcDbEntity
  8
0
  6
Continuous
 62
     0
100
AcDbLine
 10
-83.125
 20
-138.2853677388285
 30
0.0
 11
-80.12500000000001
 21
-132.2853677388285
 31
0.0
1001
TOP
1070
     2
  0
CIRCLE
  5
11A0
330
1160
100
AcDbEntity
  8
0
  6
Continuous
 62
     0
100
AcDbCircle
 10
-83.125
 20
-136.1513931426129
 30
0.0
 40
0.8660254037843873
1001
TOP
1070
     2
  0
TEXT
  5
11A1
330
1160
100
AcDbEntity
  8
0
  6
Continuous
 62
     0
100
AcDbText
 10
36.65725579953532
 20
-127.6856811538551
 30
0.0
 40
1.5
  1
Le QUOTE senza tolleranze si intendono h 11 / H 11
  7
Stile_Cart
100
AcDbText
1001
TOP
1070
     7
  0
TEXT
  5
11A2
330
1160
100
AcDbEntity
  8
0
  6
Continuous
 62
     0
100
AcDbText
 10
36.56316783991022
 20
-136.7809056532263
 30
0.0
 40
1.5
  1
Smussi e raggi non quotati = 1 mm
  7
Stile_Cart
100
AcDbText
1001
TOP
1070
     7
  0
TEXT
  5
11A3
330
1160
100
AcDbEntity
  8
0
  6
Continuous
 62
     0
100
AcDbText
 10
36.70159610234714
 20
-133.4356811538553
 30
0.0
 40
1.5
  1
Negli spigoli non quotati smussi 0,5 x 45°
  7
Stile_Cart
100
AcDbText
1001
TOP
1070
     7
  0
LINE
  5
11A4
330
1160
100
AcDbEntity
  8
0
  6
Continuous
 62
     0
100
AcDbLine
 10
22.04910490551336
 20
-135.2267571184318
 30
0.0
 11
23.54910490551336
 21
-138.2267571184318
 31
0.0
1001
TOP
1070
     2
  0
LINE
  5
11A5
330
1160
100
AcDbEntity
  8
0
  6
Continuous
 62
     0
100
AcDbLine
 10
23.54910490551336
 20
-138.2267571184318
 30
0.0
 11
26.54910490551336
 21
-132.2267571184318
 31
0.0
1001
TOP
1070
     2
  0
TEXT
  5
11A6
330
1160
100
AcDbEntity
  8
0
  6
Continuous
 62
     0
100
AcDbText
 10
21.21024234627165
 20
-134.7267571184318
 30
0.0
 40
2.0
  1
0,8
  7
seansi_ttf
 11
21.21024234627165
 21
-132.7267571184318
 31
0.0
100
AcDbText
 73
     3
1001
TOP
1070
     2
  0
LINE
  5
11A7
330
1160
100
AcDbEntity
  8
0
  6
Continuous
 62
     0
100
AcDbLine
 10
14.18630267108197
 20
-135.2559419652411
 30
0.0
 11
15.68630267108197
 21
-138.2559419652411
 31
0.0
1001
TOP
1070
     2
  0
LINE
  5
11A8
330
1160
100
AcDbEntity
  8
0
  6
Continuous
 62
     0
100
AcDbLine
 10
15.68630267108197
 20
-138.2559419652411
 30
0.0
 11
17.18630267108197
 21
-135.2559419652411
 31
0.0
1001
TOP
1070
     2
  0
LINE
  5
11A9
330
1160
100
AcDbEntity
  8
0
  6
Continuous
 62
     0
100
AcDbLine
 10
17.18630267108197
 20
-135.2559419652411
 30
0.0
 11
14.18630267108197
 21
-135.2559419652411
 31
0.0
1001
TOP
1070
     2
  0
LINE
  5
11AA
330
1160
100
AcDbEntity
  8
0
  6
Continuous
 62
     0
100
AcDbLine
 10
14.18630267108197
 20
-135.2559419652411
 30
0.0
 11
12.68630267108197
 21
-138.2559419652411
 31
0.0
1001
TOP
1070
     2
  0
LINE
  5
11AB
330
1160
100
AcDbEntity
  8
0
  6
Continuous
 62
     0
100
AcDbLine
 10
12.68630267108197
 20
-138.2559419652411
 30
0.0
 11
11.18630267108197
 21
-135.2559419652411
 31
0.0
1001
TOP
1070
     2
  0
LINE
  5
11AC
330
1160
100
AcDbEntity
  8
0
  6
Continuous
 62
     0
100
AcDbLine
 10
11.18630267108197
 20
-135.2559419652411
 30
0.0
 11
14.18630267108197
 21
-135.2559419652411
 31
0.0
1001
TOP
1070
     2
  0
LINE
  5
11AD
330
1160
100
AcDbEntity
  8
0
  6
Continuous
 62
     0
100
AcDbLine
 10
11.18630267108197
 20
-135.2559419652411
 30
0.0
 11
9.686302671081968
 21
-138.2559419652411
 31
0.0
1001
TOP
1070
     2
  0
LINE
  5
11AE
330
1160
100
AcDbEntity
  8
0
  6
Continuous
 62
     0
100
AcDbLine
 10
9.686302671081968
 20
-138.2559419652411
 30
0.0
 11
8.186302671081968
 21
-135.2559419652411
 31
0.0
1001
TOP
1070
     2
  0
LINE
  5
11AF
330
1160
100
AcDbEntity
  8
0
  6
Continuous
 62
     0
100
AcDbLine
 10
8.186302671081968
 20
-135.2559419652411
 30
0.0
 11
11.18630267108197
 21
-135.2559419652411
 31
0.0
1001
TOP
1070
     2
  0
LINE
  5
11B0
330
1160
100
AcDbEntity
  8
0
  6
Continuous
 62
     0
100
AcDbLine
 10
-11.09407416882067
 20
-135.2999430320282
 30
0.0
 11
-9.594074168820668
 21
-138.2999430320282
 31
0.0
1001
TOP
1070
     2
  0
LINE
  5
11B1
330
1160
100
AcDbEntity
  8
0
  6
Continuous
 62
     0
100
AcDbLine
 10
-9.594074168820668
 20
-138.2999430320282
 30
0.0
 11
-6.594074168820668
 21
-132.2999430320282
 31
0.0
1001
TOP
1070
     2
  0
TEXT
  5
11B2
330
1160
100
AcDbEntity
  8
0
  6
Continuous
 62
     0
100
AcDbText
 10
-11.93293672806237
 20
-134.7999430320282
 30
0.0
 40
2.0
  1
1,6
  7
seansi_ttf
 11
-11.93293672806237
 21
-132.7999430320282
 31
0.0
100
AcDbText
 73
     3
1001
TOP
1070
     2
  0
LINE
  5
11B3
330
1160
100
AcDbEntity
  8
0
  6
Continuous
 62
     0
100
AcDbLine
 10
-21.65592583117933
 20
-135.2999430320282
 30
0.0
 11
-20.15592583117933
 21
-138.2999430320282
 31
0.0
1001
TOP
1070
     2
  0
LINE
  5
11B4
330
1160
100
AcDbEntity
  8
0
  6
Continuous
 62
     0
100
AcDbLine
 10
-20.15592583117933
 20
-138.2999430320282
 30
0.0
 11
-18.65592583117933
 21
-135.2999430320282
 31
0.0
1001
TOP
1070
     2
  0
LINE
  5
11B5
330
1160
100
AcDbEntity
  8
0
  6
Continuous
 62
     0
100
AcDbLine
 10
-18.65592583117933
 20
-135.2999430320282
 30
0.0
 11
-21.65592583117933
 21
-135.2999430320282
 31
0.0
1001
TOP
1070
     2
  0
LINE
  5
11B6
330
1160
100
AcDbEntity
  8
0
  6
Continuous
 62
     0
100
AcDbLine
 10
-21.65592583117933
 20
-135.2999430320282
 30
0.0
 11
-23.15592583117933
 21
-138.2999430320282
 31
0.0
1001
TOP
1070
     2
  0
LINE
  5
11B7
330
1160
100
AcDbEntity
  8
0
  6
Continuous
 62
     0
100
AcDbLine
 10
-23.15592583117933
 20
-138.2999430320282
 30
0.0
 11
-24.65592583117933
 21
-135.2999430320282
 31
0.0
1001
TOP
1070
     2
  0
LINE
  5
11B8
330
1160
100
AcDbEntity
  8
0
  6
Continuous
 62
     0
100
AcDbLine
 10
-24.65592583117933
 20
-135.2999430320282
 30
0.0
 11
-21.65592583117933
 21
-135.2999430320282
 31
0.0
1001
TOP
1070
     2
  0
LINE
  5
11B9
330
1160
100
AcDbEntity
  8
0
  6
Continuous
 62
     0
100
AcDbLine
 10
-58.06883755106941
 20
-135.3397943988076
 30
0.0
 11
-56.56883755106941
 21
-138.3397943988076
 31
0.0
1001
TOP
1070
     2
  0
LINE
  5
11BA
330
1160
100
AcDbEntity
  8
0
  6
Continuous
 62
     0
100
AcDbLine
 10
-56.56883755106941
 20
-138.3397943988076
 30
0.0
 11
-55.0688375510694
 21
-135.3397943988076
 31
0.0
1001
TOP
1070
     2
  0
LINE
  5
11BB
330
1160
100
AcDbEntity
  8
0
  6
Continuous
 62
     0
100
AcDbLine
 10
-55.0688375510694
 20
-135.3397943988076
 30
0.0
 11
-58.06883755106941
 21
-135.3397943988076
 31
0.0
1001
TOP
1070
     2
  0
LINE
  5
11BC
330
1160
100
AcDbEntity
  8
0
  6
Continuous
 62
     0
100
AcDbLine
 10
-43.68116244893059
 20
-135.3397943988076
 30
0.0
 11
-42.18116244893059
 21
-138.3397943988076
 31
0.0
1001
TOP
1070
     2
  0
LINE
  5
11BD
330
1160
100
AcDbEntity
  8
0
  6
Continuous
 62
     0
100
AcDbLine
 10
-42.18116244893059
 20
-138.3397943988076
 30
0.0
 11
-39.18116244893059
 21
-132.3397943988076
 31
0.0
1001
TOP
1070
     2
  0
TEXT
  5
11BE
330
1160
100
AcDbEntity
  8
0
  6
Continuous
 62
     0
100
AcDbText
 10
-44.52002500817229
 20
-134.8397943988076
 30
0.0
 40
2.0
  1
6,3
  7
seansi_ttf
 11
-44.52002500817229
 21
-132.8397943988076
 31
0.0
100
AcDbText
 73
     3
1001
TOP
1070
     2
  0
ATTDEF
  5
11BF
330
1160
100
AcDbEntity
  8
0
 62
     0
 48
35.0
100
AcDbText
 10
-76.25989897767704
 20
-89.74999999999999
 30
0.0
 40
2.5
  1

  7
Stile_Cart
 11
-76.25989897767704
 21
-88.49999999999999
 31
0.0
100
AcDbAttributeDefinition
  3

  2
DESCRIZIONE2
 70
     4
 74
     2
1001
TOP
1070
     7
  0
ATTDEF
  5
11C0
330
1160
100
AcDbEntity
  8
0
 62
     0
 48
35.0
100
AcDbText
 10
-76.25989897767704
 20
-94.74999999999999
 30
0.0
 40
2.5
  1

  7
Stile_Cart
 11
-76.25989897767704
 21
-93.49999999999999
 31
0.0
100
AcDbAttributeDefinition
  3

  2
DESCRIZIONE3
 70
     4
 74
     2
1001
TOP
1070
     7
  0
ATTDEF
  5
11C1
330
1160
100
AcDbEntity
  8
0
 62
     0
 48
35.0
100
AcDbText
 10
42.76829842361894
 20
-83.99999999999989
 30
0.0
 40
3.5
  1

  7
Stile_Cart
 11
42.76829842361894
 21
-82.2499999999999
 31
0.0
100
AcDbAttributeDefinition
  3

  2
DATA
 70
     4
 74
     2
1001
TOP
1070
     7
  0
ATTDEF
  5
11C2
330
1160
100
AcDbEntity
  8
0
 62
     0
 48
35.0
100
AcDbText
 10
79.15321575123653
 20
-83.99999999999989
 30
0.0
 40
3.5
  1

  7
Stile_Cart
 11
79.15321575123653
 21
-82.24999999999988
 31
0.0
100
AcDbAttributeDefinition
  3

  2
SCALA
 70
     4
 74
     2
1001
TOP
1070
     7
  0
ATTDEF
  5
11C3
330
1160
100
AcDbEntity
  8
0
 62
     0
 48
35.0
100
AcDbText
 10
79.15321575123653
 20
-91.49999999999989
 30
0.0
 40
3.5
  1

  7
Stile_Cart
 11
79.15321575123653
 21
-89.74999999999988
 31
0.0
100
AcDbAttributeDefinition
  3

  2
QTA
 70
     4
 74
     2
1001
TOP
1070
     7
  0
ATTDEF
  5
11C4
330
1160
100
AcDbEntity
  8
0
 62
     0
 48
35.0
100
AcDbText
 10
42.76829842361894
 20
-90.74999999999988
 30
0.0
 40
2.0
  1

  7
Stile_Cart
 11
42.76829842361894
 21
-89.74999999999988
 31
0.0
100
AcDbAttributeDefinition
  3

  2
DISEGNATORE
 70
     4
 74
     2
1001
TOP
1070
     7
  0
ATTDEF
  5
11C5
330
1160
100
AcDbEntity
  8
0
 62
     0
 48
35.0
100
AcDbText
 10
51.64776592404542
 20
-98.49999999999988
 30
0.0
 40
2.5
  1

  7
Stile_Cart
 11
51.64776592404542
 21
-97.24999999999988
 31
0.0
100
AcDbAttributeDefinition
  3

  2
RIF_ORDINE
 70
     4
 74
     2
1001
TOP
1070
     7
  0
ATTDEF
  5
11C6
330
1160
100
AcDbEntity
  8
0
 62
     0
 48
35.0
100
AcDbText
 10
50.29007657152305
 20
-110.1249999999999
 30
0.0
 40
4.5
  1

  7
Stile_Cart
 11
50.29007657152305
 21
-107.8749999999999
 31
0.0
100
AcDbAttributeDefinition
  3

  2
CODICE
 70
     4
 74
     2
1001
TOP
1070
     7
  0
ATTDEF
  5
11C7
330
1160
100
AcDbEntity
  8
0
 62
     0
 48
35.0
100
AcDbText
 10
-10.1983793647978
 20
-102.25
 30
0.0
 40
2.5
  1

  7
Stile_Cart
 11
-10.1983793647978
 21
-101.0
 31
0.0
100
AcDbAttributeDefinition
  3

  2
COD_CLIENTE
 70
     4
 74
     2
1001
TOP
1070
     7
  0
ATTDEF
  5
11C8
330
1160
100
AcDbEntity
  8
0
 62
     0
 48
35.0
100
AcDbText
 10
-10.18785708582345
 20
-107.25
 30
0.0
 40
2.5
  1

  7
Stile_Cart
 11
-10.18785708582345
 21
-106.0
 31
0.0
100
AcDbAttributeDefinition
  3

  2
COMMESSA
 70
     4
 74
     2
1001
TOP
1070
     7
  0
ATTDEF
  5
11C9
330
1160
100
AcDbEntity
  8
0
 62
     0
 48
35.0
100
AcDbText
 10
-87.23964845993032
 20
-105.5
 30
0.0
 40
4.0
  1

  7
Stile_Cart
 11
-87.23964845993032
 21
-103.5
 31
0.0
100
AcDbAttributeDefinition
  3

  2
CLIENTE
 70
     4
 74
     2
1001
TOP
1070
     7
  0
ATTDEF
  5
11CA
330
1160
100
AcDbEntity
  8
0
 62
     0
 48
35.0
100
AcDbText
 10
-67.95452598552799
 20
-76.0
 30
0.0
 40
2.5
  1

  7
Stile_Cart
 11
-67.95452598552799
 21
-74.75
 31
0.0
100
AcDbAttributeDefinition
  3

  2
MATERIALE
 70
     4
 74
     2
1001
TOP
1070
     7
  0
ATTDEF
  5
11CB
330
1160
100
AcDbEntity
  8
0
 62
     0
 48
35.0
100
AcDbText
 10
35.56280592835867
 20
-76.0
 30
0.0
 40
2.5
  1

  7
Stile_Cart
 11
35.56280592835867
 21
-74.75
 31
0.0
100
AcDbAttributeDefinition
  3

  2
TRATTAMENTI
 70
     4
 74
     2
1001
TOP
1070
     7
  0
ATTDEF
  5
11CC
330
1160
100
AcDbEntity
  8
0
 62
     0
 48
35.0
100
AcDbText
 10
-89.96922082042067
 20
-76.0
 30
0.0
 40
2.5
  1

  7
Stile_Cart
 72
     1
 11
-89.96922082042067
 21
-74.75
 31
0.0
100
AcDbAttributeDefinition
  3

  2
POS.
 70
     4
 74
     2
1001
TOP
1070
     7
  0
ATTDEF
  5
11CD
330
1160
100
AcDbEntity
  8
0
 62
     0
 48
35.0
100
AcDbText
 10
-92.5
 20
-65.75
 30
0.0
 40
2.5
  1

  7
Stile_Cart
 72
     1
 11
-92.5
 21
-64.5
 31
0.0
100
AcDbAttributeDefinition
  3

  2
REV
 70
     4
 74
     2
1001
TOP
1070
     7
  0
ATTDEF
  5
11CE
330
1160
100
AcDbEntity
  8
0
 62
     0
 48
35.0
100
AcDbText
 10
-83.0
 20
-65.75
 30
0.0
 40
2.5
  1

  7
Stile_Cart
 11
-83.0
 21
-64.5
 31
0.0
100
AcDbAttributeDefinition
  3

  2
MOD_REV
 70
     4
 74
     2
1001
TOP
1070
     7
  0
ATTDEF
  5
11CF
330
1160
100
AcDbEntity
  8
0
 62
     0
 48
35.0
100
AcDbText
 10
72.50000000000032
 20
-65.74999999999994
 30
0.0
 40
2.5
  1

  7
Stile_Cart
 72
     1
 11
72.50000000000032
 21
-64.49999999999994
 31
0.0
100
AcDbAttributeDefinition
  3

  2
DATA_REV
 70
     4
 74
     2
1001
TOP
1070
     7
  0
ATTDEF
  5
11D0
330
1160
100
AcDbEntity
  8
0
 62
     0
 48
35.0
100
AcDbText
 10
89.96023144605638
 20
-65.49999999999994
 30
0.0
 40
2.0
  1

 41
0.8
  7
Stile_Cart
 72
     1
 11
89.96023144605638
 21
-64.49999999999994
 31
0.0
100
AcDbAttributeDefinition
  3

  2
DISEGN_REV
 70
     4
 74
     2
1001
TOP
1070
     7
  0
TEXT
  5
11D1
330
1160
100
AcDbEntity
  8
P-0000
  6
Continuous
 62
     0
 48
35.0
100
AcDbText
 10
-46.28135167661025
 20
-113.3527525052883
 30
0.0
 40
1.846799999999999
  1
Sedi operative: Fiorano Circ.le S. Giovanni Ev.,23   41042 Spezzano (MO)
  7
STYLE1
100
AcDbText
1001
TOP
1070
     7
  0
TEXT
  5
11D2
330
1160
100
AcDbEntity
  8
P-0000
  6
Continuous
 62
     0
 48
35.0
100
AcDbText
 10
-6.340918626483258
 20
-117.0692022869476
 30
0.0
 40
1.846799999999999
  1
Tel. 0536 921322  Fax 0536 921218
  7
STYLE1
100
AcDbText
1001
TOP
1070
     7
  0
TEXT
  5
11D3
330
1160
100
AcDbEntity
  8
P-0000
  6
Continuous
 62
     0
 48
35.0
100
AcDbText
 10
-29.75490795040492
 20
-120.7856520686069
 30
0.0
 40
1.846799999999999
  1
Bologna Via Del Selciatore, 12   40127 (BO) 
  7
STYLE1
100
AcDbText
1001
TOP
1070
     7
  0
TEXT
  5
11D4
330
1160
100
AcDbEntity
  8
P-0000
  6
Continuous
 62
     0
 48
35.0
100
AcDbText
 10
-3.770224758554846
 20
-124.5021018502664
 30
0.0
 40
1.846799999999999
  1
Tel. 051 535318  Fax 051 531297
  7
STYLE1
100
AcDbText
1001
TOP
1070
     7
  0
TEXT
  5
11D5
330
1160
100
AcDbEntity
  8
P-0000
  6
Continuous
 62
     0
 48
35.0
100
AcDbText
 10
-29.75453034516
 20
-128.1147363829751
 30
0.0
 40
1.5
  1
www.dierremacap.com . tecnico@dierreprotezioni.com  
  7
STYLE1
100
AcDbText
1001
TOP
1070
     7
  0
ARC
  5
11D6
330
1160
100
AcDbEntity
  8
P-0000
  6
Continuous
 62
     0
370
     0
100
AcDbCircle
 10
-87.55587540093328
 20
-119.8343908033039
 30
0.0
 40
7.264056604142308
100
AcDbArc
 50
54.62314853322836
 51
125.3768514667716
1001
TOP
1070
    85
  0
ARC
  5
11D7
330
1160
100
AcDbEntity
  8
P-0000
  6
Continuous
 62
     0
370
     0
100
AcDbCircle
 10
-88.37772146816295
 20
-119.8661633216503
 30
0.0
 40
7.793069759999999
100
AcDbArc
 50
49.82610094250764
 51
223.428751725223
1001
TOP
1070
    85
  0
ARC
  5
11D8
330
1160
100
AcDbEntity
  8
P-0000
  6
Continuous
 62
     0
370
     0
100
AcDbCircle
 10
-87.77383862674813
 20
-119.1102130429075
 30
0.0
 40
4.056769053873
100
AcDbArc
 50
51.09712919102834
 51
223.6094645412326
1001
TOP
1070
    85
  0
ARC
  5
11D9
330
1160
100
AcDbEntity
  8
P-0000
  6
Continuous
 62
     0
370
     0
100
AcDbCircle
 10
-88.42266163376624
 20
-119.4851385567151
 30
0.0
 40
4.763630338834137
100
AcDbArc
 50
47.85430720588668
 51
226.8522865263435
1001
TOP
1070
    85
  0
ARC
  5
11DA
330
1160
100
AcDbEntity
  8
P-0000
  6
Continuous
 62
     0
370
     0
100
AcDbCircle
 10
-88.82997178899747
 20
-120.0817487520743
 30
0.0
 40
4.056769053873
100
AcDbArc
 50
231.0971291910283
 51
43.60946454123257
1001
TOP
1070
    85
  0
ARC
  5
11DB
330
1160
100
AcDbEntity
  8
P-0000
  6
Continuous
 62
     0
370
     0
100
AcDbCircle
 10
-88.18114878197755
 20
-119.7068232382669
 30
0.0
 40
4.763630338834137
100
AcDbArc
 50
227.8543072058867
 51
46.85228652634355
1001
TOP
1070
    85
  0
ARC
  5
11DC
330
1160
100
AcDbEntity
  8
P-0000
  6
Continuous
 62
     0
370
     0
100
AcDbCircle
 10
-88.37772146816295
 20
-119.8661633216503
 30
0.0
 40
7.793069759999999
100
AcDbArc
 50
230.1466606584018
 51
45.36258570986113
1001
TOP
1070
    85
  0
ARC
  5
11DD
330
1160
100
AcDbEntity
  8
P-0000
  6
Continuous
 62
     0
370
     0
100
AcDbCircle
 10
-89.52593793590565
 20
-119.7374591014475
 30
0.0
 40
7.220700683144739
100
AcDbArc
 50
237.8184274609863
 51
321.1976420062348
1001
TOP
1070
    85
  0
ARC
  5
11DE
330
1160
100
AcDbEntity
  8
P-0000
  6
Continuous
 62
     0
370
     0
100
AcDbCircle
 10
-88.50216480330599
 20
-119.1656258049447
 30
0.0
 40
5.663278842528495
100
AcDbArc
 50
171.3036725542784
 51
228.0269063594487
1001
TOP
1070
    85
  0
LINE
  5
11DF
330
1160
100
AcDbEntity
  8
P-0000
  6
Continuous
 62
     0
370
     0
100
AcDbLine
 10
-92.28966119657778
 20
-123.3760412617837
 30
0.0
 11
-94.03728088778988
 21
-125.2235249353502
 31
0.0
1001
TOP
1070
    85
  0
LINE
  5
11E0
330
1160
100
AcDbEntity
  8
P-0000
  6
Continuous
 62
     0
370
     0
100
AcDbLine
 10
-90.71117445104736
 20
-121.9083255159412
 30
0.0
 11
-91.68042069830406
 21
-122.9606500129607
 31
0.0
1001
TOP
1070
    85
  0
ARC
  5
11E1
330
1160
100
AcDbEntity
  8
P-0000
  6
Continuous
 62
     0
370
     0
100
AcDbCircle
 10
-88.54309328048001
 20
-118.4440510223681
 30
0.0
 40
5.558875133404746
100
AcDbArc
 50
125.3768514667716
 51
178.611514748478
1001
TOP
1070
    85
  0
LINE
  5
11E2
330
1160
100
AcDbEntity
  8
P-0000
  6
Continuous
 62
     0
370
     0
100
AcDbLine
 10
-53.65438013237113
 20
-115.6426918998433
 30
0.0
 11
-52.51302380375555
 21
-115.6426918998433
 31
0.0
1001
TOP
1070
     7
  0
ARC
  5
11E3
330
1160
100
AcDbEntity
  8
P-0000
  6
Continuous
 62
     0
370
     0
100
AcDbCircle
 10
-54.83784997234598
 20
-114.9033114623533
 30
0.0
 40
2.439569664000001
100
AcDbArc
 50
354.0835439993975
 51
342.3574175336751
1001
TOP
1070
     7
  0
LINE
  5
11E4
330
1160
100
AcDbEntity
  8
P-0000
  6
Continuous
 62
     0
370
     0
100
AcDbLine
 10
-56.253151669302
 20
-115.1547779670433
 30
0.0
 11
-52.39829186638807
 21
-115.1547779670433
 31
0.0
1001
TOP
1070
     7
  0
ARC
  5
11E5
330
1160
100
AcDbEntity
  8
P-0000
  6
Continuous
 62
     0
370
     0
100
AcDbCircle
 10
-67.13328107890589
 20
-114.9033114623533
 30
0.0
 40
2.439569664000001
100
AcDbArc
 50
354.0835439993975
 51
342.3574175336751
1001
TOP
1070
     7
  0
LINE
  5
11E6
330
1160
100
AcDbEntity
  8
P-0000
  6
Continuous
 62
     0
370
     0
100
AcDbLine
 10
-77.50234959180421
 20
-117.3428811263534
 30
0.0
 11
-74.57486599500507
 21
-117.3428811263534
 31
0.0
1001
TOP
1070
     7
  0
LINE
  5
11E7
330
1160
100
AcDbEntity
  8
P-0000
  6
Continuous
 62
     0
370
     0
100
AcDbLine
 10
-74.57486599500507
 20
-110.9999999999532
 30
0.0
 11
-77.50234959180421
 21
-110.9999999999532
 31
0.0
1001
TOP
1070
     7
  0
LINE
  5
11E8
330
1160
100
AcDbEntity
  8
P-0000
  6
Continuous
 62
     0
370
     0
100
AcDbLine
 10
-82.90217148550416
 20
-114.320869039862
 30
0.0
 11
-84.48030571869711
 21
-115.9543842828061
 31
0.0
1001
TOP
1070
    85
  0
ARC
  5
11E9
330
1160
100
AcDbEntity
  8
P-0000
  6
Continuous
 62
     0
370
     0
100
AcDbCircle
 10
-89.02722975211579
 20
-120.4469356245718
 30
0.0
 40
6.391989965892938
100
AcDbArc
 50
323.352977406186
 51
44.65536847523573
1001
TOP
1070
    85
  0
LINE
  5
11EA
330
1160
100
AcDbEntity
  8
P-0000
  6
Continuous
 62
     0
370
     0
100
AcDbLine
 10
-85.89263596469553
 20
-117.283636279041
 30
0.0
 11
-84.92338971744155
 21
-116.2313117820216
 31
0.0
1001
TOP
1070
    85
  0
LINE
  5
11EB
330
1160
100
AcDbEntity
  8
P-0000
  6
Continuous
 62
     0
370
     0
100
AcDbLine
 10
-77.50234959180421
 20
-110.9999999999532
 30
0.0
 11
-77.50234959180421
 21
-117.3428811263534
 31
0.0
1001
TOP
1070
     7
  0
ARC
  5
11EC
330
1160
100
AcDbEntity
  8
P-0000
  6
Continuous
 62
     0
370
     0
100
AcDbCircle
 10
-74.81882296140435
 20
-113.6835266303536
 30
0.0
 40
1.5857202816
100
AcDbArc
 50
0.0
 51
90.0
1001
TOP
1070
     7
  0
ARC
  5
11ED
330
1160
100
AcDbEntity
  8
P-0000
  6
Continuous
 62
     0
370
     0
100
AcDbCircle
 10
-74.81882296140435
 20
-114.6593544959532
 30
0.0
 40
1.5857202816
100
AcDbArc
 50
270.0
 51
0.0
1001
TOP
1070
     7
  0
ARC
  5
11EE
330
1160
100
AcDbEntity
  8
P-0000
  6
Continuous
 62
     0
370
     0
100
AcDbCircle
 10
-74.57486599500507
 20
-114.9033114623533
 30
0.0
 40
2.439569663999999
100
AcDbArc
 50
270.0
 51
0.0
1001
TOP
1070
     7
  0
ARC
  5
11EF
330
1160
100
AcDbEntity
  8
P-0000
  6
Continuous
 62
     0
370
     0
100
AcDbCircle
 10
-74.57486599500507
 20
-113.4395696639535
 30
0.0
 40
2.439569663999999
100
AcDbArc
 50
0.0
 51
90.0
1001
TOP
1070
     7
  0
LINE
  5
11F0
330
1160
100
AcDbEntity
  8
P-0000
  6
Continuous
 62
     0
370
     0
100
AcDbLine
 10
-76.40454324300486
 20
-112.0978063487534
 30
0.0
 11
-76.40454324300486
 21
-116.2450747775533
 31
0.0
1001
TOP
1070
     7
  0
LINE
  5
11F1
330
1160
100
AcDbEntity
  8
P-0000
  6
Continuous
 62
     0
370
     0
100
AcDbLine
 10
-76.40454324300486
 20
-116.2450747775533
 30
0.0
 11
-74.81882296140435
 21
-116.2450747775533
 31
0.0
1001
TOP
1070
     7
  0
LINE
  5
11F2
330
1160
100
AcDbEntity
  8
P-0000
  6
Continuous
 62
     0
370
     0
100
AcDbLine
 10
-74.81882296140435
 20
-112.0978063487534
 30
0.0
 11
-76.40454324300486
 21
-112.0978063487534
 31
0.0
1001
TOP
1070
     7
  0
LINE
  5
11F3
330
1160
100
AcDbEntity
  8
P-0000
  6
Continuous
 62
     0
370
     0
100
AcDbLine
 10
-70.30472164210562
 20
-117.3428811263534
 30
0.0
 11
-70.30472164210562
 21
-112.4637417983535
 31
0.0
1001
TOP
1070
     7
  0
LINE
  5
11F4
330
1160
100
AcDbEntity
  8
P-0000
  6
Continuous
 62
     0
370
     0
100
AcDbLine
 10
-71.4025279909076
 20
-112.4637417983535
 30
0.0
 11
-71.4025279909076
 21
-117.3428811263534
 31
0.0
1001
TOP
1070
     7
  0
LINE
  5
11F5
330
1160
100
AcDbEntity
  8
P-0000
  6
Continuous
 62
     0
370
     0
100
AcDbLine
 10
-71.4025279909076
 20
-117.3428811263534
 30
0.0
 11
-70.30472164210562
 21
-117.3428811263534
 31
0.0
1001
TOP
1070
     7
  0
LINE
  5
11F6
330
1160
100
AcDbEntity
  8
P-0000
  6
Continuous
 62
     0
370
     0
100
AcDbLine
 10
-71.4025279909076
 20
-111.9758278655534
 30
0.0
 11
-70.30472164210562
 21
-111.9758278655534
 31
0.0
1001
TOP
1070
     7
  0
LINE
  5
11F7
330
1160
100
AcDbEntity
  8
P-0000
  6
Continuous
 62
     0
370
     0
100
AcDbLine
 10
-70.30472164210562
 20
-110.9999999999532
 30
0.0
 11
-71.4025279909076
 21
-110.9999999999532
 31
0.0
1001
TOP
1070
     7
  0
HATCH
  5
11F8
330
1160
100
AcDbEntity
  8
P-0000
  6
Continuous
 62
     0
100
AcDbHatch
 10
0.0
 20
0.0
 30
0.0
210
0.0
220
0.0
230
1.0
  2
SOLID
 70
     1
 71
     0
 91
        1
 92
        1
 93
        4
 72
     1
 10
-70.30472164210627
 20
-110.9999999999534
 11
-71.40252799090693
 21
-110.9999999999534
 72
     1
 10
-71.40252799090564
 20
-110.9999999999534
 11
-71.40252799090564
 21
-111.9758278655534
 72
     1
 10
-71.40252799090564
 20
-111.9758278655535
 11
-70.30472164210498
 21
-111.9758278655535
 72
     1
 10
-70.30472164210627
 20
-111.9758278655535
 11
-70.30472164210627
 21
-110.9999999999535
 97
        0
 75
     0
 76
     1
 98
        1
 10
-136.4839087803873
 20
-204.8924935638848
1001
TOP
1070
     3
  0
LINE
  5
11F9
330
1160
100
AcDbEntity
  8
P-0000
  6
Continuous
 62
     0
370
     0
100
AcDbLine
 10
-70.30472164210562
 20
-112.4637417983535
 30
0.0
 11
-71.4025279909076
 21
-112.4637417983535
 31
0.0
1001
TOP
1070
     7
  0
LINE
  5
11FA
330
1160
100
AcDbEntity
  8
P-0000
  6
Continuous
 62
     0
370
     0
100
AcDbLine
 10
-73.23310267980318
 20
-114.6593544959532
 30
0.0
 11
-73.23310267980318
 21
-113.6835266303536
 31
0.0
1001
TOP
1070
     7
  0
LINE
  5
11FB
330
1160
100
AcDbEntity
  8
P-0000
  6
Continuous
 62
     0
370
     0
100
AcDbLine
 10
-72.13529633100447
 20
-114.9033114623533
 30
0.0
 11
-72.13529633100447
 21
-113.4395696639535
 31
0.0
1001
TOP
1070
     7
  0
LINE
  5
11FC
330
1160
100
AcDbEntity
  8
P-0000
  6
Continuous
 62
     0
370
     0
100
AcDbLine
 10
-71.4025279909076
 20
-110.9999999999532
 30
0.0
 11
-71.4025279909076
 21
-111.9758278655534
 31
0.0
1001
TOP
1070
     7
  0
LINE
  5
11FD
330
1160
100
AcDbEntity
  8
P-0000
  6
Continuous
 62
     0
370
     0
100
AcDbLine
 10
-70.30472164210562
 20
-111.9758278655534
 30
0.0
 11
-70.30472164210562
 21
-110.9999999999532
 31
0.0
1001
TOP
1070
     7
  0
LINE
  5
11FE
330
1160
100
AcDbEntity
  8
P-0000
  6
Continuous
 62
     0
370
     0
100
AcDbLine
 10
-61.67972155649409
 20
-112.4637417983535
 30
0.0
 11
-61.22362894667041
 21
-112.4637417983535
 31
0.0
1001
TOP
1070
     7
  0
ARC
  5
11FF
330
1160
100
AcDbEntity
  8
P-0000
  6
Continuous
 62
     0
370
     0
100
AcDbCircle
 10
-61.22455238416592
 20
-115.7450893416161
 30
0.0
 40
2.30551986259622
100
AcDbArc
 50
89.97705113130741
 51
144.7782320142388
1001
TOP
1070
     7
  0
LINE
  5
1200
330
1160
100
AcDbEntity
  8
P-0000
  6
Continuous
 62
     0
370
     0
100
AcDbLine
 10
-65.94981123893105
 20
-115.6426918998433
 30
0.0
 11
-64.80845491031482
 21
-115.6426918998433
 31
0.0
1001
TOP
1070
     7
  0
LINE
  5
1201
330
1160
100
AcDbEntity
  8
P-0000
  6
Continuous
 62
     0
370
     0
100
AcDbLine
 10
-68.54858277585996
 20
-115.1547779670433
 30
0.0
 11
-64.69372297294865
 21
-115.1547779670433
 31
0.0
1001
TOP
1070
     7
  0
ARC
  5
1202
330
1160
100
AcDbEntity
  8
P-0000
  6
Continuous
 62
     0
370
     0
100
AcDbCircle
 10
-67.13328107890589
 20
-114.7813329791535
 30
0.0
 40
1.463741798400002
100
AcDbArc
 50
194.7813103722914
 51
323.9519363800095
1001
TOP
1070
     7
  0
ARC
  5
1203
330
1160
100
AcDbEntity
  8
P-0000
  6
Continuous
 62
     0
370
     0
100
AcDbCircle
 10
-67.13315394981435
 20
-114.7246775057507
 30
0.0
 40
1.309503544180366
100
AcDbArc
 50
23.46032899247153
 51
156.5396710075285
1001
TOP
1070
     7
  0
LINE
  5
1204
330
1160
100
AcDbEntity
  8
P-0000
  6
Continuous
 62
     0
370
     0
100
AcDbLine
 10
-68.33440862006644
 20
-114.2033457980831
 30
0.0
 11
-65.93189927956226
 21
-114.2033457980831
 31
0.0
1001
TOP
1070
     7
  0
LINE
  5
1205
330
1160
100
AcDbEntity
  8
P-0000
  6
Continuous
 62
     0
370
     0
100
AcDbLine
 10
-63.1079911333061
 20
-117.3428811263534
 30
0.0
 11
-63.1079911333061
 21
-114.4153975295534
 31
0.0
1001
TOP
1070
     7
  0
LINE
  5
1206
330
1160
100
AcDbEntity
  8
P-0000
  6
Continuous
 62
     0
370
     0
100
AcDbLine
 10
-64.2057974821061
 20
-112.4637417983535
 30
0.0
 11
-64.2057974821061
 21
-117.3428811263534
 31
0.0
1001
TOP
1070
     7
  0
LINE
  5
1207
330
1160
100
AcDbEntity
  8
P-0000
  6
Continuous
 62
     0
370
     0
100
AcDbLine
 10
-64.2057974821061
 20
-117.3428811263534
 30
0.0
 11
-63.1079911333061
 21
-117.3428811263534
 31
0.0
1001
TOP
1070
     7
  0
LINE
  5
1208
330
1160
100
AcDbEntity
  8
P-0000
  6
Continuous
 62
     0
370
     0
100
AcDbLine
 10
-63.1079911333061
 20
-112.4637417983535
 30
0.0
 11
-64.2057974821061
 21
-112.4637417983535
 31
0.0
1001
TOP
1070
     7
  0
ARC
  5
1209
330
1160
100
AcDbEntity
  8
P-0000
  6
Continuous
 62
     0
370
     0
100
AcDbCircle
 10
-61.5678898700862
 20
-114.1605808182826
 30
0.0
 40
1.700520210299701
100
AcDbArc
 50
93.77067625261986
 51
154.9129671807329
1001
TOP
1070
     7
  0
LINE
  5
120A
330
1160
100
AcDbEntity
  8
P-0000
  6
Continuous
 62
     0
370
     0
100
AcDbLine
 10
-63.1079911333061
 20
-113.4395696639535
 30
0.0
 11
-63.1079911333061
 21
-112.4637417983535
 31
0.0
1001
TOP
1070
     7
  0
LINE
  5
120B
330
1160
100
AcDbEntity
  8
P-0000
  6
Continuous
 62
     0
370
     0
100
AcDbLine
 10
-63.1079911333061
 20
-112.4637417983535
 30
0.0
 11
-63.1079911333061
 21
-113.4395696639535
 31
0.0
1001
TOP
1070
     7
  0
LINE
  5
120C
330
1160
100
AcDbEntity
  8
P-0000
  6
Continuous
 62
     0
370
     0
100
AcDbLine
 10
-59.39496610469735
 20
-117.3428811263534
 30
0.0
 11
-59.39496610469735
 21
-114.4153975295534
 31
0.0
1001
TOP
1070
     7
  0
LINE
  5
120D
330
1160
100
AcDbEntity
  8
P-0000
  6
Continuous
 62
     0
370
     0
100
AcDbLine
 10
-60.49277245349801
 20
-112.4637417983535
 30
0.0
 11
-60.49277245349801
 21
-117.3428811263534
 31
0.0
1001
TOP
1070
     7
  0
LINE
  5
120E
330
1160
100
AcDbEntity
  8
P-0000
  6
Continuous
 62
     0
370
     0
100
AcDbLine
 10
-60.49277245349801
 20
-117.3428811263534
 30
0.0
 11
-59.39496610469735
 21
-117.3428811263534
 31
0.0
1001
TOP
1070
     7
  0
ARC
  5
120F
330
1160
100
AcDbEntity
  8
P-0000
  6
Continuous
 62
     0
370
     0
100
AcDbCircle
 10
-57.8548648414781
 20
-114.1605808182826
 30
0.0
 40
1.700520210299701
100
AcDbArc
 50
93.77067625261986
 51
154.9129671807329
1001
TOP
1070
     7
  0
ARC
  5
1210
330
1160
100
AcDbEntity
  8
P-0000
  6
Continuous
 62
     0
370
     0
100
AcDbCircle
 10
-57.51152735555913
 20
-115.7450893416161
 30
0.0
 40
2.30551986259622
100
AcDbArc
 50
89.97705113130741
 51
144.7782320142388
1001
TOP
1070
     7
  0
LINE
  5
1211
330
1160
100
AcDbEntity
  8
P-0000
  6
Continuous
 62
     0
370
     0
100
AcDbLine
 10
-59.39496610469735
 20
-113.4395696639535
 30
0.0
 11
-59.39496610469735
 21
-112.4637417983535
 31
0.0
1001
TOP
1070
     7
  0
LINE
  5
1212
330
1160
100
AcDbEntity
  8
P-0000
  6
Continuous
 62
     0
370
     0
100
AcDbLine
 10
-61.22362894667041
 20
-113.4395696639535
 30
0.0
 11
-61.22362894667041
 21
-112.4637417983535
 31
0.0
1001
TOP
1070
     7
  0
LINE
  5
1213
330
1160
100
AcDbEntity
  8
P-0000
  6
Continuous
 62
     0
370
     0
100
AcDbLine
 10
-59.39496610469735
 20
-112.4637417983535
 30
0.0
 11
-59.39496610469735
 21
-113.4395696639535
 31
0.0
1001
TOP
1070
     7
  0
LINE
  5
1214
330
1160
100
AcDbEntity
  8
P-0000
  6
Continuous
 62
     0
370
     0
100
AcDbLine
 10
-59.39496610469735
 20
-112.4637417983535
 30
0.0
 11
-60.49277245349801
 21
-112.4637417983535
 31
0.0
1001
TOP
1070
     7
  0
LINE
  5
1215
330
1160
100
AcDbEntity
  8
P-0000
  6
Continuous
 62
     0
370
     0
100
AcDbLine
 10
-57.5106039180623
 20
-113.4395696639535
 30
0.0
 11
-57.5106039180623
 21
-112.4637417983535
 31
0.0
1001
TOP
1070
     7
  0
LINE
  5
1216
330
1160
100
AcDbEntity
  8
P-0000
  6
Continuous
 62
     0
370
     0
100
AcDbLine
 10
-57.96669652788599
 20
-112.4637417983535
 30
0.0
 11
-57.5106039180623
 21
-112.4637417983535
 31
0.0
1001
TOP
1070
     7
  0
ARC
  5
1217
330
1160
100
AcDbEntity
  8
P-0000
  6
Continuous
 62
     0
370
     0
100
AcDbCircle
 10
-54.83784997234598
 20
-114.7813329791535
 30
0.0
 40
1.463741798400002
100
AcDbArc
 50
194.7813103722914
 51
323.9519363800095
1001
TOP
1070
     7
  0
ARC
  5
1218
330
1160
100
AcDbEntity
  8
P-0000
  6
Continuous
 62
     0
370
     0
100
AcDbCircle
 10
-54.83772284325443
 20
-114.7246775057507
 30
0.0
 40
1.309503544180366
100
AcDbArc
 50
23.46032899247153
 51
156.5396710075285
1001
TOP
1070
     7
  0
LINE
  5
1219
330
1160
100
AcDbEntity
  8
P-0000
  6
Continuous
 62
     0
370
     0
100
AcDbLine
 10
-56.03897751350586
 20
-114.2033457980831
 30
0.0
 11
-53.63646817300168
 21
-114.2033457980831
 31
0.0
1001
TOP
1070
     7
  0
HATCH
  5
121A
330
1160
100
AcDbEntity
  8
P-0000
  6
Continuous
 62
     0
 48
35.0
100
AcDbHatch
 10
0.0
 20
0.0
 30
0.0
210
0.0
220
0.0
230
1.0
  2
SOLID
 70
     1
 71
     0
 91
        4
 92
        7
 72
     1
 73
     1
 93
        5
 10
-94.03728088778988
 20
-125.2235249353502
 42
0.0
 10
-92.28966119657778
 20
-123.3760412617837
 42
-0.2526825286644691
 10
-94.10033621549056
 20
-118.3093524326913
 42
-0.2365496875282557
 10
-91.7614140375581
 20
-113.911556758355
 42
-0.3189181398811662
 10
-83.35033676430748
 20
-113.9115567583528
 42
0.9456749006874259
 97
        0
 92
       23
 72
     1
 73
     1
 93
        3
 10
-91.68042069830406
 20
-122.9606500129607
 42
0.0
 10
-90.71117445104736
 20
-121.9083255159412
 42
-0.9367032511192487
 10
-85.2261793413445
 20
-115.9531879682591
 42
0.991293729556146
 97
        0
 92
       23
 72
     1
 73
     1
 93
        3
 10
-91.37763107440111
 20
-123.2387738267226
 42
0.9912937295513184
 10
-84.92338971744155
 20
-116.2313117820216
 42
0.0
 10
-85.89263596469553
 20
-117.283636279041
 42
-0.9367032511219315
 97
        0
 92
        7
 72
     1
 73
     1
 93
        4
 10
-83.89875797035076
 20
-124.2622092592821
 42
-0.3807594385329842
 10
-93.37171269560638
 20
-125.8488038677993
 42
0.9590989174885454
 10
-82.90217148550416
 20
-114.320869039862
 42
0.0
 10
-84.48030571869711
 20
-115.9543842828061
 42
-0.3704192144445529
 97
        0
 75
     0
 76
     1
 47
0.0537802133905057
 98
        4
 10
-95.28899908413293
 20
-117.9121948253558
 10
-92.51811574438377
 20
-119.1148667670212
 10
-84.53359595731015
 20
-120.3175387086872
 10
-82.20022029262763
 20
-118.4953086011877
1001
TOP
1070
     3
  0
HATCH
  5
121B
330
1160
100
AcDbEntity
  8
P-0000
  6
Continuous
 62
     0
 48
35.0
100
AcDbHatch
 10
0.0
 20
0.0
 30
0.0
210
0.0
220
0.0
230
1.0
  2
SOLID
 70
     1
 71
     0
 91
        9
 92
        7
 72
     1
 73
     1
 93
        6
 10
-74.57486599500573
 20
-110.9999999999531
 42
0.0
 10
-77.50234959180421
 20
-110.9999999999531
 42
0.0
 10
-77.50234959180485
 20
-117.3428811263533
 42
0.0
 10
-74.57486599500573
 20
-117.3428811263533
 42
0.4142135623732426
 10
-72.13529633100447
 20
-114.9033114623533
 42
0.0
 10
-72.13529633100447
 20
-113.4395696639534
 42
0.4142135623732917
 97
        0
 92
       22
 72
     1
 73
     1
 93
        6
 10
-76.40454324300486
 20
-112.0978063487534
 42
0.0
 10
-74.81882296140435
 20
-112.0978063487534
 42
-0.4142135623733217
 10
-73.23310267980318
 20
-113.6835266303533
 42
0.0
 10
-73.23310267980318
 20
-114.6593544959533
 42
-0.4142135623732008
 10
-74.81882296140369
 20
-116.2450747775532
 42
0.0
 10
-76.40454324300486
 20
-116.2450747775532
 42
0.0
 97
        0
 92
        7
 72
     0
 73
     1
 93
        4
 10
-71.40252799090825
 20
-117.3428811263533
 10
-70.30472164210562
 20
-117.3428811263534
 10
-70.30472164210562
 20
-112.4637417983535
 10
-71.4025279909076
 20
-112.4637417983534
 97
        0
 92
        7
 72
     1
 73
     1
 93
        4
 10
-68.5485827758606
 20
-115.1547779670432
 42
0.0
 10
-64.70670638553077
 20
-115.1547779670432
 42
19.52759892169242
 10
-64.80845491031548
 20
-115.6426918998433
 42
0.0
 10
-65.94981123892972
 20
-115.6426918998433
 42
-0.6319943824460191
 97
        0
 92
       22
 72
     1
 73
     1
 93
        2
 10
-68.33440862006513
 20
-114.2033457980811
 42
-0.6561238478654379
 10
-65.93189927956356
 20
-114.2033457980831
 42
0.0
 97
        0
 92
        7
 72
     1
 73
     1
 93
        9
 10
-63.1079911333061
 20
-114.4153975295551
 42
-0.2437791817823871
 10
-61.22362894667041
 20
-113.4395696639536
 42
0.0
 10
-61.22362894667041
 20
-112.4637417983535
 42
0.0
 10
-61.6797215564895
 20
-112.4637417983534
 42
0.2732984134248683
 10
-63.1079911333061
 20
-113.4395696639525
 42
0.0
 10
-63.1079911333061
 20
-112.4637417983534
 42
0.0
 10
-64.20579748210546
 20
-112.4637417983534
 42
0.0
 10
-64.2057974821061
 20
-117.3428811263532
 42
0.0
 10
-63.10799113330676
 20
-117.3428811263532
 42
0.0
 97
        0
 92
        7
 72
     1
 73
     1
 93
        9
 10
-60.49277245349736
 20
-117.3428811263533
 42
0.0
 10
-59.3949661046967
 20
-117.3428811263534
 42
0.0
 10
-59.39496610469735
 20
-114.4153975295523
 42
-0.2437791817821463
 10
-57.5106039180623
 20
-113.4395696639536
 42
0.0
 10
-57.5106039180623
 20
-112.4637417983535
 42
0.0
 10
-57.9666965278814
 20
-112.4637417983534
 42
0.2732984134246251
 10
-59.39496610469735
 20
-113.4395696639511
 42
0.0
 10
-59.39496610469735
 20
-112.4637417983534
 42
0.0
 10
-60.49277245349801
 20
-112.4637417983535
 42
0.0
 97
        0
 92
        7
 72
     1
 73
     1
 93
        4
 10
-52.41127527897084
 20
-115.1547779670432
 42
19.52759892169242
 10
-52.51302380375555
 20
-115.6426918998433
 42
0.0
 10
-53.65438013237048
 20
-115.6426918998433
 42
-0.631994382445661
 10
-56.25315166930069
 20
-115.1547779670432
 42
0.0
 97
        0
 92
       22
 72
     1
 73
     1
 93
        2
 10
-56.03897751350586
 20
-114.2033457980832
 42
-0.6561238478663365
 10
-53.63646817300299
 20
-114.2033457980831
 42
0.0
 97
        0
 75
     0
 76
     1
 47
0.1054092179442032
 98
        9
 10
-77.30509361450609
 20
-111.652214293695
 10
-77.30509361450609
 20
-111.652214293695
 10
-70.92517770860029
 20
-114.0180230722183
 10
-68.97004263540313
 20
-114.9952049659171
 10
-68.97004263540313
 20
-114.9952049659171
 10
-63.41334181494616
 20
-115.2523580455926
 10
-60.12048197631124
 20
-115.1494968773671
 10
-55.90150541812637
 20
-114.429468063343
 10
-55.90150541812637
 20
-114.429468063343
1001
TOP
1070
     5
  0
MTEXT
  5
121C
330
1160
100
AcDbEntity
  8
P-0000
  6
Continuous
 62
     0
100
AcDbMText
 10
-77.50752909622914
 20
-125.390962447158
 30
0.0
 40
1.5
 41
15.89275572328779
 71
     1
 72
     5
  1
{\f@Arial Unicode MS|b0|i0|c0|p34;\H2x;Group\H0.5x; srl}
  7
ROMANS
 73
     1
 44
1.0
1001
TOP
1070
     7
1001
ACAD
1000
MTEXTBEGIN
1070
    73
1070
     1
1070
    44
1040
1.0
1070
    74
1070
     0
1000
MTEXTEND
  0
LINE
  5
121D
330
1160
100
AcDbEntity
  8
P-0000
  6
Continuous
 62
     0
100
AcDbLine
 10
-60.31400746853627
 20
-118.6190131723036
 30
0.0
 11
-65.10163245619105
 21
-118.6190131723036
 31
0.0
1001
TOP
1070
     7
  0
LINE
  5
121E
330
1160
100
AcDbEntity
  8
P-0000
  6
Continuous
 62
     0
100
AcDbLine
 10
-65.10163245619105
 20
-118.6190131723036
 30
0.0
 11
-60.31400746853627
 21
-118.6190131723036
 31
0.0
1001
TOP
1070
     7
  0
LINE
  5
121F
330
1160
100
AcDbEntity
  8
P-0000
  6
Continuous
 62
     0
100
AcDbLine
 10
-60.60899754084211
 20
-122.4817401737899
 30
0.0
 11
-59.78513540320495
 21
-121.2719230596353
 31
0.0
1001
TOP
1070
     7
  0
LINE
  5
1220
330
1160
100
AcDbEntity
  8
P-0000
  6
Continuous
 62
     0
100
AcDbLine
 10
-60.60899754084211
 20
-122.4817401737899
 30
0.0
 11
-59.78513540320495
 21
-121.2719230596353
 31
0.0
1001
TOP
1070
     7
  0
LINE
  5
1221
330
1160
100
AcDbEntity
  8
P-0000
  6
Continuous
 62
     0
100
AcDbLine
 10
-60.60899754084211
 20
-122.4817401737899
 30
0.0
 11
-58.9612732655678
 21
-122.4817401737899
 31
0.0
1001
TOP
1070
     7
  0
LINE
  5
1222
330
1160
100
AcDbEntity
  8
P-0000
  6
Continuous
 62
     0
100
AcDbLine
 10
-58.9612732655678
 20
-122.4817401737899
 30
0.0
 11
-60.60899754084211
 21
-122.4817401737899
 31
0.0
1001
TOP
1070
     7
  0
LINE
  5
1223
330
1160
100
AcDbEntity
  8
P-0000
  6
Continuous
 62
     0
100
AcDbLine
 10
-63.4872398605242
 20
-124.055443766988
 30
0.0
 11
-56.08303094588571
 21
-124.055443766988
 31
0.0
1001
TOP
1070
     7
  0
LINE
  5
1224
330
1160
100
AcDbEntity
  8
P-0000
  6
Continuous
 62
     0
100
AcDbLine
 10
-63.4872398605242
 20
-124.055443766988
 30
0.0
 11
-56.08303094588571
 21
-124.055443766988
 31
0.0
1001
TOP
1070
     7
  0
LINE
  5
1225
330
1160
100
AcDbEntity
  8
P-0000
  6
Continuous
 62
     0
100
AcDbLine
 10
-61.88263947056615
 20
-120.9225027431548
 30
0.0
 11
-60.31400746853627
 21
-118.6190131723036
 31
0.0
1001
TOP
1070
     7
  0
LINE
  5
1226
330
1160
100
AcDbEntity
  8
P-0000
  6
Continuous
 62
     0
100
AcDbLine
 10
-61.88263947056615
 20
-120.9225027431548
 30
0.0
 11
-60.31400746853627
 21
-118.6190131723036
 31
0.0
1001
TOP
1070
     7
  0
LINE
  5
1227
330
1160
100
AcDbEntity
  8
P-0000
  6
Continuous
 62
     0
100
AcDbLine
 10
-63.4872398605242
 20
-124.055443766988
 30
0.0
 11
-59.78513540320495
 21
-118.6190131723036
 31
0.0
1001
TOP
1070
     7
  0
LINE
  5
1228
330
1160
100
AcDbEntity
  8
P-0000
  6
Continuous
 62
     0
100
AcDbLine
 10
-59.78513540320495
 20
-118.6190131723036
 30
0.0
 11
-63.4872398605242
 21
-124.055443766988
 31
0.0
1001
TOP
1070
     7
  0
LINE
  5
1229
330
1160
100
AcDbEntity
  8
P-0000
  6
Continuous
 62
     0
100
AcDbLine
 10
-72.47806497115667
 20
-118.6190131723036
 30
0.0
 11
-68.77596051383742
 21
-118.6190131723036
 31
0.0
1001
TOP
1070
     7
  0
LINE
  5
122A
330
1160
100
AcDbEntity
  8
P-0000
  6
Continuous
 62
     0
100
AcDbLine
 10
-72.47806497115667
 20
-118.6190131723036
 30
0.0
 11
-68.77596051383742
 21
-118.6190131723036
 31
0.0
1001
TOP
1070
     7
  0
LINE
  5
122B
330
1160
100
AcDbEntity
  8
P-0000
  6
Continuous
 62
     0
100
AcDbLine
 10
-71.94919290582532
 20
-124.055443766988
 30
0.0
 11
-68.24708844850608
 21
-118.6190131723036
 31
0.0
1001
TOP
1070
     7
  0
LINE
  5
122C
330
1160
100
AcDbEntity
  8
P-0000
  6
Continuous
 62
     0
100
AcDbLine
 10
-72.47806497115667
 20
-124.055443766988
 30
0.0
 11
-68.77596051383742
 21
-118.6190131723036
 31
0.0
1001
TOP
1070
     7
  0
LINE
  5
122D
330
1160
100
AcDbEntity
  8
P-0000
  6
Continuous
 62
     0
100
AcDbLine
 10
-71.94919290582532
 20
-124.055443766988
 30
0.0
 11
-68.24708844850608
 21
-118.6190131723036
 31
0.0
1001
TOP
1070
     7
  0
LINE
  5
122E
330
1160
100
AcDbEntity
  8
P-0000
  6
Continuous
 62
     0
100
AcDbLine
 10
-68.77596051383742
 20
-118.6190131723036
 30
0.0
 11
-72.47806497115667
 21
-124.055443766988
 31
0.0
1001
TOP
1070
     7
  0
LINE
  5
122F
330
1160
100
AcDbEntity
  8
P-0000
  6
Continuous
 62
     0
100
AcDbLine
 10
-71.94919290582532
 20
-124.055443766988
 30
0.0
 11
-64.54498399118683
 21
-124.055443766988
 31
0.0
1001
TOP
1070
     7
  0
LINE
  5
1230
330
1160
100
AcDbEntity
  8
P-0000
  6
Continuous
 62
     0
100
AcDbLine
 10
-64.54498399118683
 20
-124.055443766988
 30
0.0
 11
-71.94919290582532
 21
-124.055443766988
 31
0.0
1001
TOP
1070
     7
  0
LINE
  5
1231
330
1160
100
AcDbEntity
  8
P-0000
  6
Continuous
 62
     0
100
AcDbLine
 10
-77.50234959180421
 20
-118.6190131723036
 30
0.0
 11
-75.2546433141461
 21
-118.6190131723036
 31
0.0
1001
TOP
1070
     7
  0
LINE
  5
1232
330
1160
100
AcDbEntity
  8
P-0000
  6
Continuous
 62
     0
100
AcDbLine
 10
-77.50234959180421
 20
-124.055443766988
 30
0.0
 11
-75.2546433141461
 21
-124.055443766988
 31
0.0
1001
TOP
1070
     7
  0
LINE
  5
1233
330
1160
100
AcDbEntity
  8
P-0000
  6
Continuous
 62
     0
100
AcDbLine
 10
-75.2546433141461
 20
-124.055443766988
 30
0.0
 11
-77.50234959180421
 21
-124.055443766988
 31
0.0
1001
TOP
1070
     7
  0
LINE
  5
1234
330
1160
100
AcDbEntity
  8
P-0000
  6
Continuous
 62
     0
100
AcDbLine
 10
-77.50234959180421
 20
-118.6190131723036
 30
0.0
 11
-75.2546433141461
 21
-118.6190131723036
 31
0.0
1001
TOP
1070
     7
  0
LINE
  5
1235
330
1160
100
AcDbEntity
  8
P-0000
  6
Continuous
 62
     0
100
AcDbLine
 10
-77.50234959180421
 20
-124.055443766988
 30
0.0
 11
-77.50234959180421
 21
-118.6190131723036
 31
0.0
1001
TOP
1070
     7
  0
LINE
  5
1236
330
1160
100
AcDbEntity
  8
P-0000
  6
Continuous
 62
     0
100
AcDbLine
 10
-77.50234959180421
 20
-124.055443766988
 30
0.0
 11
-77.50234959180421
 21
-118.6190131723036
 31
0.0
1001
TOP
1070
     7
  0
LINE
  5
1237
330
1160
100
AcDbEntity
  8
P-0000
  6
Continuous
 62
     0
100
AcDbLine
 10
-72.47806497115667
 20
-121.7664203586998
 30
0.0
 11
-73.8663541426514
 21
-124.055443766988
 31
0.0
1001
TOP
1070
     7
  0
LINE
  5
1238
330
1160
100
AcDbEntity
  8
P-0000
  6
Continuous
 62
     0
100
AcDbLine
 10
-72.47806497115667
 20
-121.7664203586998
 30
0.0
 11
-72.47806497115667
 21
-124.055443766988
 31
0.0
1001
TOP
1070
     7
  0
LINE
  5
1239
330
1160
100
AcDbEntity
  8
P-0000
  6
Continuous
 62
     0
100
AcDbLine
 10
-72.47806497115667
 20
-121.7664203586998
 30
0.0
 11
-73.8663541426514
 21
-124.055443766988
 31
0.0
1001
TOP
1070
     7
  0
LINE
  5
123A
330
1160
100
AcDbEntity
  8
P-0000
  6
Continuous
 62
     0
100
AcDbLine
 10
-72.47806497115667
 20
-124.055443766988
 30
0.0
 11
-72.47806497115667
 21
-121.7664203586998
 31
0.0
1001
TOP
1070
     7
  0
LINE
  5
123B
330
1160
100
AcDbEntity
  8
P-0000
  6
Continuous
 62
     0
100
AcDbLine
 10
-75.2546433141461
 20
-124.055443766988
 30
0.0
 11
-75.2546433141461
 21
-121.7664203586998
 31
0.0
1001
TOP
1070
     7
  0
LINE
  5
123C
330
1160
100
AcDbEntity
  8
P-0000
  6
Continuous
 62
     0
100
AcDbLine
 10
-75.2546433141461
 20
-121.7664203586998
 30
0.0
 11
-75.2546433141461
 21
-124.055443766988
 31
0.0
1001
TOP
1070
     7
  0
LINE
  5
123D
330
1160
100
AcDbEntity
  8
P-0000
  6
Continuous
 62
     0
100
AcDbLine
 10
-75.2546433141461
 20
-121.7664203586998
 30
0.0
 11
-73.8663541426514
 21
-124.055443766988
 31
0.0
1001
TOP
1070
     7
  0
LINE
  5
123E
330
1160
100
AcDbEntity
  8
P-0000
  6
Continuous
 62
     0
100
AcDbLine
 10
-73.8663541426514
 20
-124.055443766988
 30
0.0
 11
-75.2546433141461
 21
-121.7664203586998
 31
0.0
1001
TOP
1070
     7
  0
LINE
  5
123F
330
1160
100
AcDbEntity
  8
P-0000
  6
Continuous
 62
     0
100
AcDbLine
 10
-72.47806497115667
 20
-118.6190131723036
 30
0.0
 11
-73.8663541426514
 21
-120.9080365805917
 31
0.0
1001
TOP
1070
     7
  0
LINE
  5
1240
330
1160
100
AcDbEntity
  8
P-0000
  6
Continuous
 62
     0
100
AcDbLine
 10
-73.8663541426514
 20
-120.9080365805917
 30
0.0
 11
-72.47806497115667
 21
-118.6190131723036
 31
0.0
1001
TOP
1070
     7
  0
LINE
  5
1241
330
1160
100
AcDbEntity
  8
P-0000
  6
Continuous
 62
     0
100
AcDbLine
 10
-75.2546433141461
 20
-118.6190131723036
 30
0.0
 11
-73.8663541426514
 21
-120.9080365805917
 31
0.0
1001
TOP
1070
     7
  0
LINE
  5
1242
330
1160
100
AcDbEntity
  8
P-0000
  6
Continuous
 62
     0
100
AcDbLine
 10
-75.2546433141461
 20
-118.6190131723036
 30
0.0
 11
-73.8663541426514
 21
-120.9080365805917
 31
0.0
1001
TOP
1070
     7
  0
ELLIPSE
  5
1243
330
1160
100
AcDbEntity
  8
P-0000
  6
Continuous
 62
     0
100
AcDbEllipse
 10
-65.10163245619105
 20
-120.0496528024836
 30
0.0
 11
-0.0000000000000277
 21
1.430639630180138
 31
0.0
210
0.0
220
0.0
230
-1.0
 40
0.9241881291669729
 41
4.077362244994374
 42
6.283185307179586
1001
TOP
1070
     7
  0
LINE
  5
1244
330
1160
100
AcDbEntity
  8
P-0000
  6
Continuous
 62
     0
100
AcDbLine
 10
-64.54498399118683
 20
-124.055443766988
 30
0.0
 11
-68.24708844850608
 21
-118.6190131723036
 31
0.0
1001
TOP
1070
     7
  0
LINE
  5
1245
330
1160
100
AcDbEntity
  8
P-0000
  6
Continuous
 62
     0
100
AcDbLine
 10
-68.24708844850608
 20
-118.6190131723036
 30
0.0
 11
-64.54498399118683
 21
-124.055443766988
 31
0.0
1001
TOP
1070
     7
  0
ELLIPSE
  5
1246
330
1160
100
AcDbEntity
  8
P-0000
  6
Continuous
 62
     0
100
AcDbEllipse
 10
-65.10163245619105
 20
-120.0496528024836
 30
0.0
 11
0.0000000000000073
 21
1.430639630180138
 31
0.0
210
0.0
220
0.0
230
1.0
 40
0.9241881291669608
 41
0.0000000000000056
 42
2.205823062185215
1001
TOP
1070
     7
  0
LINE
  5
1247
330
1160
100
AcDbEntity
  8
P-0000
  6
Continuous
 62
     0
100
AcDbLine
 10
-64.01611192585551
 20
-124.055443766988
 30
0.0
 11
-66.16606131471133
 21
-120.8983068549025
 31
0.0
1001
TOP
1070
     7
  0
LINE
  5
1248
330
1160
100
AcDbEntity
  8
P-0000
  6
Continuous
 62
     0
100
AcDbLine
 10
-66.16606131471133
 20
-120.8983068549025
 30
0.0
 11
-64.01611192585551
 21
-124.055443766988
 31
0.0
1001
TOP
1070
     7
  0
LINE
  5
1249
330
1160
100
AcDbEntity
  8
P-0000
  6
Continuous
 62
     0
100
AcDbLine
 10
-67.42322631086892
 20
-122.4817401737899
 30
0.0
 11
-68.24708844850608
 21
-121.2719230596353
 31
0.0
1001
TOP
1070
     7
  0
LINE
  5
124A
330
1160
100
AcDbEntity
  8
P-0000
  6
Continuous
 62
     0
100
AcDbLine
 10
-68.24708844850608
 20
-121.2719230596353
 30
0.0
 11
-67.42322631086892
 21
-122.4817401737899
 31
0.0
1001
TOP
1070
     7
  0
LINE
  5
124B
330
1160
100
AcDbEntity
  8
P-0000
  6
Continuous
 62
     0
100
AcDbLine
 10
-69.07095058614323
 20
-122.4817401737899
 30
0.0
 11
-68.24708844850608
 21
-121.2719230596353
 31
0.0
1001
TOP
1070
     7
  0
LINE
  5
124C
330
1160
100
AcDbEntity
  8
P-0000
  6
Continuous
 62
     0
100
AcDbLine
 10
-69.07095058614323
 20
-122.4817401737899
 30
0.0
 11
-68.24708844850608
 21
-121.2719230596353
 31
0.0
1001
TOP
1070
     7
  0
LINE
  5
124D
330
1160
100
AcDbEntity
  8
P-0000
  6
Continuous
 62
     0
100
AcDbLine
 10
-69.07095058614323
 20
-122.4817401737899
 30
0.0
 11
-67.42322631086892
 21
-122.4817401737899
 31
0.0
1001
TOP
1070
     7
  0
LINE
  5
124E
330
1160
100
AcDbEntity
  8
P-0000
  6
Continuous
 62
     0
100
AcDbLine
 10
-67.42322631086892
 20
-122.4817401737899
 30
0.0
 11
-69.07095058614323
 21
-122.4817401737899
 31
0.0
1001
TOP
1070
     7
  0
LINE
  5
124F
330
1160
100
AcDbEntity
  8
P-0000
  6
Continuous
 62
     0
100
AcDbLine
 10
-64.01611192585551
 20
-124.055443766988
 30
0.0
 11
-62.44747992382563
 21
-121.7519541961368
 31
0.0
1001
TOP
1070
     7
  0
LINE
  5
1250
330
1160
100
AcDbEntity
  8
P-0000
  6
Continuous
 62
     0
100
AcDbLine
 10
-64.01611192585551
 20
-124.055443766988
 30
0.0
 11
-62.44747992382563
 21
-121.7519541961368
 31
0.0
1001
TOP
1070
     7
  0
LINE
  5
1251
330
1160
100
AcDbEntity
  8
P-0000
  6
Continuous
 62
     0
100
AcDbLine
 10
-62.44747992382563
 20
-121.7519541961368
 30
0.0
 11
-63.46925566656012
 21
-121.7519541961368
 31
0.0
1001
TOP
1070
     7
  0
LINE
  5
1252
330
1160
100
AcDbEntity
  8
P-0000
  6
Continuous
 62
     0
100
AcDbLine
 10
-63.46925566656012
 20
-120.9225027431548
 30
0.0
 11
-61.88263947056615
 21
-120.9225027431548
 31
0.0
1001
TOP
1070
     7
  0
LINE
  5
1253
330
1160
100
AcDbEntity
  8
P-0000
  6
Continuous
 62
     0
100
AcDbLine
 10
-62.44747992382563
 20
-121.7519541961368
 30
0.0
 11
-63.46925566656012
 21
-121.7519541961368
 31
0.0
1001
TOP
1070
     7
  0
LINE
  5
1254
330
1160
100
AcDbEntity
  8
P-0000
  6
Continuous
 62
     0
100
AcDbLine
 10
-61.88263947056615
 20
-120.9225027431548
 30
0.0
 11
-63.46925566656012
 21
-120.9225027431548
 31
0.0
1001
TOP
1070
     7
  0
ELLIPSE
  5
1255
330
1160
100
AcDbEntity
  8
P-0000
  6
Continuous
 62
     0
100
AcDbEllipse
 10
-63.46925566656012
 20
-121.3372284696458
 30
0.0
 11
0.0000000000000016
 21
0.4147257264910956
 31
0.0
210
0.0
220
0.0
230
-1.0
 40
0.9241881291669779
 41
3.141592653589793
 42
6.283185307179586
1001
TOP
1070
     7
  0
ELLIPSE
  5
1256
330
1160
100
AcDbEntity
  8
P-0000
  6
Continuous
 62
     0
100
AcDbEllipse
 10
-63.46925566656012
 20
-121.3372284696458
 30
0.0
 11
-0.0000000000000201
 21
0.4147257264910956
 31
0.0
210
0.0
220
0.0
230
1.0
 40
0.9241881291669438
 41
-0.0000000000000524
 42
3.14159265358974
1001
TOP
1070
     7
  0
ELLIPSE
  5
1257
330
1160
100
AcDbEntity
  8
P-0000
  6
Continuous
 62
     0
100
AcDbEllipse
 10
-55.55415888055438
 20
-120.3357807285197
 30
0.0
 11
-0.0000000000001066
 21
0.6294814372792618
 31
0.0
210
0.0
220
0.0
230
1.0
 40
0.9241881291669697
 41
3.141592653589633
 42
6.283185307179426
1001
TOP
1070
     7
  0
ELLIPSE
  5
1258
330
1160
100
AcDbEntity
  8
P-0000
  6
Continuous
 62
     0
100
AcDbEllipse
 10
-55.55415888055438
 20
-120.3357807285197
 30
0.0
 11
0.0000000000000215
 21
0.6294814372792617
 31
0.0
210
0.0
220
0.0
230
-1.0
 40
0.9241881291669697
 41
0.0
 42
3.141592653589793
1001
TOP
1070
     7
  0
ELLIPSE
  5
1259
330
1160
100
AcDbEntity
  8
P-0000
  6
Continuous
 62
     0
100
AcDbEllipse
 10
-55.55415888055438
 20
-120.3357807285197
 30
0.0
 11
0.0000000000000215
 21
1.716767556216168
 31
0.0
210
0.0
220
0.0
230
1.0
 40
0.9241881291669681
 41
3.141592653589806
 42
6.283185307179599
1001
TOP
1070
     7
  0
ELLIPSE
  5
125A
330
1160
100
AcDbEntity
  8
P-0000
  6
Continuous
 62
     0
100
AcDbEllipse
 10
-55.55415888055438
 20
-120.3357807285197
 30
0.0
 11
0.0000000000000018
 21
1.716767556216167
 31
0.0
210
0.0
220
0.0
230
-1.0
 40
0.9241881291669688
 41
0.0
 42
3.141592653589793
1001
TOP
1070
     7
  0
LINE
  5
125B
330
1160
100
AcDbEntity
  8
P-0000
  6
Continuous
 62
     0
100
AcDbLine
 10
-59.78513540320495
 20
-121.2719230596353
 30
0.0
 11
-58.9612732655678
 21
-122.4817401737899
 31
0.0
1001
TOP
1070
     7
  0
LINE
  5
125C
330
1160
100
AcDbEntity
  8
P-0000
  6
Continuous
 62
     0
100
AcDbLine
 10
-58.9612732655678
 20
-122.4817401737899
 30
0.0
 11
-59.78513540320495
 21
-121.2719230596353
 31
0.0
1001
TOP
1070
     7
  0
LINE
  5
125D
330
1160
100
AcDbEntity
  8
P-0000
  6
Continuous
 62
     0
100
AcDbLine
 10
-56.08303094588571
 20
-124.055443766988
 30
0.0
 11
-59.78513540320495
 21
-118.6190131723036
 31
0.0
1001
TOP
1070
     7
  0
LINE
  5
125E
330
1160
100
AcDbEntity
  8
P-0000
  6
Continuous
 62
     0
100
AcDbLine
 10
-55.55415888055438
 20
-124.055443766988
 30
0.0
 11
-59.25626333787364
 21
-118.6190131723036
 31
0.0
1001
TOP
1070
     7
  0
LINE
  5
125F
330
1160
100
AcDbEntity
  8
P-0000
  6
Continuous
 62
     0
100
AcDbLine
 10
-55.55415888055438
 20
-124.055443766988
 30
0.0
 11
-59.25626333787364
 21
-118.6190131723036
 31
0.0
1001
TOP
1070
     7
  0
LINE
  5
1260
330
1160
100
AcDbEntity
  8
P-0000
  6
Continuous
 62
     0
100
AcDbLine
 10
-56.08303094588571
 20
-124.055443766988
 30
0.0
 11
-59.78513540320495
 21
-118.6190131723036
 31
0.0
1001
TOP
1070
     7
  0
LINE
  5
1261
330
1160
100
AcDbEntity
  8
P-0000
  6
Continuous
 62
     0
100
AcDbLine
 10
-55.55415888055438
 20
-124.055443766988
 30
0.0
 11
-55.55415888055438
 21
-122.0525482847359
 31
0.0
1001
TOP
1070
     7
  0
LINE
  5
1262
330
1160
100
AcDbEntity
  8
P-0000
  6
Continuous
 62
     0
100
AcDbLine
 10
-55.55415888055438
 20
-122.0525482847359
 30
0.0
 11
-55.55415888055438
 21
-124.055443766988
 31
0.0
1001
TOP
1070
     7
  0
LINE
  5
1263
330
1160
100
AcDbEntity
  8
P-0000
  6
Continuous
 62
     0
100
AcDbLine
 10
-59.25626333787364
 20
-118.6190131723036
 30
0.0
 11
-55.55415888055438
 21
-118.6190131723036
 31
0.0
1001
TOP
1070
     7
  0
LINE
  5
1264
330
1160
100
AcDbEntity
  8
P-0000
  6
Continuous
 62
     0
100
AcDbLine
 10
-59.25626333787364
 20
-118.6190131723036
 30
0.0
 11
-55.55415888055438
 21
-118.6190131723036
 31
0.0
1001
TOP
1070
     7
  0
LINE
  5
1265
330
1160
100
AcDbEntity
  8
P-0000
  6
Continuous
 62
     0
100
AcDbLine
 10
-55.55415888055438
 20
-119.7062992912404
 30
0.0
 11
-56.41148833382832
 21
-119.7062992912404
 31
0.0
1001
TOP
1070
     7
  0
LINE
  5
1266
330
1160
100
AcDbEntity
  8
P-0000
  6
Continuous
 62
     0
100
AcDbLine
 10
-56.41148833382832
 20
-119.7062992912404
 30
0.0
 11
-55.55415888055438
 21
-119.7062992912404
 31
0.0
1001
TOP
1070
     7
  0
LINE
  5
1267
330
1160
100
AcDbEntity
  8
P-0000
  6
Continuous
 62
     0
100
AcDbLine
 10
-55.55415888055438
 20
-120.9652621657989
 30
0.0
 11
-56.41148833382832
 21
-119.7062992912404
 31
0.0
1001
TOP
1070
     7
  0
LINE
  5
1268
330
1160
100
AcDbEntity
  8
P-0000
  6
Continuous
 62
     0
100
AcDbLine
 10
-55.55415888055438
 20
-120.9652621657989
 30
0.0
 11
-56.41148833382832
 21
-119.7062992912404
 31
0.0
1001
TOP
1070
     7
  0
LINE
  5
1269
330
1160
100
AcDbEntity
  8
0
 62
     0
 48
35.0
100
AcDbLine
 10
7.000000000000056
 20
142.5
 30
0.0
 11
98.00000000000004
 21
142.5
 31
0.0
1001
TOP
1070
     1
  0
LINE
  5
126A
330
1160
100
AcDbEntity
  8
0
 62
     0
100
AcDbLine
 10
7.000000000000056
 20
143.5
 30
0.0
 11
100.0
 21
143.5
 31
0.0
1001
TOP
1070
   256
  0
ARC
  5
126B
330
1160
100
AcDbEntity
  8
0
 62
     0
 48
35.0
100
AcDbCircle
 10
98.00000000000004
 20
141.5
 30
0.0
 40
1.0
100
AcDbArc
 50
0.0
 51
90.0
1001
TOP
1070
     1
  0
LINE
  5
126C
330
1160
100
AcDbEntity
  8
0
 62
     0
 48
35.0
100
AcDbLine
 10
99.00000000000003
 20
141.5
 30
0.0
 11
99.00000000000005
 21
113.5
 31
0.0
1001
TOP
1070
     1
  0
LINE
  5
126D
330
1160
100
AcDbEntity
  8
0
 62
     0
100
AcDbLine
 10
100.0
 20
143.5
 30
0.0
 11
100.0
 21
113.5
 31
0.0
1001
TOP
1070
   256
  0
ARC
  5
126E
330
1160
100
AcDbEntity
  8
0
 62
     0
 48
35.0
100
AcDbCircle
 10
98.00000000000006
 20
113.5
 30
0.0
 40
1.0
100
AcDbArc
 50
270.0
 51
0.0
1001
TOP
1070
     1
  0
ARC
  5
126F
330
1160
100
AcDbEntity
  8
0
 62
     0
100
AcDbCircle
 10
98.00000000000006
 20
113.5
 30
0.0
 40
2.0
100
AcDbArc
 50
270.0
 51
0.0
1001
TOP
1070
   256
  0
LINE
  5
1270
330
1160
100
AcDbEntity
  8
0
 62
     0
 48
35.0
100
AcDbLine
 10
98.00000000000006
 20
112.5
 30
0.0
 11
7.000000000000056
 21
112.5
 31
0.0
1001
TOP
1070
     1
  0
LINE
  5
1271
330
1160
100
AcDbEntity
  8
0
 62
     0
100
AcDbLine
 10
98.00000000000006
 20
111.4999999999999
 30
0.0
 11
7.000000000000056
 21
111.5
 31
0.0
1001
TOP
1070
   256
  0
ARC
  5
1272
330
1160
100
AcDbEntity
  8
0
 62
     0
 48
35.0
100
AcDbCircle
 10
7.000000000000056
 20
113.5
 30
0.0
 40
1.0
100
AcDbArc
 50
180.0
 51
270.0
1001
TOP
1070
     1
  0
ARC
  5
1273
330
1160
100
AcDbEntity
  8
0
 62
     0
100
AcDbCircle
 10
7.000000000000056
 20
113.5
 30
0.0
 40
2.0
100
AcDbArc
 50
180.0
 51
270.0
1001
TOP
1070
   256
  0
LINE
  5
1274
330
1160
100
AcDbEntity
  8
0
 62
     0
 48
35.0
100
AcDbLine
 10
6.000000000000056
 20
113.5
 30
0.0
 11
6.000000000000056
 21
141.5
 31
0.0
1001
TOP
1070
     1
  0
LINE
  5
1275
330
1160
100
AcDbEntity
  8
0
 62
     0
100
AcDbLine
 10
5.000000000000056
 20
113.5
 30
0.0
 11
5.000000000000056
 21
141.5
 31
0.0
1001
TOP
1070
   256
  0
ARC
  5
1276
330
1160
100
AcDbEntity
  8
0
 62
     0
 48
35.0
100
AcDbCircle
 10
7.000000000000056
 20
141.5
 30
0.0
 40
1.0
100
AcDbArc
 50
90.0
 51
180.0
1001
TOP
1070
     1
  0
ARC
  5
1277
330
1160
100
AcDbEntity
  8
0
 62
     0
100
AcDbCircle
 10
7.000000000000056
 20
141.5
 30
0.0
 40
2.0
100
AcDbArc
 50
90.0
 51
180.0
1001
TOP
1070
   256
  0
MTEXT
  5
1278
330
1160
100
AcDbEntity
  8
0
 62
     0
100
AcDbMText
 10
29.58535811428735
 20
135.6251466847724
 30
0.0
 40
6.0
 41
54.93080742428151
 71
     1
 72
     5
  1
{\fVrinda|b0|i0|c0|p2;BAR CODE\PMontaggio}
 73
     1
 44
1.0
1001
TOP
1070
   256
1001
ACAD
1000
MTEXTBEGIN
1070
    73
1070
     1
1070
    44
1040
1.0
1070
    74
1070
     0
1000
MTEXTEND
  0
ENDBLK
  5
127C
330
1160
100
AcDbEntity
  8
0
 62
     7
100
AcDbBlockEnd
  0
BLOCK
  5
1311
330
1310
100
AcDbEntity
  8
0
 62
     3
100
AcDbBlockBegin
  2
*D1
 70
     1
 10
0.0
 20
0.0
 30
0.0
  3
*D1
  1

  0
LINE
  5
131D
330
1310
100
AcDbEntity
  8
P-55C6
  6
Continuous
 62
     2
370
    -2
100
AcDbLine
 10
414.867926445966
 20
1460.448679823732
 30
0.0
 11
792.5655527309936
 21
1460.448679823732
 31
0.0
  0
LINE
  5
131E
330
1310
100
AcDbEntity
  8
P-55C6
  6
Continuous
 62
     2
370
    -2
100
AcDbLine
 10
414.8679264459662
 20
1760.448679823432
 30
0.0
 11
792.5655527309936
 21
1760.448679823432
 31
0.0
  0
LINE
  5
131F
330
1310
100
AcDbEntity
  8
P-55C6
  6
Continuous
 62
     2
370
    -2
100
AcDbLine
 10
777.5655527309936
 20
1480.448679823732
 30
0.0
 11
777.5655527309936
 21
1740.448679823432
 31
0.0
  0
SOLID
  5
1320
330
1310
100
AcDbEntity
  8
P-55C6
  6
Continuous
 62
     2
100
AcDbTrace
 10
774.2322193976603
 20
1480.448679823732
 30
0.0
 11
780.898886064327
 21
1480.448679823732
 31
0.0
 12
777.5655527309936
 22
1460.448679823732
 32
0.0
 13
777.5655527309936
 23
1460.448679823732
 33
0.0
  0
SOLID
  5
1321
330
1310
100
AcDbEntity
  8
P-55C6
  6
Continuous
 62
     2
100
AcDbTrace
 10
774.2322193976603
 20
1740.448679823432
 30
0.0
 11
780.898886064327
 21
1740.448679823432
 31
0.0
 12
777.5655527309936
 22
1760.448679823432
 32
0.0
 13
777.5655527309936
 23
1760.448679823432
 33
0.0
  0
MTEXT
  5
1322
330
1310
100
AcDbEntity
  8
P-55C6
  6
Continuous
 62
     1
100
AcDbMText
 10
757.3396052091275
 20
1610.448679823582
 30
0.0
 40
20.0
 41
0.0
 71
     5
 72
     1
  1
\A1;30
  7
Stile_Quota
 11
0.0000000000000001
 21
1.0
 31
0.0
 73
     1
 44
1.0
1001
ACAD
1000
MTEXTBEGIN
1070
    73
1070
     1
1070
    44
1040
1.0
1070
    74
1070
     0
1000
MTEXTEND
  0
POINT
  5
1323
330
1310
100
AcDbEntity
  8
Defpoints
  6
Continuous
 62
     0
100
AcDbPoint
 10
404.8679264459661
 20
1460.448679823732
 30
0.0
  0
POINT
  5
1324
330
1310
100
AcDbEntity
  8
Defpoints
  6
Continuous
 62
     0
100
AcDbPoint
 10
404.8679264459662
 20
1760.448679823432
 30
0.0
  0
POINT
  5
1325
330
1310
100
AcDbEntity
  8
Defpoints
  6
Continuous
 62
     0
100
AcDbPoint
 10
777.5655527309936
 20
1760.448679823432
 30
0.0
  0
ENDBLK
  5
1312
330
1310
100
AcDbEntity
  8
0
 62
     3
100
AcDbBlockEnd
  0
BLOCK
  5
1329
330
1328
100
AcDbEntity
  8
0
 62
     3
100
AcDbBlockBegin
  2
*D2
 70
     1
 10
0.0
 20
0.0
 30
0.0
  3
*D2
  1

  0
LINE
  5
1337
330
1328
100
AcDbEntity
  8
P-55C6
  6
Continuous
 62
     2
370
    -2
100
AcDbLine
 10
414.867926445966
 20
1480.448679823712
 30
0.0
 11
732.571125266988
 21
1480.448679823711
 31
0.0
  0
LINE
  5
1338
330
1328
100
AcDbEntity
  8
P-55C6
  6
Continuous
 62
     2
370
    -2
100
AcDbLine
 10
414.867926445966
 20
1460.448679823732
 30
0.0
 11
732.571125266988
 21
1460.448679823732
 31
0.0
  0
LINE
  5
1339
330
1328
100
AcDbEntity
  8
P-55C6
  6
Continuous
 62
     2
370
    -2
100
AcDbLine
 10
717.571125266988
 20
1500.448679823711
 30
0.0
 11
717.571125266988
 21
1520.448679823711
 31
0.0
  0
LINE
  5
133A
330
1328
100
AcDbEntity
  8
P-55C6
  6
Continuous
 62
     2
370
    -2
100
AcDbLine
 10
717.571125266988
 20
1440.448679823732
 30
0.0
 11
717.571125266988
 21
1387.052178366006
 31
0.0
  0
LINE
  5
133B
330
1328
100
AcDbEntity
  8
P-55C6
  6
Continuous
 62
     2
370
    -2
100
AcDbLine
 10
717.571125266988
 20
1480.448679823711
 30
0.0
 11
717.571125266988
 21
1460.448679823732
 31
0.0
  0
SOLID
  5
133C
330
1328
100
AcDbEntity
  8
P-55C6
  6
Continuous
 62
     2
100
AcDbTrace
 10
714.2377919336546
 20
1500.448679823711
 30
0.0
 11
720.9044586003214
 21
1500.448679823711
 31
0.0
 12
717.571125266988
 22
1480.448679823711
 32
0.0
 13
717.571125266988
 23
1480.448679823711
 33
0.0
  0
SOLID
  5
133D
330
1328
100
AcDbEntity
  8
P-55C6
  6
Continuous
 62
     2
100
AcDbTrace
 10
714.2377919336546
 20
1440.448679823732
 30
0.0
 11
720.9044586003214
 21
1440.448679823732
 31
0.0
 12
717.571125266988
 22
1460.448679823732
 32
0.0
 13
717.571125266988
 23
1460.448679823732
 33
0.0
  0
MTEXT
  5
133E
330
1328
100
AcDbEntity
  8
P-55C6
  6
Continuous
 62
     1
100
AcDbMText
 10
697.5711252669878
 20
1403.750429094869
 30
0.0
 40
20.0
 41
0.0
 71
     5
 72
     1
  1
\A1;2
  7
Stile_Quota
 11
0.0000000000000001
 21
1.0
 31
0.0
 73
     1
 44
1.0
1001
ACAD
1000
MTEXTBEGIN
1070
    73
1070
     1
1070
    44
1040
1.0
1070
    74
1070
     0
1000
MTEXTEND
  0
POINT
  5
133F
330
1328
100
AcDbEntity
  8
Defpoints
  6
Continuous
 62
     0
100
AcDbPoint
 10
404.8679264459661
 20
1480.448679823712
 30
0.0
  0
POINT
  5
1340
330
1328
100
AcDbEntity
  8
Defpoints
  6
Continuous
 62
     0
100
AcDbPoint
 10
404.8679264459661
 20
1460.448679823732
 30
0.0
  0
POINT
  5
1341
330
1328
100
AcDbEntity
  8
Defpoints
  6
Continuous
 62
     0
100
AcDbPoint
 10
717.571125266988
 20
1460.448679823732
 30
0.0
  0
ENDBLK
  5
132A
330
1328
100
AcDbEntity
  8
0
 62
     3
100
AcDbBlockEnd
  0
BLOCK
  5
1345
330
1344
100
AcDbEntity
  8
0
 62
     3
100
AcDbBlockBegin
  2
*D3
 70
     1
 10
0.0
 20
0.0
 30
0.0
  3
*D3
  1

  0
LINE
  5
1351
330
1344
100
AcDbEntity
  8
P-55C6
  6
Continuous
 62
     2
370
    -2
100
AcDbLine
 10
414.867926445966
 20
1480.448679823712
 30
0.0
 11
732.571125266988
 21
1480.448679823712
 31
0.0
  0
LINE
  5
1352
330
1344
100
AcDbEntity
  8
P-55C6
  6
Continuous
 62
     2
370
    -2
100
AcDbLine
 10
414.867926445966
 20
1740.448679823454
 30
0.0
 11
732.571125266988
 21
1740.448679823454
 31
0.0
  0
LINE
  5
1353
330
1344
100
AcDbEntity
  8
P-55C6
  6
Continuous
 62
     2
370
    -2
100
AcDbLine
 10
717.571125266988
 20
1500.448679823712
 30
0.0
 11
717.571125266988
 21
1720.448679823453
 31
0.0
  0
SOLID
  5
1354
330
1344
100
AcDbEntity
  8
P-55C6
  6
Continuous
 62
     2
100
AcDbTrace
 10
714.2377919336546
 20
1500.448679823712
 30
0.0
 11
720.9044586003214
 21
1500.448679823712
 31
0.0
 12
717.571125266988
 22
1480.448679823712
 32
0.0
 13
717.571125266988
 23
1480.448679823712
 33
0.0
  0
SOLID
  5
1355
330
1344
100
AcDbEntity
  8
P-55C6
  6
Continuous
 62
     2
100
AcDbTrace
 10
714.2377919336546
 20
1720.448679823453
 30
0.0
 11
720.9044586003214
 21
1720.448679823453
 31
0.0
 12
717.571125266988
 22
1740.448679823454
 32
0.0
 13
717.571125266988
 23
1740.448679823454
 33
0.0
  0
MTEXT
  5
1356
330
1344
100
AcDbEntity
  8
P-55C6
  6
Continuous
 62
     1
100
AcDbMText
 10
697.3451777451218
 20
1610.448679823583
 30
0.0
 40
20.0
 41
0.0
 71
     5
 72
     1
  1
\A1;26
  7
Stile_Quota
 11
0.0000000000000001
 21
1.0
 31
0.0
 73
     1
 44
1.0
1001
ACAD
1000
MTEXTBEGIN
1070
    73
1070
     1
1070
    44
1040
1.0
1070
    74
1070
     0
1000
MTEXTEND
  0
POINT
  5
1357
330
1344
100
AcDbEntity
  8
Defpoints
  6
Continuous
 62
     0
100
AcDbPoint
 10
404.8679264459661
 20
1480.448679823712
 30
0.0
  0
POINT
  5
1358
330
1344
100
AcDbEntity
  8
Defpoints
  6
Continuous
 62
     0
100
AcDbPoint
 10
404.8679264459661
 20
1740.448679823454
 30
0.0
  0
POINT
  5
1359
330
1344
100
AcDbEntity
  8
Defpoints
  6
Continuous
 62
     0
100
AcDbPoint
 10
717.571125266988
 20
1740.448679823454
 30
0.0
  0
ENDBLK
  5
1346
330
1344
100
AcDbEntity
  8
0
 62
     3
100
AcDbBlockEnd
  0
BLOCK
  5
135D
330
135C
100
AcDbEntity
  8
0
 62
     3
100
AcDbBlockBegin
  2
*D4
 70
     1
 10
0.0
 20
0.0
 30
0.0
  3
*D4
  1

  0
LINE
  5
136B
330
135C
100
AcDbEntity
  8
P-55C6
  6
Continuous
 62
     2
370
    -2
100
AcDbLine
 10
414.867926445966
 20
1740.448679823454
 30
0.0
 11
732.571125266988
 21
1740.448679823454
 31
0.0
  0
LINE
  5
136C
330
135C
100
AcDbEntity
  8
P-55C6
  6
Continuous
 62
     2
370
    -2
100
AcDbLine
 10
414.867926445966
 20
1760.448679823432
 30
0.0
 11
732.571125266988
 21
1760.448679823432
 31
0.0
  0
LINE
  5
136D
330
135C
100
AcDbEntity
  8
P-55C6
  6
Continuous
 62
     2
370
    -2
100
AcDbLine
 10
717.571125266988
 20
1720.448679823453
 30
0.0
 11
717.571125266988
 21
1700.448679823454
 31
0.0
  0
LINE
  5
136E
330
135C
100
AcDbEntity
  8
P-55C6
  6
Continuous
 62
     2
370
    -2
100
AcDbLine
 10
717.571125266988
 20
1780.448679823432
 30
0.0
 11
717.5711252669881
 21
1833.845181281158
 31
0.0
  0
LINE
  5
136F
330
135C
100
AcDbEntity
  8
P-55C6
  6
Continuous
 62
     2
370
    -2
100
AcDbLine
 10
717.571125266988
 20
1740.448679823454
 30
0.0
 11
717.571125266988
 21
1760.448679823432
 31
0.0
  0
SOLID
  5
1370
330
135C
100
AcDbEntity
  8
P-55C6
  6
Continuous
 62
     2
100
AcDbTrace
 10
714.2377919336546
 20
1720.448679823453
 30
0.0
 11
720.9044586003214
 21
1720.448679823453
 31
0.0
 12
717.571125266988
 22
1740.448679823454
 32
0.0
 13
717.571125266988
 23
1740.448679823454
 33
0.0
  0
SOLID
  5
1371
330
135C
100
AcDbEntity
  8
P-55C6
  6
Continuous
 62
     2
100
AcDbTrace
 10
714.2377919336546
 20
1780.448679823432
 30
0.0
 11
720.9044586003214
 21
1780.448679823432
 31
0.0
 12
717.571125266988
 22
1760.448679823432
 32
0.0
 13
717.571125266988
 23
1760.448679823432
 33
0.0
  0
MTEXT
  5
1372
330
135C
100
AcDbEntity
  8
P-55C6
  6
Continuous
 62
     1
100
AcDbMText
 10
697.5711252669878
 20
1817.146930552295
 30
0.0
 40
20.0
 41
0.0
 71
     5
 72
     1
  1
\A1;2
  7
Stile_Quota
 11
0.0000000000000001
 21
1.0
 31
0.0
 73
     1
 44
1.0
1001
ACAD
1000
MTEXTBEGIN
1070
    73
1070
     1
1070
    44
1040
1.0
1070
    74
1070
     0
1000
MTEXTEND
  0
POINT
  5
1373
330
135C
100
AcDbEntity
  8
Defpoints
  6
Continuous
 62
     0
100
AcDbPoint
 10
404.8679264459661
 20
1740.448679823454
 30
0.0
  0
POINT
  5
1374
330
135C
100
AcDbEntity
  8
Defpoints
  6
Continuous
 62
     0
100
AcDbPoint
 10
404.8679264459661
 20
1760.448679823432
 30
0.0
  0
POINT
  5
1375
330
135C
100
AcDbEntity
  8
Defpoints
  6
Continuous
 62
     0
100
AcDbPoint
 10
717.571125266988
 20
1760.448679823432
 30
0.0
  0
ENDBLK
  5
135E
330
135C
100
AcDbEntity
  8
0
 62
     3
100
AcDbBlockEnd
  0
BLOCK
  5
1379
330
1378
100
AcDbEntity
  8
0
 62
     3
100
AcDbBlockBegin
  2
*D5
 70
     1
 10
0.0
 20
0.0
 30
0.0
  3
*D5
  1

  0
LINE
  5
1419
330
1378
100
AcDbEntity
  8
P-55C6
  6
Continuous
 62
     2
370
    -2
100
AcDbLine
 10
419.8679264459606
 20
1535.448679823657
 30
0.0
 11
664.5850013853214
 21
1535.448679823657
 31
0.0
  0
LINE
  5
141A
330
1378
100
AcDbEntity
  8
P-55C6
  6
Continuous
 62
     2
370
    -2
100
AcDbLine
 10
414.867926445966
 20
1480.448679823712
 30
0.0
 11
664.5850013853214
 21
1480.448679823712
 31
0.0
  0
LINE
  5
141B
330
1378
100
AcDbEntity
  8
P-55C6
  6
Continuous
 62
     2
370
    -2
100
AcDbLine
 10
649.5850013853214
 20
1555.448679823657
 30
0.0
 11
649.5850013853214
 21
1575.448679823657
 31
0.0
  0
LINE
  5
141C
330
1378
100
AcDbEntity
  8
P-55C6
  6
Continuous
 62
     2
370
    -2
100
AcDbLine
 10
649.5850013853214
 20
1460.448679823712
 30
0.0
 11
649.5850013853214
 21
1383.364131718756
 31
0.0
  0
LINE
  5
141D
330
1378
100
AcDbEntity
  8
P-55C6
  6
Continuous
 62
     2
370
    -2
100
AcDbLine
 10
649.5850013853214
 20
1535.448679823657
 30
0.0
 11
649.5850013853214
 21
1480.448679823712
 31
0.0
  0
SOLID
  5
141E
330
1378
100
AcDbEntity
  8
P-55C6
  6
Continuous
 62
     2
100
AcDbTrace
 10
646.2516680519881
 20
1555.448679823657
 30
0.0
 11
652.9183347186548
 21
1555.448679823657
 31
0.0
 12
649.5850013853214
 22
1535.448679823657
 32
0.0
 13
649.5850013853214
 23
1535.448679823657
 33
0.0
  0
SOLID
  5
141F
330
1378
100
AcDbEntity
  8
P-55C6
  6
Continuous
 62
     2
100
AcDbTrace
 10
646.2516680519881
 20
1460.448679823712
 30
0.0
 11
652.9183347186548
 21
1460.448679823712
 31
0.0
 12
649.5850013853214
 22
1480.448679823712
 32
0.0
 13
649.5850013853214
 23
1480.448679823712
 33
0.0
  0
MTEXT
  5
1420
330
1378
100
AcDbEntity
  8
P-55C6
  6
Continuous
 62
     1
100
AcDbMText
 10
629.3590538634552
 20
1411.906405771234
 30
0.0
 40
20.0
 41
0.0
 71
     5
 72
     1
  1
\A1;5.5
  7
Stile_Quota
 11
0.0000000000000001
 21
1.0
 31
0.0
 73
     1
 44
1.0
1001
ACAD
1000
MTEXTBEGIN
1070
    73
1070
     1
1070
    44
1040
1.0
1070
    74
1070
     0
1000
MTEXTEND
  0
POINT
  5
1421
330
1378
100
AcDbEntity
  8
Defpoints
  6
Continuous
 62
     0
100
AcDbPoint
 10
409.8679264459605
 20
1535.448679823657
 30
0.0
  0
POINT
  5
1422
330
1378
100
AcDbEntity
  8
Defpoints
  6
Continuous
 62
     0
100
AcDbPoint
 10
404.8679264459661
 20
1480.448679823712
 30
0.0
  0
POINT
  5
1423
330
1378
100
AcDbEntity
  8
Defpoints
  6
Continuous
 62
     0
100
AcDbPoint
 10
649.5850013853214
 20
1480.448679823712
 30
0.0
  0
ENDBLK
  5
137A
330
1378
100
AcDbEntity
  8
0
 62
     3
100
AcDbBlockEnd
  0
BLOCK
  5
1395
330
1394
100
AcDbEntity
  8
0
 62
     3
100
AcDbBlockBegin
  2
*D6
 70
     1
 10
0.0
 20
0.0
 30
0.0
  3
*D6
  1

  0
LINE
  5
1424
330
1394
100
AcDbEntity
  8
P-55C6
  6
Continuous
 62
     2
370
    -2
100
AcDbLine
 10
419.8679264459606
 20
1535.448679823657
 30
0.0
 11
664.5850013853214
 21
1535.448679823657
 31
0.0
  0
LINE
  5
1425
330
1394
100
AcDbEntity
  8
P-55C6
  6
Continuous
 62
     2
370
    -2
100
AcDbLine
 10
422.8679264459588
 20
1585.448679823606
 30
0.0
 11
664.5850013853214
 21
1585.448679823606
 31
0.0
  0
LINE
  5
1426
330
1394
100
AcDbEntity
  8
P-55C6
  6
Continuous
 62
     2
370
    -2
100
AcDbLine
 10
649.5850013853214
 20
1515.448679823657
 30
0.0
 11
649.5850013853214
 21
1495.448679823657
 31
0.0
  0
LINE
  5
1427
330
1394
100
AcDbEntity
  8
P-55C6
  6
Continuous
 62
     2
370
    -2
100
AcDbLine
 10
649.5850013853214
 20
1605.448679823606
 30
0.0
 11
649.5850013853214
 21
1625.448679823606
 31
0.0
  0
LINE
  5
1428
330
1394
100
AcDbEntity
  8
P-55C6
  6
Continuous
 62
     2
370
    -2
100
AcDbLine
 10
649.5850013853214
 20
1535.448679823657
 30
0.0
 11
649.5850013853214
 21
1585.448679823606
 31
0.0
  0
SOLID
  5
1429
330
1394
100
AcDbEntity
  8
P-55C6
  6
Continuous
 62
     2
100
AcDbTrace
 10
646.2516680519881
 20
1515.448679823657
 30
0.0
 11
652.9183347186548
 21
1515.448679823657
 31
0.0
 12
649.5850013853214
 22
1535.448679823657
 32
0.0
 13
649.5850013853214
 23
1535.448679823657
 33
0.0
  0
SOLID
  5
142A
330
1394
100
AcDbEntity
  8
P-55C6
  6
Continuous
 62
     2
100
AcDbTrace
 10
646.2516680519881
 20
1605.448679823606
 30
0.0
 11
652.9183347186548
 21
1605.448679823606
 31
0.0
 12
649.5850013853214
 22
1585.448679823606
 32
0.0
 13
649.5850013853214
 23
1585.448679823606
 33
0.0
  0
MTEXT
  5
142B
330
1394
100
AcDbEntity
  8
P-55C6
  6
Continuous
 62
     1
100
AcDbMText
 10
629.3590538634552
 20
1560.448679823632
 30
0.0
 40
20.0
 41
0.0
 71
     5
 72
     1
  1
\A1;5
  7
Stile_Quota
 11
0.0000000000000001
 21
1.0
 31
0.0
 73
     1
 44
1.0
1001
ACAD
1000
MTEXTBEGIN
1070
    73
1070
     1
1070
    44
1040
1.0
1070
    74
1070
     0
1000
MTEXTEND
  0
POINT
  5
142C
330
1394
100
AcDbEntity
  8
Defpoints
  6
Continuous
 62
     0
100
AcDbPoint
 10
409.8679264459605
 20
1535.448679823657
 30
0.0
  0
POINT
  5
142D
330
1394
100
AcDbEntity
  8
Defpoints
  6
Continuous
 62
     0
100
AcDbPoint
 10
412.8679264459588
 20
1585.448679823606
 30
0.0
  0
POINT
  5
142E
330
1394
100
AcDbEntity
  8
Defpoints
  6
Continuous
 62
     0
100
AcDbPoint
 10
649.5850013853214
 20
1585.448679823606
 30
0.0
  0
ENDBLK
  5
1396
330
1394
100
AcDbEntity
  8
0
 62
     3
100
AcDbBlockEnd
  0
BLOCK
  5
13B1
330
13B0
100
AcDbEntity
  8
0
 62
     3
100
AcDbBlockBegin
  2
*D7
 70
     1
 10
0.0
 20
0.0
 30
0.0
  3
*D7
  1

  0
LINE
  5
142F
330
13B0
100
AcDbEntity
  8
P-55C6
  6
Continuous
 62
     2
370
    -2
100
AcDbLine
 10
419.8679264459606
 20
1685.448679823508
 30
0.0
 11
664.5171069841071
 21
1685.448679823508
 31
0.0
  0
LINE
  5
1430
330
13B0
100
AcDbEntity
  8
P-55C6
  6
Continuous
 62
     2
370
    -2
100
AcDbLine
 10
414.867926445966
 20
1740.448679823454
 30
0.0
 11
664.5171069841071
 21
1740.448679823454
 31
0.0
  0
LINE
  5
1431
330
13B0
100
AcDbEntity
  8
P-55C6
  6
Continuous
 62
     2
370
    -2
100
AcDbLine
 10
649.5171069841071
 20
1665.448679823508
 30
0.0
 11
649.5171069841071
 21
1645.448679823508
 31
0.0
  0
LINE
  5
1432
330
13B0
100
AcDbEntity
  8
P-55C6
  6
Continuous
 62
     2
370
    -2
100
AcDbLine
 10
649.5171069841071
 20
1760.448679823454
 30
0.0
 11
649.5171069841072
 21
1837.53322792841
 31
0.0
  0
LINE
  5
1433
330
13B0
100
AcDbEntity
  8
P-55C6
  6
Continuous
 62
     2
370
    -2
100
AcDbLine
 10
649.5171069841071
 20
1685.448679823508
 30
0.0
 11
649.5171069841071
 21
1740.448679823454
 31
0.0
  0
SOLID
  5
1434
330
13B0
100
AcDbEntity
  8
P-55C6
  6
Continuous
 62
     2
100
AcDbTrace
 10
646.1837736507738
 20
1665.448679823508
 30
0.0
 11
652.8504403174405
 21
1665.448679823508
 31
0.0
 12
649.5171069841071
 22
1685.448679823508
 32
0.0
 13
649.5171069841071
 23
1685.448679823508
 33
0.0
  0
SOLID
  5
1435
330
13B0
100
AcDbEntity
  8
P-55C6
  6
Continuous
 62
     2
100
AcDbTrace
 10
646.1837736507738
 20
1760.448679823454
 30
0.0
 11
652.8504403174405
 21
1760.448679823454
 31
0.0
 12
649.5171069841071
 22
1740.448679823454
 32
0.0
 13
649.5171069841071
 23
1740.448679823454
 33
0.0
  0
MTEXT
  5
1436
330
13B0
100
AcDbEntity
  8
P-55C6
  6
Continuous
 62
     1
100
AcDbMText
 10
629.291159462241
 20
1808.990953875932
 30
0.0
 40
20.0
 41
0.0
 71
     5
 72
     1
  1
\A1;5.5
  7
Stile_Quota
 11
0.0000000000000001
 21
1.0
 31
0.0
 73
     1
 44
1.0
1001
ACAD
1000
MTEXTBEGIN
1070
    73
1070
     1
1070
    44
1040
1.0
1070
    74
1070
     0
1000
MTEXTEND
  0
POINT
  5
1437
330
13B0
100
AcDbEntity
  8
Defpoints
  6
Continuous
 62
     0
100
AcDbPoint
 10
409.8679264459605
 20
1685.448679823508
 30
0.0
  0
POINT
  5
1438
330
13B0
100
AcDbEntity
  8
Defpoints
  6
Continuous
 62
     0
100
AcDbPoint
 10
404.8679264459661
 20
1740.448679823454
 30
0.0
  0
POINT
  5
1439
330
13B0
100
AcDbEntity
  8
Defpoints
  6
Continuous
 62
     0
100
AcDbPoint
 10
649.5171069841071
 20
1740.448679823454
 30
0.0
  0
ENDBLK
  5
13B2
330
13B0
100
AcDbEntity
  8
0
 62
     3
100
AcDbBlockEnd
  0
BLOCK
  5
13E5
330
13E4
100
AcDbEntity
  8
0
 62
     7
100
AcDbBlockBegin
  2
*D8
 70
     1
 10
0.0
 20
0.0
 30
0.0
  3
*D8
  1

  0
LINE
  5
143A
330
13E4
100
AcDbEntity
  8
P-55C6
  6
Continuous
 62
     2
370
    -2
100
AcDbLine
 10
419.8679264459606
 20
1585.448679823606
 30
0.0
 11
664.5850013853214
 21
1585.448679823606
 31
0.0
  0
LINE
  5
143B
330
13E4
100
AcDbEntity
  8
P-55C6
  6
Continuous
 62
     2
370
    -2
100
AcDbLine
 10
422.8679264459588
 20
1635.448679823556
 30
0.0
 11
664.5850013853214
 21
1635.448679823555
 31
0.0
  0
LINE
  5
143C
330
13E4
100
AcDbEntity
  8
P-55C6
  6
Continuous
 62
     2
370
    -2
100
AcDbLine
 10
649.5850013853214
 20
1565.448679823606
 30
0.0
 11
649.5850013853214
 21
1545.448679823606
 31
0.0
  0
LINE
  5
143D
330
13E4
100
AcDbEntity
  8
P-55C6
  6
Continuous
 62
     2
370
    -2
100
AcDbLine
 10
649.5850013853214
 20
1655.448679823555
 30
0.0
 11
649.5850013853214
 21
1675.448679823555
 31
0.0
  0
LINE
  5
143E
330
13E4
100
AcDbEntity
  8
P-55C6
  6
Continuous
 62
     2
370
    -2
100
AcDbLine
 10
649.5850013853214
 20
1585.448679823606
 30
0.0
 11
649.5850013853214
 21
1635.448679823555
 31
0.0
  0
SOLID
  5
143F
330
13E4
100
AcDbEntity
  8
P-55C6
  6
Continuous
 62
     2
100
AcDbTrace
 10
646.2516680519881
 20
1565.448679823606
 30
0.0
 11
652.9183347186548
 21
1565.448679823606
 31
0.0
 12
649.5850013853214
 22
1585.448679823606
 32
0.0
 13
649.5850013853214
 23
1585.448679823606
 33
0.0
  0
SOLID
  5
1440
330
13E4
100
AcDbEntity
  8
P-55C6
  6
Continuous
 62
     2
100
AcDbTrace
 10
646.2516680519881
 20
1655.448679823555
 30
0.0
 11
652.9183347186548
 21
1655.448679823555
 31
0.0
 12
649.5850013853214
 22
1635.448679823555
 32
0.0
 13
649.5850013853214
 23
1635.448679823555
 33
0.0
  0
MTEXT
  5
1441
330
13E4
100
AcDbEntity
  8
P-55C6
  6
Continuous
 62
     1
100
AcDbMText
 10
629.3590538634552
 20
1610.448679823581
 30
0.0
 40
20.0
 41
0.0
 71
     5
 72
     1
  1
\A1;5
  7
Stile_Quota
 11
0.0000000000000001
 21
1.0
 31
0.0
 73
     1
 44
1.0
1001
ACAD
1000
MTEXTBEGIN
1070
    73
1070
     1
1070
    44
1040
1.0
1070
    74
1070
     0
1000
MTEXTEND
  0
POINT
  5
1442
330
13E4
100
AcDbEntity
  8
Defpoints
  6
Continuous
 62
     0
100
AcDbPoint
 10
409.8679264459605
 20
1585.448679823606
 30
0.0
  0
POINT
  5
1443
330
13E4
100
AcDbEntity
  8
Defpoints
  6
Continuous
 62
     0
100
AcDbPoint
 10
412.8679264459588
 20
1635.448679823556
 30
0.0
  0
POINT
  5
1444
330
13E4
100
AcDbEntity
  8
Defpoints
  6
Continuous
 62
     0
100
AcDbPoint
 10
649.5850013853214
 20
1635.448679823555
 30
0.0
  0
ENDBLK
  5
13E6
330
13E4
100
AcDbEntity
  8
0
 62
     7
100
AcDbBlockEnd
  0
BLOCK
  5
13F6
330
13F5
100
AcDbEntity
  8
0
 62
     7
100
AcDbBlockBegin
  2
*D9
 70
     1
 10
0.0
 20
0.0
 30
0.0
  3
*D9
  1

  0
LINE
  5
1445
330
13F5
100
AcDbEntity
  8
P-55C6
  6
Continuous
 62
     2
370
    -2
100
AcDbLine
 10
419.8679264459606
 20
1635.448679823557
 30
0.0
 11
664.5850013853214
 21
1635.448679823557
 31
0.0
  0
LINE
  5
1446
330
13F5
100
AcDbEntity
  8
P-55C6
  6
Continuous
 62
     2
370
    -2
100
AcDbLine
 10
422.8679264459588
 20
1685.448679823506
 30
0.0
 11
664.5850013853214
 21
1685.448679823506
 31
0.0
  0
LINE
  5
1447
330
13F5
100
AcDbEntity
  8
P-55C6
  6
Continuous
 62
     2
370
    -2
100
AcDbLine
 10
649.5850013853214
 20
1615.448679823557
 30
0.0
 11
649.5850013853214
 21
1595.448679823557
 31
0.0
  0
LINE
  5
1448
330
13F5
100
AcDbEntity
  8
P-55C6
  6
Continuous
 62
     2
370
    -2
100
AcDbLine
 10
649.5850013853214
 20
1705.448679823506
 30
0.0
 11
649.5850013853214
 21
1725.448679823506
 31
0.0
  0
LINE
  5
1449
330
13F5
100
AcDbEntity
  8
P-55C6
  6
Continuous
 62
     2
370
    -2
100
AcDbLine
 10
649.5850013853214
 20
1635.448679823557
 30
0.0
 11
649.5850013853214
 21
1685.448679823506
 31
0.0
  0
SOLID
  5
144A
330
13F5
100
AcDbEntity
  8
P-55C6
  6
Continuous
 62
     2
100
AcDbTrace
 10
646.2516680519881
 20
1615.448679823557
 30
0.0
 11
652.9183347186548
 21
1615.448679823557
 31
0.0
 12
649.5850013853214
 22
1635.448679823557
 32
0.0
 13
649.5850013853214
 23
1635.448679823557
 33
0.0
  0
SOLID
  5
144B
330
13F5
100
AcDbEntity
  8
P-55C6
  6
Continuous
 62
     2
100
AcDbTrace
 10
646.2516680519881
 20
1705.448679823506
 30
0.0
 11
652.9183347186548
 21
1705.448679823506
 31
0.0
 12
649.5850013853214
 22
1685.448679823506
 32
0.0
 13
649.5850013853214
 23
1685.448679823506
 33
0.0
  0
MTEXT
  5
144C
330
13F5
100
AcDbEntity
  8
P-55C6
  6
Continuous
 62
     1
100
AcDbMText
 10
629.3590538634552
 20
1660.448679823532
 30
0.0
 40
20.0
 41
0.0
 71
     5
 72
     1
  1
\A1;5
  7
Stile_Quota
 11
0.0000000000000001
 21
1.0
 31
0.0
 73
     1
 44
1.0
1001
ACAD
1000
MTEXTBEGIN
1070
    73
1070
     1
1070
    44
1040
1.0
1070
    74
1070
     0
1000
MTEXTEND
  0
POINT
  5
144D
330
13F5
100
AcDbEntity
  8
Defpoints
  6
Continuous
 62
     0
100
AcDbPoint
 10
409.8679264459605
 20
1635.448679823557
 30
0.0
  0
POINT
  5
144E
330
13F5
100
AcDbEntity
  8
Defpoints
  6
Continuous
 62
     0
100
AcDbPoint
 10
412.8679264459588
 20
1685.448679823506
 30
0.0
  0
POINT
  5
144F
330
13F5
100
AcDbEntity
  8
Defpoints
  6
Continuous
 62
     0
100
AcDbPoint
 10
649.5850013853214
 20
1685.448679823506
 30
0.0
  0
ENDBLK
  5
13F7
330
13F5
100
AcDbEntity
  8
0
 62
     7
100
AcDbBlockEnd
  0
BLOCK
  5
1452
330
1451
100
AcDbEntity
  8
0
 62
     3
100
AcDbBlockBegin
  2
*D10
 70
     1
 10
0.0
 20
0.0
 30
0.0
  3
*D10
  1

  0
LINE
  5
145E
330
1451
100
AcDbEntity
  8
P-55C6
  6
Continuous
 62
     2
370
    -2
100
AcDbLine
 10
129.8679264460897
 20
1455.448679823732
 30
0.0
 11
129.8679264460897
 21
1172.271418970495
 31
0.0
  0
LINE
  5
145F
330
1451
100
AcDbEntity
  8
P-55C6
  6
Continuous
 62
     2
370
    -2
100
AcDbLine
 10
429.867926445941
 20
1475.448679823706
 30
0.0
 11
429.867926445941
 21
1172.271418970495
 31
0.0
  0
LINE
  5
1460
330
1451
100
AcDbEntity
  8
P-55C6
  6
Continuous
 62
     2
370
    -2
100
AcDbLine
 10
149.8679264460897
 20
1187.271418970496
 30
0.0
 11
409.867926445941
 21
1187.271418970496
 31
0.0
  0
SOLID
  5
1461
330
1451
100
AcDbEntity
  8
P-55C6
  6
Continuous
 62
     2
100
AcDbTrace
 10
149.8679264460897
 20
1190.604752303829
 30
0.0
 11
149.8679264460897
 21
1183.938085637162
 31
0.0
 12
129.8679264460897
 22
1187.271418970496
 32
0.0
 13
129.8679264460897
 23
1187.271418970496
 33
0.0
  0
SOLID
  5
1462
330
1451
100
AcDbEntity
  8
P-55C6
  6
Continuous
 62
     2
100
AcDbTrace
 10
409.867926445941
 20
1190.604752303829
 30
0.0
 11
409.867926445941
 21
1183.938085637162
 31
0.0
 12
429.867926445941
 22
1187.271418970496
 32
0.0
 13
429.867926445941
 23
1187.271418970496
 33
0.0
  0
MTEXT
  5
1463
330
1451
100
AcDbEntity
  8
P-55C6
  6
Continuous
 62
     1
100
AcDbMText
 10
279.8679264460154
 20
1207.497366492362
 30
0.0
 40
20.0
 41
0.0
 71
     5
 72
     1
  1
\A1;30
  7
Stile_Quota
 73
     1
 44
1.0
1001
ACAD
1000
MTEXTBEGIN
1070
    73
1070
     1
1070
    44
1040
1.0
1070
    74
1070
     0
1000
MTEXTEND
  0
POINT
  5
1464
330
1451
100
AcDbEntity
  8
Defpoints
  6
Continuous
 62
     0
100
AcDbPoint
 10
129.8679264460897
 20
1465.448679823732
 30
0.0
  0
POINT
  5
1465
330
1451
100
AcDbEntity
  8
Defpoints
  6
Continuous
 62
     0
100
AcDbPoint
 10
429.867926445941
 20
1485.448679823706
 30
0.0
  0
POINT
  5
1466
330
1451
100
AcDbEntity
  8
Defpoints
  6
Continuous
 62
     0
100
AcDbPoint
 10
429.867926445941
 20
1187.271418970496
 30
0.0
  0
ENDBLK
  5
1453
330
1451
100
AcDbEntity
  8
0
 62
     3
100
AcDbBlockEnd
  0
BLOCK
  5
146A
330
1469
100
AcDbEntity
  8
0
 62
     3
100
AcDbBlockBegin
  2
*D11
 70
     1
 10
0.0
 20
0.0
 30
0.0
  3
*D11
  1

  0
LINE
  5
1476
330
1469
100
AcDbEntity
  8
P-55C6
  6
Continuous
 62
     2
370
    -2
100
AcDbLine
 10
129.8679264460897
 20
1455.448679823732
 30
0.0
 11
129.8679264460897
 21
1172.271418970495
 31
0.0
  0
LINE
  5
1477
330
1469
100
AcDbEntity
  8
P-55C6
  6
Continuous
 62
     2
370
    -2
100
AcDbLine
 10
-170.1320735537597
 20
1475.448679823706
 30
0.0
 11
-170.1320735537597
 21
1172.271418970495
 31
0.0
  0
LINE
  5
1478
330
1469
100
AcDbEntity
  8
P-55C6
  6
Continuous
 62
     2
370
    -2
100
AcDbLine
 10
109.8679264460897
 20
1187.271418970496
 30
0.0
 11
-150.1320735537597
 21
1187.271418970496
 31
0.0
  0
SOLID
  5
1479
330
1469
100
AcDbEntity
  8
P-55C6
  6
Continuous
 62
     2
100
AcDbTrace
 10
109.8679264460897
 20
1190.604752303829
 30
0.0
 11
109.8679264460897
 21
1183.938085637162
 31
0.0
 12
129.8679264460897
 22
1187.271418970496
 32
0.0
 13
129.8679264460897
 23
1187.271418970496
 33
0.0
  0
SOLID
  5
147A
330
1469
100
AcDbEntity
  8
P-55C6
  6
Continuous
 62
     2
100
AcDbTrace
 10
-150.1320735537597
 20
1190.604752303829
 30
0.0
 11
-150.1320735537597
 21
1183.938085637162
 31
0.0
 12
-170.1320735537597
 22
1187.271418970496
 32
0.0
 13
-170.1320735537597
 23
1187.271418970496
 33
0.0
  0
MTEXT
  5
147B
330
1469
100
AcDbEntity
  8
P-55C6
  6
Continuous
 62
     1
100
AcDbMText
 10
-20.132073553835
 20
1207.497366492362
 30
0.0
 40
20.0
 41
0.0
 71
     5
 72
     1
  1
\A1;30
  7
Stile_Quota
 73
     1
 44
1.0
1001
ACAD
1000
MTEXTBEGIN
1070
    73
1070
     1
1070
    44
1040
1.0
1070
    74
1070
     0
1000
MTEXTEND
  0
POINT
  5
147C
330
1469
100
AcDbEntity
  8
Defpoints
  6
Continuous
 62
     0
100
AcDbPoint
 10
129.8679264460897
 20
1465.448679823732
 30
0.0
  0
POINT
  5
147D
330
1469
100
AcDbEntity
  8
Defpoints
  6
Continuous
 62
     0
100
AcDbPoint
 10
-170.1320735537597
 20
1485.448679823706
 30
0.0
  0
POINT
  5
147E
330
1469
100
AcDbEntity
  8
Defpoints
  6
Continuous
 62
     0
100
AcDbPoint
 10
-170.1320735537597
 20
1187.271418970496
 30
0.0
  0
ENDBLK
  5
146B
330
1469
100
AcDbEntity
  8
0
 62
     3
100
AcDbBlockEnd
  0
BLOCK
  5
1482
330
1481
100
AcDbEntity
  8
0
 62
     3
100
AcDbBlockBegin
  2
*D12
 70
     1
 10
0.0
 20
0.0
 30
0.0
  3
*D12
  1

  0
LINE
  5
148E
330
1481
100
AcDbEntity
  8
P-55C6
  6
Continuous
 62
     2
370
    -2
100
AcDbLine
 10
109.8679264461098
 20
1527.44867982363
 30
0.0
 11
109.8679264461097
 21
1229.530830505985
 31
0.0
  0
LINE
  5
148F
330
1481
100
AcDbEntity
  8
P-55C6
  6
Continuous
 62
     2
370
    -2
100
AcDbLine
 10
-150.1320735537829
 20
1475.448679823706
 30
0.0
 11
-150.1320735537829
 21
1229.530830505985
 31
0.0
  0
LINE
  5
1490
330
1481
100
AcDbEntity
  8
P-55C6
  6
Continuous
 62
     2
370
    -2
100
AcDbLine
 10
89.86792644610977
 20
1244.530830505985
 30
0.0
 11
-130.1320735537829
 21
1244.530830505985
 31
0.0
  0
SOLID
  5
1491
330
1481
100
AcDbEntity
  8
P-55C6
  6
Continuous
 62
     2
100
AcDbTrace
 10
89.86792644610977
 20
1247.864163839318
 30
0.0
 11
89.86792644610977
 21
1241.197497172652
 31
0.0
 12
109.8679264461097
 22
1244.530830505985
 32
0.0
 13
109.8679264461097
 23
1244.530830505985
 33
0.0
  0
SOLID
  5
1492
330
1481
100
AcDbEntity
  8
P-55C6
  6
Continuous
 62
     2
100
AcDbTrace
 10
-130.1320735537829
 20
1247.864163839318
 30
0.0
 11
-130.1320735537829
 21
1241.197497172652
 31
0.0
 12
-150.1320735537829
 22
1244.530830505985
 32
0.0
 13
-150.1320735537829
 23
1244.530830505985
 33
0.0
  0
MTEXT
  5
1493
330
1481
100
AcDbEntity
  8
P-55C6
  6
Continuous
 62
     1
100
AcDbMText
 10
-20.13207355383658
 20
1264.756778027851
 30
0.0
 40
20.0
 41
0.0
 71
     5
 72
     1
  1
\A1;26
  7
Stile_Quota
 73
     1
 44
1.0
1001
ACAD
1000
MTEXTBEGIN
1070
    73
1070
     1
1070
    44
1040
1.0
1070
    74
1070
     0
1000
MTEXTEND
  0
POINT
  5
1494
330
1481
100
AcDbEntity
  8
Defpoints
  6
Continuous
 62
     0
100
AcDbPoint
 10
109.8679264461098
 20
1537.44867982363
 30
0.0
  0
POINT
  5
1495
330
1481
100
AcDbEntity
  8
Defpoints
  6
Continuous
 62
     0
100
AcDbPoint
 10
-150.1320735537829
 20
1485.448679823706
 30
0.0
  0
POINT
  5
1496
330
1481
100
AcDbEntity
  8
Defpoints
  6
Continuous
 62
     0
100
AcDbPoint
 10
-150.1320735537829
 20
1244.530830505985
 30
0.0
  0
ENDBLK
  5
1483
330
1481
100
AcDbEntity
  8
0
 62
     3
100
AcDbBlockEnd
  0
BLOCK
  5
149A
330
1499
100
AcDbEntity
  8
0
 62
     3
100
AcDbBlockBegin
  2
*D13
 70
     1
 10
0.0
 20
0.0
 30
0.0
  3
*D13
  1

  0
LINE
  5
14A8
330
1499
100
AcDbEntity
  8
P-55C6
  6
Continuous
 62
     2
370
    -2
100
AcDbLine
 10
-150.1320735537829
 20
1475.448679823706
 30
0.0
 11
-150.1320735537829
 21
1229.530830505985
 31
0.0
  0
LINE
  5
14A9
330
1499
100
AcDbEntity
  8
P-55C6
  6
Continuous
 62
     2
370
    -2
100
AcDbLine
 10
-170.1320735537592
 20
1475.448679823706
 30
0.0
 11
-170.1320735537592
 21
1229.530830505985
 31
0.0
  0
LINE
  5
14AA
330
1499
100
AcDbEntity
  8
P-55C6
  6
Continuous
 62
     2
370
    -2
100
AcDbLine
 10
-130.1320735537829
 20
1244.530830505985
 30
0.0
 11
-110.1320735537829
 21
1244.530830505985
 31
0.0
  0
LINE
  5
14AB
330
1499
100
AcDbEntity
  8
P-55C6
  6
Continuous
 62
     2
370
    -2
100
AcDbLine
 10
-190.1320735537593
 20
1244.530830505985
 30
0.0
 11
-243.5285750114852
 21
1244.530830505985
 31
0.0
  0
LINE
  5
14AC
330
1499
100
AcDbEntity
  8
P-55C6
  6
Continuous
 62
     2
370
    -2
100
AcDbLine
 10
-150.1320735537829
 20
1244.530830505985
 30
0.0
 11
-170.1320735537592
 21
1244.530830505985
 31
0.0
  0
SOLID
  5
14AD
330
1499
100
AcDbEntity
  8
P-55C6
  6
Continuous
 62
     2
100
AcDbTrace
 10
-130.1320735537829
 20
1247.864163839318
 30
0.0
 11
-130.1320735537829
 21
1241.197497172652
 31
0.0
 12
-150.1320735537829
 22
1244.530830505985
 32
0.0
 13
-150.1320735537829
 23
1244.530830505985
 33
0.0
  0
SOLID
  5
14AE
330
1499
100
AcDbEntity
  8
P-55C6
  6
Continuous
 62
     2
100
AcDbTrace
 10
-190.1320735537593
 20
1247.864163839318
 30
0.0
 11
-190.1320735537593
 21
1241.197497172652
 31
0.0
 12
-170.1320735537592
 22
1244.530830505985
 32
0.0
 13
-170.1320735537592
 23
1244.530830505985
 33
0.0
  0
MTEXT
  5
14AF
330
1499
100
AcDbEntity
  8
P-55C6
  6
Continuous
 62
     1
100
AcDbMText
 10
-226.8303242826223
 20
1264.530830505985
 30
0.0
 40
20.0
 41
0.0
 71
     5
 72
     1
  1
\A1;2
  7
Stile_Quota
 73
     1
 44
1.0
1001
ACAD
1000
MTEXTBEGIN
1070
    73
1070
     1
1070
    44
1040
1.0
1070
    74
1070
     0
1000
MTEXTEND
  0
POINT
  5
14B0
330
1499
100
AcDbEntity
  8
Defpoints
  6
Continuous
 62
     0
100
AcDbPoint
 10
-150.1320735537829
 20
1485.448679823706
 30
0.0
  0
POINT
  5
14B1
330
1499
100
AcDbEntity
  8
Defpoints
  6
Continuous
 62
     0
100
AcDbPoint
 10
-170.1320735537592
 20
1485.448679823706
 30
0.0
  0
POINT
  5
14B2
330
1499
100
AcDbEntity
  8
Defpoints
  6
Continuous
 62
     0
100
AcDbPoint
 10
-170.1320735537592
 20
1244.530830505985
 30
0.0
  0
ENDBLK
  5
149B
330
1499
100
AcDbEntity
  8
0
 62
     3
100
AcDbBlockEnd
  0
BLOCK
  5
14B6
330
14B5
100
AcDbEntity
  8
0
 62
     3
100
AcDbBlockBegin
  2
*D14
 70
     1
 10
0.0
 20
0.0
 30
0.0
  3
*D14
  1

  0
LINE
  5
170D
330
14B5
100
AcDbEntity
  8
P-55C6
  6
Continuous
 62
     2
370
    -2
100
AcDbLine
 10
109.8679264461098
 20
1527.44867982363
 30
0.0
 11
109.8679264461097
 21
1229.530830505985
 31
0.0
  0
LINE
  5
170E
330
14B5
100
AcDbEntity
  8
P-55C6
  6
Continuous
 62
     2
370
    -2
100
AcDbLine
 10
149.8679264460697
 20
1527.448679823632
 30
0.0
 11
149.8679264460697
 21
1229.530830505985
 31
0.0
  0
LINE
  5
170F
330
14B5
100
AcDbEntity
  8
P-55C6
  6
Continuous
 62
     2
370
    -2
100
AcDbLine
 10
89.86792644610977
 20
1244.530830505985
 30
0.0
 11
69.86792644610976
 21
1244.530830505985
 31
0.0
  0
LINE
  5
1710
330
14B5
100
AcDbEntity
  8
P-55C6
  6
Continuous
 62
     2
370
    -2
100
AcDbLine
 10
169.8679264460697
 20
1244.530830505985
 30
0.0
 11
189.8679264460697
 21
1244.530830505985
 31
0.0
  0
LINE
  5
1711
330
14B5
100
AcDbEntity
  8
P-55C6
  6
Continuous
 62
     2
370
    -2
100
AcDbLine
 10
109.8679264461097
 20
1244.530830505985
 30
0.0
 11
149.8679264460697
 21
1244.530830505985
 31
0.0
  0
SOLID
  5
1712
330
14B5
100
AcDbEntity
  8
P-55C6
  6
Continuous
 62
     2
100
AcDbTrace
 10
89.86792644610977
 20
1247.864163839318
 30
0.0
 11
89.86792644610977
 21
1241.197497172652
 31
0.0
 12
109.8679264461097
 22
1244.530830505985
 32
0.0
 13
109.8679264461097
 23
1244.530830505985
 33
0.0
  0
SOLID
  5
1713
330
14B5
100
AcDbEntity
  8
P-55C6
  6
Continuous
 62
     2
100
AcDbTrace
 10
169.8679264460697
 20
1247.864163839318
 30
0.0
 11
169.8679264460697
 21
1241.197497172652
 31
0.0
 12
149.8679264460697
 22
1244.530830505985
 32
0.0
 13
149.8679264460697
 23
1244.530830505985
 33
0.0
  0
MTEXT
  5
1714
330
14B5
100
AcDbEntity
  8
P-55C6
  6
Continuous
 62
     1
100
AcDbMText
 10
129.8679264460897
 20
1264.530830505985
 30
0.0
 40
20.0
 41
0.0
 71
     5
 72
     1
  1
\A1;4
  7
Stile_Quota
 73
     1
 44
1.0
1001
ACAD
1000
MTEXTBEGIN
1070
    73
1070
     1
1070
    44
1040
1.0
1070
    74
1070
     0
1000
MTEXTEND
  0
POINT
  5
1715
330
14B5
100
AcDbEntity
  8
Defpoints
  6
Continuous
 62
     0
100
AcDbPoint
 10
109.8679264461098
 20
1537.44867982363
 30
0.0
  0
POINT
  5
1716
330
14B5
100
AcDbEntity
  8
Defpoints
  6
Continuous
 62
     0
100
AcDbPoint
 10
149.8679264460697
 20
1537.448679823632
 30
0.0
  0
POINT
  5
1717
330
14B5
100
AcDbEntity
  8
Defpoints
  6
Continuous
 62
     0
100
AcDbPoint
 10
149.8679264460697
 20
1244.530830505985
 30
0.0
  0
ENDBLK
  5
14B7
330
14B5
100
AcDbEntity
  8
0
 62
     3
100
AcDbBlockEnd
  0
BLOCK
  5
14D2
330
14D1
100
AcDbEntity
  8
0
 62
     3
100
AcDbBlockBegin
  2
*D15
 70
     1
 10
0.0
 20
0.0
 30
0.0
  3
*D15
  1

  0
LINE
  5
1504
330
14D1
100
AcDbEntity
  8
P-55C6
  6
Continuous
 62
     2
370
    -2
100
AcDbLine
 10
149.8679264460697
 20
1527.448679823632
 30
0.0
 11
149.8679264460697
 21
1229.530830505985
 31
0.0
  0
LINE
  5
1505
330
14D1
100
AcDbEntity
  8
P-55C6
  6
Continuous
 62
     2
370
    -2
100
AcDbLine
 10
409.8679264459605
 20
1475.448679823706
 30
0.0
 11
409.8679264459605
 21
1229.530830505985
 31
0.0
  0
LINE
  5
1506
330
14D1
100
AcDbEntity
  8
P-55C6
  6
Continuous
 62
     2
370
    -2
100
AcDbLine
 10
169.8679264460697
 20
1244.530830505985
 30
0.0
 11
389.8679264459606
 21
1244.530830505985
 31
0.0
  0
SOLID
  5
1507
330
14D1
100
AcDbEntity
  8
P-55C6
  6
Continuous
 62
     2
100
AcDbTrace
 10
169.8679264460697
 20
1247.864163839318
 30
0.0
 11
169.8679264460697
 21
1241.197497172652
 31
0.0
 12
149.8679264460697
 22
1244.530830505985
 32
0.0
 13
149.8679264460697
 23
1244.530830505985
 33
0.0
  0
SOLID
  5
1508
330
14D1
100
AcDbEntity
  8
P-55C6
  6
Continuous
 62
     2
100
AcDbTrace
 10
389.8679264459606
 20
1247.864163839318
 30
0.0
 11
389.8679264459606
 21
1241.197497172652
 31
0.0
 12
409.8679264459605
 22
1244.530830505985
 32
0.0
 13
409.8679264459605
 23
1244.530830505985
 33
0.0
  0
MTEXT
  5
1509
330
14D1
100
AcDbEntity
  8
P-55C6
  6
Continuous
 62
     1
100
AcDbMText
 10
279.8679264460152
 20
1264.756778027851
 30
0.0
 40
20.0
 41
0.0
 71
     5
 72
     1
  1
\A1;26
  7
Stile_Quota
 73
     1
 44
1.0
1001
ACAD
1000
MTEXTBEGIN
1070
    73
1070
     1
1070
    44
1040
1.0
1070
    74
1070
     0
1000
MTEXTEND
  0
POINT
  5
150A
330
14D1
100
AcDbEntity
  8
Defpoints
  6
Continuous
 62
     0
100
AcDbPoint
 10
149.8679264460697
 20
1537.448679823632
 30
0.0
  0
POINT
  5
150B
330
14D1
100
AcDbEntity
  8
Defpoints
  6
Continuous
 62
     0
100
AcDbPoint
 10
409.8679264459605
 20
1485.448679823706
 30
0.0
  0
POINT
  5
150C
330
14D1
100
AcDbEntity
  8
Defpoints
  6
Continuous
 62
     0
100
AcDbPoint
 10
409.8679264459605
 20
1244.530830505985
 30
0.0
  0
ENDBLK
  5
14D3
330
14D1
100
AcDbEntity
  8
0
 62
     3
100
AcDbBlockEnd
  0
BLOCK
  5
14EA
330
14E9
100
AcDbEntity
  8
0
 62
     3
100
AcDbBlockBegin
  2
*D16
 70
     1
 10
0.0
 20
0.0
 30
0.0
  3
*D16
  1

  0
LINE
  5
14F8
330
14E9
100
AcDbEntity
  8
P-55C6
  6
Continuous
 62
     2
370
    -2
100
AcDbLine
 10
409.8679264459605
 20
1475.448679823706
 30
0.0
 11
409.8679264459605
 21
1229.530830505985
 31
0.0
  0
LINE
  5
14F9
330
14E9
100
AcDbEntity
  8
P-55C6
  6
Continuous
 62
     2
370
    -2
100
AcDbLine
 10
429.8679264459406
 20
1475.448679823706
 30
0.0
 11
429.8679264459406
 21
1229.530830505985
 31
0.0
  0
LINE
  5
14FA
330
14E9
100
AcDbEntity
  8
P-55C6
  6
Continuous
 62
     2
370
    -2
100
AcDbLine
 10
389.8679264459606
 20
1244.530830505985
 30
0.0
 11
369.8679264459606
 21
1244.530830505985
 31
0.0
  0
LINE
  5
14FB
330
14E9
100
AcDbEntity
  8
P-55C6
  6
Continuous
 62
     2
370
    -2
100
AcDbLine
 10
449.8679264459406
 20
1244.530830505985
 30
0.0
 11
503.2644279036666
 21
1244.530830505985
 31
0.0
  0
LINE
  5
14FC
330
14E9
100
AcDbEntity
  8
P-55C6
  6
Continuous
 62
     2
370
    -2
100
AcDbLine
 10
409.8679264459605
 20
1244.530830505985
 30
0.0
 11
429.8679264459406
 21
1244.530830505985
 31
0.0
  0
SOLID
  5
14FD
330
14E9
100
AcDbEntity
  8
P-55C6
  6
Continuous
 62
     2
100
AcDbTrace
 10
389.8679264459606
 20
1247.864163839318
 30
0.0
 11
389.8679264459606
 21
1241.197497172652
 31
0.0
 12
409.8679264459605
 22
1244.530830505985
 32
0.0
 13
409.8679264459605
 23
1244.530830505985
 33
0.0
  0
SOLID
  5
14FE
330
14E9
100
AcDbEntity
  8
P-55C6
  6
Continuous
 62
     2
100
AcDbTrace
 10
449.8679264459406
 20
1247.864163839318
 30
0.0
 11
449.8679264459406
 21
1241.197497172652
 31
0.0
 12
429.8679264459406
 22
1244.530830505985
 32
0.0
 13
429.8679264459406
 23
1244.530830505985
 33
0.0
  0
MTEXT
  5
14FF
330
14E9
100
AcDbEntity
  8
P-55C6
  6
Continuous
 62
     1
100
AcDbMText
 10
486.5661771748035
 20
1264.530830505985
 30
0.0
 40
20.0
 41
0.0
 71
     5
 72
     1
  1
\A1;2
  7
Stile_Quota
 73
     1
 44
1.0
1001
ACAD
1000
MTEXTBEGIN
1070
    73
1070
     1
1070
    44
1040
1.0
1070
    74
1070
     0
1000
MTEXTEND
  0
POINT
  5
1500
330
14E9
100
AcDbEntity
  8
Defpoints
  6
Continuous
 62
     0
100
AcDbPoint
 10
409.8679264459605
 20
1485.448679823706
 30
0.0
  0
POINT
  5
1501
330
14E9
100
AcDbEntity
  8
Defpoints
  6
Continuous
 62
     0
100
AcDbPoint
 10
429.8679264459406
 20
1485.448679823706
 30
0.0
  0
POINT
  5
1502
330
14E9
100
AcDbEntity
  8
Defpoints
  6
Continuous
 62
     0
100
AcDbPoint
 10
429.8679264459406
 20
1244.530830505985
 30
0.0
  0
ENDBLK
  5
14EB
330
14E9
100
AcDbEntity
  8
0
 62
     3
100
AcDbBlockEnd
  0
BLOCK
  5
150F
330
150E
100
AcDbEntity
  8
0
 62
     3
100
AcDbBlockBegin
  2
*D17
 70
     1
 10
0.0
 20
0.0
 30
0.0
  3
*D17
  1

  0
LINE
  5
151B
330
150E
100
AcDbEntity
  8
P-55C6
  6
Continuous
 62
     2
370
    -2
100
AcDbLine
 10
429.867926445941
 20
1745.448679823457
 30
0.0
 11
429.867926445941
 21
2121.284585655322
 31
0.0
  0
LINE
  5
151C
330
150E
100
AcDbEntity
  8
P-55C6
  6
Continuous
 62
     2
370
    -2
100
AcDbLine
 10
-170.1320735537597
 20
1745.448679823457
 30
0.0
 11
-170.1320735537596
 21
2121.284585655322
 31
0.0
  0
LINE
  5
151D
330
150E
100
AcDbEntity
  8
P-55C6
  6
Continuous
 62
     2
370
    -2
100
AcDbLine
 10
409.867926445941
 20
2106.284585655322
 30
0.0
 11
-150.1320735537596
 21
2106.284585655322
 31
0.0
  0
SOLID
  5
151E
330
150E
100
AcDbEntity
  8
P-55C6
  6
Continuous
 62
     2
100
AcDbTrace
 10
409.867926445941
 20
2109.617918988655
 30
0.0
 11
409.867926445941
 21
2102.951252321989
 31
0.0
 12
429.867926445941
 22
2106.284585655322
 32
0.0
 13
429.867926445941
 23
2106.284585655322
 33
0.0
  0
SOLID
  5
151F
330
150E
100
AcDbEntity
  8
P-55C6
  6
Continuous
 62
     2
100
AcDbTrace
 10
-150.1320735537596
 20
2109.617918988655
 30
0.0
 11
-150.1320735537596
 21
2102.951252321989
 31
0.0
 12
-170.1320735537596
 22
2106.284585655322
 32
0.0
 13
-170.1320735537596
 23
2106.284585655322
 33
0.0
  0
MTEXT
  5
1520
330
150E
100
AcDbEntity
  8
P-55C6
  6
Continuous
 62
     1
100
AcDbMText
 10
129.8679264460907
 20
2126.510533177188
 30
0.0
 40
20.0
 41
0.0
 71
     5
 72
     1
  1
\A1;60
  7
Stile_Quota
 73
     1
 44
1.0
1001
ACAD
1000
MTEXTBEGIN
1070
    73
1070
     1
1070
    44
1040
1.0
1070
    74
1070
     0
1000
MTEXTEND
  0
POINT
  5
1521
330
150E
100
AcDbEntity
  8
Defpoints
  6
Continuous
 62
     0
100
AcDbPoint
 10
429.867926445941
 20
1735.448679823457
 30
0.0
  0
POINT
  5
1522
330
150E
100
AcDbEntity
  8
Defpoints
  6
Continuous
 62
     0
100
AcDbPoint
 10
-170.1320735537597
 20
1735.448679823457
 30
0.0
  0
POINT
  5
1523
330
150E
100
AcDbEntity
  8
Defpoints
  6
Continuous
 62
     0
100
AcDbPoint
 10
-170.1320735537596
 20
2106.284585655322
 30
0.0
  0
ENDBLK
  5
1510
330
150E
100
AcDbEntity
  8
0
 62
     3
100
AcDbBlockEnd
  0
BLOCK
  5
1527
330
1526
100
AcDbEntity
  8
0
 62
     3
100
AcDbBlockBegin
  2
*D18
 70
     1
 10
0.0
 20
0.0
 30
0.0
  3
*D18
  1

  0
LINE
  5
1535
330
1526
100
AcDbEntity
  8
P-55C6
  6
Continuous
 62
     2
370
    -2
100
AcDbLine
 10
-150.1320735537829
 20
1745.448679823459
 30
0.0
 11
-150.1320735537829
 21
2050.792258511498
 31
0.0
  0
LINE
  5
1536
330
1526
100
AcDbEntity
  8
P-55C6
  6
Continuous
 62
     2
370
    -2
100
AcDbLine
 10
-170.1320735537592
 20
1745.448679823457
 30
0.0
 11
-170.1320735537592
 21
2050.792258511498
 31
0.0
  0
LINE
  5
1537
330
1526
100
AcDbEntity
  8
P-55C6
  6
Continuous
 62
     2
370
    -2
100
AcDbLine
 10
-130.1320735537828
 20
2035.792258511499
 30
0.0
 11
-110.1320735537828
 21
2035.792258511499
 31
0.0
  0
LINE
  5
1538
330
1526
100
AcDbEntity
  8
P-55C6
  6
Continuous
 62
     2
370
    -2
100
AcDbLine
 10
-190.1320735537592
 20
2035.792258511499
 30
0.0
 11
-243.5285750114852
 21
2035.792258511499
 31
0.0
  0
LINE
  5
1539
330
1526
100
AcDbEntity
  8
P-55C6
  6
Continuous
 62
     2
370
    -2
100
AcDbLine
 10
-150.1320735537829
 20
2035.792258511499
 30
0.0
 11
-170.1320735537592
 21
2035.792258511499
 31
0.0
  0
SOLID
  5
153A
330
1526
100
AcDbEntity
  8
P-55C6
  6
Continuous
 62
     2
100
AcDbTrace
 10
-130.1320735537828
 20
2039.125591844832
 30
0.0
 11
-130.1320735537828
 21
2032.458925178165
 31
0.0
 12
-150.1320735537829
 22
2035.792258511499
 32
0.0
 13
-150.1320735537829
 23
2035.792258511499
 33
0.0
  0
SOLID
  5
153B
330
1526
100
AcDbEntity
  8
P-55C6
  6
Continuous
 62
     2
100
AcDbTrace
 10
-190.1320735537592
 20
2039.125591844832
 30
0.0
 11
-190.1320735537592
 21
2032.458925178165
 31
0.0
 12
-170.1320735537592
 22
2035.792258511499
 32
0.0
 13
-170.1320735537592
 23
2035.792258511499
 33
0.0
  0
MTEXT
  5
153C
330
1526
100
AcDbEntity
  8
P-55C6
  6
Continuous
 62
     1
100
AcDbMText
 10
-226.8303242826222
 20
2055.792258511498
 30
0.0
 40
20.0
 41
0.0
 71
     5
 72
     1
  1
\A1;2
  7
Stile_Quota
 73
     1
 44
1.0
1001
ACAD
1000
MTEXTBEGIN
1070
    73
1070
     1
1070
    44
1040
1.0
1070
    74
1070
     0
1000
MTEXTEND
  0
POINT
  5
153D
330
1526
100
AcDbEntity
  8
Defpoints
  6
Continuous
 62
     0
100
AcDbPoint
 10
-150.1320735537829
 20
1735.448679823459
 30
0.0
  0
POINT
  5
153E
330
1526
100
AcDbEntity
  8
Defpoints
  6
Continuous
 62
     0
100
AcDbPoint
 10
-170.1320735537592
 20
1735.448679823457
 30
0.0
  0
POINT
  5
153F
330
1526
100
AcDbEntity
  8
Defpoints
  6
Continuous
 62
     0
100
AcDbPoint
 10
-170.1320735537592
 20
2035.792258511499
 30
0.0
  0
ENDBLK
  5
1528
330
1526
100
AcDbEntity
  8
0
 62
     3
100
AcDbBlockEnd
  0
BLOCK
  5
1543
330
1542
100
AcDbEntity
  8
0
 62
     3
100
AcDbBlockBegin
  2
*D19
 70
     1
 10
0.0
 20
0.0
 30
0.0
  3
*D19
  1

  0
LINE
  5
154F
330
1542
100
AcDbEntity
  8
P-55C6
  6
Continuous
 62
     2
370
    -2
100
AcDbLine
 10
-150.1320735537829
 20
1745.448679823459
 30
0.0
 11
-150.1320735537829
 21
2050.792258511498
 31
0.0
  0
LINE
  5
1550
330
1542
100
AcDbEntity
  8
P-55C6
  6
Continuous
 62
     2
370
    -2
100
AcDbLine
 10
123.8679264462389
 20
1745.448679823459
 30
0.0
 11
123.8679264462389
 21
2050.792258511498
 31
0.0
  0
LINE
  5
1551
330
1542
100
AcDbEntity
  8
P-55C6
  6
Continuous
 62
     2
370
    -2
100
AcDbLine
 10
-130.1320735537828
 20
2035.792258511499
 30
0.0
 11
103.8679264462389
 21
2035.792258511499
 31
0.0
  0
SOLID
  5
1552
330
1542
100
AcDbEntity
  8
P-55C6
  6
Continuous
 62
     2
100
AcDbTrace
 10
-130.1320735537828
 20
2039.125591844832
 30
0.0
 11
-130.1320735537828
 21
2032.458925178165
 31
0.0
 12
-150.1320735537829
 22
2035.792258511499
 32
0.0
 13
-150.1320735537829
 23
2035.792258511499
 33
0.0
  0
SOLID
  5
1553
330
1542
100
AcDbEntity
  8
P-55C6
  6
Continuous
 62
     2
100
AcDbTrace
 10
103.8679264462389
 20
2039.125591844832
 30
0.0
 11
103.8679264462389
 21
2032.458925178165
 31
0.0
 12
123.8679264462389
 22
2035.792258511499
 32
0.0
 13
123.8679264462389
 23
2035.792258511499
 33
0.0
  0
MTEXT
  5
1554
330
1542
100
AcDbEntity
  8
P-55C6
  6
Continuous
 62
     1
100
AcDbMText
 10
-13.13207355377196
 20
2056.091092330741
 30
0.0
 40
20.0
 41
0.0
 71
     5
 72
     1
  1
\A1;27.4
  7
Stile_Quota
 73
     1
 44
1.0
1001
ACAD
1000
MTEXTBEGIN
1070
    73
1070
     1
1070
    44
1040
1.0
1070
    74
1070
     0
1000
MTEXTEND
  0
POINT
  5
1555
330
1542
100
AcDbEntity
  8
Defpoints
  6
Continuous
 62
     0
100
AcDbPoint
 10
-150.1320735537829
 20
1735.448679823459
 30
0.0
  0
POINT
  5
1556
330
1542
100
AcDbEntity
  8
Defpoints
  6
Continuous
 62
     0
100
AcDbPoint
 10
123.8679264462389
 20
1735.448679823459
 30
0.0
  0
POINT
  5
1557
330
1542
100
AcDbEntity
  8
Defpoints
  6
Continuous
 62
     0
100
AcDbPoint
 10
123.8679264462389
 20
2035.792258511499
 30
0.0
  0
ENDBLK
  5
1544
330
1542
100
AcDbEntity
  8
0
 62
     3
100
AcDbBlockEnd
  0
BLOCK
  5
155B
330
155A
100
AcDbEntity
  8
0
 62
     3
100
AcDbBlockBegin
  2
*D20
 70
     1
 10
0.0
 20
0.0
 30
0.0
  3
*D20
  1

  0
LINE
  5
16D6
330
155A
100
AcDbEntity
  8
P-55C6
  6
Continuous
 62
     2
370
    -2
100
AcDbLine
 10
123.8679264462389
 20
1745.448679823459
 30
0.0
 11
123.8679264462389
 21
2050.792258511498
 31
0.0
  0
LINE
  5
16D7
330
155A
100
AcDbEntity
  8
P-55C6
  6
Continuous
 62
     2
370
    -2
100
AcDbLine
 10
135.8679264462389
 20
1745.448679823459
 30
0.0
 11
135.8679264462389
 21
2050.792258511498
 31
0.0
  0
LINE
  5
16D8
330
155A
100
AcDbEntity
  8
P-55C6
  6
Continuous
 62
     2
370
    -2
100
AcDbLine
 10
103.8679264462389
 20
2035.792258511499
 30
0.0
 11
83.86792644623893
 21
2035.792258511499
 31
0.0
  0
LINE
  5
16D9
330
155A
100
AcDbEntity
  8
P-55C6
  6
Continuous
 62
     2
370
    -2
100
AcDbLine
 10
155.8679264462389
 20
2035.792258511499
 30
0.0
 11
175.8679264462389
 21
2035.792258511499
 31
0.0
  0
LINE
  5
16DA
330
155A
100
AcDbEntity
  8
P-55C6
  6
Continuous
 62
     2
370
    -2
100
AcDbLine
 10
123.8679264462389
 20
2035.792258511499
 30
0.0
 11
135.8679264462389
 21
2035.792258511499
 31
0.0
  0
SOLID
  5
16DB
330
155A
100
AcDbEntity
  8
P-55C6
  6
Continuous
 62
     2
100
AcDbTrace
 10
103.8679264462389
 20
2039.125591844832
 30
0.0
 11
103.8679264462389
 21
2032.458925178165
 31
0.0
 12
123.8679264462389
 22
2035.792258511499
 32
0.0
 13
123.8679264462389
 23
2035.792258511499
 33
0.0
  0
SOLID
  5
16DC
330
155A
100
AcDbEntity
  8
P-55C6
  6
Continuous
 62
     2
100
AcDbTrace
 10
155.8679264462389
 20
2039.125591844832
 30
0.0
 11
155.8679264462389
 21
2032.458925178165
 31
0.0
 12
135.8679264462389
 22
2035.792258511499
 32
0.0
 13
135.8679264462389
 23
2035.792258511499
 33
0.0
  0
MTEXT
  5
16DD
330
155A
100
AcDbEntity
  8
P-55C6
  6
Continuous
 62
     1
100
AcDbMText
 10
129.8679264462389
 20
2055.974474254939
 30
0.0
 40
20.0
 41
0.0
 71
     5
 72
     1
  1
\A1;1.2
  7
Stile_Quota
 73
     1
 44
1.0
1001
ACAD
1000
MTEXTBEGIN
1070
    73
1070
     1
1070
    44
1040
1.0
1070
    74
1070
     0
1000
MTEXTEND
  0
POINT
  5
16DE
330
155A
100
AcDbEntity
  8
Defpoints
  6
Continuous
 62
     0
100
AcDbPoint
 10
123.8679264462389
 20
1735.448679823459
 30
0.0
  0
POINT
  5
16DF
330
155A
100
AcDbEntity
  8
Defpoints
  6
Continuous
 62
     0
100
AcDbPoint
 10
135.8679264462389
 20
1735.448679823459
 30
0.0
  0
POINT
  5
16E0
330
155A
100
AcDbEntity
  8
Defpoints
  6
Continuous
 62
     0
100
AcDbPoint
 10
135.8679264462389
 20
2035.792258511499
 30
0.0
  0
ENDBLK
  5
155C
330
155A
100
AcDbEntity
  8
0
 62
     3
100
AcDbBlockEnd
  0
BLOCK
  5
1577
330
1576
100
AcDbEntity
  8
0
 62
     3
100
AcDbBlockBegin
  2
*D21
 70
     1
 10
0.0
 20
0.0
 30
0.0
  3
*D21
  1

  0
LINE
  5
1583
330
1576
100
AcDbEntity
  8
P-55C6
  6
Continuous
 62
     2
370
    -2
100
AcDbLine
 10
135.8679264462389
 20
1745.448679823459
 30
0.0
 11
135.8679264462389
 21
2050.792258511498
 31
0.0
  0
LINE
  5
1584
330
1576
100
AcDbEntity
  8
P-55C6
  6
Continuous
 62
     2
370
    -2
100
AcDbLine
 10
409.8679264459605
 20
1745.448679823459
 30
0.0
 11
409.8679264459605
 21
2050.792258511498
 31
0.0
  0
LINE
  5
1585
330
1576
100
AcDbEntity
  8
P-55C6
  6
Continuous
 62
     2
370
    -2
100
AcDbLine
 10
155.8679264462389
 20
2035.792258511499
 30
0.0
 11
389.8679264459606
 21
2035.792258511499
 31
0.0
  0
SOLID
  5
1586
330
1576
100
AcDbEntity
  8
P-55C6
  6
Continuous
 62
     2
100
AcDbTrace
 10
155.8679264462389
 20
2039.125591844832
 30
0.0
 11
155.8679264462389
 21
2032.458925178165
 31
0.0
 12
135.8679264462389
 22
2035.792258511499
 32
0.0
 13
135.8679264462389
 23
2035.792258511499
 33
0.0
  0
SOLID
  5
1587
330
1576
100
AcDbEntity
  8
P-55C6
  6
Continuous
 62
     2
100
AcDbTrace
 10
389.8679264459606
 20
2039.125591844832
 30
0.0
 11
389.8679264459606
 21
2032.458925178165
 31
0.0
 12
409.8679264459605
 22
2035.792258511499
 32
0.0
 13
409.8679264459605
 23
2035.792258511499
 33
0.0
  0
MTEXT
  5
1588
330
1576
100
AcDbEntity
  8
P-55C6
  6
Continuous
 62
     1
100
AcDbMText
 10
272.8679264460998
 20
2056.091092330741
 30
0.0
 40
20.0
 41
0.0
 71
     5
 72
     1
  1
\A1;27.4
  7
Stile_Quota
 73
     1
 44
1.0
1001
ACAD
1000
MTEXTBEGIN
1070
    73
1070
     1
1070
    44
1040
1.0
1070
    74
1070
     0
1000
MTEXTEND
  0
POINT
  5
1589
330
1576
100
AcDbEntity
  8
Defpoints
  6
Continuous
 62
     0
100
AcDbPoint
 10
135.8679264462389
 20
1735.448679823459
 30
0.0
  0
POINT
  5
158A
330
1576
100
AcDbEntity
  8
Defpoints
  6
Continuous
 62
     0
100
AcDbPoint
 10
409.8679264459605
 20
1735.448679823459
 30
0.0
  0
POINT
  5
158B
330
1576
100
AcDbEntity
  8
Defpoints
  6
Continuous
 62
     0
100
AcDbPoint
 10
409.8679264459605
 20
2035.792258511499
 30
0.0
  0
ENDBLK
  5
1578
330
1576
100
AcDbEntity
  8
0
 62
     3
100
AcDbBlockEnd
  0
BLOCK
  5
158F
330
158E
100
AcDbEntity
  8
0
 62
     3
100
AcDbBlockBegin
  2
*D22
 70
     1
 10
0.0
 20
0.0
 30
0.0
  3
*D22
  1

  0
LINE
  5
159D
330
158E
100
AcDbEntity
  8
P-55C6
  6
Continuous
 62
     2
370
    -2
100
AcDbLine
 10
409.8679264459605
 20
1745.448679823459
 30
0.0
 11
409.8679264459605
 21
2050.792258511498
 31
0.0
  0
LINE
  5
159E
330
158E
100
AcDbEntity
  8
P-55C6
  6
Continuous
 62
     2
370
    -2
100
AcDbLine
 10
429.867926445941
 20
1745.448679823457
 30
0.0
 11
429.867926445941
 21
2050.792258511498
 31
0.0
  0
LINE
  5
159F
330
158E
100
AcDbEntity
  8
P-55C6
  6
Continuous
 62
     2
370
    -2
100
AcDbLine
 10
389.8679264459606
 20
2035.792258511499
 30
0.0
 11
369.8679264459606
 21
2035.792258511499
 31
0.0
  0
LINE
  5
15A0
330
158E
100
AcDbEntity
  8
P-55C6
  6
Continuous
 62
     2
370
    -2
100
AcDbLine
 10
449.867926445941
 20
2035.792258511499
 30
0.0
 11
503.264427903667
 21
2035.792258511499
 31
0.0
  0
LINE
  5
15A1
330
158E
100
AcDbEntity
  8
P-55C6
  6
Continuous
 62
     2
370
    -2
100
AcDbLine
 10
409.8679264459605
 20
2035.792258511499
 30
0.0
 11
429.867926445941
 21
2035.792258511499
 31
0.0
  0
SOLID
  5
15A2
330
158E
100
AcDbEntity
  8
P-55C6
  6
Continuous
 62
     2
100
AcDbTrace
 10
389.8679264459606
 20
2039.125591844832
 30
0.0
 11
389.8679264459606
 21
2032.458925178165
 31
0.0
 12
409.8679264459605
 22
2035.792258511499
 32
0.0
 13
409.8679264459605
 23
2035.792258511499
 33
0.0
  0
SOLID
  5
15A3
330
158E
100
AcDbEntity
  8
P-55C6
  6
Continuous
 62
     2
100
AcDbTrace
 10
449.867926445941
 20
2039.125591844832
 30
0.0
 11
449.867926445941
 21
2032.458925178165
 31
0.0
 12
429.867926445941
 22
2035.792258511499
 32
0.0
 13
429.867926445941
 23
2035.792258511499
 33
0.0
  0
MTEXT
  5
15A4
330
158E
100
AcDbEntity
  8
P-55C6
  6
Continuous
 62
     1
100
AcDbMText
 10
486.5661771748039
 20
2055.792258511498
 30
0.0
 40
20.0
 41
0.0
 71
     5
 72
     1
  1
\A1;2
  7
Stile_Quota
 73
     1
 44
1.0
1001
ACAD
1000
MTEXTBEGIN
1070
    73
1070
     1
1070
    44
1040
1.0
1070
    74
1070
     0
1000
MTEXTEND
  0
POINT
  5
15A5
330
158E
100
AcDbEntity
  8
Defpoints
  6
Continuous
 62
     0
100
AcDbPoint
 10
409.8679264459605
 20
1735.448679823459
 30
0.0
  0
POINT
  5
15A6
330
158E
100
AcDbEntity
  8
Defpoints
  6
Continuous
 62
     0
100
AcDbPoint
 10
429.867926445941
 20
1735.448679823457
 30
0.0
  0
POINT
  5
15A7
330
158E
100
AcDbEntity
  8
Defpoints
  6
Continuous
 62
     0
100
AcDbPoint
 10
429.867926445941
 20
2035.792258511499
 30
0.0
  0
ENDBLK
  5
1590
330
158E
100
AcDbEntity
  8
0
 62
     3
100
AcDbBlockEnd
  0
BLOCK
  5
15AB
330
15AA
100
AcDbEntity
  8
0
 62
     3
100
AcDbBlockBegin
  2
*D23
 70
     1
 10
0.0
 20
0.0
 30
0.0
  3
*D23
  1

  0
LINE
  5
15B9
330
15AA
100
AcDbEntity
  8
P-55C6
  6
Continuous
 62
     2
370
    -2
100
AcDbLine
 10
-95.13207355383384
 20
1750.448679823454
 30
0.0
 11
-95.13207355383382
 21
1985.586858521115
 31
0.0
  0
LINE
  5
15BA
330
15AA
100
AcDbEntity
  8
P-55C6
  6
Continuous
 62
     2
370
    -2
100
AcDbLine
 10
-150.1320735537829
 20
1745.448679823459
 30
0.0
 11
-150.1320735537829
 21
1985.586858521115
 31
0.0
  0
LINE
  5
15BB
330
15AA
100
AcDbEntity
  8
P-55C6
  6
Continuous
 62
     2
370
    -2
100
AcDbLine
 10
-75.13207355383382
 20
1970.586858521114
 30
0.0
 11
-55.13207355383382
 21
1970.586858521114
 31
0.0
  0
LINE
  5
15BC
330
15AA
100
AcDbEntity
  8
P-55C6
  6
Continuous
 62
     2
370
    -2
100
AcDbLine
 10
-170.1320735537828
 20
1970.586858521114
 30
0.0
 11
-247.2166216587391
 21
1970.586858521114
 31
0.0
  0
LINE
  5
15BD
330
15AA
100
AcDbEntity
  8
P-55C6
  6
Continuous
 62
     2
370
    -2
100
AcDbLine
 10
-95.13207355383382
 20
1970.586858521114
 30
0.0
 11
-150.1320735537829
 21
1970.586858521114
 31
0.0
  0
SOLID
  5
15BE
330
15AA
100
AcDbEntity
  8
P-55C6
  6
Continuous
 62
     2
100
AcDbTrace
 10
-75.13207355383382
 20
1973.920191854448
 30
0.0
 11
-75.13207355383382
 21
1967.253525187781
 31
0.0
 12
-95.13207355383382
 22
1970.586858521114
 32
0.0
 13
-95.13207355383382
 23
1970.586858521114
 33
0.0
  0
SOLID
  5
15BF
330
15AA
100
AcDbEntity
  8
P-55C6
  6
Continuous
 62
     2
100
AcDbTrace
 10
-170.1320735537828
 20
1973.920191854448
 30
0.0
 11
-170.1320735537828
 21
1967.253525187781
 31
0.0
 12
-150.1320735537829
 22
1970.586858521114
 32
0.0
 13
-150.1320735537829
 23
1970.586858521114
 33
0.0
  0
MTEXT
  5
15C0
330
15AA
100
AcDbEntity
  8
P-55C6
  6
Continuous
 62
     1
100
AcDbMText
 10
-218.674347606261
 20
1990.812806042981
 30
0.0
 40
20.0
 41
0.0
 71
     5
 72
     1
  1
\A1;5.5
  7
Stile_Quota
 73
     1
 44
1.0
1001
ACAD
1000
MTEXTBEGIN
1070
    73
1070
     1
1070
    44
1040
1.0
1070
    74
1070
     0
1000
MTEXTEND
  0
POINT
  5
15C1
330
15AA
100
AcDbEntity
  8
Defpoints
  6
Continuous
 62
     0
100
AcDbPoint
 10
-95.13207355383384
 20
1740.448679823454
 30
0.0
  0
POINT
  5
15C2
330
15AA
100
AcDbEntity
  8
Defpoints
  6
Continuous
 62
     0
100
AcDbPoint
 10
-150.1320735537829
 20
1735.448679823459
 30
0.0
  0
POINT
  5
15C3
330
15AA
100
AcDbEntity
  8
Defpoints
  6
Continuous
 62
     0
100
AcDbPoint
 10
-150.1320735537829
 20
1970.586858521114
 30
0.0
  0
ENDBLK
  5
15AC
330
15AA
100
AcDbEntity
  8
0
 62
     3
100
AcDbBlockEnd
  0
BLOCK
  5
15C7
330
15C6
100
AcDbEntity
  8
0
 62
     3
100
AcDbBlockBegin
  2
*D24
 70
     1
 10
0.0
 20
0.0
 30
0.0
  3
*D24
  1

  0
LINE
  5
15EC
330
15C6
100
AcDbEntity
  8
P-55C6
  6
Continuous
 62
     2
370
    -2
100
AcDbLine
 10
-95.13207355383384
 20
1750.448679823454
 30
0.0
 11
-95.13207355383382
 21
1985.586858521115
 31
0.0
  0
LINE
  5
15ED
330
15C6
100
AcDbEntity
  8
P-55C6
  6
Continuous
 62
     2
370
    -2
100
AcDbLine
 10
-45.13207355388476
 20
1750.448679823454
 30
0.0
 11
-45.13207355388475
 21
1985.586858521115
 31
0.0
  0
LINE
  5
15EE
330
15C6
100
AcDbEntity
  8
P-55C6
  6
Continuous
 62
     2
370
    -2
100
AcDbLine
 10
-115.1320735538338
 20
1970.586858521114
 30
0.0
 11
-135.1320735538338
 21
1970.586858521114
 31
0.0
  0
LINE
  5
15EF
330
15C6
100
AcDbEntity
  8
P-55C6
  6
Continuous
 62
     2
370
    -2
100
AcDbLine
 10
-25.13207355388475
 20
1970.586858521114
 30
0.0
 11
-5.132073553884751
 21
1970.586858521114
 31
0.0
  0
LINE
  5
15F0
330
15C6
100
AcDbEntity
  8
P-55C6
  6
Continuous
 62
     2
370
    -2
100
AcDbLine
 10
-95.13207355383382
 20
1970.586858521114
 30
0.0
 11
-45.13207355388475
 21
1970.586858521114
 31
0.0
  0
SOLID
  5
15F1
330
15C6
100
AcDbEntity
  8
P-55C6
  6
Continuous
 62
     2
100
AcDbTrace
 10
-115.1320735538338
 20
1973.920191854448
 30
0.0
 11
-115.1320735538338
 21
1967.253525187781
 31
0.0
 12
-95.13207355383382
 22
1970.586858521114
 32
0.0
 13
-95.13207355383382
 23
1970.586858521114
 33
0.0
  0
SOLID
  5
15F2
330
15C6
100
AcDbEntity
  8
P-55C6
  6
Continuous
 62
     2
100
AcDbTrace
 10
-25.13207355388475
 20
1973.920191854448
 30
0.0
 11
-25.13207355388475
 21
1967.253525187781
 31
0.0
 12
-45.13207355388475
 22
1970.586858521114
 32
0.0
 13
-45.13207355388475
 23
1970.586858521114
 33
0.0
  0
MTEXT
  5
15F3
330
15C6
100
AcDbEntity
  8
P-55C6
  6
Continuous
 62
     1
100
AcDbMText
 10
-70.13207355385929
 20
1990.812806042981
 30
0.0
 40
20.0
 41
0.0
 71
     5
 72
     1
  1
\A1;5
  7
Stile_Quota
 73
     1
 44
1.0
1001
ACAD
1000
MTEXTBEGIN
1070
    73
1070
     1
1070
    44
1040
1.0
1070
    74
1070
     0
1000
MTEXTEND
  0
POINT
  5
15F4
330
15C6
100
AcDbEntity
  8
Defpoints
  6
Continuous
 62
     0
100
AcDbPoint
 10
-95.13207355383384
 20
1740.448679823454
 30
0.0
  0
POINT
  5
15F5
330
15C6
100
AcDbEntity
  8
Defpoints
  6
Continuous
 62
     0
100
AcDbPoint
 10
-45.13207355388476
 20
1740.448679823454
 30
0.0
  0
POINT
  5
15F6
330
15C6
100
AcDbEntity
  8
Defpoints
  6
Continuous
 62
     0
100
AcDbPoint
 10
-45.13207355388475
 20
1970.586858521114
 30
0.0
  0
ENDBLK
  5
15C8
330
15C6
100
AcDbEntity
  8
0
 62
     3
100
AcDbBlockEnd
  0
BLOCK
  5
15FB
330
15FA
100
AcDbEntity
  8
0
 62
     7
100
AcDbBlockBegin
  2
*D25
 70
     1
 10
0.0
 20
0.0
 30
0.0
  3
*D25
  1

  0
LINE
  5
1619
330
15FA
100
AcDbEntity
  8
P-55C6
  6
Continuous
 62
     2
370
    -2
100
AcDbLine
 10
-45.13207355388476
 20
1750.448679823454
 30
0.0
 11
-45.13207355388475
 21
1985.586858521115
 31
0.0
  0
LINE
  5
161A
330
15FA
100
AcDbEntity
  8
P-55C6
  6
Continuous
 62
     2
370
    -2
100
AcDbLine
 10
4.867926446064303
 20
1750.448679823454
 30
0.0
 11
4.867926446064317
 21
1985.586858521115
 31
0.0
  0
LINE
  5
161B
330
15FA
100
AcDbEntity
  8
P-55C6
  6
Continuous
 62
     2
370
    -2
100
AcDbLine
 10
-65.13207355388475
 20
1970.586858521114
 30
0.0
 11
-85.13207355388475
 21
1970.586858521114
 31
0.0
  0
LINE
  5
161C
330
15FA
100
AcDbEntity
  8
P-55C6
  6
Continuous
 62
     2
370
    -2
100
AcDbLine
 10
24.86792644606432
 20
1970.586858521114
 30
0.0
 11
44.86792644606431
 21
1970.586858521114
 31
0.0
  0
LINE
  5
161D
330
15FA
100
AcDbEntity
  8
P-55C6
  6
Continuous
 62
     2
370
    -2
100
AcDbLine
 10
-45.13207355388475
 20
1970.586858521114
 30
0.0
 11
4.867926446064316
 21
1970.586858521114
 31
0.0
  0
SOLID
  5
161E
330
15FA
100
AcDbEntity
  8
P-55C6
  6
Continuous
 62
     2
100
AcDbTrace
 10
-65.13207355388475
 20
1973.920191854448
 30
0.0
 11
-65.13207355388475
 21
1967.253525187781
 31
0.0
 12
-45.13207355388475
 22
1970.586858521114
 32
0.0
 13
-45.13207355388475
 23
1970.586858521114
 33
0.0
  0
SOLID
  5
161F
330
15FA
100
AcDbEntity
  8
P-55C6
  6
Continuous
 62
     2
100
AcDbTrace
 10
24.86792644606432
 20
1973.920191854448
 30
0.0
 11
24.86792644606432
 21
1967.253525187781
 31
0.0
 12
4.867926446064316
 22
1970.586858521114
 32
0.0
 13
4.867926446064316
 23
1970.586858521114
 33
0.0
  0
MTEXT
  5
1620
330
15FA
100
AcDbEntity
  8
P-55C6
  6
Continuous
 62
     1
100
AcDbMText
 10
-20.13207355391022
 20
1990.812806042981
 30
0.0
 40
20.0
 41
0.0
 71
     5
 72
     1
  1
\A1;5
  7
Stile_Quota
 73
     1
 44
1.0
1001
ACAD
1000
MTEXTBEGIN
1070
    73
1070
     1
1070
    44
1040
1.0
1070
    74
1070
     0
1000
MTEXTEND
  0
POINT
  5
1621
330
15FA
100
AcDbEntity
  8
Defpoints
  6
Continuous
 62
     0
100
AcDbPoint
 10
-45.13207355388476
 20
1740.448679823454
 30
0.0
  0
POINT
  5
1622
330
15FA
100
AcDbEntity
  8
Defpoints
  6
Continuous
 62
     0
100
AcDbPoint
 10
4.867926446064302
 20
1740.448679823454
 30
0.0
  0
POINT
  5
1623
330
15FA
100
AcDbEntity
  8
Defpoints
  6
Continuous
 62
     0
100
AcDbPoint
 10
4.867926446064316
 20
1970.586858521114
 30
0.0
  0
ENDBLK
  5
15FC
330
15FA
100
AcDbEntity
  8
0
 62
     7
100
AcDbBlockEnd
  0
BLOCK
  5
160C
330
160B
100
AcDbEntity
  8
0
 62
     7
100
AcDbBlockBegin
  2
*D26
 70
     1
 10
0.0
 20
0.0
 30
0.0
  3
*D26
  1

  0
LINE
  5
1624
330
160B
100
AcDbEntity
  8
P-55C6
  6
Continuous
 62
     2
370
    -2
100
AcDbLine
 10
4.867926446064303
 20
1750.448679823454
 30
0.0
 11
4.867926446064317
 21
1985.586858521115
 31
0.0
  0
LINE
  5
1625
330
160B
100
AcDbEntity
  8
P-55C6
  6
Continuous
 62
     2
370
    -2
100
AcDbLine
 10
54.86792644601337
 20
1750.448679823454
 30
0.0
 11
54.86792644601338
 21
1985.586858521115
 31
0.0
  0
LINE
  5
1626
330
160B
100
AcDbEntity
  8
P-55C6
  6
Continuous
 62
     2
370
    -2
100
AcDbLine
 10
-15.13207355393568
 20
1970.586858521114
 30
0.0
 11
-35.13207355393568
 21
1970.586858521114
 31
0.0
  0
LINE
  5
1627
330
160B
100
AcDbEntity
  8
P-55C6
  6
Continuous
 62
     2
370
    -2
100
AcDbLine
 10
74.86792644601338
 20
1970.586858521114
 30
0.0
 11
94.86792644601338
 21
1970.586858521114
 31
0.0
  0
LINE
  5
1628
330
160B
100
AcDbEntity
  8
P-55C6
  6
Continuous
 62
     2
370
    -2
100
AcDbLine
 10
4.867926446064316
 20
1970.586858521114
 30
0.0
 11
54.86792644601338
 21
1970.586858521114
 31
0.0
  0
SOLID
  5
1629
330
160B
100
AcDbEntity
  8
P-55C6
  6
Continuous
 62
     2
100
AcDbTrace
 10
-15.13207355393568
 20
1973.920191854448
 30
0.0
 11
-15.13207355393568
 21
1967.253525187781
 31
0.0
 12
4.867926446064316
 22
1970.586858521114
 32
0.0
 13
4.867926446064316
 23
1970.586858521114
 33
0.0
  0
SOLID
  5
162A
330
160B
100
AcDbEntity
  8
P-55C6
  6
Continuous
 62
     2
100
AcDbTrace
 10
74.86792644601338
 20
1973.920191854448
 30
0.0
 11
74.86792644601338
 21
1967.253525187781
 31
0.0
 12
54.86792644601338
 22
1970.586858521114
 32
0.0
 13
54.86792644601338
 23
1970.586858521114
 33
0.0
  0
MTEXT
  5
162B
330
160B
100
AcDbEntity
  8
P-55C6
  6
Continuous
 62
     1
100
AcDbMText
 10
29.86792644603885
 20
1990.812806042981
 30
0.0
 40
20.0
 41
0.0
 71
     5
 72
     1
  1
\A1;5
  7
Stile_Quota
 73
     1
 44
1.0
1001
ACAD
1000
MTEXTBEGIN
1070
    73
1070
     1
1070
    44
1040
1.0
1070
    74
1070
     0
1000
MTEXTEND
  0
POINT
  5
162C
330
160B
100
AcDbEntity
  8
Defpoints
  6
Continuous
 62
     0
100
AcDbPoint
 10
4.867926446064302
 20
1740.448679823454
 30
0.0
  0
POINT
  5
162D
330
160B
100
AcDbEntity
  8
Defpoints
  6
Continuous
 62
     0
100
AcDbPoint
 10
54.86792644601337
 20
1740.448679823454
 30
0.0
  0
POINT
  5
162E
330
160B
100
AcDbEntity
  8
Defpoints
  6
Continuous
 62
     0
100
AcDbPoint
 10
54.86792644601338
 20
1970.586858521114
 30
0.0
  0
ENDBLK
  5
160D
330
160B
100
AcDbEntity
  8
0
 62
     7
100
AcDbBlockEnd
  0
BLOCK
  5
1631
330
1630
100
AcDbEntity
  8
0
 62
     3
100
AcDbBlockBegin
  2
*D27
 70
     1
 10
0.0
 20
0.0
 30
0.0
  3
*D27
  1

  0
LINE
  5
163D
330
1630
100
AcDbEntity
  8
P-55C6
  6
Continuous
 62
     2
370
    -2
100
AcDbLine
 10
54.86792644601519
 20
1753.44867982345
 30
0.0
 11
54.8679264460152
 21
1985.586858521115
 31
0.0
  0
LINE
  5
163E
330
1630
100
AcDbEntity
  8
P-55C6
  6
Continuous
 62
     2
370
    -2
100
AcDbLine
 10
123.8679264462389
 20
1745.448679823459
 30
0.0
 11
123.8679264462389
 21
1985.586858521115
 31
0.0
  0
LINE
  5
163F
330
1630
100
AcDbEntity
  8
P-55C6
  6
Continuous
 62
     2
370
    -2
100
AcDbLine
 10
74.8679264460152
 20
1970.586858521114
 30
0.0
 11
103.8679264462389
 21
1970.586858521114
 31
0.0
  0
SOLID
  5
1640
330
1630
100
AcDbEntity
  8
P-55C6
  6
Continuous
 62
     2
100
AcDbTrace
 10
74.8679264460152
 20
1973.920191854448
 30
0.0
 11
74.8679264460152
 21
1967.253525187781
 31
0.0
 12
54.8679264460152
 22
1970.586858521114
 32
0.0
 13
54.8679264460152
 23
1970.586858521114
 33
0.0
  0
SOLID
  5
1641
330
1630
100
AcDbEntity
  8
P-55C6
  6
Continuous
 62
     2
100
AcDbTrace
 10
103.8679264462389
 20
1973.920191854448
 30
0.0
 11
103.8679264462389
 21
1967.253525187781
 31
0.0
 12
123.8679264462389
 22
1970.586858521114
 32
0.0
 13
123.8679264462389
 23
1970.586858521114
 33
0.0
  0
MTEXT
  5
1642
330
1630
100
AcDbEntity
  8
P-55C6
  6
Continuous
 62
     1
100
AcDbMText
 10
89.36792644612706
 20
1990.820094672718
 30
0.0
 40
20.0
 41
0.0
 71
     5
 72
     1
  1
\A1;6.9
  7
Stile_Quota
 73
     1
 44
1.0
1001
ACAD
1000
MTEXTBEGIN
1070
    73
1070
     1
1070
    44
1040
1.0
1070
    74
1070
     0
1000
MTEXTEND
  0
POINT
  5
1643
330
1630
100
AcDbEntity
  8
Defpoints
  6
Continuous
 62
     0
100
AcDbPoint
 10
54.86792644601519
 20
1743.44867982345
 30
0.0
  0
POINT
  5
1644
330
1630
100
AcDbEntity
  8
Defpoints
  6
Continuous
 62
     0
100
AcDbPoint
 10
123.8679264462389
 20
1735.448679823459
 30
0.0
  0
POINT
  5
1645
330
1630
100
AcDbEntity
  8
Defpoints
  6
Continuous
 62
     0
100
AcDbPoint
 10
123.8679264462389
 20
1970.586858521114
 30
0.0
  0
ENDBLK
  5
1632
330
1630
100
AcDbEntity
  8
0
 62
     3
100
AcDbBlockEnd
  0
BLOCK
  5
1653
330
1652
100
AcDbEntity
  8
0
 62
     7
100
AcDbBlockBegin
  2
*D28
 70
     1
 10
0.0
 20
0.0
 30
0.0
  3
*D28
  1

  0
LINE
  5
168A
330
1652
100
AcDbEntity
  8
P-55C6
  6
Continuous
 62
     2
370
    -2
100
AcDbLine
 10
304.8679264463627
 20
1750.448679823454
 30
0.0
 11
304.8679264463627
 21
1985.586858521115
 31
0.0
  0
LINE
  5
168B
330
1652
100
AcDbEntity
  8
P-55C6
  6
Continuous
 62
     2
370
    -2
100
AcDbLine
 10
254.8679264464136
 20
1750.448679823454
 30
0.0
 11
254.8679264464136
 21
1985.586858521115
 31
0.0
  0
LINE
  5
168C
330
1652
100
AcDbEntity
  8
P-55C6
  6
Continuous
 62
     2
370
    -2
100
AcDbLine
 10
324.8679264463627
 20
1970.586858521114
 30
0.0
 11
344.8679264463627
 21
1970.586858521114
 31
0.0
  0
LINE
  5
168D
330
1652
100
AcDbEntity
  8
P-55C6
  6
Continuous
 62
     2
370
    -2
100
AcDbLine
 10
234.8679264464136
 20
1970.586858521114
 30
0.0
 11
214.8679264464136
 21
1970.586858521114
 31
0.0
  0
LINE
  5
168E
330
1652
100
AcDbEntity
  8
P-55C6
  6
Continuous
 62
     2
370
    -2
100
AcDbLine
 10
304.8679264463627
 20
1970.586858521114
 30
0.0
 11
254.8679264464136
 21
1970.586858521114
 31
0.0
  0
SOLID
  5
168F
330
1652
100
AcDbEntity
  8
P-55C6
  6
Continuous
 62
     2
100
AcDbTrace
 10
324.8679264463627
 20
1973.920191854448
 30
0.0
 11
324.8679264463627
 21
1967.253525187781
 31
0.0
 12
304.8679264463627
 22
1970.586858521114
 32
0.0
 13
304.8679264463627
 23
1970.586858521114
 33
0.0
  0
SOLID
  5
1690
330
1652
100
AcDbEntity
  8
P-55C6
  6
Continuous
 62
     2
100
AcDbTrace
 10
234.8679264464136
 20
1973.920191854448
 30
0.0
 11
234.8679264464136
 21
1967.253525187781
 31
0.0
 12
254.8679264464136
 22
1970.586858521114
 32
0.0
 13
254.8679264464136
 23
1970.586858521114
 33
0.0
  0
MTEXT
  5
1691
330
1652
100
AcDbEntity
  8
P-55C6
  6
Continuous
 62
     1
100
AcDbMText
 10
279.8679264463881
 20
1990.812806042981
 30
0.0
 40
20.0
 41
0.0
 71
     5
 72
     1
  1
\A1;5
  7
Stile_Quota
 73
     1
 44
1.0
1001
ACAD
1000
MTEXTBEGIN
1070
    73
1070
     1
1070
    44
1040
1.0
1070
    74
1070
     0
1000
MTEXTEND
  0
POINT
  5
1692
330
1652
100
AcDbEntity
  8
Defpoints
  6
Continuous
 62
     0
100
AcDbPoint
 10
304.8679264463627
 20
1740.448679823454
 30
0.0
  0
POINT
  5
1693
330
1652
100
AcDbEntity
  8
Defpoints
  6
Continuous
 62
     0
100
AcDbPoint
 10
254.8679264464136
 20
1740.448679823454
 30
0.0
  0
POINT
  5
1694
330
1652
100
AcDbEntity
  8
Defpoints
  6
Continuous
 62
     0
100
AcDbPoint
 10
254.8679264464136
 20
1970.586858521114
 30
0.0
  0
ENDBLK
  5
1654
330
1652
100
AcDbEntity
  8
0
 62
     7
100
AcDbBlockEnd
  0
BLOCK
  5
1661
330
1660
100
AcDbEntity
  8
0
 62
     7
100
AcDbBlockBegin
  2
*D29
 70
     1
 10
0.0
 20
0.0
 30
0.0
  3
*D29
  1

  0
LINE
  5
1695
330
1660
100
AcDbEntity
  8
P-55C6
  6
Continuous
 62
     2
370
    -2
100
AcDbLine
 10
254.8679264464136
 20
1750.448679823454
 30
0.0
 11
254.8679264464136
 21
1985.586858521115
 31
0.0
  0
LINE
  5
1696
330
1660
100
AcDbEntity
  8
P-55C6
  6
Continuous
 62
     2
370
    -2
100
AcDbLine
 10
204.8679264464645
 20
1750.448679823454
 30
0.0
 11
204.8679264464646
 21
1985.586858521115
 31
0.0
  0
LINE
  5
1697
330
1660
100
AcDbEntity
  8
P-55C6
  6
Continuous
 62
     2
370
    -2
100
AcDbLine
 10
274.8679264464136
 20
1970.586858521114
 30
0.0
 11
294.8679264464136
 21
1970.586858521114
 31
0.0
  0
LINE
  5
1698
330
1660
100
AcDbEntity
  8
P-55C6
  6
Continuous
 62
     2
370
    -2
100
AcDbLine
 10
184.8679264464645
 20
1970.586858521114
 30
0.0
 11
164.8679264464645
 21
1970.586858521114
 31
0.0
  0
LINE
  5
1699
330
1660
100
AcDbEntity
  8
P-55C6
  6
Continuous
 62
     2
370
    -2
100
AcDbLine
 10
254.8679264464136
 20
1970.586858521114
 30
0.0
 11
204.8679264464645
 21
1970.586858521114
 31
0.0
  0
SOLID
  5
169A
330
1660
100
AcDbEntity
  8
P-55C6
  6
Continuous
 62
     2
100
AcDbTrace
 10
274.8679264464136
 20
1973.920191854448
 30
0.0
 11
274.8679264464136
 21
1967.253525187781
 31
0.0
 12
254.8679264464136
 22
1970.586858521114
 32
0.0
 13
254.8679264464136
 23
1970.586858521114
 33
0.0
  0
SOLID
  5
169B
330
1660
100
AcDbEntity
  8
P-55C6
  6
Continuous
 62
     2
100
AcDbTrace
 10
184.8679264464645
 20
1973.920191854448
 30
0.0
 11
184.8679264464645
 21
1967.253525187781
 31
0.0
 12
204.8679264464645
 22
1970.586858521114
 32
0.0
 13
204.8679264464645
 23
1970.586858521114
 33
0.0
  0
MTEXT
  5
169C
330
1660
100
AcDbEntity
  8
P-55C6
  6
Continuous
 62
     1
100
AcDbMText
 10
229.8679264464391
 20
1990.812806042981
 30
0.0
 40
20.0
 41
0.0
 71
     5
 72
     1
  1
\A1;5
  7
Stile_Quota
 73
     1
 44
1.0
1001
ACAD
1000
MTEXTBEGIN
1070
    73
1070
     1
1070
    44
1040
1.0
1070
    74
1070
     0
1000
MTEXTEND
  0
POINT
  5
169D
330
1660
100
AcDbEntity
  8
Defpoints
  6
Continuous
 62
     0
100
AcDbPoint
 10
254.8679264464136
 20
1740.448679823454
 30
0.0
  0
POINT
  5
169E
330
1660
100
AcDbEntity
  8
Defpoints
  6
Continuous
 62
     0
100
AcDbPoint
 10
204.8679264464645
 20
1740.448679823454
 30
0.0
  0
POINT
  5
169F
330
1660
100
AcDbEntity
  8
Defpoints
  6
Continuous
 62
     0
100
AcDbPoint
 10
204.8679264464645
 20
1970.586858521114
 30
0.0
  0
ENDBLK
  5
1662
330
1660
100
AcDbEntity
  8
0
 62
     7
100
AcDbBlockEnd
  0
BLOCK
  5
166F
330
166E
100
AcDbEntity
  8
0
 62
     7
100
AcDbBlockBegin
  2
*D30
 70
     1
 10
0.0
 20
0.0
 30
0.0
  3
*D30
  1

  0
LINE
  5
16AC
330
166E
100
AcDbEntity
  8
P-55C6
  6
Continuous
 62
     2
370
    -2
100
AcDbLine
 10
354.8679264463117
 20
1750.448679823454
 30
0.0
 11
354.8679264463117
 21
1985.586858521115
 31
0.0
  0
LINE
  5
16AD
330
166E
100
AcDbEntity
  8
P-55C6
  6
Continuous
 62
     2
370
    -2
100
AcDbLine
 10
409.8679264462607
 20
1745.448679823459
 30
0.0
 11
409.8679264462607
 21
1985.586858521115
 31
0.0
  0
LINE
  5
16AE
330
166E
100
AcDbEntity
  8
P-55C6
  6
Continuous
 62
     2
370
    -2
100
AcDbLine
 10
334.8679264463117
 20
1970.586858521114
 30
0.0
 11
314.8679264463118
 21
1970.586858521114
 31
0.0
  0
LINE
  5
16AF
330
166E
100
AcDbEntity
  8
P-55C6
  6
Continuous
 62
     2
370
    -2
100
AcDbLine
 10
429.8679264462608
 20
1970.586858521114
 30
0.0
 11
506.952474551217
 21
1970.586858521114
 31
0.0
  0
LINE
  5
16B0
330
166E
100
AcDbEntity
  8
P-55C6
  6
Continuous
 62
     2
370
    -2
100
AcDbLine
 10
354.8679264463117
 20
1970.586858521114
 30
0.0
 11
409.8679264462607
 21
1970.586858521114
 31
0.0
  0
SOLID
  5
16B1
330
166E
100
AcDbEntity
  8
P-55C6
  6
Continuous
 62
     2
100
AcDbTrace
 10
334.8679264463117
 20
1973.920191854448
 30
0.0
 11
334.8679264463117
 21
1967.253525187781
 31
0.0
 12
354.8679264463117
 22
1970.586858521114
 32
0.0
 13
354.8679264463117
 23
1970.586858521114
 33
0.0
  0
SOLID
  5
16B2
330
166E
100
AcDbEntity
  8
P-55C6
  6
Continuous
 62
     2
100
AcDbTrace
 10
429.8679264462608
 20
1973.920191854448
 30
0.0
 11
429.8679264462608
 21
1967.253525187781
 31
0.0
 12
409.8679264462607
 22
1970.586858521114
 32
0.0
 13
409.8679264462607
 23
1970.586858521114
 33
0.0
  0
MTEXT
  5
16B3
330
166E
100
AcDbEntity
  8
P-55C6
  6
Continuous
 62
     1
100
AcDbMText
 10
478.4102004987389
 20
1990.812806042981
 30
0.0
 40
20.0
 41
0.0
 71
     5
 72
     1
  1
\A1;5.5
  7
Stile_Quota
 73
     1
 44
1.0
1001
ACAD
1000
MTEXTBEGIN
1070
    73
1070
     1
1070
    44
1040
1.0
1070
    74
1070
     0
1000
MTEXTEND
  0
POINT
  5
16B4
330
166E
100
AcDbEntity
  8
Defpoints
  6
Continuous
 62
     0
100
AcDbPoint
 10
354.8679264463117
 20
1740.448679823454
 30
0.0
  0
POINT
  5
16B5
330
166E
100
AcDbEntity
  8
Defpoints
  6
Continuous
 62
     0
100
AcDbPoint
 10
409.8679264462607
 20
1735.448679823459
 30
0.0
  0
POINT
  5
16B6
330
166E
100
AcDbEntity
  8
Defpoints
  6
Continuous
 62
     0
100
AcDbPoint
 10
409.8679264462607
 20
1970.586858521114
 30
0.0
  0
ENDBLK
  5
1670
330
166E
100
AcDbEntity
  8
0
 62
     7
100
AcDbBlockEnd
  0
BLOCK
  5
167D
330
167C
100
AcDbEntity
  8
0
 62
     7
100
AcDbBlockBegin
  2
*D31
 70
     1
 10
0.0
 20
0.0
 30
0.0
  3
*D31
  1

  0
LINE
  5
16B7
330
167C
100
AcDbEntity
  8
P-55C6
  6
Continuous
 62
     2
370
    -2
100
AcDbLine
 10
354.8679264463117
 20
1750.448679823454
 30
0.0
 11
354.8679264463117
 21
1985.586858521115
 31
0.0
  0
LINE
  5
16B8
330
167C
100
AcDbEntity
  8
P-55C6
  6
Continuous
 62
     2
370
    -2
100
AcDbLine
 10
304.8679264463627
 20
1750.448679823454
 30
0.0
 11
304.8679264463627
 21
1985.586858521115
 31
0.0
  0
LINE
  5
16B9
330
167C
100
AcDbEntity
  8
P-55C6
  6
Continuous
 62
     2
370
    -2
100
AcDbLine
 10
374.8679264463117
 20
1970.586858521114
 30
0.0
 11
394.8679264463117
 21
1970.586858521114
 31
0.0
  0
LINE
  5
16BA
330
167C
100
AcDbEntity
  8
P-55C6
  6
Continuous
 62
     2
370
    -2
100
AcDbLine
 10
284.8679264463627
 20
1970.586858521114
 30
0.0
 11
264.8679264463627
 21
1970.586858521114
 31
0.0
  0
LINE
  5
16BB
330
167C
100
AcDbEntity
  8
P-55C6
  6
Continuous
 62
     2
370
    -2
100
AcDbLine
 10
354.8679264463117
 20
1970.586858521114
 30
0.0
 11
304.8679264463627
 21
1970.586858521114
 31
0.0
  0
SOLID
  5
16BC
330
167C
100
AcDbEntity
  8
P-55C6
  6
Continuous
 62
     2
100
AcDbTrace
 10
374.8679264463117
 20
1973.920191854448
 30
0.0
 11
374.8679264463117
 21
1967.253525187781
 31
0.0
 12
354.8679264463117
 22
1970.586858521114
 32
0.0
 13
354.8679264463117
 23
1970.586858521114
 33
0.0
  0
SOLID
  5
16BD
330
167C
100
AcDbEntity
  8
P-55C6
  6
Continuous
 62
     2
100
AcDbTrace
 10
284.8679264463627
 20
1973.920191854448
 30
0.0
 11
284.8679264463627
 21
1967.253525187781
 31
0.0
 12
304.8679264463627
 22
1970.586858521114
 32
0.0
 13
304.8679264463627
 23
1970.586858521114
 33
0.0
  0
MTEXT
  5
16BE
330
167C
100
AcDbEntity
  8
P-55C6
  6
Continuous
 62
     1
100
AcDbMText
 10
329.8679264463372
 20
1990.812806042981
 30
0.0
 40
20.0
 41
0.0
 71
     5
 72
     1
  1
\A1;5
  7
Stile_Quota
 73
     1
 44
1.0
1001
ACAD
1000
MTEXTBEGIN
1070
    73
1070
     1
1070
    44
1040
1.0
1070
    74
1070
     0
1000
MTEXTEND
  0
POINT
  5
16BF
330
167C
100
AcDbEntity
  8
Defpoints
  6
Continuous
 62
     0
100
AcDbPoint
 10
354.8679264463117
 20
1740.448679823454
 30
0.0
  0
POINT
  5
16C0
330
167C
100
AcDbEntity
  8
Defpoints
  6
Continuous
 62
     0
100
AcDbPoint
 10
304.8679264463627
 20
1740.448679823454
 30
0.0
  0
POINT
  5
16C1
330
167C
100
AcDbEntity
  8
Defpoints
  6
Continuous
 62
     0
100
AcDbPoint
 10
304.8679264463627
 20
1970.586858521114
 30
0.0
  0
ENDBLK
  5
167E
330
167C
100
AcDbEntity
  8
0
 62
     7
100
AcDbBlockEnd
  0
BLOCK
  5
16A1
330
16A0
100
AcDbEntity
  8
0
 62
     7
100
AcDbBlockBegin
  2
*D32
 70
     1
 10
0.0
 20
0.0
 30
0.0
  3
*D32
  1

  0
LINE
  5
16C2
330
16A0
100
AcDbEntity
  8
P-55C6
  6
Continuous
 62
     2
370
    -2
100
AcDbLine
 10
204.8679264464627
 20
1753.44867982345
 30
0.0
 11
204.8679264464627
 21
1985.586858521115
 31
0.0
  0
LINE
  5
16C3
330
16A0
100
AcDbEntity
  8
P-55C6
  6
Continuous
 62
     2
370
    -2
100
AcDbLine
 10
135.867926446239
 20
1745.448679823459
 30
0.0
 11
135.867926446239
 21
1985.586858521115
 31
0.0
  0
LINE
  5
16C4
330
16A0
100
AcDbEntity
  8
P-55C6
  6
Continuous
 62
     2
370
    -2
100
AcDbLine
 10
184.8679264464627
 20
1970.586858521114
 30
0.0
 11
155.867926446239
 21
1970.586858521114
 31
0.0
  0
SOLID
  5
16C5
330
16A0
100
AcDbEntity
  8
P-55C6
  6
Continuous
 62
     2
100
AcDbTrace
 10
184.8679264464627
 20
1973.920191854448
 30
0.0
 11
184.8679264464627
 21
1967.253525187781
 31
0.0
 12
204.8679264464627
 22
1970.586858521114
 32
0.0
 13
204.8679264464627
 23
1970.586858521114
 33
0.0
  0
SOLID
  5
16C6
330
16A0
100
AcDbEntity
  8
P-55C6
  6
Continuous
 62
     2
100
AcDbTrace
 10
155.867926446239
 20
1973.920191854448
 30
0.0
 11
155.867926446239
 21
1967.253525187781
 31
0.0
 12
135.867926446239
 22
1970.586858521114
 32
0.0
 13
135.867926446239
 23
1970.586858521114
 33
0.0
  0
MTEXT
  5
16C7
330
16A0
100
AcDbEntity
  8
P-55C6
  6
Continuous
 62
     1
100
AcDbMText
 10
170.3679264463508
 20
1990.820094672718
 30
0.0
 40
20.0
 41
0.0
 71
     5
 72
     1
  1
\A1;6.9
  7
Stile_Quota
 73
     1
 44
1.0
1001
ACAD
1000
MTEXTBEGIN
1070
    73
1070
     1
1070
    44
1040
1.0
1070
    74
1070
     0
1000
MTEXTEND
  0
POINT
  5
16C8
330
16A0
100
AcDbEntity
  8
Defpoints
  6
Continuous
 62
     0
100
AcDbPoint
 10
204.8679264464627
 20
1743.44867982345
 30
0.0
  0
POINT
  5
16C9
330
16A0
100
AcDbEntity
  8
Defpoints
  6
Continuous
 62
     0
100
AcDbPoint
 10
135.867926446239
 20
1735.448679823459
 30
0.0
  0
POINT
  5
16CA
330
16A0
100
AcDbEntity
  8
Defpoints
  6
Continuous
 62
     0
100
AcDbPoint
 10
135.867926446239
 20
1970.586858521114
 30
0.0
  0
ENDBLK
  5
16A2
330
16A0
100
AcDbEntity
  8
0
 62
     7
100
AcDbBlockEnd
  0
BLOCK
  5
16E2
330
16E1
100
AcDbEntity
  8
0
100
AcDbBlockBegin
  2
A$C677C2356
 70
     0
 10
0.0
 20
0.0
 30
0.0
  3
A$C677C2356
  1

  0
TEXT
  5
16E3
330
16E1
100
AcDbEntity
  8
DIMENSIONI
 62
     0
100
AcDbText
 10
14.55966738989127
 20
-2.857143363440229
 30
0.0
 40
15.0
  1
+
 50
90.0
  7
ROMANS
100
AcDbText
1001
TOP
1070
   256
  0
TEXT
  5
16E4
330
16E1
100
AcDbEntity
  8
DIMENSIONI
 62
     0
100
AcDbText
 10
40.31360177942099
 20
18.46292625781348
 30
0.0
 40
15.0
  1
0
 50
90.0
  7
ROMANS
100
AcDbText
1001
TOP
1070
   256
  0
TEXT
  5
16E5
330
16E1
100
AcDbEntity
  8
DIMENSIONI
 62
     0
100
AcDbText
 10
15.00000365091421
 20
18.46292625781348
 30
0.0
 40
15.0
  1
0.2
 50
90.0
  7
ROMANS
100
AcDbText
1001
TOP
1070
   256
  0
ENDBLK
  5
16E6
330
16E1
100
AcDbEntity
  8
0
100
AcDbBlockEnd
  0
BLOCK
  5
171A
330
1719
100
AcDbEntity
  8
0
 62
     3
100
AcDbBlockBegin
  2
*D34
 70
     1
 10
0.0
 20
0.0
 30
0.0
  3
*D34
  1

  0
LINE
  5
1734
330
1719
100
AcDbEntity
  8
P-55C6
  6
Continuous
 62
     2
370
    -2
100
AcDbLine
 10
123.8679264462389
 20
1658.448679823581
 30
0.0
 11
123.8679264462389
 21
1622.607503466232
 31
0.0
  0
LINE
  5
1735
330
1719
100
AcDbEntity
  8
P-55C6
  6
Continuous
 62
     2
370
    -2
100
AcDbLine
 10
109.8679264461098
 20
1662.448679823581
 30
0.0
 11
109.8679264461098
 21
1622.607503466232
 31
0.0
  0
LINE
  5
1736
330
1719
100
AcDbEntity
  8
P-55C6
  6
Continuous
 62
     2
370
    -2
100
AcDbLine
 10
143.8679264462389
 20
1637.607503466233
 30
0.0
 11
163.8679264462389
 21
1637.607503466233
 31
0.0
  0
LINE
  5
1737
330
1719
100
AcDbEntity
  8
P-55C6
  6
Continuous
 62
     2
370
    -2
100
AcDbLine
 10
89.86792644610977
 20
1637.607503466233
 30
0.0
 11
13.07492353065788
 21
1637.607503466233
 31
0.0
  0
LINE
  5
1738
330
1719
100
AcDbEntity
  8
P-55C6
  6
Continuous
 62
     2
370
    -2
100
AcDbLine
 10
123.8679264462389
 20
1637.607503466233
 30
0.0
 11
109.8679264461098
 21
1637.607503466233
 31
0.0
  0
SOLID
  5
1739
330
1719
100
AcDbEntity
  8
P-55C6
  6
Continuous
 62
     2
100
AcDbTrace
 10
143.8679264462389
 20
1640.940836799566
 30
0.0
 11
143.8679264462389
 21
1634.274170132899
 31
0.0
 12
123.8679264462389
 22
1637.607503466233
 32
0.0
 13
123.8679264462389
 23
1637.607503466233
 33
0.0
  0
SOLID
  5
173A
330
1719
100
AcDbEntity
  8
P-55C6
  6
Continuous
 62
     2
100
AcDbTrace
 10
89.86792644610977
 20
1640.940836799566
 30
0.0
 11
89.86792644610977
 21
1634.274170132899
 31
0.0
 12
109.8679264461098
 22
1637.607503466233
 32
0.0
 13
109.8679264461098
 23
1637.607503466233
 33
0.0
  0
MTEXT
  5
173B
330
1719
100
AcDbEntity
  8
P-55C6
  6
Continuous
 62
     1
100
AcDbMText
 10
41.47142498838383
 20
1657.789719209673
 30
0.0
 40
20.0
 41
0.0
 71
     5
 72
     1
  1
\A1;1.4
  7
Stile_Quota
 73
     1
 44
1.0
1001
ACAD
1000
MTEXTBEGIN
1070
    73
1070
     1
1070
    44
1040
1.0
1070
    74
1070
     0
1000
MTEXTEND
  0
POINT
  5
173C
330
1719
100
AcDbEntity
  8
Defpoints
  6
Continuous
 62
     0
100
AcDbPoint
 10
123.8679264462389
 20
1668.448679823581
 30
0.0
  0
POINT
  5
173D
330
1719
100
AcDbEntity
  8
Defpoints
  6
Continuous
 62
     0
100
AcDbPoint
 10
109.8679264461098
 20
1672.448679823581
 30
0.0
  0
POINT
  5
173E
330
1719
100
AcDbEntity
  8
Defpoints
  6
Continuous
 62
     0
100
AcDbPoint
 10
109.8679264461098
 20
1637.607503466233
 30
0.0
  0
ENDBLK
  5
171B
330
1719
100
AcDbEntity
  8
0
 62
     3
100
AcDbBlockEnd
  0
BLOCK
  5
1741
330
1740
100
AcDbEntity
  8
0
 62
     3
100
AcDbBlockBegin
  2
*D35
 70
     1
 10
0.0
 20
0.0
 30
0.0
  3
*D35
  1

  0
LINE
  5
1893
330
1740
100
AcDbEntity
  8
P-55C6
  6
Continuous
 62
     2
370
    -2
100
AcDbLine
 10
157.8679264460697
 20
1685.448679823534
 30
0.0
 11
236.6527915948202
 21
1685.448679823534
 31
0.0
  0
LINE
  5
1894
330
1740
100
AcDbEntity
  8
P-55C6
  6
Continuous
 62
     2
370
    -2
100
AcDbLine
 10
157.8679264460697
 20
1670.448679823583
 30
0.0
 11
236.6527915948202
 21
1670.448679823583
 31
0.0
  0
LINE
  5
1895
330
1740
100
AcDbEntity
  8
P-55C6
  6
Continuous
 62
     2
370
    -2
100
AcDbLine
 10
221.6527915948202
 20
1705.448679823534
 30
0.0
 11
221.6527915948202
 21
1725.448679823534
 31
0.0
  0
LINE
  5
1896
330
1740
100
AcDbEntity
  8
P-55C6
  6
Continuous
 62
     2
370
    -2
100
AcDbLine
 10
221.6527915948202
 20
1650.448679823583
 30
0.0
 11
221.6527915948202
 21
1573.56821335128
 31
0.0
  0
LINE
  5
1897
330
1740
100
AcDbEntity
  8
P-55C6
  6
Continuous
 62
     2
370
    -2
100
AcDbLine
 10
221.6527915948202
 20
1685.448679823534
 30
0.0
 11
221.6527915948202
 21
1670.448679823583
 31
0.0
  0
SOLID
  5
1898
330
1740
100
AcDbEntity
  8
P-55C6
  6
Continuous
 62
     2
100
AcDbTrace
 10
218.3194582614869
 20
1705.448679823534
 30
0.0
 11
224.9861249281536
 21
1705.448679823534
 31
0.0
 12
221.6527915948202
 22
1685.448679823534
 32
0.0
 13
221.6527915948202
 23
1685.448679823534
 33
0.0
  0
SOLID
  5
1899
330
1740
100
AcDbEntity
  8
P-55C6
  6
Continuous
 62
     2
100
AcDbTrace
 10
218.3194582614869
 20
1650.448679823583
 30
0.0
 11
224.9861249281536
 21
1650.448679823583
 31
0.0
 12
221.6527915948202
 22
1670.448679823583
 32
0.0
 13
221.6527915948202
 23
1670.448679823583
 33
0.0
  0
MTEXT
  5
189A
330
1740
100
AcDbEntity
  8
P-55C6
  6
Continuous
 62
     1
100
AcDbMText
 10
201.426844072954
 20
1602.008446587431
 30
0.0
 40
20.0
 41
0.0
 71
     5
 72
     1
  1
\A1;1.5
  7
Stile_Quota
 11
0.0000000000000001
 21
1.0
 31
0.0
 73
     1
 44
1.0
1001
ACAD
1000
MTEXTBEGIN
1070
    73
1070
     1
1070
    44
1040
1.0
1070
    74
1070
     0
1000
MTEXTEND
  0
POINT
  5
189B
330
1740
100
AcDbEntity
  8
Defpoints
  6
Continuous
 62
     0
100
AcDbPoint
 10
147.8679264460697
 20
1685.448679823534
 30
0.0
  0
POINT
  5
189C
330
1740
100
AcDbEntity
  8
Defpoints
  6
Continuous
 62
     0
100
AcDbPoint
 10
147.8679264460697
 20
1670.448679823583
 30
0.0
  0
POINT
  5
189D
330
1740
100
AcDbEntity
  8
Defpoints
  6
Continuous
 62
     0
100
AcDbPoint
 10
221.6527915948202
 20
1670.448679823583
 30
0.0
  0
ENDBLK
  5
1742
330
1740
100
AcDbEntity
  8
0
 62
     3
100
AcDbBlockEnd
  0
BLOCK
  5
175D
330
175C
100
AcDbEntity
  8
0
 62
     3
100
AcDbBlockBegin
  2
*D36
 70
     1
 10
0.0
 20
0.0
 30
0.0
  3
*D36
  1

  0
LINE
  5
1888
330
175C
100
AcDbEntity
  8
P-55C6
  6
Continuous
 62
     2
370
    -2
100
AcDbLine
 10
157.8679264460697
 20
1685.448679823534
 30
0.0
 11
236.6527915948202
 21
1685.448679823534
 31
0.0
  0
LINE
  5
1889
330
175C
100
AcDbEntity
  8
P-55C6
  6
Continuous
 62
     2
370
    -2
100
AcDbLine
 10
214.8679264461662
 20
1740.448679823454
 30
0.0
 11
236.6527915948203
 21
1740.448679823454
 31
0.0
  0
LINE
  5
188A
330
175C
100
AcDbEntity
  8
P-55C6
  6
Continuous
 62
     2
370
    -2
100
AcDbLine
 10
221.6527915948202
 20
1665.448679823534
 30
0.0
 11
221.6527915948202
 21
1645.448679823534
 31
0.0
  0
LINE
  5
188B
330
175C
100
AcDbEntity
  8
P-55C6
  6
Continuous
 62
     2
370
    -2
100
AcDbLine
 10
221.6527915948203
 20
1760.448679823454
 30
0.0
 11
221.6527915948203
 21
1780.448679823454
 31
0.0
  0
LINE
  5
188C
330
175C
100
AcDbEntity
  8
P-55C6
  6
Continuous
 62
     2
370
    -2
100
AcDbLine
 10
221.6527915948202
 20
1685.448679823534
 30
0.0
 11
221.6527915948203
 21
1740.448679823454
 31
0.0
  0
SOLID
  5
188D
330
175C
100
AcDbEntity
  8
P-55C6
  6
Continuous
 62
     2
100
AcDbTrace
 10
218.3194582614869
 20
1665.448679823534
 30
0.0
 11
224.9861249281536
 21
1665.448679823534
 31
0.0
 12
221.6527915948202
 22
1685.448679823534
 32
0.0
 13
221.6527915948202
 23
1685.448679823534
 33
0.0
  0
SOLID
  5
188E
330
175C
100
AcDbEntity
  8
P-55C6
  6
Continuous
 62
     2
100
AcDbTrace
 10
218.3194582614869
 20
1760.448679823454
 30
0.0
 11
224.9861249281536
 21
1760.448679823454
 31
0.0
 12
221.6527915948203
 22
1740.448679823454
 32
0.0
 13
221.6527915948203
 23
1740.448679823454
 33
0.0
  0
MTEXT
  5
188F
330
175C
100
AcDbEntity
  8
P-55C6
  6
Continuous
 62
     1
100
AcDbMText
 10
201.4268440729541
 20
1712.948679823494
 30
0.0
 40
20.0
 41
0.0
 71
     5
 72
     1
  1
\A1;5.5
  7
Stile_Quota
 11
0.0000000000000001
 21
1.0
 31
0.0
 73
     1
 44
1.0
1001
ACAD
1000
MTEXTBEGIN
1070
    73
1070
     1
1070
    44
1040
1.0
1070
    74
1070
     0
1000
MTEXTEND
  0
POINT
  5
1890
330
175C
100
AcDbEntity
  8
Defpoints
  6
Continuous
 62
     0
100
AcDbPoint
 10
147.8679264460697
 20
1685.448679823534
 30
0.0
  0
POINT
  5
1891
330
175C
100
AcDbEntity
  8
Defpoints
  6
Continuous
 62
     0
100
AcDbPoint
 10
204.8679264461662
 20
1740.448679823454
 30
0.0
  0
POINT
  5
1892
330
175C
100
AcDbEntity
  8
Defpoints
  6
Continuous
 62
     0
100
AcDbPoint
 10
221.6527915948203
 20
1740.448679823454
 30
0.0
  0
ENDBLK
  5
175E
330
175C
100
AcDbEntity
  8
0
 62
     3
100
AcDbBlockEnd
  0
BLOCK
  5
178F
330
178E
100
AcDbEntity
  8
0
 62
     3
100
AcDbBlockBegin
  2
*D37
 70
     1
 10
0.0
 20
0.0
 30
0.0
  3
*D37
  1

  0
LINE
  5
179D
330
178E
100
AcDbEntity
  8
P-55C6
  6
Continuous
 62
     2
370
    -2
100
AcDbLine
 10
344.8679264460152
 20
1743.44867982345
 30
0.0
 11
319.1183875138449
 21
1743.44867982345
 31
0.0
  0
LINE
  5
179E
330
178E
100
AcDbEntity
  8
P-55C6
  6
Continuous
 62
     2
370
    -2
100
AcDbLine
 10
344.8679264460152
 20
1740.448679823454
 30
0.0
 11
319.1183875138449
 21
1740.448679823454
 31
0.0
  0
LINE
  5
179F
330
178E
100
AcDbEntity
  8
P-55C6
  6
Continuous
 62
     2
370
    -2
100
AcDbLine
 10
334.1183875138449
 20
1763.44867982345
 30
0.0
 11
334.1183875138449
 21
1783.44867982345
 31
0.0
  0
LINE
  5
17A0
330
178E
100
AcDbEntity
  8
P-55C6
  6
Continuous
 62
     2
370
    -2
100
AcDbLine
 10
334.1183875138449
 20
1720.448679823453
 30
0.0
 11
334.1183875138449
 21
1643.801449502754
 31
0.0
  0
LINE
  5
17A1
330
178E
100
AcDbEntity
  8
P-55C6
  6
Continuous
 62
     2
370
    -2
100
AcDbLine
 10
334.1183875138449
 20
1743.44867982345
 30
0.0
 11
334.1183875138449
 21
1740.448679823454
 31
0.0
  0
SOLID
  5
17A2
330
178E
100
AcDbEntity
  8
P-55C6
  6
Continuous
 62
     2
100
AcDbTrace
 10
330.7850541805116
 20
1763.44867982345
 30
0.0
 11
337.4517208471782
 21
1763.44867982345
 31
0.0
 12
334.1183875138449
 22
1743.44867982345
 32
0.0
 13
334.1183875138449
 23
1743.44867982345
 33
0.0
  0
SOLID
  5
17A3
330
178E
100
AcDbEntity
  8
P-55C6
  6
Continuous
 62
     2
100
AcDbTrace
 10
330.7850541805116
 20
1720.448679823453
 30
0.0
 11
337.4517208471782
 21
1720.448679823453
 31
0.0
 12
334.1183875138449
 22
1740.448679823454
 32
0.0
 13
334.1183875138449
 23
1740.448679823454
 33
0.0
  0
MTEXT
  5
17A4
330
178E
100
AcDbEntity
  8
P-55C6
  6
Continuous
 62
     1
100
AcDbMText
 10
313.8924399919788
 20
1672.125064663104
 30
0.0
 40
20.0
 41
0.0
 71
     5
 72
     1
  1
\A1;0.3
  7
Stile_Quota
 11
0.0000000000000001
 21
1.0
 31
0.0
 73
     1
 44
1.0
1001
ACAD
1000
MTEXTBEGIN
1070
    73
1070
     1
1070
    44
1040
1.0
1070
    74
1070
     0
1000
MTEXTEND
  0
POINT
  5
17A5
330
178E
100
AcDbEntity
  8
Defpoints
  6
Continuous
 62
     0
100
AcDbPoint
 10
354.8679264460152
 20
1743.44867982345
 30
0.0
  0
POINT
  5
17A6
330
178E
100
AcDbEntity
  8
Defpoints
  6
Continuous
 62
     0
100
AcDbPoint
 10
354.8679264460152
 20
1740.448679823454
 30
0.0
  0
POINT
  5
17A7
330
178E
100
AcDbEntity
  8
Defpoints
  6
Continuous
 62
     0
100
AcDbPoint
 10
334.1183875138449
 20
1740.448679823454
 30
0.0
  0
ENDBLK
  5
1790
330
178E
100
AcDbEntity
  8
0
 62
     3
100
AcDbBlockEnd
  0
BLOCK
  5
17AB
330
17AA
100
AcDbEntity
  8
0
 62
     3
100
AcDbBlockBegin
  2
*D38
 70
     1
 10
0.0
 20
0.0
 30
0.0
  3
*D38
  1

  0
LINE
  5
17B9
330
17AA
100
AcDbEntity
  8
P-55C6
  6
Continuous
 62
     2
370
    -2
100
AcDbLine
 10
412.8679264459588
 20
1545.448679823658
 30
0.0
 11
412.8679264459588
 21
1571.597842390183
 31
0.0
  0
LINE
  5
17BA
330
17AA
100
AcDbEntity
  8
P-55C6
  6
Continuous
 62
     2
370
    -2
100
AcDbLine
 10
409.8679264459605
 20
1545.448679823658
 30
0.0
 11
409.8679264459605
 21
1571.597842390183
 31
0.0
  0
LINE
  5
17BB
330
17AA
100
AcDbEntity
  8
P-55C6
  6
Continuous
 62
     2
370
    -2
100
AcDbLine
 10
432.8679264459587
 20
1556.597842390183
 30
0.0
 11
452.8679264459587
 21
1556.597842390183
 31
0.0
  0
LINE
  5
17BC
330
17AA
100
AcDbEntity
  8
P-55C6
  6
Continuous
 62
     2
370
    -2
100
AcDbLine
 10
389.8679264459606
 20
1556.597842390183
 30
0.0
 11
313.220696125261
 21
1556.597842390183
 31
0.0
  0
LINE
  5
17BD
330
17AA
100
AcDbEntity
  8
P-55C6
  6
Continuous
 62
     2
370
    -2
100
AcDbLine
 10
412.8679264459588
 20
1556.597842390183
 30
0.0
 11
409.8679264459605
 21
1556.597842390183
 31
0.0
  0
SOLID
  5
17BE
330
17AA
100
AcDbEntity
  8
P-55C6
  6
Continuous
 62
     2
100
AcDbTrace
 10
432.8679264459587
 20
1559.931175723517
 30
0.0
 11
432.8679264459587
 21
1553.26450905685
 31
0.0
 12
412.8679264459588
 22
1556.597842390183
 32
0.0
 13
412.8679264459588
 23
1556.597842390183
 33
0.0
  0
SOLID
  5
17BF
330
17AA
100
AcDbEntity
  8
P-55C6
  6
Continuous
 62
     2
100
AcDbTrace
 10
389.8679264459606
 20
1559.931175723517
 30
0.0
 11
389.8679264459606
 21
1553.26450905685
 31
0.0
 12
409.8679264459605
 22
1556.597842390183
 32
0.0
 13
409.8679264459605
 23
1556.597842390183
 33
0.0
  0
MTEXT
  5
17C0
330
17AA
100
AcDbEntity
  8
P-55C6
  6
Continuous
 62
     1
100
AcDbMText
 10
341.5443112856108
 20
1576.823789912049
 30
0.0
 40
20.0
 41
0.0
 71
     5
 72
     1
  1
\A1;0.3
  7
Stile_Quota
 73
     1
 44
1.0
1001
ACAD
1000
MTEXTBEGIN
1070
    73
1070
     1
1070
    44
1040
1.0
1070
    74
1070
     0
1000
MTEXTEND
  0
POINT
  5
17C1
330
17AA
100
AcDbEntity
  8
Defpoints
  6
Continuous
 62
     0
100
AcDbPoint
 10
412.8679264459588
 20
1535.448679823657
 30
0.0
  0
POINT
  5
17C2
330
17AA
100
AcDbEntity
  8
Defpoints
  6
Continuous
 62
     0
100
AcDbPoint
 10
409.8679264459605
 20
1535.448679823657
 30
0.0
  0
POINT
  5
17C3
330
17AA
100
AcDbEntity
  8
Defpoints
  6
Continuous
 62
     0
100
AcDbPoint
 10
409.8679264459605
 20
1556.597842390183
 30
0.0
  0
ENDBLK
  5
17AC
330
17AA
100
AcDbEntity
  8
0
 62
     3
100
AcDbBlockEnd
  0
BLOCK
  5
17C7
330
17C6
100
AcDbEntity
  8
0
 62
     3
100
AcDbBlockBegin
  2
*D39
 70
     1
 10
0.0
 20
0.0
 30
0.0
  3
*D39
  1

  0
LINE
  5
17D5
330
17C6
100
AcDbEntity
  8
P-55C6
  6
Continuous
 62
     2
370
    -2
100
AcDbLine
 10
-153.1320735537792
 20
1545.448679823658
 30
0.0
 11
-153.1320735537792
 21
1573.476438080995
 31
0.0
  0
LINE
  5
17D6
330
17C6
100
AcDbEntity
  8
P-55C6
  6
Continuous
 62
     2
370
    -2
100
AcDbLine
 10
-150.1320735537829
 20
1545.448679823658
 30
0.0
 11
-150.1320735537829
 21
1573.476438080995
 31
0.0
  0
LINE
  5
17D7
330
17C6
100
AcDbEntity
  8
P-55C6
  6
Continuous
 62
     2
370
    -2
100
AcDbLine
 10
-173.1320735537792
 20
1558.476438080996
 30
0.0
 11
-193.1320735537792
 21
1558.476438080996
 31
0.0
  0
LINE
  5
17D8
330
17C6
100
AcDbEntity
  8
P-55C6
  6
Continuous
 62
     2
370
    -2
100
AcDbLine
 10
-130.1320735537829
 20
1558.476438080996
 30
0.0
 11
-53.48484323308319
 21
1558.476438080996
 31
0.0
  0
LINE
  5
17D9
330
17C6
100
AcDbEntity
  8
P-55C6
  6
Continuous
 62
     2
370
    -2
100
AcDbLine
 10
-153.1320735537792
 20
1558.476438080996
 30
0.0
 11
-150.1320735537829
 21
1558.476438080996
 31
0.0
  0
SOLID
  5
17DA
330
17C6
100
AcDbEntity
  8
P-55C6
  6
Continuous
 62
     2
100
AcDbTrace
 10
-173.1320735537792
 20
1561.809771414329
 30
0.0
 11
-173.1320735537792
 21
1555.143104747662
 31
0.0
 12
-153.1320735537792
 22
1558.476438080996
 32
0.0
 13
-153.1320735537792
 23
1558.476438080996
 33
0.0
  0
SOLID
  5
17DB
330
17C6
100
AcDbEntity
  8
P-55C6
  6
Continuous
 62
     2
100
AcDbTrace
 10
-130.1320735537829
 20
1561.809771414329
 30
0.0
 11
-130.1320735537829
 21
1555.143104747662
 31
0.0
 12
-150.1320735537829
 22
1558.476438080996
 32
0.0
 13
-150.1320735537829
 23
1558.476438080996
 33
0.0
  0
MTEXT
  5
17DC
330
17C6
100
AcDbEntity
  8
P-55C6
  6
Continuous
 62
     1
100
AcDbMText
 10
-81.80845839343303
 20
1578.702385602861
 30
0.0
 40
20.0
 41
0.0
 71
     5
 72
     1
  1
\A1;0.3
  7
Stile_Quota
 73
     1
 44
1.0
1001
ACAD
1000
MTEXTBEGIN
1070
    73
1070
     1
1070
    44
1040
1.0
1070
    74
1070
     0
1000
MTEXTEND
  0
POINT
  5
17DD
330
17C6
100
AcDbEntity
  8
Defpoints
  6
Continuous
 62
     0
100
AcDbPoint
 10
-153.1320735537792
 20
1535.448679823657
 30
0.0
  0
POINT
  5
17DE
330
17C6
100
AcDbEntity
  8
Defpoints
  6
Continuous
 62
     0
100
AcDbPoint
 10
-150.1320735537829
 20
1535.448679823657
 30
0.0
  0
POINT
  5
17DF
330
17C6
100
AcDbEntity
  8
Defpoints
  6
Continuous
 62
     0
100
AcDbPoint
 10
-150.1320735537829
 20
1558.476438080996
 30
0.0
  0
ENDBLK
  5
17C8
330
17C6
100
AcDbEntity
  8
0
 62
     3
100
AcDbBlockEnd
  0
BLOCK
  5
17E3
330
17E2
100
AcDbEntity
  8
0
 62
     3
100
AcDbBlockBegin
  2
*D40
 70
     1
 10
0.0
 20
0.0
 30
0.0
  3
*D40
  1

  0
LINE
  5
17F1
330
17E2
100
AcDbEntity
  8
P-55C6
  6
Continuous
 62
     2
370
    -2
100
AcDbLine
 10
-55.13207355388477
 20
1743.44867982345
 30
0.0
 11
-80.62064090651075
 21
1743.44867982345
 31
0.0
  0
LINE
  5
17F2
330
17E2
100
AcDbEntity
  8
P-55C6
  6
Continuous
 62
     2
370
    -2
100
AcDbLine
 10
-55.13207355388477
 20
1740.448679823454
 30
0.0
 11
-80.62064090651075
 21
1740.448679823454
 31
0.0
  0
LINE
  5
17F3
330
17E2
100
AcDbEntity
  8
P-55C6
  6
Continuous
 62
     2
370
    -2
100
AcDbLine
 10
-65.62064090651073
 20
1763.44867982345
 30
0.0
 11
-65.62064090651073
 21
1783.44867982345
 31
0.0
  0
LINE
  5
17F4
330
17E2
100
AcDbEntity
  8
P-55C6
  6
Continuous
 62
     2
370
    -2
100
AcDbLine
 10
-65.62064090651074
 20
1720.448679823453
 30
0.0
 11
-65.62064090651076
 21
1643.801449502754
 31
0.0
  0
LINE
  5
17F5
330
17E2
100
AcDbEntity
  8
P-55C6
  6
Continuous
 62
     2
370
    -2
100
AcDbLine
 10
-65.62064090651074
 20
1743.44867982345
 30
0.0
 11
-65.62064090651074
 21
1740.448679823454
 31
0.0
  0
SOLID
  5
17F6
330
17E2
100
AcDbEntity
  8
P-55C6
  6
Continuous
 62
     2
100
AcDbTrace
 10
-68.95397423984405
 20
1763.44867982345
 30
0.0
 11
-62.2873075731774
 21
1763.44867982345
 31
0.0
 12
-65.62064090651074
 22
1743.44867982345
 32
0.0
 13
-65.62064090651074
 23
1743.44867982345
 33
0.0
  0
SOLID
  5
17F7
330
17E2
100
AcDbEntity
  8
P-55C6
  6
Continuous
 62
     2
100
AcDbTrace
 10
-68.95397423984407
 20
1720.448679823453
 30
0.0
 11
-62.28730757317741
 21
1720.448679823453
 31
0.0
 12
-65.62064090651074
 22
1740.448679823454
 32
0.0
 13
-65.62064090651074
 23
1740.448679823454
 33
0.0
  0
MTEXT
  5
17F8
330
17E2
100
AcDbEntity
  8
P-55C6
  6
Continuous
 62
     1
100
AcDbMText
 10
-85.84658842837692
 20
1672.125064663104
 30
0.0
 40
20.0
 41
0.0
 71
     5
 72
     1
  1
\A1;0.3
  7
Stile_Quota
 11
0.0000000000000001
 21
1.0
 31
0.0
 73
     1
 44
1.0
1001
ACAD
1000
MTEXTBEGIN
1070
    73
1070
     1
1070
    44
1040
1.0
1070
    74
1070
     0
1000
MTEXTEND
  0
POINT
  5
17F9
330
17E2
100
AcDbEntity
  8
Defpoints
  6
Continuous
 62
     0
100
AcDbPoint
 10
-45.13207355388476
 20
1743.44867982345
 30
0.0
  0
POINT
  5
17FA
330
17E2
100
AcDbEntity
  8
Defpoints
  6
Continuous
 62
     0
100
AcDbPoint
 10
-45.13207355388476
 20
1740.448679823454
 30
0.0
  0
POINT
  5
17FB
330
17E2
100
AcDbEntity
  8
Defpoints
  6
Continuous
 62
     0
100
AcDbPoint
 10
-65.62064090651074
 20
1740.448679823454
 30
0.0
  0
ENDBLK
  5
17E4
330
17E2
100
AcDbEntity
  8
0
 62
     3
100
AcDbBlockEnd
  0
BLOCK
  5
17FF
330
17FE
100
AcDbEntity
  8
0
 62
     3
100
AcDbBlockBegin
  2
*D41
 70
     1
 10
0.0
 20
0.0
 30
0.0
  3
*D41
  1

  0
LINE
  5
180D
330
17FE
100
AcDbEntity
  8
P-55C6
  6
Continuous
 62
     2
370
    -2
100
AcDbLine
 10
44.86792644601519
 20
1477.448679823714
 30
0.0
 11
18.07376280159768
 21
1477.448679823714
 31
0.0
  0
LINE
  5
180E
330
17FE
100
AcDbEntity
  8
P-55C6
  6
Continuous
 62
     2
370
    -2
100
AcDbLine
 10
44.86792644601519
 20
1480.448679823712
 30
0.0
 11
18.07376280159769
 21
1480.448679823712
 31
0.0
  0
LINE
  5
180F
330
17FE
100
AcDbEntity
  8
P-55C6
  6
Continuous
 62
     2
370
    -2
100
AcDbLine
 10
33.07376280159769
 20
1457.448679823714
 30
0.0
 11
33.07376280159768
 21
1437.448679823714
 31
0.0
  0
LINE
  5
1810
330
17FE
100
AcDbEntity
  8
P-55C6
  6
Continuous
 62
     2
370
    -2
100
AcDbLine
 10
33.0737628015977
 20
1500.448679823712
 30
0.0
 11
33.07376280159771
 21
1577.095910144412
 31
0.0
  0
LINE
  5
1811
330
17FE
100
AcDbEntity
  8
P-55C6
  6
Continuous
 62
     2
370
    -2
100
AcDbLine
 10
33.07376280159769
 20
1477.448679823714
 30
0.0
 11
33.07376280159769
 21
1480.448679823712
 31
0.0
  0
SOLID
  5
1812
330
17FE
100
AcDbEntity
  8
P-55C6
  6
Continuous
 62
     2
100
AcDbTrace
 10
29.74042946826435
 20
1457.448679823714
 30
0.0
 11
36.40709613493103
 21
1457.448679823714
 31
0.0
 12
33.07376280159769
 22
1477.448679823714
 32
0.0
 13
33.07376280159769
 23
1477.448679823714
 33
0.0
  0
SOLID
  5
1813
330
17FE
100
AcDbEntity
  8
P-55C6
  6
Continuous
 62
     2
100
AcDbTrace
 10
29.74042946826437
 20
1500.448679823712
 30
0.0
 11
36.40709613493103
 21
1500.448679823712
 31
0.0
 12
33.07376280159769
 22
1480.448679823712
 32
0.0
 13
33.07376280159769
 23
1480.448679823712
 33
0.0
  0
MTEXT
  5
1814
330
17FE
100
AcDbEntity
  8
P-55C6
  6
Continuous
 62
     1
100
AcDbMText
 10
12.84781527973156
 20
1548.772294984062
 30
0.0
 40
20.0
 41
0.0
 71
     5
 72
     1
  1
\A1;0.3
  7
Stile_Quota
 11
0.0000000000000001
 21
1.0
 31
0.0
 73
     1
 44
1.0
1001
ACAD
1000
MTEXTBEGIN
1070
    73
1070
     1
1070
    44
1040
1.0
1070
    74
1070
     0
1000
MTEXTEND
  0
POINT
  5
1815
330
17FE
100
AcDbEntity
  8
Defpoints
  6
Continuous
 62
     0
100
AcDbPoint
 10
54.86792644601519
 20
1477.448679823714
 30
0.0
  0
POINT
  5
1816
330
17FE
100
AcDbEntity
  8
Defpoints
  6
Continuous
 62
     0
100
AcDbPoint
 10
54.86792644601519
 20
1480.448679823712
 30
0.0
  0
POINT
  5
1817
330
17FE
100
AcDbEntity
  8
Defpoints
  6
Continuous
 62
     0
100
AcDbPoint
 10
33.07376280159769
 20
1480.448679823712
 30
0.0
  0
ENDBLK
  5
1800
330
17FE
100
AcDbEntity
  8
0
 62
     3
100
AcDbBlockEnd
  0
BLOCK
  5
181B
330
181A
100
AcDbEntity
  8
0
 62
     3
100
AcDbBlockBegin
  2
*D42
 70
     1
 10
0.0
 20
0.0
 30
0.0
  3
*D42
  1

  0
LINE
  5
189E
330
181A
100
AcDbEntity
  8
P-55C6
  6
Continuous
 62
     2
370
    -2
100
AcDbLine
 10
157.8679264460697
 20
1550.448679823583
 30
0.0
 11
286.9613324817328
 21
1550.448679823583
 31
0.0
  0
LINE
  5
189F
330
181A
100
AcDbEntity
  8
P-55C6
  6
Continuous
 62
     2
370
    -2
100
AcDbLine
 10
157.8679264460697
 20
1535.448679823632
 30
0.0
 11
286.9613324817328
 21
1535.448679823632
 31
0.0
  0
LINE
  5
18A0
330
181A
100
AcDbEntity
  8
P-55C6
  6
Continuous
 62
     2
370
    -2
100
AcDbLine
 10
271.9613324817328
 20
1515.448679823632
 30
0.0
 11
271.9613324817328
 21
1495.448679823632
 31
0.0
  0
LINE
  5
18A1
330
181A
100
AcDbEntity
  8
P-55C6
  6
Continuous
 62
     2
370
    -2
100
AcDbLine
 10
271.9613324817328
 20
1570.448679823583
 30
0.0
 11
271.9613324817328
 21
1647.329146295886
 31
0.0
  0
LINE
  5
18A2
330
181A
100
AcDbEntity
  8
P-55C6
  6
Continuous
 62
     2
370
    -2
100
AcDbLine
 10
271.9613324817328
 20
1535.448679823632
 30
0.0
 11
271.9613324817328
 21
1550.448679823583
 31
0.0
  0
SOLID
  5
18A3
330
181A
100
AcDbEntity
  8
P-55C6
  6
Continuous
 62
     2
100
AcDbTrace
 10
268.6279991483995
 20
1515.448679823632
 30
0.0
 11
275.2946658150662
 21
1515.448679823632
 31
0.0
 12
271.9613324817328
 22
1535.448679823632
 32
0.0
 13
271.9613324817328
 23
1535.448679823632
 33
0.0
  0
SOLID
  5
18A4
330
181A
100
AcDbEntity
  8
P-55C6
  6
Continuous
 62
     2
100
AcDbTrace
 10
268.6279991483995
 20
1570.448679823583
 30
0.0
 11
275.2946658150662
 21
1570.448679823583
 31
0.0
 12
271.9613324817328
 22
1550.448679823583
 32
0.0
 13
271.9613324817328
 23
1550.448679823583
 33
0.0
  0
MTEXT
  5
18A5
330
181A
100
AcDbEntity
  8
P-55C6
  6
Continuous
 62
     1
100
AcDbMText
 10
251.7353849598667
 20
1618.888913059734
 30
0.0
 40
20.0
 41
0.0
 71
     5
 72
     1
  1
\A1;1.5
  7
Stile_Quota
 11
0.0000000000000001
 21
1.0
 31
0.0
 73
     1
 44
1.0
1001
ACAD
1000
MTEXTBEGIN
1070
    73
1070
     1
1070
    44
1040
1.0
1070
    74
1070
     0
1000
MTEXTEND
  0
POINT
  5
18A6
330
181A
100
AcDbEntity
  8
Defpoints
  6
Continuous
 62
     0
100
AcDbPoint
 10
147.8679264460697
 20
1550.448679823583
 30
0.0
  0
POINT
  5
18A7
330
181A
100
AcDbEntity
  8
Defpoints
  6
Continuous
 62
     0
100
AcDbPoint
 10
147.8679264460697
 20
1535.448679823632
 30
0.0
  0
POINT
  5
18A8
330
181A
100
AcDbEntity
  8
Defpoints
  6
Continuous
 62
     0
100
AcDbPoint
 10
271.9613324817328
 20
1535.448679823632
 30
0.0
  0
ENDBLK
  5
181C
330
181A
100
AcDbEntity
  8
0
 62
     3
100
AcDbBlockEnd
  0
BLOCK
  5
1842
330
1841
100
AcDbEntity
  8
0
 62
     3
100
AcDbBlockBegin
  2
*D43
 70
     1
 10
0.0
 20
0.0
 30
0.0
  3
*D43
  1

  0
LINE
  5
18BF
330
1841
100
AcDbEntity
  8
P-55C6
  6
Continuous
 62
     2
370
    -2
100
AcDbLine
 10
157.8679264460697
 20
1535.448679823632
 30
0.0
 11
286.9613324817328
 21
1535.448679823632
 31
0.0
  0
LINE
  5
18C0
330
1841
100
AcDbEntity
  8
P-55C6
  6
Continuous
 62
     2
370
    -2
100
AcDbLine
 10
214.8679264461662
 20
1480.448679823712
 30
0.0
 11
286.9613324817328
 21
1480.448679823712
 31
0.0
  0
LINE
  5
18C1
330
1841
100
AcDbEntity
  8
P-55C6
  6
Continuous
 62
     2
370
    -2
100
AcDbLine
 10
271.9613324817328
 20
1555.448679823632
 30
0.0
 11
271.9613324817328
 21
1575.448679823632
 31
0.0
  0
LINE
  5
18C2
330
1841
100
AcDbEntity
  8
P-55C6
  6
Continuous
 62
     2
370
    -2
100
AcDbLine
 10
271.9613324817328
 20
1460.448679823712
 30
0.0
 11
271.9613324817328
 21
1440.448679823712
 31
0.0
  0
LINE
  5
18C3
330
1841
100
AcDbEntity
  8
P-55C6
  6
Continuous
 62
     2
370
    -2
100
AcDbLine
 10
271.9613324817328
 20
1535.448679823632
 30
0.0
 11
271.9613324817328
 21
1480.448679823712
 31
0.0
  0
SOLID
  5
18C4
330
1841
100
AcDbEntity
  8
P-55C6
  6
Continuous
 62
     2
100
AcDbTrace
 10
268.6279991483995
 20
1555.448679823632
 30
0.0
 11
275.2946658150662
 21
1555.448679823632
 31
0.0
 12
271.9613324817328
 22
1535.448679823632
 32
0.0
 13
271.9613324817328
 23
1535.448679823632
 33
0.0
  0
SOLID
  5
18C5
330
1841
100
AcDbEntity
  8
P-55C6
  6
Continuous
 62
     2
100
AcDbTrace
 10
268.6279991483995
 20
1460.448679823712
 30
0.0
 11
275.2946658150662
 21
1460.448679823712
 31
0.0
 12
271.9613324817328
 22
1480.448679823712
 32
0.0
 13
271.9613324817328
 23
1480.448679823712
 33
0.0
  0
MTEXT
  5
18C6
330
1841
100
AcDbEntity
  8
P-55C6
  6
Continuous
 62
     1
100
AcDbMText
 10
251.7353849598667
 20
1507.948679823672
 30
0.0
 40
20.0
 41
0.0
 71
     5
 72
     1
  1
\A1;5.5
  7
Stile_Quota
 11
0.0000000000000001
 21
1.0
 31
0.0
 73
     1
 44
1.0
1001
ACAD
1000
MTEXTBEGIN
1070
    73
1070
     1
1070
    44
1040
1.0
1070
    74
1070
     0
1000
MTEXTEND
  0
POINT
  5
18C7
330
1841
100
AcDbEntity
  8
Defpoints
  6
Continuous
 62
     0
100
AcDbPoint
 10
147.8679264460697
 20
1535.448679823632
 30
0.0
  0
POINT
  5
18C8
330
1841
100
AcDbEntity
  8
Defpoints
  6
Continuous
 62
     0
100
AcDbPoint
 10
204.8679264461662
 20
1480.448679823712
 30
0.0
  0
POINT
  5
18C9
330
1841
100
AcDbEntity
  8
Defpoints
  6
Continuous
 62
     0
100
AcDbPoint
 10
271.9613324817328
 20
1480.448679823712
 30
0.0
  0
ENDBLK
  5
1843
330
1841
100
AcDbEntity
  8
0
 62
     3
100
AcDbBlockEnd
  0
BLOCK
  5
1B1A
330
1B19
100
AcDbEntity
  8
0
 62
     3
100
AcDbBlockBegin
  2
*D45
 70
     1
 10
0.0
 20
0.0
 30
0.0
  3
*D45
  1

  0
MTEXT
  5
1B1C
330
1B19
100
AcDbEntity
  8
P-503E
  6
Continuous
 62
    30
100
AcDbMText
 10
2142.529107634584
 20
1752.26674225816
 30
0.0
 40
20.0
 41
0.0
 71
     5
 72
     1
  1
\A1;1000
  7
Stile_Quota_FISSO
 73
     1
 44
1.0
1001
ACAD
1000
MTEXTBEGIN
1070
    73
1070
     1
1070
    44
1040
1.0
1070
    74
1070
     0
1000
MTEXTEND
  0
POINT
  5
1B1D
330
1B19
100
AcDbEntity
  8
Defpoints
  6
Continuous
 62
     0
100
AcDbPoint
 10
1642.529107634584
 20
1737.194182663433
 30
0.0
  0
POINT
  5
1B1E
330
1B19
100
AcDbEntity
  8
Defpoints
  6
Continuous
 62
     0
100
AcDbPoint
 10
2642.529107634584
 20
1737.194182663433
 30
0.0
  0
POINT
  5
1B1F
330
1B19
100
AcDbEntity
  8
Defpoints
  6
Continuous
 62
     0
100
AcDbPoint
 10
2642.529107634584
 20
1752.26674225816
 30
0.0
  0
ENDBLK
  5
1B1B
330
1B19
100
AcDbEntity
  8
0
 62
     3
100
AcDbBlockEnd
  0
BLOCK
  5
1B42
330
1B41
100
AcDbEntity
  8
0
 62
     3
100
AcDbBlockBegin
  2
*D46
 70
     1
 10
0.0
 20
0.0
 30
0.0
  3
*D46
  1

  0
LINE
  5
1B4E
330
1B41
100
AcDbEntity
  8
P-0000
  6
Continuous
 62
     2
370
    -2
100
AcDbLine
 10
-170.1320735537597
 20
1475.448679823706
 30
0.0
 11
-170.1320735537597
 21
1219.505701929387
 31
0.0
  0
LINE
  5
1B4F
330
1B41
100
AcDbEntity
  8
P-0000
  6
Continuous
 62
     2
370
    -2
100
AcDbLine
 10
429.867926445941
 20
1475.448679823706
 30
0.0
 11
429.867926445941
 21
1219.505701929387
 31
0.0
  0
LINE
  5
1B50
330
1B41
100
AcDbEntity
  8
P-0000
  6
Continuous
 62
     2
370
    -2
100
AcDbLine
 10
-150.1320735537597
 20
1234.505701929387
 30
0.0
 11
409.867926445941
 21
1234.505701929387
 31
0.0
  0
SOLID
  5
1B51
330
1B41
100
AcDbEntity
  8
P-0000
  6
Continuous
 62
     2
100
AcDbTrace
 10
-150.1320735537597
 20
1237.83903526272
 30
0.0
 11
-150.1320735537597
 21
1231.172368596054
 31
0.0
 12
-170.1320735537597
 22
1234.505701929387
 32
0.0
 13
-170.1320735537597
 23
1234.505701929387
 33
0.0
  0
SOLID
  5
1B52
330
1B41
100
AcDbEntity
  8
P-0000
  6
Continuous
 62
     2
100
AcDbTrace
 10
409.867926445941
 20
1237.83903526272
 30
0.0
 11
409.867926445941
 21
1231.172368596054
 31
0.0
 12
429.867926445941
 22
1234.505701929387
 32
0.0
 13
429.867926445941
 23
1234.505701929387
 33
0.0
  0
MTEXT
  5
1B53
330
1B41
100
AcDbEntity
  8
P-0000
  6
Continuous
 62
     1
100
AcDbMText
 10
129.8679264460907
 20
1254.731649451253
 30
0.0
 40
20.0
 41
0.0
 71
     5
 72
     1
  1
\A1;600
  7
Stile_Quota
 73
     1
 44
1.0
1001
ACAD
1000
MTEXTBEGIN
1070
    73
1070
     1
1070
    44
1040
1.0
1070
    74
1070
     0
1000
MTEXTEND
  0
POINT
  5
1B54
330
1B41
100
AcDbEntity
  8
Defpoints
  6
Continuous
 62
     0
100
AcDbPoint
 10
-170.1320735537597
 20
1485.448679823706
 30
0.0
  0
POINT
  5
1B55
330
1B41
100
AcDbEntity
  8
Defpoints
  6
Continuous
 62
     0
100
AcDbPoint
 10
429.867926445941
 20
1485.448679823706
 30
0.0
  0
POINT
  5
1B56
330
1B41
100
AcDbEntity
  8
Defpoints
  6
Continuous
 62
     0
100
AcDbPoint
 10
429.867926445941
 20
1234.505701929387
 30
0.0
  0
ENDBLK
  5
1B43
330
1B41
100
AcDbEntity
  8
0
 62
     3
100
AcDbBlockEnd
  0
ENDSEC
  0
SECTION
  2
ENTITIES
  0
ARC
  5
129A
330
2
100
AcDbEntity
  8
P-55C6
  6
Continuous
 62
   144
100
AcDbCircle
 10
29.29999999998546
 20
19.79999999998245
 30
0.0
 40
0.2
100
AcDbArc
 50
0.0
 51
90.0
1001
OrigLayer
1000
P-0000
1001
TOP
1070
     7
  0
LINE
  5
129C
330
2
100
AcDbEntity
  8
P-55C6
  6
Continuous
 62
   144
100
AcDbLine
 10
29.29999999998546
 20
19.99999999998272
 30
0.0
 11
28.3000000000024
 21
19.99999999998272
 31
0.0
1001
OrigLayer
1000
P-0000
1001
TOP
1070
     7
  0
ARC
  5
129D
330
2
100
AcDbEntity
  8
P-55C6
  6
Continuous
 62
   144
100
AcDbCircle
 10
29.29999999998546
 20
18.69999999998754
 30
0.0
 40
0.2
100
AcDbArc
 50
270.0
 51
0.0
1001
OrigLayer
1000
P-0000
1001
TOP
1070
     7
  0
LINE
  5
129E
330
2
100
AcDbEntity
  8
P-55C6
  6
Continuous
 62
   144
100
AcDbLine
 10
28.3000000000024
 20
18.49999999998749
 30
0.0
 11
29.29999999998546
 21
18.49999999998749
 31
0.0
1001
OrigLayer
1000
P-0000
1001
TOP
1070
     7
  0
LINE
  5
129F
330
2
100
AcDbEntity
  8
P-55C6
  6
Continuous
 62
   144
100
AcDbLine
 10
29.49999999998528
 20
19.79999999998245
 30
0.0
 11
29.49999999998528
 21
18.69999999998754
 31
0.0
1001
OrigLayer
1000
P-0000
1001
TOP
1070
     7
  0
ARC
  5
12A0
330
2
100
AcDbEntity
  8
P-55C6
  6
Continuous
 62
   144
100
AcDbCircle
 10
26.70000000000238
 20
20.19999999998254
 30
0.0
 40
0.2
100
AcDbArc
 50
270.0
 51
0.0
1001
OrigLayer
1000
P-0000
1001
TOP
1070
     7
  0
ARC
  5
12A1
330
2
100
AcDbEntity
  8
P-55C6
  6
Continuous
 62
   144
100
AcDbCircle
 10
25.69999999998965
 20
19.79999999998245
 30
0.0
 40
0.2
100
AcDbArc
 50
90.0
 51
180.0
1001
OrigLayer
1000
P-0000
1001
TOP
1070
     7
  0
LINE
  5
12A2
330
2
100
AcDbEntity
  8
P-55C6
  6
Continuous
 62
   144
100
AcDbLine
 10
26.70000000000238
 20
19.99999999998249
 30
0.0
 11
25.69999999998947
 21
19.99999999998249
 31
0.0
1001
OrigLayer
1000
P-0000
1001
TOP
1070
     7
  0
ARC
  5
12A3
330
2
100
AcDbEntity
  8
P-55C6
  6
Continuous
 62
   144
100
AcDbCircle
 10
26.70000000000238
 20
18.29999999998745
 30
0.0
 40
0.2
100
AcDbArc
 50
0.0
 51
90.0
1001
OrigLayer
1000
P-0000
1001
TOP
1070
     7
  0
ARC
  5
12A4
330
2
100
AcDbEntity
  8
P-55C6
  6
Continuous
 62
   144
100
AcDbCircle
 10
25.69999999998947
 20
18.69999999998731
 30
0.0
 40
0.2
100
AcDbArc
 50
180.0
 51
270.0
1001
OrigLayer
1000
P-0000
1001
TOP
1070
     7
  0
LINE
  5
12A5
330
2
100
AcDbEntity
  8
P-55C6
  6
Continuous
 62
   144
100
AcDbLine
 10
25.69999999998947
 20
18.49999999998749
 30
0.0
 11
26.70000000000238
 21
18.49999999998749
 31
0.0
1001
OrigLayer
1000
P-0000
1001
TOP
1070
     7
  0
LINE
  5
12A6
330
2
100
AcDbEntity
  8
P-55C6
  6
Continuous
 62
   144
100
AcDbLine
 10
25.49999999998965
 20
19.79999999998245
 30
0.0
 11
25.49999999998965
 21
18.69999999998731
 31
0.0
1001
OrigLayer
1000
P-0000
1001
TOP
1070
     7
  0
ARC
  5
12A7
330
2
100
AcDbEntity
  8
P-55C6
  6
Continuous
 62
   144
100
AcDbCircle
 10
28.3000000000024
 20
18.29999999998767
 30
0.0
 40
0.2
100
AcDbArc
 50
90.0
 51
180.0
1001
OrigLayer
1000
P-0000
1001
TOP
1070
     7
  0
ARC
  5
12A8
330
2
100
AcDbEntity
  8
P-55C6
  6
Continuous
 62
   144
100
AcDbCircle
 10
28.3000000000024
 20
20.19999999998276
 30
0.0
 40
0.2
100
AcDbArc
 50
180.0
 51
270.0
1001
OrigLayer
1000
P-0000
1001
TOP
1070
     7
  0
ARC
  5
12A9
330
2
100
AcDbEntity
  8
P-55C6
  6
Continuous
 62
   144
100
AcDbCircle
 10
26.70000000000238
 20
6.699999999987539
 30
0.0
 40
0.2
100
AcDbArc
 50
270.0
 51
0.0
1001
OrigLayer
1000
P-0000
1001
TOP
1070
     7
  0
ARC
  5
12AA
330
2
100
AcDbEntity
  8
P-55C6
  6
Continuous
 62
   144
100
AcDbCircle
 10
28.3000000000024
 20
6.699999999987539
 30
0.0
 40
0.2
100
AcDbArc
 50
180.0
 51
270.0
1001
OrigLayer
1000
P-0000
1001
TOP
1070
     7
  0
ARC
  5
12AB
330
2
100
AcDbEntity
  8
P-55C6
  6
Continuous
 62
   144
100
AcDbCircle
 10
29.29999999998546
 20
6.299999999987676
 30
0.0
 40
0.2
100
AcDbArc
 50
0.0
 51
90.0
1001
OrigLayer
1000
P-0000
1001
TOP
1070
     7
  0
ARC
  5
12AC
330
2
100
AcDbEntity
  8
P-55C6
  6
Continuous
 62
   144
100
AcDbCircle
 10
29.29999999998546
 20
5.199999999992542
 30
0.0
 40
0.2
100
AcDbArc
 50
270.0
 51
0.0
1001
OrigLayer
1000
P-0000
1001
TOP
1070
     7
  0
ARC
  5
12AD
330
2
100
AcDbEntity
  8
P-55C6
  6
Continuous
 62
   144
100
AcDbCircle
 10
28.3000000000024
 20
4.799999999992451
 30
0.0
 40
0.2
100
AcDbArc
 50
90.0
 51
180.0
1001
OrigLayer
1000
P-0000
1001
TOP
1070
     7
  0
ARC
  5
12AE
330
2
100
AcDbEntity
  8
P-55C6
  6
Continuous
 62
   144
100
AcDbCircle
 10
26.70000000000238
 20
4.799999999992451
 30
0.0
 40
0.2
100
AcDbArc
 50
0.0
 51
90.0
1001
OrigLayer
1000
P-0000
1001
TOP
1070
     7
  0
ARC
  5
12AF
330
2
100
AcDbEntity
  8
P-55C6
  6
Continuous
 62
   144
100
AcDbCircle
 10
25.69999999998947
 20
5.199999999992314
 30
0.0
 40
0.2
100
AcDbArc
 50
180.0
 51
270.0
1001
OrigLayer
1000
P-0000
1001
TOP
1070
     7
  0
ARC
  5
12B0
330
2
100
AcDbEntity
  8
P-55C6
  6
Continuous
 62
   144
100
AcDbCircle
 10
25.69999999998965
 20
6.299999999987448
 30
0.0
 40
0.2
100
AcDbArc
 50
90.0
 51
180.0
1001
OrigLayer
1000
P-0000
1001
TOP
1070
     7
  0
LINE
  5
12B1
330
2
100
AcDbEntity
  8
P-55C6
  6
Continuous
 62
   144
100
AcDbLine
 10
26.90000000000237
 20
4.799999999992451
 30
0.0
 11
26.90000000000237
 21
0.0
 31
0.0
1001
OrigLayer
1000
P-0000
1001
TOP
1070
     7
  0
LINE
  5
12B2
330
2
100
AcDbEntity
  8
P-55C6
  6
Continuous
 62
   144
100
AcDbLine
 10
28.10000000000235
 20
4.799999999992451
 30
0.0
 11
28.10000000000235
 21
0.0
 31
0.0
1001
OrigLayer
1000
P-0000
1001
TOP
1070
     7
  0
LINE
  5
12B3
330
2
100
AcDbEntity
  8
P-55C6
  6
Continuous
 62
   144
100
AcDbLine
 10
28.3000000000024
 20
4.999999999992496
 30
0.0
 11
29.29999999998546
 21
4.999999999992496
 31
0.0
1001
OrigLayer
1000
P-0000
1001
TOP
1070
     7
  0
LINE
  5
12B4
330
2
100
AcDbEntity
  8
P-55C6
  6
Continuous
 62
   144
100
AcDbLine
 10
29.49999999998528
 20
6.299999999987676
 30
0.0
 11
29.49999999998528
 21
5.199999999992542
 31
0.0
1001
OrigLayer
1000
P-0000
1001
TOP
1070
     7
  0
LINE
  5
12B5
330
2
100
AcDbEntity
  8
P-55C6
  6
Continuous
 62
   144
100
AcDbLine
 10
29.29999999998546
 20
6.499999999987494
 30
0.0
 11
28.3000000000024
 21
6.499999999987494
 31
0.0
1001
OrigLayer
1000
P-0000
1001
TOP
1070
     7
  0
LINE
  5
12B6
330
2
100
AcDbEntity
  8
P-55C6
  6
Continuous
 62
   144
100
AcDbLine
 10
25.69999999998947
 20
4.999999999992269
 30
0.0
 11
26.70000000000238
 21
4.999999999992496
 31
0.0
1001
OrigLayer
1000
P-0000
1001
TOP
1070
     7
  0
LINE
  5
12B7
330
2
100
AcDbEntity
  8
P-55C6
  6
Continuous
 62
   144
100
AcDbLine
 10
26.70000000000238
 20
6.499999999987494
 30
0.0
 11
25.69999999998947
 21
6.499999999987494
 31
0.0
1001
OrigLayer
1000
P-0000
1001
TOP
1070
     7
  0
LINE
  5
12B8
330
2
100
AcDbEntity
  8
P-55C6
  6
Continuous
 62
   144
100
AcDbLine
 10
25.49999999998965
 20
6.299999999987448
 30
0.0
 11
25.49999999998965
 21
5.199999999992314
 31
0.0
1001
OrigLayer
1000
P-0000
1001
TOP
1070
     7
  0
ARC
  5
12B9
330
2
100
AcDbEntity
  8
P-55C6
  6
Continuous
 62
   144
100
AcDbCircle
 10
26.40000000000294
 20
0.0
 30
0.0
 40
0.4999999999995001
100
AcDbArc
 50
270.0
 51
0.0
1001
OrigLayer
1000
P-0000
1001
TOP
1070
     7
  0
ARC
  5
12BA
330
2
100
AcDbEntity
  8
P-55C6
  6
Continuous
 62
   144
100
AcDbCircle
 10
28.60000000000201
 20
0.0
 30
0.0
 40
0.4999999999995001
100
AcDbArc
 50
180.0
 51
270.0
1001
OrigLayer
1000
P-0000
1001
TOP
1070
     7
  0
LINE
  5
12BB
330
2
100
AcDbEntity
  8
P-55C6
  6
Continuous
 62
   144
100
AcDbLine
 10
28.10000000000235
 20
18.29999999998767
 30
0.0
 11
28.10000000000235
 21
6.699999999987539
 31
0.0
1001
OrigLayer
1000
P-0000
1001
TOP
1070
     7
  0
LINE
  5
12BC
330
2
100
AcDbEntity
  8
P-55C6
  6
Continuous
 62
   144
100
AcDbLine
 10
26.90000000000237
 20
18.29999999998745
 30
0.0
 11
26.90000000000237
 21
6.699999999987539
 31
0.0
1001
OrigLayer
1000
P-0000
1001
TOP
1070
     7
  0
LINE
  5
12BD
330
2
100
AcDbEntity
  8
P-55C6
  6
Continuous
 62
   144
100
AcDbLine
 10
57.49999999997254
 20
0.0
 30
0.0
 11
57.49999999997254
 21
24.99999999997499
 31
0.0
1001
OrigLayer
1000
P-0000
1001
TOP
1070
     7
  0
ARC
  5
12BE
330
2
100
AcDbEntity
  8
P-55C6
  6
Continuous
 62
   144
100
AcDbCircle
 10
54.9999999999751
 20
24.99999999997522
 30
0.0
 40
0.4999999999995001
100
AcDbArc
 50
0.0
 51
90.0
1001
OrigLayer
1000
P-0000
1001
TOP
1070
     7
  0
LINE
  5
12BF
330
2
100
AcDbEntity
  8
P-55C6
  6
Continuous
 62
   144
100
AcDbLine
 10
55.79999999997437
 20
19.99999999998022
 30
0.0
 11
55.49999999997453
 21
19.99999999998022
 31
0.0
1001
OrigLayer
1000
P-0000
1001
TOP
1070
     7
  0
LINE
  5
12C0
330
2
100
AcDbEntity
  8
P-55C6
  6
Continuous
 62
   144
100
AcDbLine
 10
55.49999999997453
 20
19.99999999998022
 30
0.0
 11
55.49999999997453
 21
24.99999999997522
 31
0.0
1001
OrigLayer
1000
P-0000
1001
TOP
1070
     7
  0
LINE
  5
12C1
330
2
100
AcDbEntity
  8
P-55C6
  6
Continuous
 62
   144
100
AcDbLine
 10
49.99999999997999
 20
25.49999999997476
 30
0.0
 11
49.99999999997999
 21
25.79999999997426
 31
0.0
1001
OrigLayer
1000
P-0000
1001
TOP
1070
     7
  0
LINE
  5
12C2
330
2
100
AcDbEntity
  8
P-55C6
  6
Continuous
 62
   144
100
AcDbLine
 10
54.9999999999751
 20
25.49999999997476
 30
0.0
 11
49.99999999997999
 21
25.49999999997476
 31
0.0
1001
OrigLayer
1000
P-0000
1001
TOP
1070
     7
  0
LINE
  5
12C3
330
2
100
AcDbEntity
  8
P-55C6
  6
Continuous
 62
   144
100
AcDbLine
 10
55.49999999997453
 20
14.99999999998499
 30
0.0
 11
55.79999999997437
 21
14.99999999998499
 31
0.0
1001
OrigLayer
1000
P-0000
1001
TOP
1070
     7
  0
LINE
  5
12C4
330
2
100
AcDbEntity
  8
P-55C6
  6
Continuous
 62
   144
100
AcDbLine
 10
55.79999999997437
 20
9.999999999989995
 30
0.0
 11
55.49999999997453
 21
9.999999999989995
 31
0.0
1001
OrigLayer
1000
P-0000
1001
TOP
1070
     7
  0
LINE
  5
12C5
330
2
100
AcDbEntity
  8
P-55C6
  6
Continuous
 62
   144
100
AcDbLine
 10
55.49999999997453
 20
9.999999999989995
 30
0.0
 11
55.49999999997453
 21
14.99999999998499
 31
0.0
1001
OrigLayer
1000
P-0000
1001
TOP
1070
     7
  0
LINE
  5
12C6
330
2
100
AcDbEntity
  8
P-55C6
  6
Continuous
 62
   144
100
AcDbLine
 10
55.79999999997437
 20
14.99999999998499
 30
0.0
 11
55.79999999997437
 21
19.99999999998022
 31
0.0
1001
OrigLayer
1000
P-0000
1001
TOP
1070
     7
  0
LINE
  5
12C7
330
2
100
AcDbEntity
  8
P-55C6
  6
Continuous
 62
   144
100
AcDbLine
 10
44.99999999998493
 20
25.79999999997426
 30
0.0
 11
44.99999999998493
 21
25.49999999997476
 31
0.0
1001
OrigLayer
1000
P-0000
1001
TOP
1070
     7
  0
LINE
  5
12C8
330
2
100
AcDbEntity
  8
P-55C6
  6
Continuous
 62
   144
100
AcDbLine
 10
39.99999999999
 20
25.49999999997476
 30
0.0
 11
39.99999999999
 21
25.79999999997426
 31
0.0
1001
OrigLayer
1000
P-0000
1001
TOP
1070
     7
  0
LINE
  5
12C9
330
2
100
AcDbEntity
  8
P-55C6
  6
Continuous
 62
   144
100
AcDbLine
 10
44.99999999998493
 20
25.49999999997476
 30
0.0
 11
39.99999999999
 21
25.49999999997476
 31
0.0
1001
OrigLayer
1000
P-0000
1001
TOP
1070
     7
  0
LINE
  5
12CA
330
2
100
AcDbEntity
  8
P-55C6
  6
Continuous
 62
   144
100
AcDbLine
 10
49.99999999997999
 20
25.79999999997426
 30
0.0
 11
44.99999999998493
 21
25.79999999997426
 31
0.0
1001
OrigLayer
1000
P-0000
1001
TOP
1070
     7
  0
LINE
  5
12CB
330
2
100
AcDbEntity
  8
P-55C6
  6
Continuous
 62
   144
100
AcDbLine
 10
55.49999999997453
 20
4.999999999994997
 30
0.0
 11
55.79999999997437
 21
4.999999999994997
 31
0.0
1001
OrigLayer
1000
P-0000
1001
TOP
1070
     7
  0
LINE
  5
12CC
330
2
100
AcDbEntity
  8
P-55C6
  6
Continuous
 62
   144
100
AcDbLine
 10
55.49999999997453
 20
0.0
 30
0.0
 11
55.49999999997453
 21
4.999999999994997
 31
0.0
1001
OrigLayer
1000
P-0000
1001
TOP
1070
     7
  0
ARC
  5
12CD
330
2
100
AcDbEntity
  8
P-55C6
  6
Continuous
 62
   144
100
AcDbCircle
 10
54.9999999999751
 20
0.0
 30
0.0
 40
0.4999999999995001
100
AcDbArc
 50
270.0
 51
0.0
1001
OrigLayer
1000
P-0000
1001
TOP
1070
     7
  0
LINE
  5
12CE
330
2
100
AcDbEntity
  8
P-55C6
  6
Continuous
 62
   144
100
AcDbLine
 10
49.99999999997999
 20
-0.7999999999992724
 30
0.0
 11
49.99999999997999
 21
-0.4999999999995453
 31
0.0
1001
OrigLayer
1000
P-0000
1001
TOP
1070
     7
  0
LINE
  5
12CF
330
2
100
AcDbEntity
  8
P-55C6
  6
Continuous
 62
   144
100
AcDbLine
 10
49.99999999997999
 20
-0.4999999999995453
 30
0.0
 11
54.9999999999751
 21
-0.4999999999995453
 31
0.0
1001
OrigLayer
1000
P-0000
1001
TOP
1070
     7
  0
LINE
  5
12D0
330
2
100
AcDbEntity
  8
P-55C6
  6
Continuous
 62
   144
100
AcDbLine
 10
44.99999999998493
 20
-0.4999999999995453
 30
0.0
 11
44.99999999998493
 21
-0.7999999999992724
 31
0.0
1001
OrigLayer
1000
P-0000
1001
TOP
1070
     7
  0
LINE
  5
12D1
330
2
100
AcDbEntity
  8
P-55C6
  6
Continuous
 62
   144
100
AcDbLine
 10
39.99999999999
 20
-0.7999999999992724
 30
0.0
 11
39.99999999999
 21
-0.4999999999995453
 31
0.0
1001
OrigLayer
1000
P-0000
1001
TOP
1070
     7
  0
LINE
  5
12D2
330
2
100
AcDbEntity
  8
P-55C6
  6
Continuous
 62
   144
100
AcDbLine
 10
39.99999999999
 20
-0.4999999999995453
 30
0.0
 11
44.99999999998493
 21
-0.4999999999995453
 31
0.0
1001
OrigLayer
1000
P-0000
1001
TOP
1070
     7
  0
LINE
  5
12D3
330
2
100
AcDbEntity
  8
P-55C6
  6
Continuous
 62
   144
100
AcDbLine
 10
44.99999999998493
 20
-0.7999999999992724
 30
0.0
 11
49.99999999997999
 21
-0.7999999999992724
 31
0.0
1001
OrigLayer
1000
P-0000
1001
TOP
1070
     7
  0
LINE
  5
12D4
330
2
100
AcDbEntity
  8
P-55C6
  6
Continuous
 62
   144
100
AcDbLine
 10
55.79999999997437
 20
4.999999999994997
 30
0.0
 11
55.79999999997437
 21
9.999999999989995
 31
0.0
1001
OrigLayer
1000
P-0000
1001
TOP
1070
     7
  0
ARC
  5
12D5
330
2
100
AcDbEntity
  8
P-55C6
  6
Continuous
 62
   144
100
AcDbCircle
 10
54.9999999999751
 20
0.0
 30
0.0
 40
2.4999999999975
100
AcDbArc
 50
270.0
 51
0.0
1001
OrigLayer
1000
P-0000
1001
TOP
1070
     7
  0
ARC
  5
12D6
330
2
100
AcDbEntity
  8
P-55C6
  6
Continuous
 62
   144
100
AcDbCircle
 10
54.9999999999751
 20
24.99999999997499
 30
0.0
 40
2.4999999999975
100
AcDbArc
 50
0.0
 51
90.0
1001
OrigLayer
1000
P-0000
1001
TOP
1070
     7
  0
LINE
  5
12D7
330
2
100
AcDbEntity
  8
P-55C6
  6
Continuous
 62
   144
100
AcDbLine
 10
34.99999999999511
 20
25.79999999997426
 30
0.0
 11
34.99999999999511
 21
25.49999999997476
 31
0.0
1001
OrigLayer
1000
P-0000
1001
TOP
1070
     7
  0
LINE
  5
12D8
330
2
100
AcDbEntity
  8
P-55C6
  6
Continuous
 62
   144
100
AcDbLine
 10
34.99999999999511
 20
25.49999999997476
 30
0.0
 11
28.60000000000201
 21
25.49999999997453
 31
0.0
1001
OrigLayer
1000
P-0000
1001
TOP
1070
     7
  0
LINE
  5
12D9
330
2
100
AcDbEntity
  8
P-55C6
  6
Continuous
 62
   144
100
AcDbLine
 10
27.49999999998744
 20
26.99999999997249
 30
0.0
 11
26.99999999998744
 21
27.49999999997249
 31
0.0
1001
OrigLayer
1000
P-0000
1001
TOP
1070
     7
  0
LINE
  5
12DA
330
2
100
AcDbEntity
  8
P-55C6
  6
Continuous
 62
   144
100
AcDbLine
 10
27.49999999998744
 20
26.99999999997249
 30
0.0
 11
27.99999999998744
 21
27.49999999997249
 31
0.0
1001
OrigLayer
1000
P-0000
1001
TOP
1070
     7
  0
ARC
  5
12DB
330
2
100
AcDbEntity
  8
P-55C6
  6
Continuous
 62
   144
100
AcDbCircle
 10
26.40000000000294
 20
24.99999999997522
 30
0.0
 40
0.4999999999995001
100
AcDbArc
 50
0.0
 51
90.0
1001
OrigLayer
1000
P-0000
1001
TOP
1070
     7
  0
LINE
  5
12DC
330
2
100
AcDbEntity
  8
P-55C6
  6
Continuous
 62
   144
100
AcDbLine
 10
26.90000000000237
 20
24.99999999997522
 30
0.0
 11
26.90000000000237
 21
20.19999999998254
 31
0.0
1001
OrigLayer
1000
P-0000
1001
TOP
1070
     7
  0
LINE
  5
12DD
330
2
100
AcDbEntity
  8
P-55C6
  6
Continuous
 62
   144
100
AcDbLine
 10
28.10000000000235
 20
24.99999999997522
 30
0.0
 11
28.10000000000235
 21
20.19999999998276
 31
0.0
1001
OrigLayer
1000
P-0000
1001
TOP
1070
     7
  0
ARC
  5
12DE
330
2
100
AcDbEntity
  8
P-55C6
  6
Continuous
 62
   144
100
AcDbCircle
 10
28.60000000000201
 20
24.99999999997522
 30
0.0
 40
0.4999999999995001
100
AcDbArc
 50
90.0
 51
180.0
1001
OrigLayer
1000
P-0000
1001
TOP
1070
     7
  0
LINE
  5
12DF
330
2
100
AcDbEntity
  8
P-55C6
  6
Continuous
 62
   144
100
AcDbLine
 10
34.99999999999511
 20
-0.4999999999995453
 30
0.0
 11
34.99999999999511
 21
-0.7999999999992724
 31
0.0
1001
OrigLayer
1000
P-0000
1001
TOP
1070
     7
  0
LINE
  5
12E0
330
2
100
AcDbEntity
  8
P-55C6
  6
Continuous
 62
   144
100
AcDbLine
 10
28.60000000000201
 20
-0.4999999999995453
 30
0.0
 11
34.99999999999511
 21
-0.4999999999995453
 31
0.0
1001
OrigLayer
1000
P-0000
1001
TOP
1070
     7
  0
LINE
  5
12E1
330
2
100
AcDbEntity
  8
P-55C6
  6
Continuous
 62
   144
100
AcDbLine
 10
27.49999999998744
 20
-1.999999999997498
 30
0.0
 11
26.99999999998744
 21
-2.499999999997498
 31
0.0
1001
OrigLayer
1000
P-0000
1001
TOP
1070
     7
  0
LINE
  5
12E2
330
2
100
AcDbEntity
  8
P-55C6
  6
Continuous
 62
   144
100
AcDbLine
 10
27.49999999998744
 20
-1.999999999997498
 30
0.0
 11
27.99999999998744
 21
-2.499999999997498
 31
0.0
1001
OrigLayer
1000
P-0000
1001
TOP
1070
     7
  0
LINE
  5
12E3
330
2
100
AcDbEntity
  8
P-55C6
  6
Continuous
 62
   144
100
AcDbLine
 10
19.99999999997999
 20
25.49999999997476
 30
0.0
 11
19.99999999997999
 21
25.79999999997426
 31
0.0
1001
OrigLayer
1000
P-0000
1001
TOP
1070
     7
  0
LINE
  5
12E4
330
2
100
AcDbEntity
  8
P-55C6
  6
Continuous
 62
   144
100
AcDbLine
 10
14.99999999998493
 20
25.79999999997426
 30
0.0
 11
14.99999999998493
 21
25.49999999997476
 31
0.0
1001
OrigLayer
1000
P-0000
1001
TOP
1070
     7
  0
LINE
  5
12E5
330
2
100
AcDbEntity
  8
P-55C6
  6
Continuous
 62
   144
100
AcDbLine
 10
19.99999999997999
 20
25.79999999997426
 30
0.0
 11
14.99999999998493
 21
25.79999999997426
 31
0.0
1001
OrigLayer
1000
P-0000
1001
TOP
1070
     7
  0
LINE
  5
12E6
330
2
100
AcDbEntity
  8
P-55C6
  6
Continuous
 62
   144
100
AcDbLine
 10
9.999999999989995
 20
25.49999999997476
 30
0.0
 11
9.999999999989995
 21
25.79999999997426
 31
0.0
1001
OrigLayer
1000
P-0000
1001
TOP
1070
     7
  0
LINE
  5
12E7
330
2
100
AcDbEntity
  8
P-55C6
  6
Continuous
 62
   144
100
AcDbLine
 10
4.999999999995111
 20
25.79999999997426
 30
0.0
 11
4.999999999995111
 21
25.49999999997476
 31
0.0
1001
OrigLayer
1000
P-0000
1001
TOP
1070
     7
  0
LINE
  5
12E8
330
2
100
AcDbEntity
  8
P-55C6
  6
Continuous
 62
   144
100
AcDbLine
 10
9.999999999989995
 20
25.79999999997426
 30
0.0
 11
4.999999999995111
 21
25.79999999997426
 31
0.0
1001
OrigLayer
1000
P-0000
1001
TOP
1070
     7
  0
LINE
  5
12E9
330
2
100
AcDbEntity
  8
P-55C6
  6
Continuous
 62
   144
100
AcDbLine
 10
14.99999999998493
 20
25.49999999997476
 30
0.0
 11
9.999999999989995
 21
25.49999999997476
 31
0.0
1001
OrigLayer
1000
P-0000
1001
TOP
1070
     7
  0
LINE
  5
12EA
330
2
100
AcDbEntity
  8
P-55C6
  6
Continuous
 62
   144
100
AcDbLine
 10
19.99999999997999
 20
-0.7999999999992724
 30
0.0
 11
19.99999999997999
 21
-0.4999999999995453
 31
0.0
1001
OrigLayer
1000
P-0000
1001
TOP
1070
     7
  0
LINE
  5
12EB
330
2
100
AcDbEntity
  8
P-55C6
  6
Continuous
 62
   144
100
AcDbLine
 10
14.99999999998493
 20
-0.4999999999995453
 30
0.0
 11
14.99999999998493
 21
-0.7999999999992724
 31
0.0
1001
OrigLayer
1000
P-0000
1001
TOP
1070
     7
  0
LINE
  5
12EC
330
2
100
AcDbEntity
  8
P-55C6
  6
Continuous
 62
   144
100
AcDbLine
 10
14.99999999998493
 20
-0.7999999999992724
 30
0.0
 11
19.99999999997999
 21
-0.7999999999992724
 31
0.0
1001
OrigLayer
1000
P-0000
1001
TOP
1070
     7
  0
LINE
  5
12ED
330
2
100
AcDbEntity
  8
P-55C6
  6
Continuous
 62
   144
100
AcDbLine
 10
9.999999999989995
 20
-0.7999999999992724
 30
0.0
 11
9.999999999989995
 21
-0.4999999999995453
 31
0.0
1001
OrigLayer
1000
P-0000
1001
TOP
1070
     7
  0
LINE
  5
12EE
330
2
100
AcDbEntity
  8
P-55C6
  6
Continuous
 62
   144
100
AcDbLine
 10
4.999999999995111
 20
-0.4999999999995453
 30
0.0
 11
4.999999999995111
 21
-0.7999999999992724
 31
0.0
1001
OrigLayer
1000
P-0000
1001
TOP
1070
     7
  0
LINE
  5
12EF
330
2
100
AcDbEntity
  8
P-55C6
  6
Continuous
 62
   144
100
AcDbLine
 10
4.999999999995111
 20
-0.7999999999992724
 30
0.0
 11
9.999999999989995
 21
-0.7999999999992724
 31
0.0
1001
OrigLayer
1000
P-0000
1001
TOP
1070
     7
  0
LINE
  5
12F0
330
2
100
AcDbEntity
  8
P-55C6
  6
Continuous
 62
   144
100
AcDbLine
 10
9.999999999989995
 20
-0.4999999999995453
 30
0.0
 11
14.99999999998493
 21
-0.4999999999995453
 31
0.0
1001
OrigLayer
1000
P-0000
1001
TOP
1070
     7
  0
LINE
  5
12F1
330
2
100
AcDbEntity
  8
P-55C6
  6
Continuous
 62
   144
100
AcDbLine
 10
26.40000000000294
 20
25.49999999997476
 30
0.0
 11
19.99999999997999
 21
25.49999999997476
 31
0.0
1001
OrigLayer
1000
P-0000
1001
TOP
1070
     7
  0
LINE
  5
12F2
330
2
100
AcDbEntity
  8
P-55C6
  6
Continuous
 62
   144
100
AcDbLine
 10
19.99999999997999
 20
-0.4999999999995453
 30
0.0
 11
26.40000000000294
 21
-0.4999999999995453
 31
0.0
1001
OrigLayer
1000
P-0000
1001
TOP
1070
     7
  0
ARC
  5
12F3
330
2
100
AcDbEntity
  8
P-55C6
  6
Continuous
 62
   144
100
AcDbCircle
 10
-0.0000000000001705
 20
24.99999999997522
 30
0.0
 40
0.4999999999995001
100
AcDbArc
 50
90.0
 51
180.0
1001
OrigLayer
1000
P-0000
1001
TOP
1070
     7
  0
LINE
  5
12F4
330
2
100
AcDbEntity
  8
P-55C6
  6
Continuous
 62
   144
100
AcDbLine
 10
-0.4999999999998295
 20
24.99999999997522
 30
0.0
 11
-0.4999999999998295
 21
19.99999999998022
 31
0.0
1001
OrigLayer
1000
P-0000
1001
TOP
1070
     7
  0
ARC
  5
12F5
330
2
100
AcDbEntity
  8
P-55C6
  6
Continuous
 62
   144
100
AcDbCircle
 10
0.0
 20
24.99999999997499
 30
0.0
 40
2.4999999999975
100
AcDbArc
 50
90.0
 51
180.0
1001
OrigLayer
1000
P-0000
1001
TOP
1070
     7
  0
LINE
  5
12F6
330
2
100
AcDbEntity
  8
P-55C6
  6
Continuous
 62
   144
100
AcDbLine
 10
-0.4999999999998295
 20
19.99999999998022
 30
0.0
 11
-0.799999999999443
 21
19.99999999998022
 31
0.0
1001
OrigLayer
1000
P-0000
1001
TOP
1070
     7
  0
LINE
  5
12F7
330
2
100
AcDbEntity
  8
P-55C6
  6
Continuous
 62
   144
100
AcDbLine
 10
-0.4999999999998295
 20
14.99999999998499
 30
0.0
 11
-0.4999999999998295
 21
9.999999999989995
 31
0.0
1001
OrigLayer
1000
P-0000
1001
TOP
1070
     7
  0
LINE
  5
12F8
330
2
100
AcDbEntity
  8
P-55C6
  6
Continuous
 62
   144
100
AcDbLine
 10
-0.4999999999998295
 20
9.999999999989995
 30
0.0
 11
-0.799999999999443
 21
9.999999999989995
 31
0.0
1001
OrigLayer
1000
P-0000
1001
TOP
1070
     7
  0
LINE
  5
12F9
330
2
100
AcDbEntity
  8
P-55C6
  6
Continuous
 62
   144
100
AcDbLine
 10
-0.799999999999443
 20
14.99999999998499
 30
0.0
 11
-0.4999999999998295
 21
14.99999999998499
 31
0.0
1001
OrigLayer
1000
P-0000
1001
TOP
1070
     7
  0
LINE
  5
12FA
330
2
100
AcDbEntity
  8
P-55C6
  6
Continuous
 62
   144
100
AcDbLine
 10
-0.799999999999443
 20
19.99999999998022
 30
0.0
 11
-0.799999999999443
 21
14.99999999998499
 31
0.0
1001
OrigLayer
1000
P-0000
1001
TOP
1070
     7
  0
LINE
  5
12FB
330
2
100
AcDbEntity
  8
P-55C6
  6
Continuous
 62
   144
100
AcDbLine
 10
-0.4999999999998295
 20
4.999999999994997
 30
0.0
 11
-0.4999999999998295
 21
0.0
 31
0.0
1001
OrigLayer
1000
P-0000
1001
TOP
1070
     7
  0
ARC
  5
12FC
330
2
100
AcDbEntity
  8
P-55C6
  6
Continuous
 62
   144
100
AcDbCircle
 10
-0.0000000000001705
 20
0.0
 30
0.0
 40
0.4999999999995001
100
AcDbArc
 50
180.0
 51
270.0
1001
OrigLayer
1000
P-0000
1001
TOP
1070
     7
  0
ARC
  5
12FD
330
2
100
AcDbEntity
  8
P-55C6
  6
Continuous
 62
   144
100
AcDbCircle
 10
0.0
 20
0.0
 30
0.0
 40
2.4999999999975
100
AcDbArc
 50
180.0
 51
270.0
1001
OrigLayer
1000
P-0000
1001
TOP
1070
     7
  0
LINE
  5
12FE
330
2
100
AcDbEntity
  8
P-55C6
  6
Continuous
 62
   144
100
AcDbLine
 10
-0.799999999999443
 20
4.999999999994997
 30
0.0
 11
-0.4999999999998295
 21
4.999999999994997
 31
0.0
1001
OrigLayer
1000
P-0000
1001
TOP
1070
     7
  0
LINE
  5
12FF
330
2
100
AcDbEntity
  8
P-55C6
  6
Continuous
 62
   144
100
AcDbLine
 10
-2.499999999997442
 20
24.99999999997499
 30
0.0
 11
-2.499999999997442
 21
0.0
 31
0.0
1001
OrigLayer
1000
P-0000
1001
TOP
1070
     7
  0
LINE
  5
1300
330
2
100
AcDbEntity
  8
P-55C6
  6
Continuous
 62
   144
100
AcDbLine
 10
-0.799999999999443
 20
9.999999999989995
 30
0.0
 11
-0.799999999999443
 21
4.999999999994997
 31
0.0
1001
OrigLayer
1000
P-0000
1001
TOP
1070
     7
  0
LINE
  5
1301
330
2
100
AcDbEntity
  8
P-55C6
  6
Continuous
 62
   144
100
AcDbLine
 10
-0.0000000000001705
 20
-0.4999999999995453
 30
0.0
 11
4.999999999995111
 21
-0.4999999999995453
 31
0.0
1001
OrigLayer
1000
P-0000
1001
TOP
1070
     7
  0
LINE
  5
1302
330
2
100
AcDbEntity
  8
P-55C6
  6
Continuous
 62
   144
100
AcDbLine
 10
4.999999999995111
 20
25.49999999997476
 30
0.0
 11
-0.0000000000001705
 21
25.49999999997476
 31
0.0
1001
OrigLayer
1000
P-0000
1001
TOP
1070
     7
  0
LINE
  5
1303
330
2
100
AcDbEntity
  8
P-55C6
  6
Continuous
 62
   144
100
AcDbLine
 10
0.0
 20
-2.499999999997498
 30
0.0
 11
26.99999999998744
 21
-2.499999999997498
 31
0.0
1001
OrigLayer
1000
P-0000
1001
TOP
1070
     7
  0
LINE
  5
1304
330
2
100
AcDbEntity
  8
P-55C6
  6
Continuous
 62
   144
100
AcDbLine
 10
26.99999999998744
 20
27.49999999997271
 30
0.0
 11
0.0
 21
27.49999999997249
 31
0.0
1001
OrigLayer
1000
P-0000
1001
TOP
1070
     7
  0
LINE
  5
1305
330
2
100
AcDbEntity
  8
P-55C6
  6
Continuous
 62
   144
100
AcDbLine
 10
54.9999999999751
 20
27.49999999997249
 30
0.0
 11
27.99999999998744
 21
27.49999999997271
 31
0.0
1001
OrigLayer
1000
P-0000
1001
TOP
1070
     7
  0
LINE
  5
1306
330
2
100
AcDbEntity
  8
P-55C6
  6
Continuous
 62
   144
100
AcDbLine
 10
34.99999999999511
 20
-0.7999999999992724
 30
0.0
 11
39.99999999999
 21
-0.7999999999992724
 31
0.0
1001
OrigLayer
1000
P-0000
1001
TOP
1070
     7
  0
LINE
  5
1307
330
2
100
AcDbEntity
  8
P-55C6
  6
Continuous
 62
   144
100
AcDbLine
 10
39.99999999999
 20
25.79999999997426
 30
0.0
 11
34.99999999999511
 21
25.79999999997426
 31
0.0
1001
OrigLayer
1000
P-0000
1001
TOP
1070
     7
  0
LINE
  5
1308
330
2
100
AcDbEntity
  8
P-55C6
  6
Continuous
 62
   144
100
AcDbLine
 10
27.99999999998744
 20
-2.499999999997498
 30
0.0
 11
54.9999999999751
 21
-2.499999999997498
 31
0.0
1001
OrigLayer
1000
P-0000
1001
TOP
1070
     7
  0
ENDSEC
  0
SECTION
  2
OBJECTS
  0
DICTIONARY
  5
1A
330
0
100
AcDbDictionary
281
     1
  3
ACAD_2007HEADERVARS_RT
350
1B5E
  3
ACAD_COLOR
350
2C5
  3
ACAD_GROUP
350
18
  3
ACAD_LAYOUT
350
45
  3
ACAD_MATERIAL
350
2B0
  3
ACAD_MLEADERSTYLE
350
354
  3
ACAD_MLINESTYLE
350
19
  3
ACAD_PLOTSETTINGS
350
46
  3
ACAD_PLOTSTYLENAME
350
43
  3
ACAD_SCALELIST
350
332
  3
ACAD_TABLESTYLE
350
2C6
  3
ACAD_VISUALSTYLE
350
2B4
  3
ACDB_RECOMPOSE_DATA
350
1B5C
  3
AcDbVariableDictionary
350
2AA
  3
AEC_PROPERTY_SET_DEFS
350
6EA
  3
DWGPROPS
350
1B5D
  3
qs_topprt_diz
350
50
  3
QSCATDICT
350
6D9
  3
QsPallStyleDict
350
6EB
  3
QsTop499
350
1B20
  3
TopSpotLight
350
6E0
  0
DICTIONARY
  5
300
330
12
100
AcDbDictionary
280
     1
281
     1
  0
DICTIONARY
  5
115E
330
A
100
AcDbDictionary
280
     1
281
     1
  3
ACAD_LAYERSTATES
360
115F
  0
DICTIONARY
  5
37B
330
4
100
AcDbDictionary
280
     1
281
     1
  3
ADSK_XREC_LAYER_RECONCILED
360
1921
  0
DICTIONARY
  5
1922
330
6DB
100
AcDbDictionary
280
     1
281
     1
  3
ADSK_XREC_LAYER_RECONCILED
360
1923
  0
DICTIONARY
  5
1924
330
1149
100
AcDbDictionary
280
     1
281
     1
  3
ADSK_XREC_LAYER_RECONCILED
360
1925
  0
DICTIONARY
  5
1926
330
130C
100
AcDbDictionary
280
     1
281
     1
  3
ADSK_XREC_LAYER_RECONCILED
360
1927
  0
DICTIONARY
  5
16E8
330
16E7
100
AcDbDictionary
280
     1
281
     1
  3
ADSK_XREC_LAYER_RECONCILED
360
1928
  0
DICTIONARY
  5
16EA
330
16E9
100
AcDbDictionary
280
     1
281
     1
  3
ADSK_XREC_LAYER_RECONCILED
360
1929
  0
DICTIONARY
  5
1279
330
1160
100
AcDbDictionary
280
     1
281
     1
  3
ACAD_SORTENTS
360
127A
  0
DICTIONARY
  5
1B5E
102
{ACAD_REACTORS
330
1A
102
}
330
1A
100
AcDbDictionary
281
     1
  3
INTERFEREVPVS
350
1B5F
  0
DICTIONARY
  5
2C5
102
{ACAD_REACTORS
330
1A
102
}
330
1A
100
AcDbDictionary
281
     1
  0
DICTIONARY
  5
18
102
{ACAD_REACTORS
330
1A
102
}
330
1A
100
AcDbDictionary
281
     1
  0
DICTIONARY
  5
45
102
{ACAD_REACTORS
330
1A
102
}
330
1A
100
AcDbDictionary
281
     1
  3
Layout1
350
48
  3
Model
350
47
  0
DICTIONARY
  5
2B0
102
{ACAD_REACTORS
330
1A
102
}
330
1A
100
AcDbDictionary
281
     1
  3
ByBlock
350
2B2
  3
ByLayer
350
2B1
  3
Global
350
2B3
  0
DICTIONARY
  5
354
102
{ACAD_REACTORS
330
1A
102
}
330
1A
100
AcDbDictionary
281
     1
  3
Standard
350
355
  0
DICTIONARY
  5
19
102
{ACAD_REACTORS
330
1A
102
}
330
1A
100
AcDbDictionary
281
     1
  3
STANDARD
350
1C
  0
DICTIONARY
  5
46
102
{ACAD_REACTORS
330
1A
102
}
330
1A
100
AcDbDictionary
281
     1
  3
Kyocera_1010 OR
350
1B0B
  3
Kyocera_1010 VER
350
1B0C
  3
Olivetti_200 A3
350
1B0D
  3
Olivetti_200 A4
350
1B0E
  3
PLOTTER
350
1B0F
  0
ACDBDICTIONARYWDFLT
  5
43
102
{ACAD_REACTORS
330
1A
102
}
330
1A
100
AcDbDictionary
281
     1
  3
Normal
350
44
100
AcDbDictionaryWithDefault
340
44
  0
DICTIONARY
  5
332
102
{ACAD_REACTORS
330
1A
102
}
330
1A
100
AcDbDictionary
281
     1
  3
A0
350
333
  3
A1
350
334
  3
A2
350
335
  3
A3
350
336
  3
A4
350
337
  3
A5
350
338
  3
A6
350
339
  3
A7
350
33A
  3
A8
350
33B
  3
A9
350
33C
  3
B0
350
33D
  3
B1
350
33E
  3
B2
350
33F
  3
B3
350
340
  3
B4
350
341
  3
B5
350
342
  3
B6
350
343
  3
B7
350
344
  3
B8
350
345
  3
B9
350
346
  3
C0
350
347
  3
C1
350
348
  3
C2
350
349
  3
C3
350
34A
  3
C4
350
34B
  3
C5
350
34C
  3
C6
350
34D
  3
C7
350
34E
  3
C8
350
34F
  3
C9
350
350
  3
D0
350
351
  3
D1
350
352
  3
D2
350
353
  0
DICTIONARY
  5
2C6
102
{ACAD_REACTORS
330
1A
102
}
330
1A
100
AcDbDictionary
281
     1
  3
QSTABFORI
350
115A
  3
QSTABREGION
350
115C
  3
Standard
350
2C7
  0
DICTIONARY
  5
2B4
102
{ACAD_REACTORS
330
1A
102
}
330
1A
100
AcDbDictionary
281
     1
  3
2dWireframe
350
2BA
  3
3D Hidden
350
2BC
  3
3dWireframe
350
2BB
  3
Basic
350
2B9
  3
Brighten
350
2C0
  3
ColorChange
350
2C4
  3
Conceptual
350
2BD
  3
Dim
350
2BF
  3
EdgeColorOff
350
1B33
  3
Facepattern
350
2C3
  3
Flat
350
2B5
  3
FlatWithEdges
350
2B6
  3
Gouraud
350
2B7
  3
GouraudWithEdges
350
2B8
  3
Hidden
350
1B2B
  3
JitterOff
350
1B31
  3
Linepattern
350
2C2
  3
OverhangOff
350
1B32
  3
Realistic
350
2BE
  3
Shaded
350
1B30
  3
Shaded with edges
350
1B2F
  3
Shades of Gray
350
1B2C
  3
Sketchy
350
1B2D
  3
Thicken
350
2C1
  3
Wireframe
350
1B2A
  3
X-Ray
350
1B2E
  0
XRECORD
  5
1B5C
102
{ACAD_REACTORS
330
1A
102
}
330
1A
100
AcDbXrecord
280
     1
 90
        1
330
2C7
330
115A
330
115C
  0
DICTIONARY
  5
2AA
102
{ACAD_REACTORS
330
1A
102
}
330
1A
100
AcDbDictionary
281
     1
  3
CANNOSCALE
350
36B
  3
CMLEADERSTYLE
350
369
  3
CTABLESTYLE
350
312
  3
DIMASSOC
350
2AB
  3
DRAWORDERCTL
350
1A44
  3
INDEXCTL
350
314
  3
LAYEREVAL
350
1A46
  3
LAYERNOTIFY
350
1A47
  3
LIGHTINGUNITS
350
36C
  3
MLEADERSCALE
350
1A45
  3
MSLTSCALE
350
36A
  3
SORTENTS
350
313
  3
XCLIPFRAME
350
1B58
  0
DICTIONARY
  5
6EA
102
{ACAD_REACTORS
330
1A
102
}
330
1A
100
AcDbDictionary
281
     1
  0
XRECORD
  5
1B5D
102
{ACAD_REACTORS
330
1A
102
}
330
1A
100
AcDbXrecord
280
     1
  1
DWGPROPS COOKIE
  2

  3

  4

  6

  7

  8
mpistoia
  9

300
=
301
=
302
=
303
=
304
=
305
=
306
=
307
=
308
=
309
=
 40
0.1025123611111111
 41
2455049.297061262
 42
2455646.487936516
  1

 90
        0
  0
DICTIONARY
  5
50
102
{ACAD_REACTORS
330
1A
102
}
330
1A
100
AcDbDictionary
281
     1
  3
UCNT
350
51
  0
DICTIONARY
  5
6D9
102
{ACAD_REACTORS
330
1A
102
}
330
1A
100
AcDbDictionary
280
     1
281
     1
  3
DEFAULT
360
6DA
  0
DICTIONARY
  5
6EB
102
{ACAD_REACTORS
330
1A
102
}
330
1A
100
AcDbDictionary
281
     1
  3
DEFAULT
350
6EC
  0
DICTIONARY
  5
1B20
102
{ACAD_REACTORS
330
1A
102
}
330
1A
100
AcDbDictionary
281
     1
  3
TOP
350
1B25
  3
X313e
350
1B23
  3
X4aba
350
1B21
  3
X736b
350
1B24
  3
X79b5
350
1B22
  0
DICTIONARY
  5
6E0
102
{ACAD_REACTORS
330
1A
102
}
330
1A
100
AcDbDictionary
281
     1
  3
colors
350
6E1
  0
DICTIONARY
  5
115F
102
{ACAD_REACTORS
330
115E
102
}
330
115E
100
AcDbDictionary
281
     1
  0
XRECORD
  5
1921
102
{ACAD_REACTORS
330
37B
102
}
330
37B
100
AcDbXrecord
280
     1
290
     1
  0
XRECORD
  5
1923
102
{ACAD_REACTORS
330
1922
102
}
330
1922
100
AcDbXrecord
280
     1
290
     1
  0
XRECORD
  5
1925
102
{ACAD_REACTORS
330
1924
102
}
330
1924
100
AcDbXrecord
280
     1
290
     1
  0
XRECORD
  5
1927
102
{ACAD_REACTORS
330
1926
102
}
330
1926
100
AcDbXrecord
280
     1
290
     1
  0
XRECORD
  5
1928
102
{ACAD_REACTORS
330
16E8
102
}
330
16E8
100
AcDbXrecord
280
     1
290
     1
  0
XRECORD
  5
1929
102
{ACAD_REACTORS
330
16EA
102
}
330
16EA
100
AcDbXrecord
280
     1
290
     1
  0
SORTENTSTABLE
  5
127A
102
{ACAD_REACTORS
330
1279
102
}
330
1279
100
AcDbSortentsTable
330
1160
331
11B9
  5
1173
331
1191
  5
11B0
331
1179
  5
1194
331
11A1
  5
11A9
331
11BD
  5
1172
331
1195
  5
11B4
331
117D
  5
1199
331
11A5
  5
118D
331
11A9
  5
1185
331
11AD
  5
1189
331
11B1
  5
1181
331
1162
  5
1166
331
11B5
  5
117B
331
1166
  5
1162
331
1182
  5
119E
331
1186
  5
11A2
331
118A
  5
11A6
331
1172
  5
1190
331
119A
  5
11B9
331
118E
  5
11AD
331
1176
  5
1179
331
119E
  5
1171
331
1192
  5
11B1
331
117A
  5
1196
331
11A2
  5
11AA
331
11BA
  5
1176
331
11A6
  5
118E
331
117E
  5
119A
331
1196
  5
11B5
331
11BE
  5
11BD
331
11AA
  5
1186
331
11AE
  5
118A
331
11B2
  5
1182
331
1163
  5
1167
331
11B6
  5
117D
331
1167
  5
1163
331
1183
  5
119F
331
1187
  5
11A3
331
119B
  5
11BA
331
118B
  5
11A8
331
1173
  5
1191
331
119F
  5
1174
331
118F
  5
11AE
331
1177
  5
117C
331
11BB
  5
1175
331
1193
  5
11B2
331
117B
  5
1198
331
11A3
  5
11A7
331
1197
  5
11B6
331
117F
  5
119B
331
11A7
  5
1183
331
11AB
  5
1187
331
11AF
  5
118B
331
11B3
  5
1177
331
1164
  5
1168
331
11B7
  5
117E
331
1180
  5
119D
331
1168
  5
1164
331
1184
  5
11A0
331
1198
  5
11B7
331
1188
  5
11A4
331
119C
  5
11BC
331
118C
  5
11AB
331
1174
  5
1192
331
11B8
  5
117F
331
1190
  5
11AF
331
1178
  5
1195
331
11A0
  5
1178
331
11BC
  5
11BB
331
1194
  5
11B3
331
117C
  5
1197
331
11A4
  5
118C
331
11A8
  5
1184
331
11AC
  5
1188
331
11B0
  5
1180
331
1161
  5
1165
331
11B4
  5
117A
331
1165
  5
1161
331
1181
  5
119C
331
1185
  5
11A1
331
1199
  5
11B8
331
1189
  5
11A5
331
1171
  5
118F
331
119D
  5
11BE
331
118D
  5
11AC
331
1175
  5
1193
  0
XRECORD
  5
1B5F
102
{ACAD_REACTORS
330
1B5E
102
}
330
1B5E
100
AcDbXrecord
280
     1
340
2BB
  0
LAYOUT
  5
48
102
{ACAD_XDICTIONARY
360
1B62
102
}
102
{ACAD_REACTORS
330
45
102
}
330
45
100
AcDbPlotSettings
  1

  2
RICOH Aficio 270 PCL 6 A4
  4

  6

 40
0.0
 41
0.0
 42
0.0
 43
0.0
 44
0.0
 45
0.0
 46
0.0
 47
0.0
 48
0.0
 49
0.0
140
0.0
141
0.0
142
1.0
143
1.0
 70
   688
 72
     0
 73
     0
 74
     5
  7
DIERRE BN.ctb
 75
    16
147
1.0
148
0.0
149
0.0
100
AcDbLayout
  1
Layout1
 70
     0
 71
     1
 10
0.0
 20
0.0
 11
12.0
 21
9.0
 12
0.0
 22
0.0
 32
0.0
 14
1.000000000000000E+20
 24
1.000000000000000E+20
 34
1.000000000000000E+20
 15
-1.000000000000000E+20
 25
-1.000000000000000E+20
 35
-1.000000000000000E+20
146
0.0
 13
0.0
 23
0.0
 33
0.0
 16
1.0
 26
0.0
 36
0.0
 17
0.0
 27
1.0
 37
0.0
 76
     0
330
7
  0
LAYOUT
  5
47
102
{ACAD_XDICTIONARY
360
1B60
102
}
102
{ACAD_REACTORS
330
45
102
}
330
45
100
AcDbPlotSettings
  1
Olivetti_200 A4
  2
Olivetti_200.pc3
  4
A4
  6

 40
4.984749794006347
 41
5.154074668884277
 42
5.111740112304687
 43
4.9847412109375
 44
210.0156707763672
 45
297.0106506347656
 46
51.67548120477697
 47
0.0
 48
0.0
 49
0.0
140
0.0
141
0.0
142
1.0
143
0.4718508448115938
 70
 11956
 72
     1
 73
     0
 74
     1
  7
DIERRE BN.ctb
 75
     0
147
2.119313785268927
148
-222.4649060220283
149
-239.0808115236937
100
AcDbLayout
  1
Model
 70
     1
 71
     0
 10
0.0
 20
0.0
 11
12.0
 21
9.0
 12
0.0
 22
0.0
 32
0.0
 14
0.0
 24
0.0
 34
0.0
 15
0.0
 25
0.0
 35
0.0
146
0.0
 13
0.0
 23
0.0
 33
0.0
 16
1.0
 26
0.0
 36
0.0
 17
0.0
 27
1.0
 37
0.0
 76
     0
330
2
331
2AE
1001
ACAD_PSEXT
1000
Olivetti_200.pc3
1000
Olivetti d-Copia 200MF KX
1000
IP_192.168.1.151
1000

1070
     0
  0
MATERIAL
  5
2B2
102
{ACAD_XDICTIONARY
360
1B66
102
}
102
{ACAD_REACTORS
330
2B0
102
}
330
2B0
100
AcDbMaterial
  1
ByBlock
 73
     1
 78
     1
172
     1
176
     1
270
     1
274
     1
  0
MATERIAL
  5
2B1
102
{ACAD_XDICTIONARY
360
1B64
102
}
102
{ACAD_REACTORS
330
2B0
102
}
330
2B0
100
AcDbMaterial
  1
ByLayer
 73
     1
 78
     1
172
     1
176
     1
270
     1
274
     1
  0
MATERIAL
  5
2B3
102
{ACAD_XDICTIONARY
360
1B68
102
}
102
{ACAD_REACTORS
330
2B0
102
}
330
2B0
100
AcDbMaterial
  1
Global
 73
     1
 78
     1
172
     1
176
     1
270
     1
274
     1
  0
MLEADERSTYLE
  5
355
102
{ACAD_REACTORS
330
354
102
}
330
354
100
AcDbMLeaderStyle
170
     2
171
     1
172
     0
 90
        2
 40
0.0
 41
0.0
173
     1
 91
-1056964608
340
E
 92
       -2
290
     1
 42
2.0
291
     1
 43
0.36
  3
Standard
 44
4.0
300

342
C
174
     1
178
     6
175
     1
176
     0
 93
-1056964608
 45
4.0
292
     0
297
     0
 46
4.0
 94
-1056964608
 47
1.0
 49
1.0
140
1.0
293
     1
141
0.0
294
     1
177
     0
142
1.0
295
     0
296
     0
143
0.125
1001
ACAD_MLEADERVER
1070
     2
  0
MLINESTYLE
  5
1C
102
{ACAD_REACTORS
330
19
102
}
330
19
100
AcDbMlineStyle
  2
STANDARD
 70
     0
  3

 62
     0
 51
90.0
 52
90.0
 71
     2
 49
0.5
 62
   256
  6
BYLAYER
 49
-0.5
 62
   256
  6
BYLAYER
  0
PLOTSETTINGS
  5
1B0B
102
{ACAD_XDICTIONARY
360
1B8E
102
}
102
{ACAD_REACTORS
330
46
102
}
330
46
100
AcDbPlotSettings
  1
Kyocera_1010 OR
  2
Kyocera_1010.pc3
  4
A4
  6

 40
4.984749794006347
 41
5.154074668884277
 42
5.111740112304687
 43
4.9847412109375
 44
210.0156707763672
 45
297.0106506347656
 46
0.0
 47
109.7870247470818
 48
0.0
 49
0.0
140
0.0
141
0.0
142
1.0
143
0.6770771918566143
 70
 11956
 72
     1
 73
     1
 74
     1
  7
DIERRE BN.ctb
 75
     0
147
1.476936473458659
148
-222.4649060220283
149
-239.0808115236937
1001
ACAD_PSEXT
1000
Kyocera_1010.pc3
1000
Kyocera Mita FS-1010 KX
1000
\\PC5
1000

1070
     0
  0
PLOTSETTINGS
  5
1B0C
102
{ACAD_XDICTIONARY
360
1B90
102
}
102
{ACAD_REACTORS
330
46
102
}
330
46
100
AcDbPlotSettings
  1
Kyocera_1010 VER
  2
Kyocera_1010.pc3
  4
A4
  6

 40
4.984749794006347
 41
5.154074668884277
 42
5.111740112304687
 43
4.9847412109375
 44
210.0156707763672
 45
297.0106506347656
 46
51.67548120477697
 47
0.0
 48
0.0
 49
0.0
140
0.0
141
0.0
142
1.0
143
0.4718508448115938
 70
 11956
 72
     1
 73
     0
 74
     1
  7
DIERRE BN.ctb
 75
     0
147
2.119313785268927
148
-222.4649060220283
149
-239.0808115236937
1001
ACAD_PSEXT
1000
Kyocera_1010.pc3
1000
Kyocera Mita FS-1010 KX
1000
\\PC5
1000

1070
     0
  0
PLOTSETTINGS
  5
1B0D
102
{ACAD_XDICTIONARY
360
1B92
102
}
102
{ACAD_REACTORS
330
46
102
}
330
46
100
AcDbPlotSettings
  1
Olivetti_200 A3
  2
Olivetti_200.pc3
  4
A3
  6

 40
4.984749794006347
 41
5.111746788024902
 42
5.154083251953125
 43
4.9847412109375
 44
297.0106506347656
 45
419.9889831542968
 46
0.0
 47
156.6621412366913
 48
0.0
 49
0.0
140
0.0
141
0.0
142
1.0
143
0.4718508730467012
 70
 11956
 72
     1
 73
     1
 74
     1
  7
DIERRE BN.ctb
 75
     0
147
2.119313658451206
148
-222.4649060220283
149
-239.0808115236937
1001
ACAD_PSEXT
1000
Olivetti_200.pc3
1000
Olivetti d-Copia 200MF KX
1000
IP_192.168.1.151
1000

1070
     0
  0
PLOTSETTINGS
  5
1B0E
102
{ACAD_XDICTIONARY
360
1B94
102
}
102
{ACAD_REACTORS
330
46
102
}
330
46
100
AcDbPlotSettings
  1
Olivetti_200 A4
  2
Olivetti_200.pc3
  4
A4
  6

 40
4.984749794006347
 41
5.154074668884277
 42
5.111740112304687
 43
4.9847412109375
 44
210.0156707763672
 45
297.0106506347656
 46
51.67548120477697
 47
0.0
 48
0.0
 49
0.0
140
0.0
141
0.0
142
1.0
143
0.4718508448115938
 70
 11956
 72
     1
 73
     0
 74
     1
  7
DIERRE BN.ctb
 75
     0
147
2.119313785268927
148
-222.4649060220283
149
-239.0808115236937
1001
ACAD_PSEXT
1000
Olivetti_200.pc3
1000
Olivetti d-Copia 200MF KX
1000
IP_192.168.1.151
1000

1070
     0
  0
PLOTSETTINGS
  5
1B0F
102
{ACAD_XDICTIONARY
360
1B96
102
}
102
{ACAD_REACTORS
330
46
102
}
330
46
100
AcDbPlotSettings
  1
PLOTTER
  2
PLOTTER.pc3
  4
User622
  6

 40
0.0
 41
0.0
 42
0.0
 43
0.0
 44
841.0
 45
1189.0
 46
0.0
 47
0.0
 48
0.0
 49
0.0
140
0.0
141
0.0
142
1.0
143
1.0
 70
 11936
 72
     1
 73
     0
 74
     1
  7
DIERRE BN.ctb
 75
     0
147
2.194137304425714
148
-222.4649060220283
149
-239.0808115236937
1001
ACAD_PSEXT
1000
PLOTTER.pc3
1000
HP DesignJet 430 (E/A0) by HP
1000
\\SERVER2003
1000

1070
     0
  0
ACDBPLACEHOLDER
  5
44
102
{ACAD_REACTORS
330
43
102
}
330
43
  0
SCALE
  5
333
102
{ACAD_REACTORS
330
332
102
}
330
332
100
AcDbScale
 70
     0
300
1:1
140
1.0
141
1.0
290
     1
  0
SCALE
  5
334
102
{ACAD_REACTORS
330
332
102
}
330
332
100
AcDbScale
 70
     0
300
1:2
140
1.0
141
2.0
290
     0
  0
SCALE
  5
335
102
{ACAD_REACTORS
330
332
102
}
330
332
100
AcDbScale
 70
     0
300
1:4
140
1.0
141
4.0
290
     0
  0
SCALE
  5
336
102
{ACAD_REACTORS
330
332
102
}
330
332
100
AcDbScale
 70
     0
300
1:5
140
1.0
141
5.0
290
     0
  0
SCALE
  5
337
102
{ACAD_REACTORS
330
332
102
}
330
332
100
AcDbScale
 70
     0
300
1:8
140
1.0
141
8.0
290
     0
  0
SCALE
  5
338
102
{ACAD_REACTORS
330
332
102
}
330
332
100
AcDbScale
 70
     0
300
1:10
140
1.0
141
10.0
290
     0
  0
SCALE
  5
339
102
{ACAD_REACTORS
330
332
102
}
330
332
100
AcDbScale
 70
     0
300
1:16
140
1.0
141
16.0
290
     0
  0
SCALE
  5
33A
102
{ACAD_REACTORS
330
332
102
}
330
332
100
AcDbScale
 70
     0
300
1:20
140
1.0
141
20.0
290
     0
  0
SCALE
  5
33B
102
{ACAD_REACTORS
330
332
102
}
330
332
100
AcDbScale
 70
     0
300
1:30
140
1.0
141
30.0
290
     0
  0
SCALE
  5
33C
102
{ACAD_REACTORS
330
332
102
}
330
332
100
AcDbScale
 70
     0
300
1:40
140
1.0
141
40.0
290
     0
  0
SCALE
  5
33D
102
{ACAD_REACTORS
330
332
102
}
330
332
100
AcDbScale
 70
     0
300
1:50
140
1.0
141
50.0
290
     0
  0
SCALE
  5
33E
102
{ACAD_REACTORS
330
332
102
}
330
332
100
AcDbScale
 70
     0
300
1:100
140
1.0
141
100.0
290
     0
  0
SCALE
  5
33F
102
{ACAD_REACTORS
330
332
102
}
330
332
100
AcDbScale
 70
     0
300
2:1
140
2.0
141
1.0
290
     0
  0
SCALE
  5
340
102
{ACAD_REACTORS
330
332
102
}
330
332
100
AcDbScale
 70
     0
300
4:1
140
4.0
141
1.0
290
     0
  0
SCALE
  5
341
102
{ACAD_REACTORS
330
332
102
}
330
332
100
AcDbScale
 70
     0
300
8:1
140
8.0
141
1.0
290
     0
  0
SCALE
  5
342
102
{ACAD_REACTORS
330
332
102
}
330
332
100
AcDbScale
 70
     0
300
10:1
140
10.0
141
1.0
290
     0
  0
SCALE
  5
343
102
{ACAD_REACTORS
330
332
102
}
330
332
100
AcDbScale
 70
     0
300
100:1
140
100.0
141
1.0
290
     0
  0
SCALE
  5
344
102
{ACAD_REACTORS
330
332
102
}
330
332
100
AcDbScale
 70
     0
300
1/128" = 1'-0"
140
0.0078125
141
12.0
290
     0
  0
SCALE
  5
345
102
{ACAD_REACTORS
330
332
102
}
330
332
100
AcDbScale
 70
     0
300
1/64" = 1'-0"
140
0.015625
141
12.0
290
     0
  0
SCALE
  5
346
102
{ACAD_REACTORS
330
332
102
}
330
332
100
AcDbScale
 70
     0
300
1/32" = 1'-0"
140
0.03125
141
12.0
290
     0
  0
SCALE
  5
347
102
{ACAD_REACTORS
330
332
102
}
330
332
100
AcDbScale
 70
     0
300
1/16" = 1'-0"
140
0.0625
141
12.0
290
     0
  0
SCALE
  5
348
102
{ACAD_REACTORS
330
332
102
}
330
332
100
AcDbScale
 70
     0
300
3/32" = 1'-0"
140
0.09375
141
12.0
290
     0
  0
SCALE
  5
349
102
{ACAD_REACTORS
330
332
102
}
330
332
100
AcDbScale
 70
     0
300
1/8" = 1'-0"
140
0.125
141
12.0
290
     0
  0
SCALE
  5
34A
102
{ACAD_REACTORS
330
332
102
}
330
332
100
AcDbScale
 70
     0
300
3/16" = 1'-0"
140
0.1875
141
12.0
290
     0
  0
SCALE
  5
34B
102
{ACAD_REACTORS
330
332
102
}
330
332
100
AcDbScale
 70
     0
300
1/4" = 1'-0"
140
0.25
141
12.0
290
     0
  0
SCALE
  5
34C
102
{ACAD_REACTORS
330
332
102
}
330
332
100
AcDbScale
 70
     0
300
3/8" = 1'-0"
140
0.375
141
12.0
290
     0
  0
SCALE
  5
34D
102
{ACAD_REACTORS
330
332
102
}
330
332
100
AcDbScale
 70
     0
300
1/2" = 1'-0"
140
0.5
141
12.0
290
     0
  0
SCALE
  5
34E
102
{ACAD_REACTORS
330
332
102
}
330
332
100
AcDbScale
 70
     0
300
3/4" = 1'-0"
140
0.75
141
12.0
290
     0
  0
SCALE
  5
34F
102
{ACAD_REACTORS
330
332
102
}
330
332
100
AcDbScale
 70
     0
300
1" = 1'-0"
140
1.0
141
12.0
290
     0
  0
SCALE
  5
350
102
{ACAD_REACTORS
330
332
102
}
330
332
100
AcDbScale
 70
     0
300
1-1/2" = 1'-0"
140
1.5
141
12.0
290
     0
  0
SCALE
  5
351
102
{ACAD_REACTORS
330
332
102
}
330
332
100
AcDbScale
 70
     0
300
3" = 1'-0"
140
3.0
141
12.0
290
     0
  0
SCALE
  5
352
102
{ACAD_REACTORS
330
332
102
}
330
332
100
AcDbScale
 70
     0
300
6" = 1'-0"
140
6.0
141
12.0
290
     0
  0
SCALE
  5
353
102
{ACAD_REACTORS
330
332
102
}
330
332
100
AcDbScale
 70
     0
300
1'-0" = 1'-0"
140
12.0
141
12.0
290
     0
  0
TABLESTYLE
  5
115A
102
{ACAD_XDICTIONARY
360
115B
102
}
102
{ACAD_REACTORS
330
2C6
102
}
330
2C6
100
AcDbTableStyle
  3
Standard
 70
     1
 71
     0
 40
1.5
 41
1.5
280
     1
281
     0
  7
ROMANS
140
3.0
170
     5
 62
     7
 63
     7
283
     0
274
    -2
284
     1
 64
     0
275
    -2
285
     1
 65
     0
276
    -2
286
     1
 66
     0
277
    -2
287
     1
 67
     0
278
    -2
288
     1
 68
     0
279
    -2
289
     1
 69
     0
  7
ROMANS
140
6.0
170
     5
 62
     1
 63
     7
283
     0
274
    -2
284
     1
 64
     0
275
    -2
285
     1
 65
     0
276
    -2
286
     1
 66
     0
277
    -2
287
     1
 67
     0
278
    -2
288
     1
 68
     0
279
    -2
289
     1
 69
     0
  7
ROMANS
140
3.5
170
     5
 62
     3
 63
     7
283
     0
274
    -2
284
     1
 64
     0
275
    -2
285
     1
 65
     0
276
    -2
286
     1
 66
     0
277
    -2
287
     1
 67
     0
278
    -2
288
     1
 68
     0
279
    -2
289
     1
 69
     0
  0
TABLESTYLE
  5
115C
102
{ACAD_XDICTIONARY
360
115D
102
}
102
{ACAD_REACTORS
330
2C6
102
}
330
2C6
100
AcDbTableStyle
  3
Standard
 70
     0
 71
     0
 40
1.5
 41
1.5
280
     0
281
     0
  7
ROMANS
140
4.5
170
     5
 62
     7
 63
     7
283
     0
274
    -2
284
     1
 64
     0
275
    -2
285
     1
 65
     0
276
    -2
286
     1
 66
     0
277
    -2
287
     1
 67
     0
278
    -2
288
     1
 68
     0
279
    -2
289
     1
 69
     0
  7
ROMANS
140
6.0
170
     5
 62
     1
 63
     7
283
     0
274
    -2
284
     1
 64
     0
275
    -2
285
     1
 65
     0
276
    -2
286
     1
 66
     0
277
    -2
287
     1
 67
     0
278
    -2
288
     1
 68
     0
279
    -2
289
     1
 69
     0
  7
ROMANS
140
5.0
170
     5
 62
     3
 63
     7
283
     0
274
    -2
284
     1
 64
     0
275
    -2
285
     1
 65
     0
276
    -2
286
     1
 66
     0
277
    -2
287
     1
 67
     0
278
    -2
288
     1
 68
     0
279
    -2
289
     1
 69
     0
  0
TABLESTYLE
  5
2C7
102
{ACAD_XDICTIONARY
360
362
102
}
102
{ACAD_REACTORS
330
2C6
102
}
330
2C6
100
AcDbTableStyle
  3
Standard
 70
     0
 71
     0
 40
1.5
 41
1.5
280
     0
281
     0
  7
STANDARD
140
4.5
170
     2
 62
     0
 63
     7
283
     0
274
    -2
284
     1
 64
     0
275
    -2
285
     1
 65
     0
276
    -2
286
     1
 66
     0
277
    -2
287
     1
 67
     0
278
    -2
288
     1
 68
     0
279
    -2
289
     1
 69
     0
  7
STANDARD
140
6.0
170
     5
 62
     0
 63
     7
283
     0
274
    -2
284
     1
 64
     0
275
    -2
285
     1
 65
     0
276
    -2
286
     1
 66
     0
277
    -2
287
     1
 67
     0
278
    -2
288
     1
 68
     0
279
    -2
289
     1
 69
     0
  7
STANDARD
140
4.5
170
     5
 62
     0
 63
     7
283
     0
274
    -2
284
     1
 64
     0
275
    -2
285
     1
 65
     0
276
    -2
286
     1
 66
     0
277
    -2
287
     1
 67
     0
278
    -2
288
     1
 68
     0
279
    -2
289
     1
 69
     0
  0
VISUALSTYLE
  5
2BA
102
{ACAD_XDICTIONARY
360
1B74
102
}
102
{ACAD_REACTORS
330
2B4
102
}
330
2B4
100
AcDbVisualStyle
  2
2dWireframe
 70
     4
 71
     0
 72
     2
 73
     0
 90
        0
 40
-0.6
 41
-30.0
 62
     5
 63
     7
 74
     1
 91
        4
 64
     7
 65
   257
 75
     1
175
     1
 42
1.0
 92
        0
 66
   257
 43
1.0
 76
     1
 77
     6
 78
     2
 67
     7
 79
     5
170
     0
171
     0
290
     0
174
     0
 93
        1
 44
0.0
173
     0
291
     0
 45
0.0
1001
ACAD
1000
AcDbSavedByObjectVersion
1070
     0
  0
VISUALSTYLE
  5
2BC
102
{ACAD_XDICTIONARY
360
1B78
102
}
102
{ACAD_REACTORS
330
2B4
102
}
330
2B4
100
AcDbVisualStyle
  2
3D Hidden
 70
     6
 71
     1
 72
     2
 73
     2
 90
        0
 40
-0.6
 41
-30.0
 62
     5
 63
     7
 74
     2
 91
        2
 64
     7
 65
   257
 75
     2
175
     1
 42
40.0
 92
        0
 66
   257
 43
1.0
 76
     1
 77
     6
 78
     2
 67
     7
 79
     3
170
     0
171
     0
290
     0
174
     0
 93
        1
 44
0.0
173
     0
291
     0
 45
0.0
1001
ACAD
1000
AcDbSavedByObjectVersion
1070
     0
  0
VISUALSTYLE
  5
2BB
102
{ACAD_XDICTIONARY
360
1B76
102
}
102
{ACAD_REACTORS
330
2B4
102
}
330
2B4
100
AcDbVisualStyle
  2
3dWireframe
 70
     5
 71
     0
 72
     2
 73
     0
 90
        0
 40
-0.6
 41
-30.0
 62
     5
 63
     7
 74
     1
 91
        4
 64
     7
 65
   257
 75
     1
175
     1
 42
1.0
 92
        0
 66
   257
 43
1.0
 76
     1
 77
     6
 78
     2
 67
     7
 79
     5
170
     0
171
     0
290
     0
174
     0
 93
        1
 44
0.0
173
     0
291
     0
 45
0.0
1001
ACAD
1000
AcDbSavedByObjectVersion
1070
     0
  0
VISUALSTYLE
  5
2B9
102
{ACAD_XDICTIONARY
360
1B72
102
}
102
{ACAD_REACTORS
330
2B4
102
}
330
2B4
100
AcDbVisualStyle
  2
Basic
 70
     7
 71
     1
 72
     0
 73
     1
 90
        0
 40
-0.6
 41
-30.0
 62
     5
 63
     7
 74
     0
 91
        4
 64
     7
 65
   257
 75
     1
175
     1
 42
1.0
 92
        8
 66
     7
 43
1.0
 76
     1
 77
     6
 78
     2
 67
     7
 79
     5
170
     0
171
     0
290
     0
174
     0
 93
        1
 44
0.0
173
     0
291
     1
 45
0.0
1001
ACAD
1000
AcDbSavedByObjectVersion
1070
     0
  0
VISUALSTYLE
  5
2C0
102
{ACAD_XDICTIONARY
360
1B80
102
}
102
{ACAD_REACTORS
330
2B4
102
}
330
2B4
100
AcDbVisualStyle
  2
Brighten
 70
    12
 71
     2
 72
     2
 73
     0
 90
        0
 40
-0.6
 41
-30.0
 62
     5
 63
     7
 74
     1
 91
        4
 64
     7
 65
   257
 75
     1
175
     1
 42
1.0
 92
        8
 66
     7
 43
1.0
 76
     1
 77
     6
 78
     2
 67
     7
 79
     5
170
     0
171
     0
290
     0
174
     0
 93
        1
 44
50.0
173
     0
291
     1
 45
0.0
1001
ACAD
1000
AcDbSavedByObjectVersion
1070
     0
  0
VISUALSTYLE
  5
2C4
102
{ACAD_XDICTIONARY
360
1B88
102
}
102
{ACAD_REACTORS
330
2B4
102
}
330
2B4
100
AcDbVisualStyle
  2
ColorChange
 70
    16
 71
     2
 72
     2
 73
     3
 90
        0
 40
-0.6
 41
-30.0
 62
     5
 63
     8
 74
     1
 91
        4
 64
     7
 65
   257
 75
     1
175
     1
 42
1.0
 92
        8
 66
     8
 43
1.0
 76
     1
 77
     6
 78
     2
 67
     7
 79
     5
170
     0
171
     0
290
     0
174
     0
 93
        1
 44
0.0
173
     0
291
     1
 45
0.0
1001
ACAD
1000
AcDbSavedByObjectVersion
1070
     0
  0
VISUALSTYLE
  5
2BD
102
{ACAD_XDICTIONARY
360
1B7A
102
}
102
{ACAD_REACTORS
330
2B4
102
}
330
2B4
100
AcDbVisualStyle
  2
Conceptual
 70
     9
 71
     3
 72
     2
 73
     0
 90
        0
 40
-0.6
 41
-30.0
 62
     5
 63
     7
 74
     2
 91
        2
 64
     7
 65
   257
 75
     1
175
     1
 42
40.0
 92
        8
 66
     7
 43
1.0
 76
     1
 77
     6
 78
     2
 67
     7
 79
     3
170
     0
171
     0
290
     0
174
     0
 93
        1
 44
0.0
173
     0
291
     0
 45
0.0
1001
ACAD
1000
AcDbSavedByObjectVersion
1070
     0
  0
VISUALSTYLE
  5
2BF
102
{ACAD_XDICTIONARY
360
1B7E
102
}
102
{ACAD_REACTORS
330
2B4
102
}
330
2B4
100
AcDbVisualStyle
  2
Dim
 70
    11
 71
     2
 72
     2
 73
     0
 90
        0
 40
-0.6
 41
-30.0
 62
     5
 63
     7
 74
     1
 91
        4
 64
     7
 65
   257
 75
     1
175
     1
 42
1.0
 92
        8
 66
     7
 43
1.0
 76
     1
 77
     6
 78
     2
 67
     7
 79
     5
170
     0
171
     0
290
     0
174
     0
 93
        1
 44
-50.0
173
     0
291
     1
 45
0.0
1001
ACAD
1000
AcDbSavedByObjectVersion
1070
     0
  0
VISUALSTYLE
  5
1B33
102
{ACAD_XDICTIONARY
360
1BAA
102
}
102
{ACAD_REACTORS
330
2B4
102
}
330
2B4
100
AcDbVisualStyle
  2
EdgeColorOff
 70
    22
 71
     2
 72
     2
 73
     0
 90
        0
 40
-0.6
 41
-30.0
 62
     5
 63
     7
 74
     1
 91
        4
 64
     7
 65
   257
 75
     1
175
     1
 42
1.0
 92
        8
 66
     7
 43
1.0
 76
     1
 77
     6
 78
     2
 67
     7
 79
     5
170
     0
171
     0
290
     0
174
     0
 93
        1
 44
0.0
173
     0
291
     1
 45
0.0
1001
ACAD
1000
AcDbSavedByObjectVersion
1070
     0
  0
VISUALSTYLE
  5
2C3
102
{ACAD_XDICTIONARY
360
1B86
102
}
102
{ACAD_REACTORS
330
2B4
102
}
330
2B4
100
AcDbVisualStyle
  2
Facepattern
 70
    15
 71
     2
 72
     2
 73
     0
 90
        0
 40
-0.6
 41
-30.0
 62
     5
 63
     7
 74
     1
 91
        4
 64
     7
 65
   257
 75
     1
175
     1
 42
1.0
 92
        8
 66
     7
 43
1.0
 76
     1
 77
     6
 78
     2
 67
     7
 79
     5
170
     0
171
     0
290
     0
174
     0
 93
        1
 44
0.0
173
     0
291
     1
 45
0.0
1001
ACAD
1000
AcDbSavedByObjectVersion
1070
     0
  0
VISUALSTYLE
  5
2B5
102
{ACAD_XDICTIONARY
360
1B6A
102
}
102
{ACAD_REACTORS
330
2B4
102
}
330
2B4
100
AcDbVisualStyle
  2
Flat
 70
     0
 71
     2
 72
     1
 73
     1
 90
        2
 40
-0.6
 41
30.0
 62
     5
 63
     7
 74
     0
 91
        4
 64
     7
 65
   257
 75
     1
175
     1
 42
1.0
 92
        8
 66
     7
 43
1.0
 76
     1
 77
     6
 78
     2
 67
     7
 79
     5
170
     0
171
     0
290
     0
174
     0
 93
       13
 44
0.0
173
     0
291
     1
 45
0.0
1001
ACAD
1000
AcDbSavedByObjectVersion
1070
     0
  0
VISUALSTYLE
  5
2B6
102
{ACAD_XDICTIONARY
360
1B6C
102
}
102
{ACAD_REACTORS
330
2B4
102
}
330
2B4
100
AcDbVisualStyle
  2
FlatWithEdges
 70
     1
 71
     2
 72
     1
 73
     1
 90
        2
 40
-0.6
 41
30.0
 62
     5
 63
     7
 74
     1
 91
        4
 64
     7
 65
   257
 75
     1
175
     1
 42
1.0
 92
        0
 66
   257
 43
1.0
 76
     1
 77
     6
 78
     2
 67
     7
 79
     5
170
     0
171
     0
290
     0
174
     0
 93
       13
 44
0.0
173
     0
291
     1
 45
0.0
1001
ACAD
1000
AcDbSavedByObjectVersion
1070
     0
  0
VISUALSTYLE
  5
2B7
102
{ACAD_XDICTIONARY
360
1B6E
102
}
102
{ACAD_REACTORS
330
2B4
102
}
330
2B4
100
AcDbVisualStyle
  2
Gouraud
 70
     2
 71
     2
 72
     2
 73
     1
 90
        2
 40
-0.6
 41
30.0
 62
     5
 63
     7
 74
     0
 91
        4
 64
     7
 65
   257
 75
     1
175
     1
 42
1.0
 92
        0
 66
     7
 43
1.0
 76
     1
 77
     6
 78
     2
 67
     7
 79
     5
170
     0
171
     0
290
     0
174
     0
 93
       13
 44
0.0
173
     0
291
     1
 45
0.0
1001
ACAD
1000
AcDbSavedByObjectVersion
1070
     0
  0
VISUALSTYLE
  5
2B8
102
{ACAD_XDICTIONARY
360
1B70
102
}
102
{ACAD_REACTORS
330
2B4
102
}
330
2B4
100
AcDbVisualStyle
  2
GouraudWithEdges
 70
     3
 71
     2
 72
     2
 73
     1
 90
        2
 40
-0.6
 41
30.0
 62
     5
 63
     7
 74
     1
 91
        4
 64
     7
 65
   257
 75
     1
175
     1
 42
1.0
 92
        0
 66
   257
 43
1.0
 76
     1
 77
     6
 78
     2
 67
     7
 79
     5
170
     0
171
     0
290
     0
174
     0
 93
       13
 44
0.0
173
     0
291
     1
 45
0.0
1001
ACAD
1000
AcDbSavedByObjectVersion
1070
     0
  0
VISUALSTYLE
  5
1B2B
102
{ACAD_XDICTIONARY
360
1B9A
102
}
102
{ACAD_REACTORS
330
2B4
102
}
330
2B4
100
AcDbVisualStyle
  2
Hidden
 70
     6
 71
     1
 72
     2
 73
     2
 90
        0
 40
-0.6
 41
-30.0
 62
     5
 63
     7
 74
     2
 91
        2
 64
     7
 65
   257
 75
     2
175
     1
 42
40.0
 92
        0
 66
   257
 43
1.0
 76
     1
 77
     6
 78
     2
 67
     7
 79
     3
170
     0
171
     0
290
     0
174
     0
 93
        1
 44
0.0
173
     0
291
     0
 45
0.0
1001
ACAD
1000
AcDbSavedByObjectVersion
1070
     0
  0
VISUALSTYLE
  5
1B31
102
{ACAD_XDICTIONARY
360
1BA6
102
}
102
{ACAD_REACTORS
330
2B4
102
}
330
2B4
100
AcDbVisualStyle
  2
JitterOff
 70
    20
 71
     2
 72
     2
 73
     0
 90
        0
 40
-0.6
 41
-30.0
 62
     5
 63
     7
 74
     1
 91
        4
 64
     7
 65
   257
 75
     1
175
     1
 42
1.0
 92
       10
 66
     7
 43
1.0
 76
     1
 77
     6
 78
     2
 67
     7
 79
     5
170
     0
171
     0
290
     0
174
     0
 93
        1
 44
0.0
173
     0
291
     1
 45
0.0
1001
ACAD
1000
AcDbSavedByObjectVersion
1070
     0
  0
VISUALSTYLE
  5
2C2
102
{ACAD_XDICTIONARY
360
1B84
102
}
102
{ACAD_REACTORS
330
2B4
102
}
330
2B4
100
AcDbVisualStyle
  2
Linepattern
 70
    14
 71
     2
 72
     2
 73
     0
 90
        0
 40
-0.6
 41
-30.0
 62
     5
 63
     7
 74
     1
 91
        4
 64
     7
 65
   257
 75
     7
175
     7
 42
1.0
 92
        8
 66
     7
 43
1.0
 76
     1
 77
     6
 78
     2
 67
     7
 79
     5
170
     0
171
     0
290
     0
174
     0
 93
        1
 44
0.0
173
     0
291
     1
 45
0.0
1001
ACAD
1000
AcDbSavedByObjectVersion
1070
     0
  0
VISUALSTYLE
  5
1B32
102
{ACAD_XDICTIONARY
360
1BA8
102
}
102
{ACAD_REACTORS
330
2B4
102
}
330
2B4
100
AcDbVisualStyle
  2
OverhangOff
 70
    21
 71
     2
 72
     2
 73
     0
 90
        0
 40
-0.6
 41
-30.0
 62
     5
 63
     7
 74
     1
 91
        4
 64
     7
 65
   257
 75
     1
175
     1
 42
1.0
 92
        9
 66
     7
 43
1.0
 76
     1
 77
     6
 78
     2
 67
     7
 79
     5
170
     0
171
     0
290
     0
174
     0
 93
        1
 44
0.0
173
     0
291
     1
 45
0.0
1001
ACAD
1000
AcDbSavedByObjectVersion
1070
     0
  0
VISUALSTYLE
  5
2BE
102
{ACAD_XDICTIONARY
360
1B7C
102
}
102
{ACAD_REACTORS
330
2B4
102
}
330
2B4
100
AcDbVisualStyle
  2
Realistic
 70
     8
 71
     2
 72
     2
 73
     0
 90
        0
 40
-0.6
 41
-30.0
 62
     5
 63
     7
 74
     1
 91
        0
 64
     7
 65
   257
 75
     1
175
     1
 42
1.0
 92
        8
 66
     8
 43
1.0
 76
     1
 77
     6
 78
     2
 67
     7
 79
     5
170
     0
171
     0
290
     0
174
     0
 93
       13
 44
0.0
173
     0
291
     0
 45
0.0
1001
ACAD
1000
AcDbSavedByObjectVersion
1070
     0
  0
VISUALSTYLE
  5
1B30
102
{ACAD_XDICTIONARY
360
1BA4
102
}
102
{ACAD_REACTORS
330
2B4
102
}
330
2B4
100
AcDbVisualStyle
  2
Shaded
 70
    27
 71
     2
 72
     2
 73
     1
 90
        2
 40
-0.6
 41
30.0
 62
     5
 63
     7
 74
     0
 91
        4
 64
     7
 65
   257
 75
     1
175
     1
 42
1.0
 92
        8
 66
   257
 43
1.0
 76
     1
 77
     6
 78
     2
 67
     8
 79
     3
170
     0
171
     0
290
     0
174
     0
 93
        5
 44
0.0
173
     0
291
     0
 45
0.0
1001
ACAD
1000
AcDbSavedByObjectVersion
1070
     0
  0
VISUALSTYLE
  5
1B2F
102
{ACAD_XDICTIONARY
360
1BA2
102
}
102
{ACAD_REACTORS
330
2B4
102
}
330
2B4
100
AcDbVisualStyle
  2
Shaded with edges
 70
    26
 71
     2
 72
     2
 73
     1
 90
        2
 40
-0.6
 41
30.0
 62
     5
 63
     7
 74
     1
 91
       10
 64
     7
 65
   257
 75
     2
175
     1
 42
1.0
 92
        8
 66
   257
 43
1.0
 76
     1
 77
     6
 78
     2
 67
     7
 79
     3
170
     0
171
     0
290
     0
174
     0
 93
        5
 44
0.0
173
     0
291
     0
 45
0.0
1001
ACAD
1000
AcDbSavedByObjectVersion
1070
     0
  0
VISUALSTYLE
  5
1B2C
102
{ACAD_XDICTIONARY
360
1B9C
102
}
102
{ACAD_REACTORS
330
2B4
102
}
330
2B4
100
AcDbVisualStyle
  2
Shades of Gray
 70
    23
 71
     2
 72
     2
 73
     3
 90
        0
 40
-0.6
 41
-30.0
 62
     5
 63
     7
 74
     2
 91
        2
 64
     7
 65
     7
 75
     1
175
     1
 42
40.0
 92
        8
 66
     7
 43
1.0
 76
     1
 77
     6
 78
     2
 67
     7
 79
     3
170
     0
171
     0
290
     0
174
     0
 93
        1
 44
0.0
173
     0
291
     0
 45
0.0
1001
ACAD
1000
AcDbSavedByObjectVersion
1070
     0
  0
VISUALSTYLE
  5
1B2D
102
{ACAD_XDICTIONARY
360
1B9E
102
}
102
{ACAD_REACTORS
330
2B4
102
}
330
2B4
100
AcDbVisualStyle
  2
Sketchy
 70
    24
 71
     1
 72
     2
 73
     2
 90
        0
 40
-0.6
 41
-30.0
 62
     5
 63
     7
 74
     2
 91
        2
 64
     7
 65
     7
 75
     1
175
     1
 42
40.0
 92
       11
 66
     7
 43
1.0
 76
     1
 77
     6
 78
     2
 67
     7
 79
     6
170
     0
171
     0
290
     0
174
     0
 93
        1
 44
0.0
173
     0
291
     0
 45
0.0
1001
ACAD
1000
AcDbSavedByObjectVersion
1070
     0
  0
VISUALSTYLE
  5
2C1
102
{ACAD_XDICTIONARY
360
1B82
102
}
102
{ACAD_REACTORS
330
2B4
102
}
330
2B4
100
AcDbVisualStyle
  2
Thicken
 70
    13
 71
     2
 72
     2
 73
     0
 90
        0
 40
-0.6
 41
-30.0
 62
     5
 63
     7
 74
     1
 91
        4
 64
     7
 65
   257
 75
     1
175
     1
 42
1.0
 92
       12
 66
     7
 43
1.0
 76
     1
 77
     6
 78
     2
 67
     7
 79
     5
170
     0
171
     0
290
     0
174
     0
 93
        1
 44
0.0
173
     0
291
     1
 45
0.0
1001
ACAD
1000
AcDbSavedByObjectVersion
1070
     0
  0
VISUALSTYLE
  5
1B2A
102
{ACAD_XDICTIONARY
360
1B98
102
}
102
{ACAD_REACTORS
330
2B4
102
}
330
2B4
100
AcDbVisualStyle
  2
Wireframe
 70
     5
 71
     0
 72
     2
 73
     0
 90
        0
 40
-0.6
 41
-30.0
 62
     5
 63
     7
 74
     1
 91
        4
 64
     7
 65
   257
 75
     1
175
     1
 42
1.0
 92
        0
 66
   257
 43
1.0
 76
     1
 77
     6
 78
     2
 67
     7
 79
     3
170
     0
171
     0
290
     0
174
     0
 93
        1
 44
0.0
173
     0
291
     0
 45
0.0
1001
ACAD
1000
AcDbSavedByObjectVersion
1070
     0
  0
VISUALSTYLE
  5
1B2E
102
{ACAD_XDICTIONARY
360
1BA0
102
}
102
{ACAD_REACTORS
330
2B4
102
}
330
2B4
100
AcDbVisualStyle
  2
X-Ray
 70
    25
 71
     2
 72
     2
 73
     1
 90
        1
 40
0.5
 41
-30.0
 62
     5
 63
     7
 74
     1
 91
        0
 64
     7
 65
   257
 75
     1
175
     1
 42
1.0
 92
        8
 66
     7
 43
1.0
 76
     1
 77
     6
 78
     2
 67
     7
 79
     3
170
     0
171
     0
290
     0
174
     0
 93
       13
 44
0.0
173
     0
291
     0
 45
0.0
1001
ACAD
1000
AcDbSavedByObjectVersion
1070
     0
  0
DICTIONARYVAR
  5
36B
102
{ACAD_REACTORS
330
2AA
102
}
330
2AA
100
DictionaryVariables
280
     0
  1
1:1
  0
DICTIONARYVAR
  5
369
102
{ACAD_REACTORS
330
2AA
102
}
330
2AA
100
DictionaryVariables
280
     0
  1
STANDARD
  0
DICTIONARYVAR
  5
312
102
{ACAD_REACTORS
330
2AA
102
}
330
2AA
100
DictionaryVariables
280
     0
  1
STANDARD
  0
DICTIONARYVAR
  5
2AB
102
{ACAD_REACTORS
330
2AA
102
}
330
2AA
100
DictionaryVariables
280
     0
  1
2
  0
DICTIONARYVAR
  5
1A44
102
{ACAD_REACTORS
330
2AA
102
}
330
2AA
100
DictionaryVariables
280
     0
  1
0
  0
DICTIONARYVAR
  5
314
102
{ACAD_REACTORS
330
2AA
102
}
330
2AA
100
DictionaryVariables
280
     0
  1
0
  0
DICTIONARYVAR
  5
1A46
102
{ACAD_REACTORS
330
2AA
102
}
330
2AA
100
DictionaryVariables
280
     0
  1
1
  0
DICTIONARYVAR
  5
1A47
102
{ACAD_REACTORS
330
2AA
102
}
330
2AA
100
DictionaryVariables
280
     0
  1
15
  0
DICTIONARYVAR
  5
36C
102
{ACAD_REACTORS
330
2AA
102
}
330
2AA
100
DictionaryVariables
280
     0
  1
0
  0
DICTIONARYVAR
  5
1A45
102
{ACAD_REACTORS
330
2AA
102
}
330
2AA
100
DictionaryVariables
280
     0
  1
10.000000
  0
DICTIONARYVAR
  5
36A
102
{ACAD_REACTORS
330
2AA
102
}
330
2AA
100
DictionaryVariables
280
     0
  1
0
  0
DICTIONARYVAR
  5
313
102
{ACAD_REACTORS
330
2AA
102
}
330
2AA
100
DictionaryVariables
280
     0
  1
127
  0
DICTIONARYVAR
  5
1B58
102
{ACAD_REACTORS
330
2AA
102
}
330
2AA
100
DictionaryVariables
280
     0
  1
0
  0
XRECORD
  5
51
102
{ACAD_REACTORS
330
50
102
}
330
50
100
AcDbXrecord
280
     1
 91
        2
  0
ACAD_PROXY_OBJECT
  5
6DA
102
{ACAD_REACTORS
330
6D9
102
}
330
6D9
100
AcDbProxyObject
 90
      499
 91
      512
 95
  3276827
 70
     0
 93
      153
310
407907440045004600410055004C0054007A00CC
 94
        0
1001
ACAD
1000
AcRTDxfName
1000
ACDBQSCATEGORY
  0
ACAD_PROXY_OBJECT
  5
6EC
102
{ACAD_REACTORS
330
6EB
102
}
330
6EB
100
AcDbProxyObject
 90
      499
 91
      513
 95
  3276827
 70
     0
 93
     2908
310
40B520280D55480A0281203520280A0280C0000000000000A200000000000000448080C00000000000019200000000000000688120280A0280A0E88008A008C008200AA009800A80082280027802980170020E88008A008C008200AA009800A80080A180202860120C86009E008800920086008A008A220024802680228027
310
00298024802780270024802F8022002480268018801680220024802680190024EA2007400B800A200A600BE00A4008A00A8008A00B80082009A00840092008A009C00A8009200B800A8009E00A000BE00880092008A00A400A4008A00B800A8008200840060005C008800AE008E0095A8801D002E00288029802F802900228
310
02A0022802E002080268021002480228027002A0024802E002A00278028002F802200248022802900290022802E002A00278028002F802800208026002600170022002B80238020C86009E008800920086008A0085A200228029802180290024802D00248027802700228050413C
 94
        0
1001
ACAD
1000
AcRTDxfName
1000
ACDBQSPALLSTYLE
  0
XRECORD
  5
1B25
102
{ACAD_REACTORS
330
1B20
102
}
330
1B20
100
AcDbXrecord
280
     1
  9
X4aba
  0
XRECORD
  5
1B23
102
{ACAD_REACTORS
330
1B20
102
}
330
1B20
100
AcDbXrecord
280
     1
  2
.1
  3
P-55C6
  6
X4aba
280
     1
310
6465736372697A696F6E65002E3100444154410030352F30382F30390064697365676E61746F7265004D6172636F20412E00717461003100554D004E52005245560030005343414C4100313A310000
 10
0.0
 20
0.0
 30
0.0
  0
XRECORD
  5
1B21
102
{ACAD_REACTORS
330
1B20
102
}
330
1B20
100
AcDbXrecord
280
     1
  2
PROFIL.60x30-TUBO/ARG. 
  3
P-0000
280
     1
310
6465736372697A696F6E650050524F46494C2E36307833302D5455424F2F4152472E2000444154410030352F30382F303900554D004D4C0052455600300044495345474E41544F5245004D6172636F20412E005343414C4100313A3130005154410031004E4F544500414E5449434F524F44414C204C454741363036302F554E49203930303631004D4154455249414C4500414C4C554D494E494F00434F444943450058423235313630002E666D7400340000
 10
0.0
 20
0.0
 30
0.0
  0
XRECORD
  5
1B24
102
{ACAD_REACTORS
330
1B20
102
}
330
1B20
100
AcDbXrecord
280
     1
  2
PROF. 60x30   TUBO   ALL.ANOD.ARG.
  3
P-503E
  6
X4aba
280
     1
310
6465736372697A696F6E650050524F462E2036307833302020205455424F202020414C4C2E414E4F442E4152472E00444154410030362F30382F30390064697365676E61746F7265004D6172636F20412E00717461003100554D004D4C0052455600300044494D3100313030300044494D454E53494F4E495F44494D312D44494D3200313030300024736F7572636500416E61677261666963612047657374696F6E616C6500434F444943450058423235313630004E4F544500414E5449434F524F44414C204C454741363036302F554E49203930303631004D4154455249414C4500414C4C554D494E494F0000
 10
1642.529107634584
 20
1707.194182663448
 30
0.0
  0
XRECORD
  5
1B22
102
{ACAD_REACTORS
330
1B20
102
}
330
1B20
100
AcDbXrecord
280
     1
  2
.cart
  3
P-3369
  6
X4aba
280
     1
310
6465736372697A696F6E65002E6361727400444154410030352F30382F30390064697365676E61746F7265004D6172636F20412E00717461003100554D004E52005245560030005343414C4100313A31300000
 10
0.0
 20
0.0
 30
0.0
  0
XRECORD
  5
6E1
102
{ACAD_REACTORS
330
6E0
102
}
330
6E0
100
AcDbXrecord
280
     1
 90
      202
 91
      144
  0
DICTIONARY
  5
1B62
330
48
100
AcDbDictionary
280
     1
281
     1
  3
ACAD_XREC_ROUNDTRIP
360
1B63
  0
DICTIONARY
  5
1B60
330
47
100
AcDbDictionary
280
     1
281
     1
  3
ACAD_XREC_ROUNDTRIP
360
1B61
  0
DICTIONARY
  5
1B66
330
2B2
100
AcDbDictionary
280
     1
281
     1
  3
ACAD_XREC_ROUNDTRIP
360
1B67
  0
DICTIONARY
  5
1B64
330
2B1
100
AcDbDictionary
280
     1
281
     1
  3
ACAD_XREC_ROUNDTRIP
360
1B65
  0
DICTIONARY
  5
1B68
330
2B3
100
AcDbDictionary
280
     1
281
     1
  3
ACAD_XREC_ROUNDTRIP
360
1B69
  0
DICTIONARY
  5
1B8E
330
1B0B
100
AcDbDictionary
280
     1
281
     1
  3
ACAD_XREC_ROUNDTRIP
360
1B8F
  0
DICTIONARY
  5
1B90
330
1B0C
100
AcDbDictionary
280
     1
281
     1
  3
ACAD_XREC_ROUNDTRIP
360
1B91
  0
DICTIONARY
  5
1B92
330
1B0D
100
AcDbDictionary
280
     1
281
     1
  3
ACAD_XREC_ROUNDTRIP
360
1B93
  0
DICTIONARY
  5
1B94
330
1B0E
100
AcDbDictionary
280
     1
281
     1
  3
ACAD_XREC_ROUNDTRIP
360
1B95
  0
DICTIONARY
  5
1B96
330
1B0F
100
AcDbDictionary
280
     1
281
     1
  3
ACAD_XREC_ROUNDTRIP
360
1B97
  0
DICTIONARY
  5
115B
330
115A
100
AcDbDictionary
280
     1
281
     1
  3
ACAD_ROUNDTRIP_2008_TABLESTYLE_CELLSTYLEMAP
360
1B5A
  3
ACAD_XREC_ROUNDTRIP
360
1B8C
  0
DICTIONARY
  5
115D
330
115C
100
AcDbDictionary
280
     1
281
     1
  3
ACAD_ROUNDTRIP_2008_TABLESTYLE_CELLSTYLEMAP
360
1B5B
  3
ACAD_XREC_ROUNDTRIP
360
1B8D
  0
DICTIONARY
  5
362
330
2C7
100
AcDbDictionary
280
     1
281
     1
  3
ACAD_ROUNDTRIP_2008_TABLESTYLE_CELLSTYLEMAP
360
1B59
  3
ACAD_XREC_ROUNDTRIP
360
1B8A
  0
DICTIONARY
  5
1B74
330
2BA
100
AcDbDictionary
280
     1
281
     1
  3
ACAD_XREC_ROUNDTRIP
360
1B75
  0
DICTIONARY
  5
1B78
330
2BC
100
AcDbDictionary
280
     1
281
     1
  3
ACAD_XREC_ROUNDTRIP
360
1B79
  0
DICTIONARY
  5
1B76
330
2BB
100
AcDbDictionary
280
     1
281
     1
  3
ACAD_XREC_ROUNDTRIP
360
1B77
  0
DICTIONARY
  5
1B72
330
2B9
100
AcDbDictionary
280
     1
281
     1
  3
ACAD_XREC_ROUNDTRIP
360
1B73
  0
DICTIONARY
  5
1B80
330
2C0
100
AcDbDictionary
280
     1
281
     1
  3
ACAD_XREC_ROUNDTRIP
360
1B81
  0
DICTIONARY
  5
1B88
330
2C4
100
AcDbDictionary
280
     1
281
     1
  3
ACAD_XREC_ROUNDTRIP
360
1B89
  0
DICTIONARY
  5
1B7A
330
2BD
100
AcDbDictionary
280
     1
281
     1
  3
ACAD_XREC_ROUNDTRIP
360
1B7B
  0
DICTIONARY
  5
1B7E
330
2BF
100
AcDbDictionary
280
     1
281
     1
  3
ACAD_XREC_ROUNDTRIP
360
1B7F
  0
DICTIONARY
  5
1BAA
330
1B33
100
AcDbDictionary
280
     1
281
     1
  3
ACAD_XREC_ROUNDTRIP
360
1BAB
  0
DICTIONARY
  5
1B86
330
2C3
100
AcDbDictionary
280
     1
281
     1
  3
ACAD_XREC_ROUNDTRIP
360
1B87
  0
DICTIONARY
  5
1B6A
330
2B5
100
AcDbDictionary
280
     1
281
     1
  3
ACAD_XREC_ROUNDTRIP
360
1B6B
  0
DICTIONARY
  5
1B6C
330
2B6
100
AcDbDictionary
280
     1
281
     1
  3
ACAD_XREC_ROUNDTRIP
360
1B6D
  0
DICTIONARY
  5
1B6E
330
2B7
100
AcDbDictionary
280
     1
281
     1
  3
ACAD_XREC_ROUNDTRIP
360
1B6F
  0
DICTIONARY
  5
1B70
330
2B8
100
AcDbDictionary
280
     1
281
     1
  3
ACAD_XREC_ROUNDTRIP
360
1B71
  0
DICTIONARY
  5
1B9A
330
1B2B
100
AcDbDictionary
280
     1
281
     1
  3
ACAD_XREC_ROUNDTRIP
360
1B9B
  0
DICTIONARY
  5
1BA6
330
1B31
100
AcDbDictionary
280
     1
281
     1
  3
ACAD_XREC_ROUNDTRIP
360
1BA7
  0
DICTIONARY
  5
1B84
330
2C2
100
AcDbDictionary
280
     1
281
     1
  3
ACAD_XREC_ROUNDTRIP
360
1B85
  0
DICTIONARY
  5
1BA8
330
1B32
100
AcDbDictionary
280
     1
281
     1
  3
ACAD_XREC_ROUNDTRIP
360
1BA9
  0
DICTIONARY
  5
1B7C
330
2BE
100
AcDbDictionary
280
     1
281
     1
  3
ACAD_XREC_ROUNDTRIP
360
1B7D
  0
DICTIONARY
  5
1BA4
330
1B30
100
AcDbDictionary
280
     1
281
     1
  3
ACAD_XREC_ROUNDTRIP
360
1BA5
  0
DICTIONARY
  5
1BA2
330
1B2F
100
AcDbDictionary
280
     1
281
     1
  3
ACAD_XREC_ROUNDTRIP
360
1BA3
  0
DICTIONARY
  5
1B9C
330
1B2C
100
AcDbDictionary
280
     1
281
     1
  3
ACAD_XREC_ROUNDTRIP
360
1B9D
  0
DICTIONARY
  5
1B9E
330
1B2D
100
AcDbDictionary
280
     1
281
     1
  3
ACAD_XREC_ROUNDTRIP
360
1B9F
  0
DICTIONARY
  5
1B82
330
2C1
100
AcDbDictionary
280
     1
281
     1
  3
ACAD_XREC_ROUNDTRIP
360
1B83
  0
DICTIONARY
  5
1B98
330
1B2A
100
AcDbDictionary
280
     1
281
     1
  3
ACAD_XREC_ROUNDTRIP
360
1B99
  0
DICTIONARY
  5
1BA0
330
1B2E
100
AcDbDictionary
280
     1
281
     1
  3
ACAD_XREC_ROUNDTRIP
360
1BA1
  0
XRECORD
  5
1B63
102
{ACAD_REACTORS
330
1B62
102
}
330
1B62
100
AcDbXrecord
280
     1
102
SHADEPLOT
 70
     0
102
SHADEPLOTRESLEVEL
 70
     2
102
SHADEPLOTCUSTOMDPI
 70
   300
  0
XRECORD
  5
1B61
102
{ACAD_REACTORS
330
1B60
102
}
330
1B60
100
AcDbXrecord
280
     1
102
SHADEPLOT
 70
     0
102
SHADEPLOTRESLEVEL
 70
     2
102
SHADEPLOTCUSTOMDPI
 70
   300
  0
XRECORD
  5
1B67
102
{ACAD_REACTORS
330
1B66
102
}
330
1B66
100
AcDbXrecord
280
     1
102
MATERIAL
148
0.0
149
0.0
149
0.0
 93
        0
 94
       63
282
     0
 72
     1
 77
     1
171
     1
175
     1
179
     1
273
     0
  0
XRECORD
  5
1B65
102
{ACAD_REACTORS
330
1B64
102
}
330
1B64
100
AcDbXrecord
280
     1
102
MATERIAL
148
0.0
149
0.0
149
0.0
 93
        0
 94
       63
282
     0
 72
     1
 77
     1
171
     1
175
     1
179
     1
273
     0
  0
XRECORD
  5
1B69
102
{ACAD_REACTORS
330
1B68
102
}
330
1B68
100
AcDbXrecord
280
     1
102
MATERIAL
148
0.0
149
0.0
149
0.0
 93
        0
 94
       63
282
     0
 72
     1
 77
     1
171
     1
175
     1
179
     1
273
     0
  0
XRECORD
  5
1B8F
102
{ACAD_REACTORS
330
1B8E
102
}
330
1B8E
100
AcDbXrecord
280
     1
102
SHADEPLOT
 70
     0
102
SHADEPLOTRESLEVEL
 70
     2
102
SHADEPLOTCUSTOMDPI
 70
   300
  0
XRECORD
  5
1B91
102
{ACAD_REACTORS
330
1B90
102
}
330
1B90
100
AcDbXrecord
280
     1
102
SHADEPLOT
 70
     0
102
SHADEPLOTRESLEVEL
 70
     2
102
SHADEPLOTCUSTOMDPI
 70
   300
  0
XRECORD
  5
1B93
102
{ACAD_REACTORS
330
1B92
102
}
330
1B92
100
AcDbXrecord
280
     1
102
SHADEPLOT
 70
     0
102
SHADEPLOTRESLEVEL
 70
     2
102
SHADEPLOTCUSTOMDPI
 70
   300
  0
XRECORD
  5
1B95
102
{ACAD_REACTORS
330
1B94
102
}
330
1B94
100
AcDbXrecord
280
     1
102
SHADEPLOT
 70
     0
102
SHADEPLOTRESLEVEL
 70
     2
102
SHADEPLOTCUSTOMDPI
 70
   300
  0
XRECORD
  5
1B97
102
{ACAD_REACTORS
330
1B96
102
}
330
1B96
100
AcDbXrecord
280
     1
102
SHADEPLOT
 70
     0
102
SHADEPLOTRESLEVEL
 70
     2
102
SHADEPLOTCUSTOMDPI
 70
   300
  0
CELLSTYLEMAP
  5
1B5A
102
{ACAD_REACTORS
330
115B
102
}
330
115B
100
AcDbCellStyleMap
 90
        3
300
CELLSTYLE
  1
TABLEFORMAT_BEGIN
 90
        5
170
     1
 91
        0
 92
    32768
 62
   257
 93
        1
300
CONTENTFORMAT
  1
CONTENTFORMAT_BEGIN
 90
        0
 91
        0
 92
      512
 93
        0
300

 40
0.0
140
1.0
 94
        5
 62
     1
340
1B
144
6.0
309
CONTENTFORMAT_END
171
     1
301
MARGIN
  1
CELLMARGIN_BEGIN
 40
1.5
 40
1.5
 40
1.5
 40
1.5
 40
0.18
 40
0.18
309
CELLMARGIN_END
 94
        6
 95
        1
302
GRIDFORMAT
  1
GRIDFORMAT_BEGIN
 90
        0
 91
        1
 62
     0
 92
       -2
340
0
 93
        0
 40
0.045
309
GRIDFORMAT_END
 95
        2
302
GRIDFORMAT
  1
GRIDFORMAT_BEGIN
 90
        0
 91
        1
 62
     0
 92
       -2
340
0
 93
        0
 40
0.045
309
GRIDFORMAT_END
 95
        4
302
GRIDFORMAT
  1
GRIDFORMAT_BEGIN
 90
        0
 91
        1
 62
     0
 92
       -2
340
0
 93
        0
 40
0.045
309
GRIDFORMAT_END
 95
        8
302
GRIDFORMAT
  1
GRIDFORMAT_BEGIN
 90
        0
 91
        1
 62
     0
 92
       -2
340
0
 93
        0
 40
0.045
309
GRIDFORMAT_END
 95
       16
302
GRIDFORMAT
  1
GRIDFORMAT_BEGIN
 90
        0
 91
        1
 62
     0
 92
       -2
340
0
 93
        0
 40
0.045
309
GRIDFORMAT_END
 95
       32
302
GRIDFORMAT
  1
GRIDFORMAT_BEGIN
 90
        0
 91
        1
 62
     0
 92
       -2
340
0
 93
        0
 40
0.045
309
GRIDFORMAT_END
309
TABLEFORMAT_END
  1
CELLSTYLE_BEGIN
 90
        1
 91
        1
300
_TITLE
309
CELLSTYLE_END
300
CELLSTYLE
  1
TABLEFORMAT_BEGIN
 90
        5
170
     1
 91
        0
 92
        0
 62
   257
 93
        1
300
CONTENTFORMAT
  1
CONTENTFORMAT_BEGIN
 90
        0
 91
        0
 92
      512
 93
        0
300

 40
0.0
140
1.0
 94
        5
 62
     3
340
1B
144
3.5
309
CONTENTFORMAT_END
171
     1
301
MARGIN
  1
CELLMARGIN_BEGIN
 40
1.5
 40
1.5
 40
1.5
 40
1.5
 40
0.18
 40
0.18
309
CELLMARGIN_END
 94
        6
 95
        1
302
GRIDFORMAT
  1
GRIDFORMAT_BEGIN
 90
        0
 91
        1
 62
     0
 92
       -2
340
0
 93
        0
 40
0.045
309
GRIDFORMAT_END
 95
        2
302
GRIDFORMAT
  1
GRIDFORMAT_BEGIN
 90
        0
 91
        1
 62
     0
 92
       -2
340
0
 93
        0
 40
0.045
309
GRIDFORMAT_END
 95
        4
302
GRIDFORMAT
  1
GRIDFORMAT_BEGIN
 90
        0
 91
        1
 62
     0
 92
       -2
340
0
 93
        0
 40
0.045
309
GRIDFORMAT_END
 95
        8
302
GRIDFORMAT
  1
GRIDFORMAT_BEGIN
 90
        0
 91
        1
 62
     0
 92
       -2
340
0
 93
        0
 40
0.045
309
GRIDFORMAT_END
 95
       16
302
GRIDFORMAT
  1
GRIDFORMAT_BEGIN
 90
        0
 91
        1
 62
     0
 92
       -2
340
0
 93
        0
 40
0.045
309
GRIDFORMAT_END
 95
       32
302
GRIDFORMAT
  1
GRIDFORMAT_BEGIN
 90
        0
 91
        1
 62
     0
 92
       -2
340
0
 93
        0
 40
0.045
309
GRIDFORMAT_END
309
TABLEFORMAT_END
  1
CELLSTYLE_BEGIN
 90
        2
 91
        1
300
_HEADER
309
CELLSTYLE_END
300
CELLSTYLE
  1
TABLEFORMAT_BEGIN
 90
        5
170
     1
 91
        0
 92
        0
 62
   257
 93
        1
300
CONTENTFORMAT
  1
CONTENTFORMAT_BEGIN
 90
        0
 91
        0
 92
      512
 93
        0
300

 40
0.0
140
1.0
 94
        5
 62
     7
340
1B
144
3.0
309
CONTENTFORMAT_END
171
     1
301
MARGIN
  1
CELLMARGIN_BEGIN
 40
1.5
 40
1.5
 40
1.5
 40
1.5
 40
0.18
 40
0.18
309
CELLMARGIN_END
 94
        6
 95
        1
302
GRIDFORMAT
  1
GRIDFORMAT_BEGIN
 90
        0
 91
        1
 62
     0
 92
       -2
340
0
 93
        0
 40
0.045
309
GRIDFORMAT_END
 95
        2
302
GRIDFORMAT
  1
GRIDFORMAT_BEGIN
 90
        0
 91
        1
 62
     0
 92
       -2
340
0
 93
        0
 40
0.045
309
GRIDFORMAT_END
 95
        4
302
GRIDFORMAT
  1
GRIDFORMAT_BEGIN
 90
        0
 91
        1
 62
     0
 92
       -2
340
0
 93
        0
 40
0.045
309
GRIDFORMAT_END
 95
        8
302
GRIDFORMAT
  1
GRIDFORMAT_BEGIN
 90
        0
 91
        1
 62
     0
 92
       -2
340
0
 93
        0
 40
0.045
309
GRIDFORMAT_END
 95
       16
302
GRIDFORMAT
  1
GRIDFORMAT_BEGIN
 90
        0
 91
        1
 62
     0
 92
       -2
340
0
 93
        0
 40
0.045
309
GRIDFORMAT_END
 95
       32
302
GRIDFORMAT
  1
GRIDFORMAT_BEGIN
 90
        0
 91
        1
 62
     0
 92
       -2
340
0
 93
        0
 40
0.045
309
GRIDFORMAT_END
309
TABLEFORMAT_END
  1
CELLSTYLE_BEGIN
 90
        3
 91
        2
300
_DATA
309
CELLSTYLE_END
  0
XRECORD
  5
1B8C
102
{ACAD_REACTORS
330
115B
102
}
330
115B
100
AcDbXrecord
280
     1
102
ACAD_ROUNDTRIP_PRE2007_TABLESTYLE
 90
      512
 91
        0
  1

 92
      512
 93
        0
  2

 94
      512
 95
        0
  3

  0
CELLSTYLEMAP
  5
1B5B
102
{ACAD_REACTORS
330
115D
102
}
330
115D
100
AcDbCellStyleMap
 90
        3
300
CELLSTYLE
  1
TABLEFORMAT_BEGIN
 90
        5
170
     1
 91
        0
 92
    32768
 62
   257
 93
        1
300
CONTENTFORMAT
  1
CONTENTFORMAT_BEGIN
 90
        0
 91
        0
 92
      512
 93
        0
300

 40
0.0
140
1.0
 94
        5
 62
     1
340
1B
144
6.0
309
CONTENTFORMAT_END
171
     1
301
MARGIN
  1
CELLMARGIN_BEGIN
 40
1.5
 40
1.5
 40
1.5
 40
1.5
 40
0.18
 40
0.18
309
CELLMARGIN_END
 94
        6
 95
        1
302
GRIDFORMAT
  1
GRIDFORMAT_BEGIN
 90
        0
 91
        1
 62
     0
 92
       -2
340
0
 93
        0
 40
0.045
309
GRIDFORMAT_END
 95
        2
302
GRIDFORMAT
  1
GRIDFORMAT_BEGIN
 90
        0
 91
        1
 62
     0
 92
       -2
340
0
 93
        0
 40
0.045
309
GRIDFORMAT_END
 95
        4
302
GRIDFORMAT
  1
GRIDFORMAT_BEGIN
 90
        0
 91
        1
 62
     0
 92
       -2
340
0
 93
        0
 40
0.045
309
GRIDFORMAT_END
 95
        8
302
GRIDFORMAT
  1
GRIDFORMAT_BEGIN
 90
        0
 91
        1
 62
     0
 92
       -2
340
0
 93
        0
 40
0.045
309
GRIDFORMAT_END
 95
       16
302
GRIDFORMAT
  1
GRIDFORMAT_BEGIN
 90
        0
 91
        1
 62
     0
 92
       -2
340
0
 93
        0
 40
0.045
309
GRIDFORMAT_END
 95
       32
302
GRIDFORMAT
  1
GRIDFORMAT_BEGIN
 90
        0
 91
        1
 62
     0
 92
       -2
340
0
 93
        0
 40
0.045
309
GRIDFORMAT_END
309
TABLEFORMAT_END
  1
CELLSTYLE_BEGIN
 90
        1
 91
        1
300
_TITLE
309
CELLSTYLE_END
300
CELLSTYLE
  1
TABLEFORMAT_BEGIN
 90
        5
170
     1
 91
        0
 92
        0
 62
   257
 93
        1
300
CONTENTFORMAT
  1
CONTENTFORMAT_BEGIN
 90
        0
 91
        0
 92
      512
 93
        0
300

 40
0.0
140
1.0
 94
        5
 62
     3
340
1B
144
5.0
309
CONTENTFORMAT_END
171
     1
301
MARGIN
  1
CELLMARGIN_BEGIN
 40
1.5
 40
1.5
 40
1.5
 40
1.5
 40
0.18
 40
0.18
309
CELLMARGIN_END
 94
        6
 95
        1
302
GRIDFORMAT
  1
GRIDFORMAT_BEGIN
 90
        0
 91
        1
 62
     0
 92
       -2
340
0
 93
        0
 40
0.045
309
GRIDFORMAT_END
 95
        2
302
GRIDFORMAT
  1
GRIDFORMAT_BEGIN
 90
        0
 91
        1
 62
     0
 92
       -2
340
0
 93
        0
 40
0.045
309
GRIDFORMAT_END
 95
        4
302
GRIDFORMAT
  1
GRIDFORMAT_BEGIN
 90
        0
 91
        1
 62
     0
 92
       -2
340
0
 93
        0
 40
0.045
309
GRIDFORMAT_END
 95
        8
302
GRIDFORMAT
  1
GRIDFORMAT_BEGIN
 90
        0
 91
        1
 62
     0
 92
       -2
340
0
 93
        0
 40
0.045
309
GRIDFORMAT_END
 95
       16
302
GRIDFORMAT
  1
GRIDFORMAT_BEGIN
 90
        0
 91
        1
 62
     0
 92
       -2
340
0
 93
        0
 40
0.045
309
GRIDFORMAT_END
 95
       32
302
GRIDFORMAT
  1
GRIDFORMAT_BEGIN
 90
        0
 91
        1
 62
     0
 92
       -2
340
0
 93
        0
 40
0.045
309
GRIDFORMAT_END
309
TABLEFORMAT_END
  1
CELLSTYLE_BEGIN
 90
        2
 91
        1
300
_HEADER
309
CELLSTYLE_END
300
CELLSTYLE
  1
TABLEFORMAT_BEGIN
 90
        5
170
     1
 91
        0
 92
        0
 62
   257
 93
        1
300
CONTENTFORMAT
  1
CONTENTFORMAT_BEGIN
 90
        0
 91
        0
 92
      512
 93
        0
300

 40
0.0
140
1.0
 94
        5
 62
     7
340
1B
144
4.5
309
CONTENTFORMAT_END
171
     1
301
MARGIN
  1
CELLMARGIN_BEGIN
 40
1.5
 40
1.5
 40
1.5
 40
1.5
 40
0.18
 40
0.18
309
CELLMARGIN_END
 94
        6
 95
        1
302
GRIDFORMAT
  1
GRIDFORMAT_BEGIN
 90
        0
 91
        1
 62
     0
 92
       -2
340
0
 93
        0
 40
0.045
309
GRIDFORMAT_END
 95
        2
302
GRIDFORMAT
  1
GRIDFORMAT_BEGIN
 90
        0
 91
        1
 62
     0
 92
       -2
340
0
 93
        0
 40
0.045
309
GRIDFORMAT_END
 95
        4
302
GRIDFORMAT
  1
GRIDFORMAT_BEGIN
 90
        0
 91
        1
 62
     0
 92
       -2
340
0
 93
        0
 40
0.045
309
GRIDFORMAT_END
 95
        8
302
GRIDFORMAT
  1
GRIDFORMAT_BEGIN
 90
        0
 91
        1
 62
     0
 92
       -2
340
0
 93
        0
 40
0.045
309
GRIDFORMAT_END
 95
       16
302
GRIDFORMAT
  1
GRIDFORMAT_BEGIN
 90
        0
 91
        1
 62
     0
 92
       -2
340
0
 93
        0
 40
0.045
309
GRIDFORMAT_END
 95
       32
302
GRIDFORMAT
  1
GRIDFORMAT_BEGIN
 90
        0
 91
        1
 62
     0
 92
       -2
340
0
 93
        0
 40
0.045
309
GRIDFORMAT_END
309
TABLEFORMAT_END
  1
CELLSTYLE_BEGIN
 90
        3
 91
        2
300
_DATA
309
CELLSTYLE_END
  0
XRECORD
  5
1B8D
102
{ACAD_REACTORS
330
115D
102
}
330
115D
100
AcDbXrecord
280
     1
102
ACAD_ROUNDTRIP_PRE2007_TABLESTYLE
 90
      512
 91
        0
  1

 92
      512
 93
        0
  2

 94
      512
 95
        0
  3

  0
CELLSTYLEMAP
  5
1B59
102
{ACAD_REACTORS
330
362
102
}
330
362
100
AcDbCellStyleMap
 90
        3
300
CELLSTYLE
  1
TABLEFORMAT_BEGIN
 90
        5
170
     1
 91
        0
 92
    32768
 62
   257
 93
        1
300
CONTENTFORMAT
  1
CONTENTFORMAT_BEGIN
 90
        0
 91
        0
 92
      512
 93
        0
300

 40
0.0
140
1.0
 94
        5
 62
     0
340
C
144
6.0
309
CONTENTFORMAT_END
171
     1
301
MARGIN
  1
CELLMARGIN_BEGIN
 40
1.5
 40
1.5
 40
1.5
 40
1.5
 40
0.18
 40
0.18
309
CELLMARGIN_END
 94
        6
 95
        1
302
GRIDFORMAT
  1
GRIDFORMAT_BEGIN
 90
        0
 91
        1
 62
     0
 92
       -2
340
0
 93
        0
 40
0.045
309
GRIDFORMAT_END
 95
        2
302
GRIDFORMAT
  1
GRIDFORMAT_BEGIN
 90
        0
 91
        1
 62
     0
 92
       -2
340
0
 93
        0
 40
0.045
309
GRIDFORMAT_END
 95
        4
302
GRIDFORMAT
  1
GRIDFORMAT_BEGIN
 90
        0
 91
        1
 62
     0
 92
       -2
340
0
 93
        0
 40
0.045
309
GRIDFORMAT_END
 95
        8
302
GRIDFORMAT
  1
GRIDFORMAT_BEGIN
 90
        0
 91
        1
 62
     0
 92
       -2
340
0
 93
        0
 40
0.045
309
GRIDFORMAT_END
 95
       16
302
GRIDFORMAT
  1
GRIDFORMAT_BEGIN
 90
        0
 91
        1
 62
     0
 92
       -2
340
0
 93
        0
 40
0.045
309
GRIDFORMAT_END
 95
       32
302
GRIDFORMAT
  1
GRIDFORMAT_BEGIN
 90
        0
 91
        1
 62
     0
 92
       -2
340
0
 93
        0
 40
0.045
309
GRIDFORMAT_END
309
TABLEFORMAT_END
  1
CELLSTYLE_BEGIN
 90
        1
 91
        1
300
_TITLE
309
CELLSTYLE_END
300
CELLSTYLE
  1
TABLEFORMAT_BEGIN
 90
        5
170
     1
 91
        0
 92
        0
 62
   257
 93
        1
300
CONTENTFORMAT
  1
CONTENTFORMAT_BEGIN
 90
        0
 91
        0
 92
      512
 93
        0
300

 40
0.0
140
1.0
 94
        5
 62
     0
340
C
144
4.5
309
CONTENTFORMAT_END
171
     1
301
MARGIN
  1
CELLMARGIN_BEGIN
 40
1.5
 40
1.5
 40
1.5
 40
1.5
 40
0.18
 40
0.18
309
CELLMARGIN_END
 94
        6
 95
        1
302
GRIDFORMAT
  1
GRIDFORMAT_BEGIN
 90
        0
 91
        1
 62
     0
 92
       -2
340
0
 93
        0
 40
0.045
309
GRIDFORMAT_END
 95
        2
302
GRIDFORMAT
  1
GRIDFORMAT_BEGIN
 90
        0
 91
        1
 62
     0
 92
       -2
340
0
 93
        0
 40
0.045
309
GRIDFORMAT_END
 95
        4
302
GRIDFORMAT
  1
GRIDFORMAT_BEGIN
 90
        0
 91
        1
 62
     0
 92
       -2
340
0
 93
        0
 40
0.045
309
GRIDFORMAT_END
 95
        8
302
GRIDFORMAT
  1
GRIDFORMAT_BEGIN
 90
        0
 91
        1
 62
     0
 92
       -2
340
0
 93
        0
 40
0.045
309
GRIDFORMAT_END
 95
       16
302
GRIDFORMAT
  1
GRIDFORMAT_BEGIN
 90
        0
 91
        1
 62
     0
 92
       -2
340
0
 93
        0
 40
0.045
309
GRIDFORMAT_END
 95
       32
302
GRIDFORMAT
  1
GRIDFORMAT_BEGIN
 90
        0
 91
        1
 62
     0
 92
       -2
340
0
 93
        0
 40
0.045
309
GRIDFORMAT_END
309
TABLEFORMAT_END
  1
CELLSTYLE_BEGIN
 90
        2
 91
        1
300
_HEADER
309
CELLSTYLE_END
300
CELLSTYLE
  1
TABLEFORMAT_BEGIN
 90
        5
170
     1
 91
        0
 92
        0
 62
   257
 93
        1
300
CONTENTFORMAT
  1
CONTENTFORMAT_BEGIN
 90
        0
 91
        0
 92
      512
 93
        0
300

 40
0.0
140
1.0
 94
        2
 62
     0
340
C
144
4.5
309
CONTENTFORMAT_END
171
     1
301
MARGIN
  1
CELLMARGIN_BEGIN
 40
1.5
 40
1.5
 40
1.5
 40
1.5
 40
0.18
 40
0.18
309
CELLMARGIN_END
 94
        6
 95
        1
302
GRIDFORMAT
  1
GRIDFORMAT_BEGIN
 90
        0
 91
        1
 62
     0
 92
       -2
340
0
 93
        0
 40
0.045
309
GRIDFORMAT_END
 95
        2
302
GRIDFORMAT
  1
GRIDFORMAT_BEGIN
 90
        0
 91
        1
 62
     0
 92
       -2
340
0
 93
        0
 40
0.045
309
GRIDFORMAT_END
 95
        4
302
GRIDFORMAT
  1
GRIDFORMAT_BEGIN
 90
        0
 91
        1
 62
     0
 92
       -2
340
0
 93
        0
 40
0.045
309
GRIDFORMAT_END
 95
        8
302
GRIDFORMAT
  1
GRIDFORMAT_BEGIN
 90
        0
 91
        1
 62
     0
 92
       -2
340
0
 93
        0
 40
0.045
309
GRIDFORMAT_END
 95
       16
302
GRIDFORMAT
  1
GRIDFORMAT_BEGIN
 90
        0
 91
        1
 62
     0
 92
       -2
340
0
 93
        0
 40
0.045
309
GRIDFORMAT_END
 95
       32
302
GRIDFORMAT
  1
GRIDFORMAT_BEGIN
 90
        0
 91
        1
 62
     0
 92
       -2
340
0
 93
        0
 40
0.045
309
GRIDFORMAT_END
309
TABLEFORMAT_END
  1
CELLSTYLE_BEGIN
 90
        3
 91
        2
300
_DATA
309
CELLSTYLE_END
  0
XRECORD
  5
1B8A
102
{ACAD_REACTORS
330
362
102
}
330
362
100
AcDbXrecord
280
     1
102
ACAD_ROUNDTRIP_PRE2007_TABLESTYLE
 90
      512
 91
        0
  1

 92
      512
 93
        0
  2

 94
      512
 95
        0
  3

  0
XRECORD
  5
1B75
102
{ACAD_REACTORS
330
1B74
102
}
330
1B74
100
AcDbXrecord
280
     1
102
RTVSPropertyOp0
 70
     1
102
RTVSPropertyOp1
 70
     1
102
RTVSPropertyOp2
 70
     1
102
RTVSPropertyOp3
 70
     1
102
RTVSPropertyOp4
 70
     1
102
RTVSPropertyOp5
 70
     1
102
RTVSPropertyOp6
 70
     1
102
RTVSPropertyOp7
 70
     1
102
RTVSPropertyOp8
 70
     1
102
RTVSPropertyOp9
 70
     1
102
RTVSPropertyOp10
 70
     1
102
RTVSPropertyOp11
 70
     1
102
RTVSPropertyOp12
 70
     1
102
RTVSPropertyOp13
 70
     1
102
RTVSPropertyOp14
 70
     1
102
RTVSPropertyOp15
 70
     1
102
RTVSPropertyOp16
 70
     1
102
RTVSPropertyOp17
 70
     1
102
RTVSPropertyOp18
 70
     1
102
RTVSPropertyOp19
 70
     1
102
RTVSPropertyOp20
 70
     1
102
RTVSPropertyOp21
 70
     1
102
RTVSPropertyOp22
 70
     1
102
RTVSPropertyOp23
 70
     1
102
RTVSPropertyOp24
 70
     1
102
RTVSPropertyOp25
 70
     1
102
RTVSPropertyOp26
 70
     1
102
RTVSPropertyOp27
 70
     1
102
RTVSPropertyOp28
 70
     1
102
RTVSPropertyOp29
 70
     1
102
RTVSPropertyOp30
 70
     1
102
RTVSPropertyOp31
 70
     1
102
RTVSPropertyOp32
 70
     1
  0
XRECORD
  5
1B79
102
{ACAD_REACTORS
330
1B78
102
}
330
1B78
100
AcDbXrecord
280
     1
102
RTVSPropertyOp0
 70
     1
102
RTVSPropertyOp1
 70
     1
102
RTVSPropertyOp2
 70
     1
102
RTVSPropertyOp3
 70
     1
102
RTVSPropertyOp4
 70
     1
102
RTVSPropertyOp5
 70
     1
102
RTVSPropertyOp6
 70
     1
102
RTVSPropertyOp7
 70
     1
102
RTVSPropertyOp8
 70
     1
102
RTVSPropertyOp9
 70
     1
102
RTVSPropertyOp10
 70
     1
102
RTVSPropertyOp11
 70
     1
102
RTVSPropertyOp12
 70
     1
102
RTVSPropertyOp13
 70
     1
102
RTVSPropertyOp14
 70
     1
102
RTVSPropertyOp15
 70
     1
102
RTVSPropertyOp16
 70
     1
102
RTVSPropertyOp17
 70
     1
102
RTVSPropertyOp18
 70
     1
102
RTVSPropertyOp19
 70
     1
102
RTVSPropertyOp20
 70
     1
102
RTVSPropertyOp21
 70
     1
102
RTVSPropertyOp22
 70
     1
102
RTVSPropertyOp23
 70
     1
102
RTVSPropertyOp24
 70
     1
102
RTVSPropertyOp25
 70
     1
102
RTVSPropertyOp26
 70
     1
102
RTVSPropertyOp27
 70
     1
102
RTVSPropertyOp28
 70
     1
102
RTVSPropertyOp29
 70
     1
102
RTVSPropertyOp30
 70
     1
102
RTVSPropertyOp31
 70
     1
102
RTVSPropertyOp32
 70
     1
  0
XRECORD
  5
1B77
102
{ACAD_REACTORS
330
1B76
102
}
330
1B76
100
AcDbXrecord
280
     1
102
RTVSPropertyOp0
 70
     1
102
RTVSPropertyOp1
 70
     1
102
RTVSPropertyOp2
 70
     1
102
RTVSPropertyOp3
 70
     1
102
RTVSPropertyOp4
 70
     1
102
RTVSPropertyOp5
 70
     1
102
RTVSPropertyOp6
 70
     1
102
RTVSPropertyOp7
 70
     1
102
RTVSPropertyOp8
 70
     1
102
RTVSPropertyOp9
 70
     1
102
RTVSPropertyOp10
 70
     1
102
RTVSPropertyOp11
 70
     1
102
RTVSPropertyOp12
 70
     1
102
RTVSPropertyOp13
 70
     1
102
RTVSPropertyOp14
 70
     1
102
RTVSPropertyOp15
 70
     1
102
RTVSPropertyOp16
 70
     1
102
RTVSPropertyOp17
 70
     1
102
RTVSPropertyOp18
 70
     1
102
RTVSPropertyOp19
 70
     1
102
RTVSPropertyOp20
 70
     1
102
RTVSPropertyOp21
 70
     1
102
RTVSPropertyOp22
 70
     1
102
RTVSPropertyOp23
 70
     1
102
RTVSPropertyOp24
 70
     1
102
RTVSPropertyOp25
 70
     1
102
RTVSPropertyOp26
 70
     1
102
RTVSPropertyOp27
 70
     1
102
RTVSPropertyOp28
 70
     1
102
RTVSPropertyOp29
 70
     1
102
RTVSPropertyOp30
 70
     1
102
RTVSPropertyOp31
 70
     1
102
RTVSPropertyOp32
 70
     1
  0
XRECORD
  5
1B73
102
{ACAD_REACTORS
330
1B72
102
}
330
1B72
100
AcDbXrecord
280
     1
102
RTVSPropertyOp0
 70
     1
102
RTVSPropertyOp1
 70
     1
102
RTVSPropertyOp2
 70
     1
102
RTVSPropertyOp3
 70
     1
102
RTVSPropertyOp4
 70
     1
102
RTVSPropertyOp5
 70
     1
102
RTVSPropertyOp6
 70
     1
102
RTVSPropertyOp7
 70
     1
102
RTVSPropertyOp8
 70
     1
102
RTVSPropertyOp9
 70
     1
102
RTVSPropertyOp10
 70
     1
102
RTVSPropertyOp11
 70
     1
102
RTVSPropertyOp12
 70
     1
102
RTVSPropertyOp13
 70
     1
102
RTVSPropertyOp14
 70
     1
102
RTVSPropertyOp15
 70
     1
102
RTVSPropertyOp16
 70
     1
102
RTVSPropertyOp17
 70
     1
102
RTVSPropertyOp18
 70
     1
102
RTVSPropertyOp19
 70
     1
102
RTVSPropertyOp20
 70
     1
102
RTVSPropertyOp21
 70
     1
102
RTVSPropertyOp22
 70
     1
102
RTVSPropertyOp23
 70
     1
102
RTVSPropertyOp24
 70
     1
102
RTVSPropertyOp25
 70
     1
102
RTVSPropertyOp26
 70
     1
102
RTVSPropertyOp27
 70
     1
102
RTVSPropertyOp28
 70
     1
102
RTVSPropertyOp29
 70
     1
102
RTVSPropertyOp30
 70
     1
102
RTVSPropertyOp31
 70
     1
102
RTVSPropertyOp32
 70
     1
  0
XRECORD
  5
1B81
102
{ACAD_REACTORS
330
1B80
102
}
330
1B80
100
AcDbXrecord
280
     1
102
RTVSPropertyOp0
 70
     1
102
RTVSPropertyOp1
 70
     1
102
RTVSPropertyOp2
 70
     1
102
RTVSPropertyOp3
 70
     1
102
RTVSPropertyOp4
 70
     1
102
RTVSPropertyOp5
 70
     1
102
RTVSPropertyOp6
 70
     1
102
RTVSPropertyOp7
 70
     1
102
RTVSPropertyOp8
 70
     1
102
RTVSPropertyOp9
 70
     1
102
RTVSPropertyOp10
 70
     1
102
RTVSPropertyOp11
 70
     1
102
RTVSPropertyOp12
 70
     1
102
RTVSPropertyOp13
 70
     1
102
RTVSPropertyOp14
 70
     1
102
RTVSPropertyOp15
 70
     1
102
RTVSPropertyOp16
 70
     1
102
RTVSPropertyOp17
 70
     1
102
RTVSPropertyOp18
 70
     1
102
RTVSPropertyOp19
 70
     1
102
RTVSPropertyOp20
 70
     1
102
RTVSPropertyOp21
 70
     1
102
RTVSPropertyOp22
 70
     1
102
RTVSPropertyOp23
 70
     1
102
RTVSPropertyOp24
 70
     1
102
RTVSPropertyOp25
 70
     1
102
RTVSPropertyOp26
 70
     1
102
RTVSPropertyOp27
 70
     1
102
RTVSPropertyOp28
 70
     1
102
RTVSPropertyOp29
 70
     1
102
RTVSPropertyOp30
 70
     1
102
RTVSPropertyOp31
 70
     1
102
RTVSPropertyOp32
 70
     1
  0
XRECORD
  5
1B89
102
{ACAD_REACTORS
330
1B88
102
}
330
1B88
100
AcDbXrecord
280
     1
102
RTVSPropertyOp0
 70
     1
102
RTVSPropertyOp1
 70
     1
102
RTVSPropertyOp2
 70
     1
102
RTVSPropertyOp3
 70
     1
102
RTVSPropertyOp4
 70
     1
102
RTVSPropertyOp5
 70
     1
102
RTVSPropertyOp6
 70
     1
102
RTVSPropertyOp7
 70
     1
102
RTVSPropertyOp8
 70
     1
102
RTVSPropertyOp9
 70
     1
102
RTVSPropertyOp10
 70
     1
102
RTVSPropertyOp11
 70
     1
102
RTVSPropertyOp12
 70
     1
102
RTVSPropertyOp13
 70
     1
102
RTVSPropertyOp14
 70
     1
102
RTVSPropertyOp15
 70
     1
102
RTVSPropertyOp16
 70
     1
102
RTVSPropertyOp17
 70
     1
102
RTVSPropertyOp18
 70
     1
102
RTVSPropertyOp19
 70
     1
102
RTVSPropertyOp20
 70
     1
102
RTVSPropertyOp21
 70
     1
102
RTVSPropertyOp22
 70
     1
102
RTVSPropertyOp23
 70
     1
102
RTVSPropertyOp24
 70
     1
102
RTVSPropertyOp25
 70
     1
102
RTVSPropertyOp26
 70
     1
102
RTVSPropertyOp27
 70
     1
102
RTVSPropertyOp28
 70
     1
102
RTVSPropertyOp29
 70
     1
102
RTVSPropertyOp30
 70
     1
102
RTVSPropertyOp31
 70
     1
102
RTVSPropertyOp32
 70
     1
  0
XRECORD
  5
1B7B
102
{ACAD_REACTORS
330
1B7A
102
}
330
1B7A
100
AcDbXrecord
280
     1
102
RTVSPropertyOp0
 70
     1
102
RTVSPropertyOp1
 70
     1
102
RTVSPropertyOp2
 70
     1
102
RTVSPropertyOp3
 70
     1
102
RTVSPropertyOp4
 70
     1
102
RTVSPropertyOp5
 70
     1
102
RTVSPropertyOp6
 70
     1
102
RTVSPropertyOp7
 70
     1
102
RTVSPropertyOp8
 70
     1
102
RTVSPropertyOp9
 70
     1
102
RTVSPropertyOp10
 70
     1
102
RTVSPropertyOp11
 70
     1
102
RTVSPropertyOp12
 70
     1
102
RTVSPropertyOp13
 70
     1
102
RTVSPropertyOp14
 70
     1
102
RTVSPropertyOp15
 70
     1
102
RTVSPropertyOp16
 70
     1
102
RTVSPropertyOp17
 70
     1
102
RTVSPropertyOp18
 70
     1
102
RTVSPropertyOp19
 70
     1
102
RTVSPropertyOp20
 70
     1
102
RTVSPropertyOp21
 70
     1
102
RTVSPropertyOp22
 70
     1
102
RTVSPropertyOp23
 70
     1
102
RTVSPropertyOp24
 70
     1
102
RTVSPropertyOp25
 70
     1
102
RTVSPropertyOp26
 70
     1
102
RTVSPropertyOp27
 70
     1
102
RTVSPropertyOp28
 70
     1
102
RTVSPropertyOp29
 70
     1
102
RTVSPropertyOp30
 70
     1
102
RTVSPropertyOp31
 70
     1
102
RTVSPropertyOp32
 70
     1
  0
XRECORD
  5
1B7F
102
{ACAD_REACTORS
330
1B7E
102
}
330
1B7E
100
AcDbXrecord
280
     1
102
RTVSPropertyOp0
 70
     1
102
RTVSPropertyOp1
 70
     1
102
RTVSPropertyOp2
 70
     1
102
RTVSPropertyOp3
 70
     1
102
RTVSPropertyOp4
 70
     1
102
RTVSPropertyOp5
 70
     1
102
RTVSPropertyOp6
 70
     1
102
RTVSPropertyOp7
 70
     1
102
RTVSPropertyOp8
 70
     1
102
RTVSPropertyOp9
 70
     1
102
RTVSPropertyOp10
 70
     1
102
RTVSPropertyOp11
 70
     1
102
RTVSPropertyOp12
 70
     1
102
RTVSPropertyOp13
 70
     1
102
RTVSPropertyOp14
 70
     1
102
RTVSPropertyOp15
 70
     1
102
RTVSPropertyOp16
 70
     1
102
RTVSPropertyOp17
 70
     1
102
RTVSPropertyOp18
 70
     1
102
RTVSPropertyOp19
 70
     1
102
RTVSPropertyOp20
 70
     1
102
RTVSPropertyOp21
 70
     1
102
RTVSPropertyOp22
 70
     1
102
RTVSPropertyOp23
 70
     1
102
RTVSPropertyOp24
 70
     1
102
RTVSPropertyOp25
 70
     1
102
RTVSPropertyOp26
 70
     1
102
RTVSPropertyOp27
 70
     1
102
RTVSPropertyOp28
 70
     1
102
RTVSPropertyOp29
 70
     1
102
RTVSPropertyOp30
 70
     1
102
RTVSPropertyOp31
 70
     1
102
RTVSPropertyOp32
 70
     1
  0
XRECORD
  5
1BAB
102
{ACAD_REACTORS
330
1BAA
102
}
330
1BAA
100
AcDbXrecord
280
     1
102
RTVSPropertyOp0
 70
     0
102
RTVSPropertyOp1
 70
     0
102
RTVSPropertyOp2
 70
     0
102
RTVSPropertyOp3
 70
     0
102
RTVSPropertyOp4
 70
     0
102
RTVSPropertyOp5
 70
     0
102
RTVSPropertyOp6
 70
     0
102
RTVSPropertyOp7
 70
     0
102
RTVSPropertyOp8
 70
     0
102
RTVSPropertyOp9
 70
     0
102
RTVSPropertyOp10
 70
     0
102
RTVSPropertyOp11
 70
     0
102
RTVSPropertyOp12
 70
     0
102
RTVSPropertyOp13
 70
     0
102
RTVSPropertyOp14
 70
     2
102
RTVSPropertyOp15
 70
     0
102
RTVSPropertyOp16
 70
     0
102
RTVSPropertyOp17
 70
     0
102
RTVSPropertyOp18
 70
     0
102
RTVSPropertyOp19
 70
     0
102
RTVSPropertyOp20
 70
     0
102
RTVSPropertyOp21
 70
     0
102
RTVSPropertyOp22
 70
     0
102
RTVSPropertyOp23
 70
     0
102
RTVSPropertyOp24
 70
     0
102
RTVSPropertyOp25
 70
     0
102
RTVSPropertyOp26
 70
     0
102
RTVSPropertyOp27
 70
     0
102
RTVSPropertyOp28
 70
     0
102
RTVSPropertyOp29
 70
     0
102
RTVSPropertyOp30
 70
     0
102
RTVSPropertyOp31
 70
     0
102
RTVSPropertyOp32
 70
     0
  0
XRECORD
  5
1B87
102
{ACAD_REACTORS
330
1B86
102
}
330
1B86
100
AcDbXrecord
280
     1
102
RTVSPropertyOp0
 70
     1
102
RTVSPropertyOp1
 70
     1
102
RTVSPropertyOp2
 70
     1
102
RTVSPropertyOp3
 70
     1
102
RTVSPropertyOp4
 70
     1
102
RTVSPropertyOp5
 70
     1
102
RTVSPropertyOp6
 70
     1
102
RTVSPropertyOp7
 70
     1
102
RTVSPropertyOp8
 70
     1
102
RTVSPropertyOp9
 70
     1
102
RTVSPropertyOp10
 70
     1
102
RTVSPropertyOp11
 70
     1
102
RTVSPropertyOp12
 70
     1
102
RTVSPropertyOp13
 70
     1
102
RTVSPropertyOp14
 70
     1
102
RTVSPropertyOp15
 70
     1
102
RTVSPropertyOp16
 70
     1
102
RTVSPropertyOp17
 70
     1
102
RTVSPropertyOp18
 70
     1
102
RTVSPropertyOp19
 70
     1
102
RTVSPropertyOp20
 70
     1
102
RTVSPropertyOp21
 70
     1
102
RTVSPropertyOp22
 70
     1
102
RTVSPropertyOp23
 70
     1
102
RTVSPropertyOp24
 70
     1
102
RTVSPropertyOp25
 70
     1
102
RTVSPropertyOp26
 70
     1
102
RTVSPropertyOp27
 70
     1
102
RTVSPropertyOp28
 70
     1
102
RTVSPropertyOp29
 70
     1
102
RTVSPropertyOp30
 70
     1
102
RTVSPropertyOp31
 70
     1
102
RTVSPropertyOp32
 70
     1
  0
XRECORD
  5
1B6B
102
{ACAD_REACTORS
330
1B6A
102
}
330
1B6A
100
AcDbXrecord
280
     1
102
RTVSPropertyOp0
 70
     1
102
RTVSPropertyOp1
 70
     1
102
RTVSPropertyOp2
 70
     1
102
RTVSPropertyOp3
 70
     1
102
RTVSPropertyOp4
 70
     1
102
RTVSPropertyOp5
 70
     1
102
RTVSPropertyOp6
 70
     1
102
RTVSPropertyOp7
 70
     1
102
RTVSPropertyOp8
 70
     1
102
RTVSPropertyOp9
 70
     1
102
RTVSPropertyOp10
 70
     1
102
RTVSPropertyOp11
 70
     1
102
RTVSPropertyOp12
 70
     1
102
RTVSPropertyOp13
 70
     1
102
RTVSPropertyOp14
 70
     1
102
RTVSPropertyOp15
 70
     1
102
RTVSPropertyOp16
 70
     1
102
RTVSPropertyOp17
 70
     1
102
RTVSPropertyOp18
 70
     1
102
RTVSPropertyOp19
 70
     1
102
RTVSPropertyOp20
 70
     1
102
RTVSPropertyOp21
 70
     1
102
RTVSPropertyOp22
 70
     1
102
RTVSPropertyOp23
 70
     1
102
RTVSPropertyOp24
 70
     1
102
RTVSPropertyOp25
 70
     1
102
RTVSPropertyOp26
 70
     1
102
RTVSPropertyOp27
 70
     1
102
RTVSPropertyOp28
 70
     1
102
RTVSPropertyOp29
 70
     1
102
RTVSPropertyOp30
 70
     1
102
RTVSPropertyOp31
 70
     1
102
RTVSPropertyOp32
 70
     1
  0
XRECORD
  5
1B6D
102
{ACAD_REACTORS
330
1B6C
102
}
330
1B6C
100
AcDbXrecord
280
     1
102
RTVSPropertyOp0
 70
     1
102
RTVSPropertyOp1
 70
     1
102
RTVSPropertyOp2
 70
     1
102
RTVSPropertyOp3
 70
     1
102
RTVSPropertyOp4
 70
     1
102
RTVSPropertyOp5
 70
     1
102
RTVSPropertyOp6
 70
     1
102
RTVSPropertyOp7
 70
     1
102
RTVSPropertyOp8
 70
     1
102
RTVSPropertyOp9
 70
     1
102
RTVSPropertyOp10
 70
     1
102
RTVSPropertyOp11
 70
     1
102
RTVSPropertyOp12
 70
     1
102
RTVSPropertyOp13
 70
     1
102
RTVSPropertyOp14
 70
     1
102
RTVSPropertyOp15
 70
     1
102
RTVSPropertyOp16
 70
     1
102
RTVSPropertyOp17
 70
     1
102
RTVSPropertyOp18
 70
     1
102
RTVSPropertyOp19
 70
     1
102
RTVSPropertyOp20
 70
     1
102
RTVSPropertyOp21
 70
     1
102
RTVSPropertyOp22
 70
     1
102
RTVSPropertyOp23
 70
     1
102
RTVSPropertyOp24
 70
     1
102
RTVSPropertyOp25
 70
     1
102
RTVSPropertyOp26
 70
     1
102
RTVSPropertyOp27
 70
     1
102
RTVSPropertyOp28
 70
     1
102
RTVSPropertyOp29
 70
     1
102
RTVSPropertyOp30
 70
     1
102
RTVSPropertyOp31
 70
     1
102
RTVSPropertyOp32
 70
     1
  0
XRECORD
  5
1B6F
102
{ACAD_REACTORS
330
1B6E
102
}
330
1B6E
100
AcDbXrecord
280
     1
102
RTVSPropertyOp0
 70
     1
102
RTVSPropertyOp1
 70
     1
102
RTVSPropertyOp2
 70
     1
102
RTVSPropertyOp3
 70
     1
102
RTVSPropertyOp4
 70
     1
102
RTVSPropertyOp5
 70
     1
102
RTVSPropertyOp6
 70
     1
102
RTVSPropertyOp7
 70
     1
102
RTVSPropertyOp8
 70
     1
102
RTVSPropertyOp9
 70
     1
102
RTVSPropertyOp10
 70
     1
102
RTVSPropertyOp11
 70
     1
102
RTVSPropertyOp12
 70
     1
102
RTVSPropertyOp13
 70
     1
102
RTVSPropertyOp14
 70
     1
102
RTVSPropertyOp15
 70
     1
102
RTVSPropertyOp16
 70
     1
102
RTVSPropertyOp17
 70
     1
102
RTVSPropertyOp18
 70
     1
102
RTVSPropertyOp19
 70
     1
102
RTVSPropertyOp20
 70
     1
102
RTVSPropertyOp21
 70
     1
102
RTVSPropertyOp22
 70
     1
102
RTVSPropertyOp23
 70
     1
102
RTVSPropertyOp24
 70
     1
102
RTVSPropertyOp25
 70
     1
102
RTVSPropertyOp26
 70
     1
102
RTVSPropertyOp27
 70
     1
102
RTVSPropertyOp28
 70
     1
102
RTVSPropertyOp29
 70
     1
102
RTVSPropertyOp30
 70
     1
102
RTVSPropertyOp31
 70
     1
102
RTVSPropertyOp32
 70
     1
  0
XRECORD
  5
1B71
102
{ACAD_REACTORS
330
1B70
102
}
330
1B70
100
AcDbXrecord
280
     1
102
RTVSPropertyOp0
 70
     1
102
RTVSPropertyOp1
 70
     1
102
RTVSPropertyOp2
 70
     1
102
RTVSPropertyOp3
 70
     1
102
RTVSPropertyOp4
 70
     1
102
RTVSPropertyOp5
 70
     1
102
RTVSPropertyOp6
 70
     1
102
RTVSPropertyOp7
 70
     1
102
RTVSPropertyOp8
 70
     1
102
RTVSPropertyOp9
 70
     1
102
RTVSPropertyOp10
 70
     1
102
RTVSPropertyOp11
 70
     1
102
RTVSPropertyOp12
 70
     1
102
RTVSPropertyOp13
 70
     1
102
RTVSPropertyOp14
 70
     1
102
RTVSPropertyOp15
 70
     1
102
RTVSPropertyOp16
 70
     1
102
RTVSPropertyOp17
 70
     1
102
RTVSPropertyOp18
 70
     1
102
RTVSPropertyOp19
 70
     1
102
RTVSPropertyOp20
 70
     1
102
RTVSPropertyOp21
 70
     1
102
RTVSPropertyOp22
 70
     1
102
RTVSPropertyOp23
 70
     1
102
RTVSPropertyOp24
 70
     1
102
RTVSPropertyOp25
 70
     1
102
RTVSPropertyOp26
 70
     1
102
RTVSPropertyOp27
 70
     1
102
RTVSPropertyOp28
 70
     1
102
RTVSPropertyOp29
 70
     1
102
RTVSPropertyOp30
 70
     1
102
RTVSPropertyOp31
 70
     1
102
RTVSPropertyOp32
 70
     1
  0
XRECORD
  5
1B9B
102
{ACAD_REACTORS
330
1B9A
102
}
330
1B9A
100
AcDbXrecord
280
     1
102
RTVSPropertyOp0
 70
     1
102
RTVSPropertyOp1
 70
     1
102
RTVSPropertyOp2
 70
     1
102
RTVSPropertyOp3
 70
     1
102
RTVSPropertyOp4
 70
     1
102
RTVSPropertyOp5
 70
     1
102
RTVSPropertyOp6
 70
     1
102
RTVSPropertyOp7
 70
     1
102
RTVSPropertyOp8
 70
     1
102
RTVSPropertyOp9
 70
     1
102
RTVSPropertyOp10
 70
     1
102
RTVSPropertyOp11
 70
     1
102
RTVSPropertyOp12
 70
     1
102
RTVSPropertyOp13
 70
     1
102
RTVSPropertyOp14
 70
     1
102
RTVSPropertyOp15
 70
     1
102
RTVSPropertyOp16
 70
     1
102
RTVSPropertyOp17
 70
     1
102
RTVSPropertyOp18
 70
     1
102
RTVSPropertyOp19
 70
     1
102
RTVSPropertyOp20
 70
     1
102
RTVSPropertyOp21
 70
     1
102
RTVSPropertyOp22
 70
     1
102
RTVSPropertyOp23
 70
     1
102
RTVSPropertyOp24
 70
     1
102
RTVSPropertyOp25
 70
     1
102
RTVSPropertyOp26
 70
     1
102
RTVSPropertyOp27
 70
     1
102
RTVSPropertyOp28
 70
     1
102
RTVSPropertyOp29
 70
     1
102
RTVSPropertyOp30
 70
     1
102
RTVSPropertyOp31
 70
     1
102
RTVSPropertyOp32
 70
     1
  0
XRECORD
  5
1BA7
102
{ACAD_REACTORS
330
1BA6
102
}
330
1BA6
100
AcDbXrecord
280
     1
102
RTVSPropertyOp0
 70
     0
102
RTVSPropertyOp1
 70
     0
102
RTVSPropertyOp2
 70
     0
102
RTVSPropertyOp3
 70
     0
102
RTVSPropertyOp4
 70
     0
102
RTVSPropertyOp5
 70
     0
102
RTVSPropertyOp6
 70
     0
102
RTVSPropertyOp7
 70
     0
102
RTVSPropertyOp8
 70
     0
102
RTVSPropertyOp9
 70
     0
102
RTVSPropertyOp10
 70
     0
102
RTVSPropertyOp11
 70
     0
102
RTVSPropertyOp12
 70
     0
102
RTVSPropertyOp13
 70
     0
102
RTVSPropertyOp14
 70
     2
102
RTVSPropertyOp15
 70
     0
102
RTVSPropertyOp16
 70
     0
102
RTVSPropertyOp17
 70
     0
102
RTVSPropertyOp18
 70
     0
102
RTVSPropertyOp19
 70
     0
102
RTVSPropertyOp20
 70
     0
102
RTVSPropertyOp21
 70
     0
102
RTVSPropertyOp22
 70
     0
102
RTVSPropertyOp23
 70
     0
102
RTVSPropertyOp24
 70
     0
102
RTVSPropertyOp25
 70
     0
102
RTVSPropertyOp26
 70
     0
102
RTVSPropertyOp27
 70
     0
102
RTVSPropertyOp28
 70
     0
102
RTVSPropertyOp29
 70
     0
102
RTVSPropertyOp30
 70
     0
102
RTVSPropertyOp31
 70
     0
102
RTVSPropertyOp32
 70
     0
  0
XRECORD
  5
1B85
102
{ACAD_REACTORS
330
1B84
102
}
330
1B84
100
AcDbXrecord
280
     1
102
RTVSPropertyOp0
 70
     1
102
RTVSPropertyOp1
 70
     1
102
RTVSPropertyOp2
 70
     1
102
RTVSPropertyOp3
 70
     1
102
RTVSPropertyOp4
 70
     1
102
RTVSPropertyOp5
 70
     1
102
RTVSPropertyOp6
 70
     1
102
RTVSPropertyOp7
 70
     1
102
RTVSPropertyOp8
 70
     1
102
RTVSPropertyOp9
 70
     1
102
RTVSPropertyOp10
 70
     1
102
RTVSPropertyOp11
 70
     1
102
RTVSPropertyOp12
 70
     1
102
RTVSPropertyOp13
 70
     1
102
RTVSPropertyOp14
 70
     1
102
RTVSPropertyOp15
 70
     1
102
RTVSPropertyOp16
 70
     1
102
RTVSPropertyOp17
 70
     1
102
RTVSPropertyOp18
 70
     1
102
RTVSPropertyOp19
 70
     1
102
RTVSPropertyOp20
 70
     1
102
RTVSPropertyOp21
 70
     1
102
RTVSPropertyOp22
 70
     1
102
RTVSPropertyOp23
 70
     1
102
RTVSPropertyOp24
 70
     1
102
RTVSPropertyOp25
 70
     1
102
RTVSPropertyOp26
 70
     1
102
RTVSPropertyOp27
 70
     1
102
RTVSPropertyOp28
 70
     1
102
RTVSPropertyOp29
 70
     1
102
RTVSPropertyOp30
 70
     1
102
RTVSPropertyOp31
 70
     1
102
RTVSPropertyOp32
 70
     1
  0
XRECORD
  5
1BA9
102
{ACAD_REACTORS
330
1BA8
102
}
330
1BA8
100
AcDbXrecord
280
     1
102
RTVSPropertyOp0
 70
     0
102
RTVSPropertyOp1
 70
     0
102
RTVSPropertyOp2
 70
     0
102
RTVSPropertyOp3
 70
     0
102
RTVSPropertyOp4
 70
     0
102
RTVSPropertyOp5
 70
     0
102
RTVSPropertyOp6
 70
     0
102
RTVSPropertyOp7
 70
     0
102
RTVSPropertyOp8
 70
     0
102
RTVSPropertyOp9
 70
     0
102
RTVSPropertyOp10
 70
     0
102
RTVSPropertyOp11
 70
     0
102
RTVSPropertyOp12
 70
     0
102
RTVSPropertyOp13
 70
     0
102
RTVSPropertyOp14
 70
     2
102
RTVSPropertyOp15
 70
     0
102
RTVSPropertyOp16
 70
     0
102
RTVSPropertyOp17
 70
     0
102
RTVSPropertyOp18
 70
     0
102
RTVSPropertyOp19
 70
     0
102
RTVSPropertyOp20
 70
     0
102
RTVSPropertyOp21
 70
     0
102
RTVSPropertyOp22
 70
     0
102
RTVSPropertyOp23
 70
     0
102
RTVSPropertyOp24
 70
     0
102
RTVSPropertyOp25
 70
     0
102
RTVSPropertyOp26
 70
     0
102
RTVSPropertyOp27
 70
     0
102
RTVSPropertyOp28
 70
     0
102
RTVSPropertyOp29
 70
     0
102
RTVSPropertyOp30
 70
     0
102
RTVSPropertyOp31
 70
     0
102
RTVSPropertyOp32
 70
     0
  0
XRECORD
  5
1B7D
102
{ACAD_REACTORS
330
1B7C
102
}
330
1B7C
100
AcDbXrecord
280
     1
102
RTVSPropertyOp0
 70
     1
102
RTVSPropertyOp1
 70
     1
102
RTVSPropertyOp2
 70
     1
102
RTVSPropertyOp3
 70
     1
102
RTVSPropertyOp4
 70
     1
102
RTVSPropertyOp5
 70
     1
102
RTVSPropertyOp6
 70
     1
102
RTVSPropertyOp7
 70
     1
102
RTVSPropertyOp8
 70
     1
102
RTVSPropertyOp9
 70
     1
102
RTVSPropertyOp10
 70
     1
102
RTVSPropertyOp11
 70
     1
102
RTVSPropertyOp12
 70
     1
102
RTVSPropertyOp13
 70
     1
102
RTVSPropertyOp14
 70
     1
102
RTVSPropertyOp15
 70
     1
102
RTVSPropertyOp16
 70
     1
102
RTVSPropertyOp17
 70
     1
102
RTVSPropertyOp18
 70
     1
102
RTVSPropertyOp19
 70
     1
102
RTVSPropertyOp20
 70
     1
102
RTVSPropertyOp21
 70
     1
102
RTVSPropertyOp22
 70
     1
102
RTVSPropertyOp23
 70
     1
102
RTVSPropertyOp24
 70
     1
102
RTVSPropertyOp25
 70
     1
102
RTVSPropertyOp26
 70
     1
102
RTVSPropertyOp27
 70
     1
102
RTVSPropertyOp28
 70
     1
102
RTVSPropertyOp29
 70
     1
102
RTVSPropertyOp30
 70
     1
102
RTVSPropertyOp31
 70
     1
102
RTVSPropertyOp32
 70
     1
  0
XRECORD
  5
1BA5
102
{ACAD_REACTORS
330
1BA4
102
}
330
1BA4
100
AcDbXrecord
280
     1
102
RTVSPropertyOp0
 70
     1
102
RTVSPropertyOp1
 70
     1
102
RTVSPropertyOp2
 70
     1
102
RTVSPropertyOp3
 70
     1
102
RTVSPropertyOp4
 70
     1
102
RTVSPropertyOp5
 70
     1
102
RTVSPropertyOp6
 70
     1
102
RTVSPropertyOp7
 70
     1
102
RTVSPropertyOp8
 70
     1
102
RTVSPropertyOp9
 70
     1
102
RTVSPropertyOp10
 70
     1
102
RTVSPropertyOp11
 70
     1
102
RTVSPropertyOp12
 70
     1
102
RTVSPropertyOp13
 70
     1
102
RTVSPropertyOp14
 70
     1
102
RTVSPropertyOp15
 70
     1
102
RTVSPropertyOp16
 70
     1
102
RTVSPropertyOp17
 70
     1
102
RTVSPropertyOp18
 70
     1
102
RTVSPropertyOp19
 70
     1
102
RTVSPropertyOp20
 70
     1
102
RTVSPropertyOp21
 70
     1
102
RTVSPropertyOp22
 70
     1
102
RTVSPropertyOp23
 70
     1
102
RTVSPropertyOp24
 70
     1
102
RTVSPropertyOp25
 70
     1
102
RTVSPropertyOp26
 70
     1
102
RTVSPropertyOp27
 70
     1
102
RTVSPropertyOp28
 70
     1
102
RTVSPropertyOp29
 70
     1
102
RTVSPropertyOp30
 70
     1
102
RTVSPropertyOp31
 70
     1
102
RTVSPropertyOp32
 70
     1
  0
XRECORD
  5
1BA3
102
{ACAD_REACTORS
330
1BA2
102
}
330
1BA2
100
AcDbXrecord
280
     1
102
RTVSPropertyOp0
 70
     1
102
RTVSPropertyOp1
 70
     1
102
RTVSPropertyOp2
 70
     1
102
RTVSPropertyOp3
 70
     1
102
RTVSPropertyOp4
 70
     1
102
RTVSPropertyOp5
 70
     1
102
RTVSPropertyOp6
 70
     1
102
RTVSPropertyOp7
 70
     1
102
RTVSPropertyOp8
 70
     1
102
RTVSPropertyOp9
 70
     1
102
RTVSPropertyOp10
 70
     1
102
RTVSPropertyOp11
 70
     1
102
RTVSPropertyOp12
 70
     1
102
RTVSPropertyOp13
 70
     1
102
RTVSPropertyOp14
 70
     1
102
RTVSPropertyOp15
 70
     1
102
RTVSPropertyOp16
 70
     1
102
RTVSPropertyOp17
 70
     1
102
RTVSPropertyOp18
 70
     1
102
RTVSPropertyOp19
 70
     1
102
RTVSPropertyOp20
 70
     1
102
RTVSPropertyOp21
 70
     1
102
RTVSPropertyOp22
 70
     1
102
RTVSPropertyOp23
 70
     1
102
RTVSPropertyOp24
 70
     1
102
RTVSPropertyOp25
 70
     1
102
RTVSPropertyOp26
 70
     1
102
RTVSPropertyOp27
 70
     1
102
RTVSPropertyOp28
 70
     1
102
RTVSPropertyOp29
 70
     1
102
RTVSPropertyOp30
 70
     1
102
RTVSPropertyOp31
 70
     1
102
RTVSPropertyOp32
 70
     1
  0
XRECORD
  5
1B9D
102
{ACAD_REACTORS
330
1B9C
102
}
330
1B9C
100
AcDbXrecord
280
     1
102
RTVSPropertyOp0
 70
     1
102
RTVSPropertyOp1
 70
     1
102
RTVSPropertyOp2
 70
     1
102
RTVSPropertyOp3
 70
     1
102
RTVSPropertyOp4
 70
     1
102
RTVSPropertyOp5
 70
     1
102
RTVSPropertyOp6
 70
     1
102
RTVSPropertyOp7
 70
     1
102
RTVSPropertyOp8
 70
     1
102
RTVSPropertyOp9
 70
     1
102
RTVSPropertyOp10
 70
     1
102
RTVSPropertyOp11
 70
     1
102
RTVSPropertyOp12
 70
     1
102
RTVSPropertyOp13
 70
     1
102
RTVSPropertyOp14
 70
     1
102
RTVSPropertyOp15
 70
     1
102
RTVSPropertyOp16
 70
     1
102
RTVSPropertyOp17
 70
     1
102
RTVSPropertyOp18
 70
     1
102
RTVSPropertyOp19
 70
     1
102
RTVSPropertyOp20
 70
     1
102
RTVSPropertyOp21
 70
     1
102
RTVSPropertyOp22
 70
     1
102
RTVSPropertyOp23
 70
     1
102
RTVSPropertyOp24
 70
     1
102
RTVSPropertyOp25
 70
     1
102
RTVSPropertyOp26
 70
     1
102
RTVSPropertyOp27
 70
     1
102
RTVSPropertyOp28
 70
     1
102
RTVSPropertyOp29
 70
     1
102
RTVSPropertyOp30
 70
     1
102
RTVSPropertyOp31
 70
     1
102
RTVSPropertyOp32
 70
     1
  0
XRECORD
  5
1B9F
102
{ACAD_REACTORS
330
1B9E
102
}
330
1B9E
100
AcDbXrecord
280
     1
102
RTVSPropertyOp0
 70
     1
102
RTVSPropertyOp1
 70
     1
102
RTVSPropertyOp2
 70
     1
102
RTVSPropertyOp3
 70
     1
102
RTVSPropertyOp4
 70
     1
102
RTVSPropertyOp5
 70
     1
102
RTVSPropertyOp6
 70
     1
102
RTVSPropertyOp7
 70
     1
102
RTVSPropertyOp8
 70
     1
102
RTVSPropertyOp9
 70
     1
102
RTVSPropertyOp10
 70
     1
102
RTVSPropertyOp11
 70
     1
102
RTVSPropertyOp12
 70
     1
102
RTVSPropertyOp13
 70
     1
102
RTVSPropertyOp14
 70
     1
102
RTVSPropertyOp15
 70
     1
102
RTVSPropertyOp16
 70
     1
102
RTVSPropertyOp17
 70
     1
102
RTVSPropertyOp18
 70
     1
102
RTVSPropertyOp19
 70
     1
102
RTVSPropertyOp20
 70
     1
102
RTVSPropertyOp21
 70
     1
102
RTVSPropertyOp22
 70
     1
102
RTVSPropertyOp23
 70
     1
102
RTVSPropertyOp24
 70
     1
102
RTVSPropertyOp25
 70
     1
102
RTVSPropertyOp26
 70
     1
102
RTVSPropertyOp27
 70
     1
102
RTVSPropertyOp28
 70
     1
102
RTVSPropertyOp29
 70
     1
102
RTVSPropertyOp30
 70
     1
102
RTVSPropertyOp31
 70
     1
102
RTVSPropertyOp32
 70
     1
  0
XRECORD
  5
1B83
102
{ACAD_REACTORS
330
1B82
102
}
330
1B82
100
AcDbXrecord
280
     1
102
RTVSPropertyOp0
 70
     1
102
RTVSPropertyOp1
 70
     1
102
RTVSPropertyOp2
 70
     1
102
RTVSPropertyOp3
 70
     1
102
RTVSPropertyOp4
 70
     1
102
RTVSPropertyOp5
 70
     1
102
RTVSPropertyOp6
 70
     1
102
RTVSPropertyOp7
 70
     1
102
RTVSPropertyOp8
 70
     1
102
RTVSPropertyOp9
 70
     1
102
RTVSPropertyOp10
 70
     1
102
RTVSPropertyOp11
 70
     1
102
RTVSPropertyOp12
 70
     1
102
RTVSPropertyOp13
 70
     1
102
RTVSPropertyOp14
 70
     1
102
RTVSPropertyOp15
 70
     1
102
RTVSPropertyOp16
 70
     1
102
RTVSPropertyOp17
 70
     1
102
RTVSPropertyOp18
 70
     1
102
RTVSPropertyOp19
 70
     1
102
RTVSPropertyOp20
 70
     1
102
RTVSPropertyOp21
 70
     1
102
RTVSPropertyOp22
 70
     1
102
RTVSPropertyOp23
 70
     1
102
RTVSPropertyOp24
 70
     1
102
RTVSPropertyOp25
 70
     1
102
RTVSPropertyOp26
 70
     1
102
RTVSPropertyOp27
 70
     1
102
RTVSPropertyOp28
 70
     1
102
RTVSPropertyOp29
 70
     1
102
RTVSPropertyOp30
 70
     1
102
RTVSPropertyOp31
 70
     1
102
RTVSPropertyOp32
 70
     1
  0
XRECORD
  5
1B99
102
{ACAD_REACTORS
330
1B98
102
}
330
1B98
100
AcDbXrecord
280
     1
102
RTVSPropertyOp0
 70
     1
102
RTVSPropertyOp1
 70
     1
102
RTVSPropertyOp2
 70
     1
102
RTVSPropertyOp3
 70
     1
102
RTVSPropertyOp4
 70
     1
102
RTVSPropertyOp5
 70
     1
102
RTVSPropertyOp6
 70
     1
102
RTVSPropertyOp7
 70
     1
102
RTVSPropertyOp8
 70
     1
102
RTVSPropertyOp9
 70
     1
102
RTVSPropertyOp10
 70
     1
102
RTVSPropertyOp11
 70
     1
102
RTVSPropertyOp12
 70
     1
102
RTVSPropertyOp13
 70
     1
102
RTVSPropertyOp14
 70
     1
102
RTVSPropertyOp15
 70
     1
102
RTVSPropertyOp16
 70
     1
102
RTVSPropertyOp17
 70
     1
102
RTVSPropertyOp18
 70
     1
102
RTVSPropertyOp19
 70
     1
102
RTVSPropertyOp20
 70
     1
102
RTVSPropertyOp21
 70
     1
102
RTVSPropertyOp22
 70
     1
102
RTVSPropertyOp23
 70
     1
102
RTVSPropertyOp24
 70
     1
102
RTVSPropertyOp25
 70
     1
102
RTVSPropertyOp26
 70
     1
102
RTVSPropertyOp27
 70
     1
102
RTVSPropertyOp28
 70
     1
102
RTVSPropertyOp29
 70
     1
102
RTVSPropertyOp30
 70
     1
102
RTVSPropertyOp31
 70
     1
102
RTVSPropertyOp32
 70
     1
  0
XRECORD
  5
1BA1
102
{ACAD_REACTORS
330
1BA0
102
}
330
1BA0
100
AcDbXrecord
280
     1
102
RTVSPropertyOp0
 70
     1
102
RTVSPropertyOp1
 70
     1
102
RTVSPropertyOp2
 70
     1
102
RTVSPropertyOp3
 70
     1
102
RTVSPropertyOp4
 70
     1
102
RTVSPropertyOp5
 70
     1
102
RTVSPropertyOp6
 70
     1
102
RTVSPropertyOp7
 70
     1
102
RTVSPropertyOp8
 70
     1
102
RTVSPropertyOp9
 70
     1
102
RTVSPropertyOp10
 70
     1
102
RTVSPropertyOp11
 70
     1
102
RTVSPropertyOp12
 70
     1
102
RTVSPropertyOp13
 70
     1
102
RTVSPropertyOp14
 70
     1
102
RTVSPropertyOp15
 70
     1
102
RTVSPropertyOp16
 70
     1
102
RTVSPropertyOp17
 70
     1
102
RTVSPropertyOp18
 70
     1
102
RTVSPropertyOp19
 70
     1
102
RTVSPropertyOp20
 70
     1
102
RTVSPropertyOp21
 70
     1
102
RTVSPropertyOp22
 70
     1
102
RTVSPropertyOp23
 70
     1
102
RTVSPropertyOp24
 70
     1
102
RTVSPropertyOp25
 70
     1
102
RTVSPropertyOp26
 70
     1
102
RTVSPropertyOp27
 70
     1
102
RTVSPropertyOp28
 70
     1
102
RTVSPropertyOp29
 70
     1
102
RTVSPropertyOp30
 70
     1
102
RTVSPropertyOp31
 70
     1
102
RTVSPropertyOp32
 70
     1
  0
ENDSEC
  0
EOF
