  0
SECTION
  2
HEADER
  9
$ACADVER
  1
AC1015
  9
$ACADMAINTVER
 70
    20
  9
$DWGCODEPAGE
  3
ANSI_1252
  9
$INSBASE
 10
0.0
 20
0.0
 30
0.0
  9
$EXTMIN
 10
-2.654314951952073
 20
-2.535054211726674
 30
-0.0000000000000153
  9
$EXTMAX
 10
27.50841209891496
 20
52.53460652570812
 30
0.0
  9
$LIMMIN
 10
0.0
 20
0.0
  9
$LIMMAX
 10
420.0
 20
297.0
  9
$ORTHOMODE
 70
     0
  9
$REGENMODE
 70
     1
  9
$FILLMODE
 70
     1
  9
$QTEXTMODE
 70
     0
  9
$MIRRTEXT
 70
     1
  9
$LTSCALE
 40
10.0
  9
$ATTMODE
 70
     1
  9
$TEXTSIZE
 40
3.0
  9
$TRACEWID
 40
0.05
  9
$TEXTSTYLE
  7
SIMPLEX
  9
$CLAYER
  8
P-0000
  9
$CELTYPE
  6
CONTINUOUS
  9
$CECOLOR
 62
     7
  9
$CELTSCALE
 40
1.0
  9
$DISPSILH
 70
     0
  9
$DIMSCALE
 40
10.0
  9
$DIMASZ
 40
2.0
  9
$DIMEXO
 40
1.0
  9
$DIMDLI
 40
10.0
  9
$DIMRND
 40
0.0
  9
$DIMDLE
 40
0.0
  9
$DIMEXE
 40
1.5
  9
$DIMTP
 40
0.0
  9
$DIMTM
 40
0.0
  9
$DIMTXT
 40
2.0
  9
$DIMCEN
 40
2.0
  9
$DIMTSZ
 40
0.0
  9
$DIMTOL
 70
     0
  9
$DIMLIM
 70
     0
  9
$DIMTIH
 70
     0
  9
$DIMTOH
 70
     0
  9
$DIMSE1
 70
     0
  9
$DIMSE2
 70
     0
  9
$DIMTAD
 70
     1
  9
$DIMZIN
 70
     8
  9
$DIMBLK
  1

  9
$DIMASO
 70
     1
  9
$DIMSHO
 70
     1
  9
$DIMPOST
  1

  9
$DIMAPOST
  1

  9
$DIMALT
 70
     0
  9
$DIMALTD
 70
     2
  9
$DIMALTF
 40
25.4
  9
$DIMLFAC
 40
1.0
  9
$DIMTOFL
 70
     1
  9
$DIMTVP
 40
0.0
  9
$DIMTIX
 70
     0
  9
$DIMSOXD
 70
     0
  9
$DIMSAH
 70
     0
  9
$DIMBLK1
  1

  9
$DIMBLK2
  1

  9
$DIMSTYLE
  2
ACADTOP
  9
$DIMCLRD
 70
     2
  9
$DIMCLRE
 70
     2
  9
$DIMCLRT
 70
     1
  9
$DIMTFAC
 40
0.6
  9
$DIMGAP
 40
1.0
  9
$DIMJUST
 70
     0
  9
$DIMSD1
 70
     0
  9
$DIMSD2
 70
     0
  9
$DIMTOLJ
 70
     1
  9
$DIMTZIN
 70
     8
  9
$DIMALTZ
 70
     0
  9
$DIMALTTZ
 70
     0
  9
$DIMUPT
 70
     0
  9
$DIMDEC
 70
     2
  9
$DIMTDEC
 70
     2
  9
$DIMALTU
 70
     2
  9
$DIMALTTD
 70
     2
  9
$DIMTXSTY
  7
Stile_Quota
  9
$DIMAUNIT
 70
     0
  9
$DIMADEC
 70
     1
  9
$DIMALTRND
 40
0.0
  9
$DIMAZIN
 70
     2
  9
$DIMDSEP
 70
    46
  9
$DIMATFIT
 70
     0
  9
$DIMFRAC
 70
     0
  9
$DIMLDRBLK
  1

  9
$DIMLUNIT
 70
     2
  9
$DIMLWD
 70
    -2
  9
$DIMLWE
 70
    -2
  9
$DIMTMOVE
 70
     0
  9
$LUNITS
 70
     2
  9
$LUPREC
 70
     3
  9
$SKETCHINC
 40
0.1
  9
$FILLETRAD
 40
0.0
  9
$AUNITS
 70
     1
  9
$AUPREC
 70
     2
  9
$MENU
  1
FEMAR13
  9
$ELEVATION
 40
0.0
  9
$PELEVATION
 40
0.0
  9
$THICKNESS
 40
0.0
  9
$LIMCHECK
 70
     0
  9
$CHAMFERA
 40
0.0
  9
$CHAMFERB
 40
0.0
  9
$CHAMFERC
 40
0.0
  9
$CHAMFERD
 40
0.0
  9
$SKPOLY
 70
     0
  9
$TDCREATE
 40
2451738.648347384
  9
$TDUCREATE
 40
2451738.606680718
  9
$TDUPDATE
 40
2455646.470271100
  9
$TDUUPDATE
 40
2455646.428604433
  9
$TDINDWG
 40
0.5887538426
  9
$TDUSRTIMER
 40
0.0000000000
  9
$USRTIMER
 70
     0
  9
$ANGBASE
 50
0.0
  9
$ANGDIR
 70
     0
  9
$PDMODE
 70
     0
  9
$PDSIZE
 40
0.0
  9
$PLINEWID
 40
0.0
  9
$SPLFRAME
 70
     0
  9
$SPLINETYPE
 70
     6
  9
$SPLINESEGS
 70
     8
  9
$HANDSEED
  5
8353
  9
$SURFTAB1
 70
     6
  9
$SURFTAB2
 70
     6
  9
$SURFTYPE
 70
     6
  9
$SURFU
 70
     6
  9
$SURFV
 70
     6
  9
$UCSBASE
  2

  9
$UCSNAME
  2

  9
$UCSORG
 10
0.0
 20
0.0
 30
0.0
  9
$UCSXDIR
 10
1.0
 20
0.0
 30
0.0
  9
$UCSYDIR
 10
0.0
 20
1.0
 30
0.0
  9
$UCSORTHOREF
  2

  9
$UCSORTHOVIEW
 70
     0
  9
$UCSORGTOP
 10
0.0
 20
0.0
 30
0.0
  9
$UCSORGBOTTOM
 10
0.0
 20
0.0
 30
0.0
  9
$UCSORGLEFT
 10
0.0
 20
0.0
 30
0.0
  9
$UCSORGRIGHT
 10
0.0
 20
0.0
 30
0.0
  9
$UCSORGFRONT
 10
0.0
 20
0.0
 30
0.0
  9
$UCSORGBACK
 10
0.0
 20
0.0
 30
0.0
  9
$PUCSBASE
  2

  9
$PUCSNAME
  2

  9
$PUCSORG
 10
0.0
 20
0.0
 30
0.0
  9
$PUCSXDIR
 10
1.0
 20
0.0
 30
0.0
  9
$PUCSYDIR
 10
0.0
 20
1.0
 30
0.0
  9
$PUCSORTHOREF
  2

  9
$PUCSORTHOVIEW
 70
     0
  9
$PUCSORGTOP
 10
0.0
 20
0.0
 30
0.0
  9
$PUCSORGBOTTOM
 10
0.0
 20
0.0
 30
0.0
  9
$PUCSORGLEFT
 10
0.0
 20
0.0
 30
0.0
  9
$PUCSORGRIGHT
 10
0.0
 20
0.0
 30
0.0
  9
$PUCSORGFRONT
 10
0.0
 20
0.0
 30
0.0
  9
$PUCSORGBACK
 10
0.0
 20
0.0
 30
0.0
  9
$USERI1
 70
     0
  9
$USERI2
 70
     0
  9
$USERI3
 70
     0
  9
$USERI4
 70
     0
  9
$USERI5
 70
     0
  9
$USERR1
 40
0.0
  9
$USERR2
 40
0.0
  9
$USERR3
 40
0.0
  9
$USERR4
 40
0.0
  9
$USERR5
 40
0.0
  9
$WORLDVIEW
 70
     1
  9
$SHADEDGE
 70
     3
  9
$SHADEDIF
 70
    70
  9
$TILEMODE
 70
     1
  9
$MAXACTVP
 70
    16
  9
$PINSBASE
 10
0.0
 20
0.0
 30
0.0
  9
$PLIMCHECK
 70
     0
  9
$PEXTMIN
 10
1.000000000000000E+20
 20
1.000000000000000E+20
 30
1.000000000000000E+20
  9
$PEXTMAX
 10
-1.000000000000000E+20
 20
-1.000000000000000E+20
 30
-1.000000000000000E+20
  9
$PLIMMIN
 10
0.0
 20
0.0
  9
$PLIMMAX
 10
12.0
 20
9.0
  9
$UNITMODE
 70
     0
  9
$VISRETAIN
 70
     0
  9
$PLINEGEN
 70
     1
  9
$PSLTSCALE
 70
     0
  9
$TREEDEPTH
 70
  3020
  9
$CMLSTYLE
  2
STANDARD
  9
$CMLJUST
 70
     0
  9
$CMLSCALE
 40
1.0
  9
$PROXYGRAPHICS
 70
     1
  9
$MEASUREMENT
 70
     1
  9
$CELWEIGHT
370
    -1
  9
$ENDCAPS
280
     0
  9
$JOINSTYLE
280
     0
  9
$LWDISPLAY
290
     0
  9
$INSUNITS
 70
     0
  9
$HYPERLINKBASE
  1

  9
$STYLESHEET
  1

  9
$XEDIT
290
     1
  9
$CEPSNTYPE
380
     0
  9
$PSTYLEMODE
290
     1
  9
$FINGERPRINTGUID
  2
{BB5C382D-5C88-403A-81C6-A1CDAADF7D61}
  9
$VERSIONGUID
  2
{AC4E88D8-6F73-48E9-913A-EBFAD2286ED1}
  9
$EXTNAMES
290
     1
  9
$PSVPSCALE
 40
0.0
  9
$OLESTARTUP
290
     0
  0
ENDSEC
  0
SECTION
  2
CLASSES
  0
CLASS
  1
DICTIONARYVAR
  2
AcDbDictionaryVar
  3
ObjectDBX Classes
 90
        0
280
     0
281
     0
  0
CLASS
  1
ACME_DOCUMENT
  2
AcMeDoc
  3
AcMeServices
 90
    32768
280
     0
281
     0
  0
CLASS
  1
ACMESTATEMGR
  2
AcMeStateMgr
  3
AcMeServices
 90
        0
280
     0
281
     0
  0
CLASS
  1
ACMESCOPE
  2
AcMeScope
  3
AcMeServices
 90
        0
280
     0
281
     0
  0
CLASS
  1
ACMECOMMANDHISTORY
  2
AcMeCommandHistory
  3
AcMeServices
 90
        0
280
     0
281
     0
  0
CLASS
  1
ACRFINSADJUSTERMGR
  2
AcRfInsAdjusterMgr
  3
AcMeServices
 90
    32768
280
     0
281
     0
  0
CLASS
  1
ACIMSYSVARMAN
  2
AcImSysVarManager
  3
AcMeServices
 90
        0
280
     0
281
     0
  0
CLASS
  1
ACIMREALSYSVAR
  2
AcImRealSysVar
  3
AcMeServices
 90
        0
280
     0
281
     0
  0
CLASS
  1
ACIMINTSYSVAR
  2
AcImIntSysVar
  3
AcMeServices
 90
        0
280
     0
281
     0
  0
CLASS
  1
ACMEDRAWINGMAN
  2
AcMeDrawingMan
  3
AcMeServices
 90
        0
280
     0
281
     0
  0
CLASS
  1
ACMEVIEW
  2
AcMeView
  3
AcMeServices
 90
        0
280
     0
281
     0
  0
CLASS
  1
ACDBENTITYCACHE
  2
AcMeEntityCache
  3
AcMeServices
 90
    32768
280
     0
281
     0
  0
CLASS
  1
ACMDATADICTIONARY
  2
AcmDataDictionary
  3
"AutoCAD/M"
 90
        0
280
     0
281
     0
  0
CLASS
  1
ACMDATAENTRYBLOCK
  2
AcmDataEntryBlock
  3
"AutoCAD/M"
 90
        0
280
     0
281
     0
  0
CLASS
  1
LAYER_INDEX
  2
AcDbLayerIndex
  3
ObjectDBX Classes
 90
        0
280
     0
281
     0
  0
CLASS
  1
IDBUFFER
  2
AcDbIdBuffer
  3
ObjectDBX Classes
 90
        0
280
     0
281
     0
  0
CLASS
  1
ACIMSTRSYSVAR
  2
AcImStrSysVar
  3
AcMeServices
 90
        0
280
     0
281
     0
  0
CLASS
  1
ACMSTANDARDANSI
  2
AcmStandardANSI
  3
AutoCadMServices
 90
        0
280
     0
281
     0
  0
CLASS
  1
ACMSURFSTANDARDANSI
  2
AcmSurfTextStdANSI
  3
AutoCadMServices
 90
        0
280
     0
281
     0
  0
CLASS
  1
ACMFCFSTANDARDANSI
  2
AcmFCFStdANSI
  3
AutoCadMServices
 90
        0
280
     0
281
     0
  0
CLASS
  1
ACMWELDSTANDARDANSI
  2
AcmWeldingStdANSI
  3
AutoCadMServices
 90
        0
280
     0
281
     0
  0
CLASS
  1
ACMIDSTANDARDANSI
  2
AcmIdStdANSI
  3
AutoCadMServices
 90
        0
280
     0
281
     0
  0
CLASS
  1
ACMDATUMSTANDARDANSI
  2
AcmDatumStdANSI
  3
AutoCadMServices
 90
        0
280
     0
281
     0
  0
CLASS
  1
ACMBOMSTANDARDANSI
  2
AcmBOMStdANSI
  3
AutoCadMServices
 90
        0
280
     0
281
     0
  0
CLASS
  1
ACMWELDSYM
  2
AcmWelding
  3
AutoCadMServices
 90
    33023
280
     0
281
     1
  0
CLASS
  1
LWPOLYLINE
  2
AcDbPolyline
  3
ObjectDBX Classes
 90
    32768
280
     0
281
     1
  0
CLASS
  1
AcmBom
  2
AcmBom
  3
"AutoCAD/M"
 90
        0
280
     0
281
     0
  0
CLASS
  1
ACMDATAENTRYPART
  2
AcmDataEntryPart
  3
"AutoCAD/M"
 90
    32768
280
     0
281
     0
  0
CLASS
  1
ACMPARTREF
  2
AcmPartRef
  3
AutoCadMServices
 90
    33023
280
     0
281
     1
  0
CLASS
  1
AcmBomRow
  2
AcmBomRow
  3
"AutoCAD/M"
 90
    32768
280
     0
281
     0
  0
CLASS
  1
ACMPARTLIST
  2
AcmPartList
  3
AutoCadMServices
 90
    33023
280
     0
281
     1
  0
CLASS
  1
ACDBDICTIONARYWDFLT
  2
AcDbDictionaryWithDefault
  3
ObjectDBX Classes
 90
        0
280
     0
281
     0
  0
CLASS
  1
MATERIAL
  2
AcDbMaterial
  3
ObjectDBX Classes
 90
     1153
280
     0
281
     0
  0
CLASS
  1
VISUALSTYLE
  2
AcDbVisualStyle
  3
ObjectDBX Classes
 90
     4095
280
     0
281
     0
  0
CLASS
  1
TABLESTYLE
  2
AcDbTableStyle
  3
ObjectDBX Classes
 90
     4095
280
     0
281
     0
  0
CLASS
  1
SCALE
  2
AcDbScale
  3
ObjectDBX Classes
 90
     1153
280
     0
281
     0
  0
CLASS
  1
MLEADERSTYLE
  2
AcDbMLeaderStyle
  3
ACDB_MLEADERSTYLE_CLASS
 90
     4095
280
     0
281
     0
  0
CLASS
  1
ACDBQSCATEGORY
  2
AcQsCategory
  3
categories
 90
     1024
280
     0
281
     0
  0
CLASS
  1
PLOTSETTINGS
  2
AcDbPlotSettings
  3
ObjectDBX Classes
 90
        0
280
     0
281
     0
  0
CLASS
  1
CELLSTYLEMAP
  2
AcDbCellStyleMap
  3
ObjectDBX Classes
 90
     1152
280
     0
281
     0
  0
CLASS
  1
ACDBQSPALLSTYLE
  2
AcQsPallStyle
  3
pallcart
 90
     1024
280
     0
281
     0
  0
CLASS
  1
SORTENTSTABLE
  2
AcDbSortentsTable
  3
ObjectDBX Classes
 90
        0
280
     0
281
     0
  0
CLASS
  1
AEC_REFEDIT_STATUS_TRACKER
  2
AecDbRefEditStatusTracker
  3
AecArchBase60|Product Desc: Autodesk Architectural Desktop 2007 |Company: Autodesk,Inc. |WEB Address: www.autodesk.com
 90
    32897
280
     0
281
     0
  0
CLASS
  1
NPOCOLLECTION
  2
AcDbImpNonPersistentObjectsCollection
  3
ObjectDBX Classes
 90
    33921
280
     0
281
     0
  0
CLASS
  1
DIMASSOC
  2
AcDbDimAssoc
  3
"AcDbDimAssoc|Product Desc:     AcDim ARX App For Dimension|Company:          Autodesk, Inc.|WEB Address:      www.autodesk.com"
 90
        0
280
     0
281
     0
  0
CLASS
  1
ACDBPLACEHOLDER
  2
AcDbPlaceHolder
  3
ObjectDBX Classes
 90
        0
280
     0
281
     0
  0
CLASS
  1
LAYOUT
  2
AcDbLayout
  3
ObjectDBX Classes
 90
        0
280
     0
281
     0
  0
ENDSEC
  0
SECTION
  2
TABLES
  0
TABLE
  2
VPORT
  5
8
330
0
100
AcDbSymbolTable
 70
     1
  0
VPORT
  5
DCE
330
8
100
AcDbSymbolTableRecord
100
AcDbViewportTableRecord
  2
*ACTIVE
 70
     0
 10
0.0
 20
0.0
 11
1.0
 21
1.0
 12
18.61349744266499
 22
36.6762277818918
 13
0.0
 23
0.0
 14
1.0
 24
1.0
 15
10.0
 25
10.0
 16
0.0
 26
0.0
 36
1.0
 17
0.0
 27
0.0
 37
0.0
 40
88.75250397044002
 41
2.251225490196078
 42
50.0
 43
0.0
 44
0.0
 50
0.0
 51
0.0
 71
     0
 72
   100
 73
     1
 74
     0
 75
     0
 76
     0
 77
     0
 78
     0
281
     0
 65
     1
110
0.0
120
0.0
130
0.0
111
1.0
121
0.0
131
0.0
112
0.0
122
1.0
132
0.0
 79
     0
146
0.0
  0
ENDTAB
  0
TABLE
  2
LTYPE
  5
5
330
0
100
AcDbSymbolTable
 70
     6
  0
LTYPE
  5
11
330
5
100
AcDbSymbolTableRecord
100
AcDbLinetypeTableRecord
  2
BYBLOCK
 70
     0
  3

 72
    65
 73
     0
 40
0.0
  0
LTYPE
  5
12
330
5
100
AcDbSymbolTableRecord
100
AcDbLinetypeTableRecord
  2
BYLAYER
 70
     0
  3

 72
    65
 73
     0
 40
0.0
  0
LTYPE
  5
13
330
5
100
AcDbSymbolTableRecord
100
AcDbLinetypeTableRecord
  2
CONTINUOUS
 70
     0
  3
Solid line
 72
    65
 73
     0
 40
0.0
  0
LTYPE
  5
64
330
5
100
AcDbSymbolTableRecord
100
AcDbLinetypeTableRecord
  2
ACANSTGBM
 70
     0
  3
__ . . __ . .
 72
    65
 73
     6
 40
9.0
 49
4.0
 74
     0
 49
-1.0
 74
     0
 49
1.0
 74
     0
 49
-1.0
 74
     0
 49
1.0
 74
     0
 49
-1.0
 74
     0
  0
LTYPE
  5
65
330
5
100
AcDbSymbolTableRecord
100
AcDbLinetypeTableRecord
  2
ACANSTGLM
 70
     0
  3
_ _ _ _ _
 72
    65
 73
     2
 40
3.0
 49
2.0
 74
     0
 49
-1.0
 74
     0
  0
LTYPE
  5
E3B
330
5
100
AcDbSymbolTableRecord
100
AcDbLinetypeTableRecord
  2
ASSI
 70
     0
  3
-.-.-.-.-.-.-.-.-.-.-.-.-.-.-.-.-.-.-.-.-.-.-.-
 72
    65
 73
     4
 40
16.0
 49
10.0
 74
     0
 49
-2.0
 74
     0
 49
2.0
 74
     0
 49
-2.0
 74
     0
  0
LTYPE
  5
298C
330
5
100
AcDbSymbolTableRecord
100
AcDbLinetypeTableRecord
  2
DASHDOT2
 70
     0
  3
_._._._._._._._._._._._._._._._._._._._._._._._
 72
    65
 73
     4
 40
0.5
 49
0.25
 74
     0
 49
-0.125
 74
     0
 49
0.0
 74
     0
 49
-0.125
 74
     0
  0
LTYPE
  5
61D3
330
5
100
AcDbSymbolTableRecord
100
AcDbLinetypeTableRecord
  2
TRATTEGGIO
 70
     0
  3
- - - - - - - - - - - - - - - - - - - - - -
 72
    65
 73
     2
 40
5.5
 49
4.0
 74
     0
 49
-1.5
 74
     0
  0
ENDTAB
  0
TABLE
  2
LAYER
  5
2
102
{ACAD_XDICTIONARY
360
120C
102
}
330
0
100
AcDbSymbolTable
 70
     6
  0
LAYER
  5
E
102
{ACAD_XDICTIONARY
360
1047
102
}
330
2
100
AcDbSymbolTableRecord
100
AcDbLayerTableRecord
  2
0
 70
     0
 62
     7
  6
CONTINUOUS
370
    -3
390
DD1
  0
LAYER
  5
E33
102
{ACAD_XDICTIONARY
360
104F
102
}
330
2
100
AcDbSymbolTableRecord
100
AcDbLayerTableRecord
  2
P-0000
 70
     0
 62
     7
  6
CONTINUOUS
370
    -3
390
DD1
1001
AcAecLayerStandard
1000

1000
PROFILO Q30 SPORT.TENUTA ALTO
  0
LAYER
  5
E3F
330
2
100
AcDbSymbolTableRecord
100
AcDbLayerTableRecord
  2
Defpoints
 70
     0
 62
     7
  6
CONTINUOUS
290
     0
370
    -3
390
DD1
  0
LAYER
  5
6534
330
2
100
AcDbSymbolTableRecord
100
AcDbLayerTableRecord
  2
P-570F
 70
     0
 62
     7
  6
CONTINUOUS
370
    -3
390
DD1
1001
AcAecLayerStandard
1000

1000
.cart
  0
LAYER
  5
7768
330
2
100
AcDbSymbolTableRecord
100
AcDbLayerTableRecord
  2
P-05BB
 70
     0
 62
     7
  6
CONTINUOUS
370
    -3
390
DD1
1001
AcAecLayerStandard
1000

1000
.1
  0
LAYER
  5
7EBA
330
2
100
AcDbSymbolTableRecord
100
AcDbLayerTableRecord
  2
P-6014
 70
     0
 62
     7
  6
CONTINUOUS
370
    -3
390
DD1
1001
AcAecLayerStandard
1000

1000
PROF.Q30 SPORT. TENUT. ALTO ALL. ARGENTO
  0
ENDTAB
  0
TABLE
  2
STYLE
  5
3
330
0
100
AcDbSymbolTable
 70
    10
  0
STYLE
  5
F
330
3
100
AcDbSymbolTableRecord
100
AcDbTextStyleTableRecord
  2
STANDARD
 70
     0
 40
0.0
 41
0.8
 50
0.0
 71
     0
 42
0.2
  3
ISO
  4

  0
STYLE
  5
1C
330
3
100
AcDbSymbolTableRecord
100
AcDbTextStyleTableRecord
  2
SIMPLEX
 70
     0
 40
0.0
 41
0.8
 50
0.0
 71
     0
 42
3.0
  3
simplex
  4

  0
STYLE
  5
5C
330
3
100
AcDbSymbolTableRecord
100
AcDbTextStyleTableRecord
  2
ACANSTS
 70
     0
 40
1.0
 41
1.0
 50
0.0
 71
     0
 42
0.2
  3
romans.shx
  4

  0
STYLE
  5
63
330
3
100
AcDbSymbolTableRecord
100
AcDbTextStyleTableRecord
  2
ACANSGDT
 70
     0
 40
0.0
 41
1.0
 50
0.0
 71
     0
 42
0.2
  3
amgdtans.shx
  4

  0
STYLE
  5
952
330
3
100
AcDbSymbolTableRecord
100
AcDbTextStyleTableRecord
  2
STYLE1
 70
     0
 40
2.0
 41
1.0
 50
0.0
 71
     0
 42
2.0
  3
swisscl.ttf
  4

1001
ACAD
1000
Swis721 LtCn BT
1071
       34
  0
STYLE
  5
E40
330
3
100
AcDbSymbolTableRecord
100
AcDbTextStyleTableRecord
  2
ROMANS
 70
     0
 40
0.0
 41
0.8
 50
0.0
 71
     0
 42
3.0
  3
ROMANS.shx
  4

  0
STYLE
  5
E41
330
3
100
AcDbSymbolTableRecord
100
AcDbTextStyleTableRecord
  2
Stile_Quota
 70
     0
 40
0.0
 41
1.0
 50
0.0
 71
     0
 42
3.0
  3
BOD_I.TTF
  4

1001
ACAD
1000
Bodoni MT
1071
 16777234
  0
STYLE
  5
17EE
330
3
100
AcDbSymbolTableRecord
100
AcDbTextStyleTableRecord
  2
Stile_Cart
 70
     0
 40
0.0
 41
1.0
 50
0.0
 71
     0
 42
1.5
  3
TIMES.TTF
  4

1001
ACAD
1000
Times New Roman
1071
       18
  0
STYLE
  5
298E
330
3
100
AcDbSymbolTableRecord
100
AcDbTextStyleTableRecord
  2
seansi_ttf
 70
     0
 40
0.0
 41
1.0
 50
0.0
 71
     0
 42
0.2
  3
seansi.ttf
  4

  0
STYLE
  5
61DC
330
3
100
AcDbSymbolTableRecord
100
AcDbTextStyleTableRecord
  2
Stile_Quota_FISSO
 70
     0
 40
20.0
 41
1.0
 50
0.0
 71
     0
 42
3.0
  3
BOD_I.TTF
  4

1001
ACAD
1000
Bodoni MT
1071
 16777234
  0
ENDTAB
  0
TABLE
  2
VIEW
  5
6
330
0
100
AcDbSymbolTable
 70
     0
  0
ENDTAB
  0
TABLE
  2
UCS
  5
7
330
0
100
AcDbSymbolTable
 70
     0
  0
ENDTAB
  0
TABLE
  2
APPID
  5
9
330
0
100
AcDbSymbolTable
 70
    16
  0
APPID
  5
10
330
9
100
AcDbSymbolTableRecord
100
AcDbRegAppTableRecord
  2
ACAD
 70
     0
  0
APPID
  5
2F
330
9
100
AcDbSymbolTableRecord
100
AcDbRegAppTableRecord
  2
MCAD_NO_VIS
 70
     0
  0
APPID
  5
30
330
9
100
AcDbSymbolTableRecord
100
AcDbRegAppTableRecord
  2
ACAD_TEMP_GRAPHIC
 70
     0
  0
APPID
  5
E23
330
9
100
AcDbSymbolTableRecord
100
AcDbRegAppTableRecord
  2
ACAD_MLEADERVER
 70
     0
  0
APPID
  5
E34
330
9
100
AcDbSymbolTableRecord
100
AcDbRegAppTableRecord
  2
AcAecLayerStandard
 70
     0
  0
APPID
  5
E3A
330
9
100
AcDbSymbolTableRecord
100
AcDbRegAppTableRecord
  2
TOP
 70
     0
  0
APPID
  5
E46
330
9
100
AcDbSymbolTableRecord
100
AcDbRegAppTableRecord
  2
ACAD_DSTYLE_DIMJAG
 70
     0
  0
APPID
  5
E47
330
9
100
AcDbSymbolTableRecord
100
AcDbRegAppTableRecord
  2
ACAD_DSTYLE_DIMTALN
 70
     0
  0
APPID
  5
E48
330
9
100
AcDbSymbolTableRecord
100
AcDbRegAppTableRecord
  2
AcadAnnoPO
 70
     0
  0
APPID
  5
E49
330
9
100
AcDbSymbolTableRecord
100
AcDbRegAppTableRecord
  2
ACAD_EXEMPT_FROM_CAD_STANDARDS
 70
     0
  0
APPID
  5
E4A
330
9
100
AcDbSymbolTableRecord
100
AcDbRegAppTableRecord
  2
ACAD_PSEXT
 70
     0
  0
APPID
  5
E4B
330
9
100
AcDbSymbolTableRecord
100
AcDbRegAppTableRecord
  2
ACAD_DSTYLE_DIMBREAK
 70
     0
  0
APPID
  5
1615
330
9
100
AcDbSymbolTableRecord
100
AcDbRegAppTableRecord
  2
ACAD_DSTYLE_DIMRADIAL_EXTENSION
 70
     0
  0
APPID
  5
1805
330
9
100
AcDbSymbolTableRecord
100
AcDbRegAppTableRecord
  2
TOP_DIS_TABELLA
 70
     0
  0
APPID
  5
1808
330
9
100
AcDbSymbolTableRecord
100
AcDbRegAppTableRecord
  2
TOP_TABSTYLE
 70
     0
  0
APPID
  5
72B9
330
9
100
AcDbSymbolTableRecord
100
AcDbRegAppTableRecord
  2
OrigLayer
 70
     0
  0
ENDTAB
  0
TABLE
  2
DIMSTYLE
  5
A
330
0
100
AcDbSymbolTable
 70
     4
100
AcDbDimStyleTable
 71
     3
340
E43
340
61E0
340
61DD
  0
DIMSTYLE
105
2C
330
A
100
AcDbSymbolTableRecord
100
AcDbDimStyleTableRecord
  2
STANDARD
 70
     0
 40
10.0
 41
3.0
 42
1.5
 43
10.0
 44
1.5
 47
0.1
 48
0.2
 73
     0
 74
     0
 77
     1
 78
     8
140
3.0
141
3.0
146
1.5
147
1.0
171
     1
172
     1
178
     7
271
     3
272
     3
274
     1
285
     8
286
     8
289
     0
340
1C
  0
DIMSTYLE
105
E43
330
A
100
AcDbSymbolTableRecord
100
AcDbDimStyleTableRecord
  2
ACADTOP
 70
     0
 40
10.0
 41
2.0
 42
1.0
 43
10.0
 44
1.5
 73
     0
 74
     0
 77
     1
 78
     8
 79
     2
140
2.0
141
2.0
146
0.6
147
1.0
172
     1
176
     2
177
     2
178
     1
179
     1
271
     2
272
     2
284
     8
289
     0
340
E41
1001
ACAD_DSTYLE_DIMJAG
1070
   388
1040
1.5
1001
ACAD_DSTYLE_DIMTALN
1070
   392
1070
     0
  0
DIMSTYLE
105
61DD
330
A
100
AcDbSymbolTableRecord
100
AcDbDimStyleTableRecord
  2
DIERRE_LUNG-ALT
 70
     0
 40
10.0
 41
3.0
 42
1.0
 43
10.0
 44
1.5
 73
     0
 74
     0
 75
     1
 76
     1
 78
     8
 79
     2
140
20.0
141
2.0
146
0.6
147
1.0
172
     1
176
     3
177
     3
178
    30
179
     1
271
     1
272
     1
281
     1
282
     1
284
     8
340
61DC
1001
ACAD_DSTYLE_DIMBREAK
1070
   391
1040
3.75
1001
ACAD_DSTYLE_DIMJAG
1070
   388
1040
1.5
1001
ACAD_DSTYLE_DIMTALN
1070
   392
1070
     0
  0
DIMSTYLE
105
61E0
330
A
100
AcDbSymbolTableRecord
100
AcDbDimStyleTableRecord
  2
ACADTOP10_0_0_10
 70
     0
 40
10.0
 41
2.0
 42
1.0
 43
10.0
 44
1.5
 73
     0
 74
     0
 77
     1
 78
     8
 79
     2
140
2.0
141
2.0
144
0.1
146
0.6
147
1.0
172
     1
176
     2
177
     2
178
     1
179
     1
271
     2
272
     2
284
     8
289
     0
340
E41
  0
ENDTAB
  0
TABLE
  2
BLOCK_RECORD
  5
1
330
0
100
AcDbSymbolTable
 70
    47
  0
BLOCK_RECORD
  5
17
102
{ACAD_XDICTIONARY
360
43
102
}
330
1
100
AcDbSymbolTableRecord
100
AcDbBlockTableRecord
  2
*MODEL_SPACE
340
E26
  0
BLOCK_RECORD
  5
14
330
1
100
AcDbSymbolTableRecord
100
AcDbBlockTableRecord
  2
*PAPER_SPACE
340
E27
  0
BLOCK_RECORD
  5
653E
102
{ACAD_XDICTIONARY
360
6657
102
}
330
1
100
AcDbSymbolTableRecord
100
AcDbBlockTableRecord
  2
TAB-A4
340
0
  0
BLOCK_RECORD
  5
7410
330
1
100
AcDbSymbolTableRecord
100
AcDbBlockTableRecord
  2
*D1
340
0
  0
BLOCK_RECORD
  5
741E
330
1
100
AcDbSymbolTableRecord
100
AcDbBlockTableRecord
  2
*D2
340
0
  0
BLOCK_RECORD
  5
742C
330
1
100
AcDbSymbolTableRecord
100
AcDbBlockTableRecord
  2
*D3
340
0
  0
BLOCK_RECORD
  5
743A
330
1
100
AcDbSymbolTableRecord
100
AcDbBlockTableRecord
  2
*D4
340
0
  0
BLOCK_RECORD
  5
7448
330
1
100
AcDbSymbolTableRecord
100
AcDbBlockTableRecord
  2
*D5
340
0
  0
BLOCK_RECORD
  5
7456
330
1
100
AcDbSymbolTableRecord
100
AcDbBlockTableRecord
  2
*D6
340
0
  0
BLOCK_RECORD
  5
7478
330
1
100
AcDbSymbolTableRecord
100
AcDbBlockTableRecord
  2
*D7
340
0
  0
BLOCK_RECORD
  5
7481
330
1
100
AcDbSymbolTableRecord
100
AcDbBlockTableRecord
  2
*D8
340
0
  0
BLOCK_RECORD
  5
748A
330
1
100
AcDbSymbolTableRecord
100
AcDbBlockTableRecord
  2
*D9
340
0
  0
BLOCK_RECORD
  5
7493
330
1
100
AcDbSymbolTableRecord
100
AcDbBlockTableRecord
  2
*D10
340
0
  0
BLOCK_RECORD
  5
74A1
330
1
100
AcDbSymbolTableRecord
100
AcDbBlockTableRecord
  2
*D11
340
0
  0
BLOCK_RECORD
  5
74AF
330
1
100
AcDbSymbolTableRecord
100
AcDbBlockTableRecord
  2
*D12
340
0
  0
BLOCK_RECORD
  5
74D3
330
1
100
AcDbSymbolTableRecord
100
AcDbBlockTableRecord
  2
*D13
340
0
  0
BLOCK_RECORD
  5
74E1
330
1
100
AcDbSymbolTableRecord
100
AcDbBlockTableRecord
  2
*D14
340
0
  0
BLOCK_RECORD
  5
74EF
330
1
100
AcDbSymbolTableRecord
100
AcDbBlockTableRecord
  2
*D15
340
0
  0
BLOCK_RECORD
  5
74FD
330
1
100
AcDbSymbolTableRecord
100
AcDbBlockTableRecord
  2
*D16
340
0
  0
BLOCK_RECORD
  5
753E
330
1
100
AcDbSymbolTableRecord
100
AcDbBlockTableRecord
  2
*D17
340
0
  0
BLOCK_RECORD
  5
7547
330
1
100
AcDbSymbolTableRecord
100
AcDbBlockTableRecord
  2
*D18
340
0
  0
BLOCK_RECORD
  5
7550
330
1
100
AcDbSymbolTableRecord
100
AcDbBlockTableRecord
  2
*D19
340
0
  0
BLOCK_RECORD
  5
755A
330
1
100
AcDbSymbolTableRecord
100
AcDbBlockTableRecord
  2
*D20
340
0
  0
BLOCK_RECORD
  5
7568
330
1
100
AcDbSymbolTableRecord
100
AcDbBlockTableRecord
  2
*D21
340
0
  0
BLOCK_RECORD
  5
7574
330
1
100
AcDbSymbolTableRecord
100
AcDbBlockTableRecord
  2
*D22
340
0
  0
BLOCK_RECORD
  5
7580
330
1
100
AcDbSymbolTableRecord
100
AcDbBlockTableRecord
  2
*D23
340
0
  0
BLOCK_RECORD
  5
758C
330
1
100
AcDbSymbolTableRecord
100
AcDbBlockTableRecord
  2
*D24
340
0
  0
BLOCK_RECORD
  5
759A
330
1
100
AcDbSymbolTableRecord
100
AcDbBlockTableRecord
  2
*D25
340
0
  0
BLOCK_RECORD
  5
75A6
330
1
100
AcDbSymbolTableRecord
100
AcDbBlockTableRecord
  2
*D26
340
0
  0
BLOCK_RECORD
  5
75B4
330
1
100
AcDbSymbolTableRecord
100
AcDbBlockTableRecord
  2
*D27
340
0
  0
BLOCK_RECORD
  5
75C0
330
1
100
AcDbSymbolTableRecord
100
AcDbBlockTableRecord
  2
*D28
340
0
  0
BLOCK_RECORD
  5
75CE
330
1
100
AcDbSymbolTableRecord
100
AcDbBlockTableRecord
  2
*D29
340
0
  0
BLOCK_RECORD
  5
75DA
330
1
100
AcDbSymbolTableRecord
100
AcDbBlockTableRecord
  2
*D30
340
0
  0
BLOCK_RECORD
  5
75E8
330
1
100
AcDbSymbolTableRecord
100
AcDbBlockTableRecord
  2
*D31
340
0
  0
BLOCK_RECORD
  5
75F6
330
1
100
AcDbSymbolTableRecord
100
AcDbBlockTableRecord
  2
*D32
340
0
  0
BLOCK_RECORD
  5
7604
330
1
100
AcDbSymbolTableRecord
100
AcDbBlockTableRecord
  2
*D33
340
0
  0
BLOCK_RECORD
  5
7A9F
330
1
100
AcDbSymbolTableRecord
100
AcDbBlockTableRecord
  2
*D34
340
0
  0
BLOCK_RECORD
  5
7AB8
330
1
100
AcDbSymbolTableRecord
100
AcDbBlockTableRecord
  2
*D35
340
0
  0
BLOCK_RECORD
  5
7AC5
330
1
100
AcDbSymbolTableRecord
100
AcDbBlockTableRecord
  2
*D36
340
0
  0
BLOCK_RECORD
  5
7ADB
330
1
100
AcDbSymbolTableRecord
100
AcDbBlockTableRecord
  2
*D37
340
0
  0
BLOCK_RECORD
  5
7B14
330
1
100
AcDbSymbolTableRecord
100
AcDbBlockTableRecord
  2
*D38
340
0
  0
BLOCK_RECORD
  5
7B40
330
1
100
AcDbSymbolTableRecord
100
AcDbBlockTableRecord
  2
*D39
340
0
  0
BLOCK_RECORD
  5
7BC0
330
1
100
AcDbSymbolTableRecord
100
AcDbBlockTableRecord
  2
*D40
340
0
  0
BLOCK_RECORD
  5
7D24
330
1
100
AcDbSymbolTableRecord
100
AcDbBlockTableRecord
  2
*D41
340
0
  0
BLOCK_RECORD
  5
8298
330
1
100
AcDbSymbolTableRecord
100
AcDbBlockTableRecord
  2
*D44
340
0
  0
BLOCK_RECORD
  5
829F
330
1
100
AcDbSymbolTableRecord
100
AcDbBlockTableRecord
  2
*D45
340
0
  0
BLOCK_RECORD
  5
82F9
330
1
100
AcDbSymbolTableRecord
100
AcDbBlockTableRecord
  2
*D46
340
0
  0
ENDTAB
  0
ENDSEC
  0
SECTION
  2
BLOCKS
  0
BLOCK
  5
28
330
17
100
AcDbEntity
  8
0
100
AcDbBlockBegin
  2
*MODEL_SPACE
 70
     0
 10
0.0
 20
0.0
 30
0.0
  3
*MODEL_SPACE
  1

  0
ENDBLK
  5
29
330
17
100
AcDbEntity
  8
0
100
AcDbBlockEnd
  0
BLOCK
  5
26
330
14
100
AcDbEntity
 67
     1
  8
0
100
AcDbBlockBegin
  2
*PAPER_SPACE
 70
     0
 10
0.0
 20
0.0
 30
0.0
  3
*PAPER_SPACE
  1

  0
ENDBLK
  5
27
330
14
100
AcDbEntity
 67
     1
  8
0
100
AcDbBlockEnd
  0
BLOCK
  5
6659
330
653E
100
AcDbEntity
  8
0
 62
     3
100
AcDbBlockBegin
  2
TAB-A4
 70
     2
 10
0.0
 20
0.0
 30
0.0
  3
TAB-A4
  1

  0
LINE
  5
653F
330
653E
100
AcDbEntity
  8
0
  6
Continuous
 62
     0
100
AcDbLine
 10
100.0
 20
143.5
 30
0.0
 11
-100.0
 21
143.5
 31
0.0
1001
TOP
1070
     7
  0
LINE
  5
6540
330
653E
100
AcDbEntity
  8
0
  6
Continuous
 62
     0
100
AcDbLine
 10
-100.0
 20
143.5
 30
0.0
 11
-100.0
 21
-143.5
 31
0.0
1001
TOP
1070
     7
  0
LINE
  5
6541
330
653E
100
AcDbEntity
  8
0
  6
Continuous
 62
     0
100
AcDbLine
 10
-100.0
 20
-143.5
 30
0.0
 11
100.0
 21
-143.5
 31
0.0
1001
TOP
1070
     7
  0
LINE
  5
6542
330
653E
100
AcDbEntity
  8
0
  6
Continuous
 62
     0
100
AcDbLine
 10
100.0
 20
-143.5
 30
0.0
 11
100.0
 21
143.5
 31
0.0
1001
TOP
1070
     7
  0
LINE
  5
6543
330
653E
100
AcDbEntity
  8
0
  6
Continuous
 62
     0
100
AcDbLine
 10
105.0
 20
148.5
 30
0.0
 11
-105.0
 21
148.5
 31
0.0
1001
TOP
1070
     3
  0
LINE
  5
6544
330
653E
100
AcDbEntity
  8
0
  6
Continuous
 62
     0
100
AcDbLine
 10
-105.0
 20
148.5
 30
0.0
 11
-105.0
 21
-148.5
 31
0.0
1001
TOP
1070
     3
  0
LINE
  5
6545
330
653E
100
AcDbEntity
  8
0
  6
Continuous
 62
     0
100
AcDbLine
 10
-105.0
 20
-148.5
 30
0.0
 11
105.0
 21
-148.5
 31
0.0
1001
TOP
1070
     3
  0
LINE
  5
6546
330
653E
100
AcDbEntity
  8
0
  6
Continuous
 62
     0
100
AcDbLine
 10
105.0
 20
-148.5
 30
0.0
 11
105.0
 21
148.5
 31
0.0
1001
TOP
1070
     3
  0
ATTDEF
  5
6547
330
653E
100
AcDbEntity
  8
0
 62
     0
 48
35.0
100
AcDbText
 10
-76.25989897767704
 20
-84.74999999999999
 30
0.0
 40
2.5
  1

  7
Stile_Cart
 11
-76.25989897767704
 21
-83.49999999999999
 31
0.0
100
AcDbAttributeDefinition
  3

  2
DESCRIZIONE
 70
     4
 74
     2
1001
TOP
1070
     7
  0
LINE
  5
6548
330
653E
100
AcDbEntity
  8
0
 62
     0
 48
35.0
100
AcDbLine
 10
100.0
 20
-138.5
 30
0.0
 11
-100.0
 21
-138.5
 31
0.0
1001
TOP
1070
     3
  0
MTEXT
  5
6549
330
653E
100
AcDbEntity
  8
0
 62
     0
 48
35.0
100
AcDbMText
 10
0.0
 20
-141.0
 30
0.0
 40
1.499624999999999
 41
190.3973187722231
 71
     5
 72
     1
  1
{\C256;SI VIETA L'USO E LA RIPRODUZIONE O LA VISIONE A TERZI DEL PRESENTE DISEGNO SENZA ESPLICITA AUTORIZZAZIONE, \H1.333x;Dierre \H0.75x;TUTELERA' I PROPRI DIRITTI A NORMA DI LEGGE}
  7
Stile_Cart
 73
     1
 44
1.0
1001
TOP
1070
     3
1001
ACAD
1000
MTEXTBEGIN
1070
    73
1070
     1
1070
    44
1040
1.0
1070
    74
1070
     0
1000
MTEXTEND
  0
LINE
  5
654A
330
653E
100
AcDbEntity
  8
0
 62
     0
 48
35.0
100
AcDbLine
 10
-100.0
 20
-78.5
 30
0.0
 11
100.0
 21
-78.49999999999988
 31
0.0
1001
TOP
1070
     3
  0
LINE
  5
654B
330
653E
100
AcDbEntity
  8
0
 62
     0
 48
35.0
100
AcDbLine
 10
35.0
 20
-78.5
 30
0.0
 11
35.0
 21
-138.5
 31
0.0
1001
TOP
1070
     3
  0
LINE
  5
654C
330
653E
100
AcDbEntity
  8
0
 62
     0
 48
35.0
100
AcDbLine
 10
-100.0
 20
-130.5
 30
0.0
 11
35.0
 21
-130.5
 31
0.0
1001
TOP
1070
     1
  0
LINE
  5
654D
330
653E
100
AcDbEntity
  8
0
 62
     0
 48
35.0
100
AcDbLine
 10
-100.0
 20
-108.5
 30
0.0
 11
35.0
 21
-108.5
 31
0.0
1001
TOP
1070
     1
  0
LINE
  5
654E
330
653E
100
AcDbEntity
  8
0
 62
     0
 48
35.0
100
AcDbLine
 10
-66.25
 20
-130.5
 30
0.0
 11
-66.25
 21
-138.5
 31
0.0
1001
TOP
1070
     7
  0
LINE
  5
654F
330
653E
100
AcDbEntity
  8
0
 62
     0
 48
35.0
100
AcDbLine
 10
-100.0
 20
-98.50000000000001
 30
0.0
 11
35.0
 21
-98.50000000000001
 31
0.0
1001
TOP
1070
     1
  0
LINE
  5
6550
330
653E
100
AcDbEntity
  8
0
 62
     0
 48
35.0
100
AcDbLine
 10
-27.5
 20
-98.50000000000001
 30
0.0
 11
-27.5
 21
-108.5
 31
0.0
1001
TOP
1070
     1
  0
TEXT
  5
6551
330
653E
100
AcDbEntity
  8
0
 62
     0
 48
35.0
100
AcDbText
 10
-99.24333629514059
 20
-84.74999999999999
 30
0.0
 40
1.6
  1
DENOMINAZIONE:
  7
STYLE1
100
AcDbText
1001
TOP
1070
     1
  0
TEXT
  5
6552
330
653E
100
AcDbEntity
  8
0
 62
     0
 48
35.0
100
AcDbText
 10
-99.24333629514059
 20
-105.5
 30
0.0
 40
1.6
  1
CLIENTE:
  7
STYLE1
100
AcDbText
1001
TOP
1070
     1
  0
LINE
  5
6553
330
653E
100
AcDbEntity
  8
0
 62
     0
 48
35.0
100
AcDbLine
 10
-27.5
 20
-103.5
 30
0.0
 11
35.00000000000091
 21
-103.5
 31
0.0
1001
TOP
1070
     1
  0
TEXT
  5
6554
330
653E
100
AcDbEntity
  8
0
 62
     0
 48
35.0
100
AcDbText
 10
-26.74333629514058
 20
-102.25
 30
0.0
 40
1.6
  1
COD. CLIENTE:
  7
STYLE1
100
AcDbText
1001
TOP
1070
     1
  0
TEXT
  5
6555
330
653E
100
AcDbEntity
  8
0
 62
     0
 48
35.0
100
AcDbText
 10
-26.74333629514058
 20
-107.25
 30
0.0
 40
1.6
  1
CC CLIENTE:
  7
STYLE1
100
AcDbText
1001
TOP
1070
     1
  0
LINE
  5
6556
330
653E
100
AcDbEntity
  8
0
 62
     0
 48
35.0
100
AcDbLine
 10
35.0
 20
-85.99999999999988
 30
0.0
 11
100.0
 21
-85.99999999999988
 31
0.0
1001
TOP
1070
     7
  0
LINE
  5
6557
330
653E
100
AcDbEntity
  8
0
 62
     0
 48
35.0
100
AcDbLine
 10
35.0
 20
-93.49999999999988
 30
0.0
 11
100.0
 21
-93.49999999999988
 31
0.0
1001
TOP
1070
     7
  0
LINE
  5
6558
330
653E
100
AcDbEntity
  8
0
 62
     0
 48
35.0
100
AcDbLine
 10
35.0
 20
-100.9999999999999
 30
0.0
 11
100.0
 21
-100.9999999999999
 31
0.0
1001
TOP
1070
     7
  0
TEXT
  5
6559
330
653E
100
AcDbEntity
  8
0
 62
     0
 48
35.0
100
AcDbText
 10
35.75666370485942
 20
-83.99999999999989
 30
0.0
 40
1.6
  1
Data:
  7
STYLE1
100
AcDbText
1001
TOP
1070
     1
  0
TEXT
  5
655A
330
653E
100
AcDbEntity
  8
0
 62
     0
 48
35.0
100
AcDbText
 10
35.75666370485942
 20
-90.74999999999988
 30
0.0
 40
1.6
  1
Diseg.:        
  7
STYLE1
100
AcDbText
1001
TOP
1070
     1
  0
TEXT
  5
655B
330
653E
100
AcDbEntity
  8
0
 62
     0
 48
35.0
100
AcDbText
 10
35.75666370485942
 20
-98.49999999999988
 30
0.0
 40
1.6
  1
Rifer. ordine:
  7
STYLE1
100
AcDbText
1001
TOP
1070
     1
  0
LINE
  5
655C
330
653E
100
AcDbEntity
  8
0
 62
     0
 48
35.0
100
AcDbLine
 10
72.0
 20
-78.49999999999988
 30
0.0
 11
72.0
 21
-93.49999999999999
 31
0.0
  0
TEXT
  5
655D
330
653E
100
AcDbEntity
  8
0
 62
     0
 48
35.0
100
AcDbText
 10
72.75666370485942
 20
-83.99999999999989
 30
0.0
 40
1.6
  1
Scala:
  7
STYLE1
100
AcDbText
1001
TOP
1070
     1
  0
TEXT
  5
655E
330
653E
100
AcDbEntity
  8
0
 62
     0
 48
35.0
100
AcDbText
 10
72.75666370485942
 20
-91.49999999999989
 30
0.0
 40
1.6
  1
Q.ta:
  7
STYLE1
100
AcDbText
1001
TOP
1070
     1
  0
TEXT
  5
655F
330
653E
100
AcDbEntity
  8
0
 62
     0
 48
35.0
100
AcDbText
 10
35.85819235127565
 20
-110.1249999999999
 30
0.0
 40
1.76
  1
Codice N
  7
STYLE1
100
AcDbText
1001
TOP
1070
     1
  0
LINE
  5
6560
330
653E
100
AcDbEntity
  8
0
 62
     0
 48
35.0
100
AcDbLine
 10
35.0
 20
-114.7499999999999
 30
0.0
 11
100.0
 21
-114.7499999999999
 31
0.0
1001
TOP
1070
     7
  0
LINE
  5
6561
330
653E
100
AcDbEntity
  8
0
 62
     0
 48
35.0
100
AcDbLine
 10
35.0
 20
-124.7499999999999
 30
0.0
 11
100.0
 21
-124.7499999999999
 31
0.0
1001
TOP
1070
     7
  0
LINE
  5
6562
330
653E
100
AcDbEntity
  8
0
 62
     0
 48
35.0
100
AcDbLine
 10
35.0
 20
-130.5
 30
0.0
 11
100.0
 21
-130.5
 31
0.0
1001
TOP
1070
     7
  0
CIRCLE
  5
6563
330
653E
100
AcDbEntity
  8
0
  6
Continuous
 62
     0
100
AcDbCircle
 10
94.1449550471707
 20
-134.5409172698267
 30
0.0
 40
3.0
1001
TOP
1070
     2
  0
LINE
  5
6564
330
653E
100
AcDbEntity
  8
0
  6
DASHDOT2
 62
     0
100
AcDbLine
 10
94.1449550471707
 20
-131.5409172698267
 30
0.0
 11
94.1449550471707
 21
-137.5409172698267
 31
0.0
1001
TOP
1070
     2
  0
CIRCLE
  5
6565
330
653E
100
AcDbEntity
  8
0
  6
Continuous
 62
     0
100
AcDbCircle
 10
94.1449550471707
 20
-134.5409172698267
 30
0.0
 40
1.5
1001
TOP
1070
     2
  0
LINE
  5
6566
330
653E
100
AcDbEntity
  8
0
  6
DASHDOT2
 62
     0
100
AcDbLine
 10
81.35716881113784
 20
-134.5409172698267
 30
0.0
 11
97.14495504717071
 21
-134.5409172698267
 31
0.0
1001
TOP
1070
     2
  0
LINE
  5
6567
330
653E
100
AcDbEntity
  8
0
  6
Continuous
 62
     0
100
AcDbLine
 10
88.51173788868619
 20
-131.5409172698267
 30
0.0
 11
88.51173788868619
 21
-137.8298833532369
 31
0.0
1001
TOP
1070
     2
  0
LINE
  5
6568
330
653E
100
AcDbEntity
  8
0
  6
Continuous
 62
     0
100
AcDbLine
 10
81.35716881113784
 20
-133.0409172698267
 30
0.0
 11
81.35716881113784
 21
-136.0409172698267
 31
0.0
1001
TOP
1070
     2
  0
LINE
  5
6569
330
653E
100
AcDbEntity
  8
0
  6
Continuous
 62
     0
100
AcDbLine
 10
81.35716881113784
 20
-136.0409172698267
 30
0.0
 11
88.51173788868619
 21
-137.8298833532369
 31
0.0
1001
TOP
1070
     2
  0
LINE
  5
656A
330
653E
100
AcDbEntity
  8
0
  6
Continuous
 62
     0
100
AcDbLine
 10
88.51173788868619
 20
-131.5409172698267
 30
0.0
 11
81.35716881113784
 21
-133.0409172698267
 31
0.0
1001
TOP
1070
     2
  0
LINE
  5
656B
330
653E
100
AcDbEntity
  8
0
 62
     0
 48
35.0
100
AcDbLine
 10
78.5
 20
-138.5
 30
0.0
 11
78.5
 21
-130.5
 31
0.0
  0
MTEXT
  5
656C
330
653E
100
AcDbEntity
  8
0
 62
     0
 48
35.0
100
AcDbMText
 10
36.70159610234714
 20
-116.147829675845
 30
0.0
 40
2.0
 41
187.0802
 71
     1
 72
     5
  1
{\C256;LE TOLLERANZE SI INTENDONO SU PEZZO\PFINITO COMPLETO DI ZINCATURA}
  7
Stile_Cart
 73
     1
 44
1.0
1001
TOP
1070
     3
1001
ACAD
1000
MTEXTBEGIN
1070
    73
1070
     1
1070
    44
1040
1.0
1070
    74
1070
     0
1000
MTEXTEND
  0
LINE
  5
656D
330
653E
100
AcDbEntity
  8
0
 62
     0
100
AcDbLine
 10
-100.0
 20
-71.0
 30
0.0
 11
99.99999999999909
 21
-71.00000000000012
 31
0.0
1001
TOP
1070
     3
  0
LINE
  5
656E
330
653E
100
AcDbEntity
  8
0
 62
     0
100
AcDbLine
 10
-100.0
 20
-67.0
 30
0.0
 11
99.99999999999909
 21
-67.0
 31
0.0
1001
TOP
1070
     3
  0
LINE
  5
656F
330
653E
100
AcDbEntity
  8
0
 62
     0
100
AcDbLine
 10
-100.0
 20
-62.0
 30
0.0
 11
99.99999999999909
 21
-61.99999999999988
 31
0.0
1001
TOP
1070
     3
  0
LINE
  5
6570
330
653E
100
AcDbEntity
  8
0
 62
     0
 48
35.0
100
AcDbLine
 10
-85.0
 20
-61.99999999999999
 30
0.0
 11
-85.0
 21
-78.5
 31
0.0
1001
TOP
1070
     1
  0
TEXT
  5
6571
330
653E
100
AcDbEntity
  8
0
 62
     0
 48
35.0
100
AcDbText
 10
-99.24333629514149
 20
-76.0
 30
0.0
 40
1.6
  1
POS.
  7
STYLE1
100
AcDbText
1001
TOP
1070
     1
  0
TEXT
  5
6572
330
653E
100
AcDbEntity
  8
0
 62
     0
 48
35.0
100
AcDbText
 10
-84.2433362951424
 20
-76.0
 30
0.0
 40
1.6
  1
MATERIALE:
  7
STYLE1
100
AcDbText
1001
TOP
1070
     1
  0
LINE
  5
6573
330
653E
100
AcDbEntity
  8
0
 62
     0
 48
35.0
100
AcDbLine
 10
14.99999999999909
 20
-71.00000000000022
 30
0.0
 11
15.0
 21
-78.5
 31
0.0
1001
TOP
1070
     1
  0
TEXT
  5
6574
330
653E
100
AcDbEntity
  8
0
 62
     0
 48
35.0
100
AcDbText
 10
15.75666370485669
 20
-76.0
 30
0.0
 40
1.6
  1
TRATTAMENTI:
  7
STYLE1
100
AcDbText
1001
TOP
1070
     1
  0
TEXT
  5
6575
330
653E
100
AcDbEntity
  8
0
 62
     0
 48
35.0
100
AcDbText
 10
-94.94297836942587
 20
-69.79763860700177
 30
0.0
 40
1.6
  1
Rev.
  7
STYLE1
100
AcDbText
1001
TOP
1070
     1
  0
LINE
  5
6576
330
653E
100
AcDbEntity
  8
0
 62
     0
 48
35.0
100
AcDbLine
 10
80.0
 20
-61.9999999999999
 30
0.0
 11
80.0000000000009
 21
-71.00000000000012
 31
0.0
1001
TOP
1070
     1
  0
LINE
  5
6577
330
653E
100
AcDbEntity
  8
0
 62
     0
 48
35.0
100
AcDbLine
 10
65.00000000000032
 20
-61.99999999999991
 30
0.0
 11
65.00000000000091
 21
-71.00000000000114
 31
0.0
1001
TOP
1070
     1
  0
TEXT
  5
6578
330
653E
100
AcDbEntity
  8
0
 62
     0
 48
35.0
100
AcDbText
 10
70.05702163057503
 20
-69.79763860700177
 30
0.0
 40
1.6
  1
Data
  7
STYLE1
100
AcDbText
1001
TOP
1070
     1
  0
TEXT
  5
6579
330
653E
100
AcDbEntity
  8
0
 62
     0
 48
35.0
100
AcDbText
 10
87.79240430569643
 20
-69.79763860700177
 30
0.0
 40
1.6
  1
Diseg.
  7
STYLE1
100
AcDbText
1001
TOP
1070
     1
  0
LINE
  5
657A
330
653E
100
AcDbEntity
  8
0
 62
     0
 48
35.0
100
AcDbLine
 10
-32.5
 20
-130.5
 30
0.0
 11
-32.5
 21
-138.5
 31
0.0
1001
TOP
1070
     7
  0
LINE
  5
657B
330
653E
100
AcDbEntity
  8
0
 62
     0
 48
35.0
100
AcDbLine
 10
1.25
 20
-130.5
 30
0.0
 11
1.25
 21
-138.5
 31
0.0
1001
TOP
1070
     7
  0
LINE
  5
657C
330
653E
100
AcDbEntity
  8
0
  6
Continuous
 62
     0
100
AcDbLine
 10
-84.625
 20
-135.2853677388285
 30
0.0
 11
-83.125
 21
-138.2853677388285
 31
0.0
1001
TOP
1070
     2
  0
LINE
  5
657D
330
653E
100
AcDbEntity
  8
0
  6
Continuous
 62
     0
100
AcDbLine
 10
-83.125
 20
-138.2853677388285
 30
0.0
 11
-80.12500000000001
 21
-132.2853677388285
 31
0.0
1001
TOP
1070
     2
  0
CIRCLE
  5
657E
330
653E
100
AcDbEntity
  8
0
  6
Continuous
 62
     0
100
AcDbCircle
 10
-83.125
 20
-136.1513931426129
 30
0.0
 40
0.8660254037843873
1001
TOP
1070
     2
  0
TEXT
  5
657F
330
653E
100
AcDbEntity
  8
0
  6
Continuous
 62
     0
100
AcDbText
 10
36.65725579953532
 20
-127.6856811538551
 30
0.0
 40
1.5
  1
Le QUOTE senza tolleranze si intendono h 11 / H 11
  7
Stile_Cart
100
AcDbText
1001
TOP
1070
     7
  0
TEXT
  5
6580
330
653E
100
AcDbEntity
  8
0
  6
Continuous
 62
     0
100
AcDbText
 10
36.56316783991022
 20
-136.7809056532263
 30
0.0
 40
1.5
  1
Smussi e raggi non quotati = 1 mm
  7
Stile_Cart
100
AcDbText
1001
TOP
1070
     7
  0
TEXT
  5
6581
330
653E
100
AcDbEntity
  8
0
  6
Continuous
 62
     0
100
AcDbText
 10
36.70159610234714
 20
-133.4356811538553
 30
0.0
 40
1.5
  1
Negli spigoli non quotati smussi 0,5 x 45°
  7
Stile_Cart
100
AcDbText
1001
TOP
1070
     7
  0
LINE
  5
6582
330
653E
100
AcDbEntity
  8
0
  6
Continuous
 62
     0
100
AcDbLine
 10
22.04910490551336
 20
-135.2267571184318
 30
0.0
 11
23.54910490551336
 21
-138.2267571184318
 31
0.0
1001
TOP
1070
     2
  0
LINE
  5
6583
330
653E
100
AcDbEntity
  8
0
  6
Continuous
 62
     0
100
AcDbLine
 10
23.54910490551336
 20
-138.2267571184318
 30
0.0
 11
26.54910490551336
 21
-132.2267571184318
 31
0.0
1001
TOP
1070
     2
  0
TEXT
  5
6584
330
653E
100
AcDbEntity
  8
0
  6
Continuous
 62
     0
100
AcDbText
 10
21.21024234627165
 20
-134.7267571184318
 30
0.0
 40
2.0
  1
0,8
  7
seansi_ttf
 11
21.21024234627165
 21
-132.7267571184318
 31
0.0
100
AcDbText
 73
     3
1001
TOP
1070
     2
  0
LINE
  5
6585
330
653E
100
AcDbEntity
  8
0
  6
Continuous
 62
     0
100
AcDbLine
 10
14.18630267108197
 20
-135.2559419652411
 30
0.0
 11
15.68630267108197
 21
-138.2559419652411
 31
0.0
1001
TOP
1070
     2
  0
LINE
  5
6586
330
653E
100
AcDbEntity
  8
0
  6
Continuous
 62
     0
100
AcDbLine
 10
15.68630267108197
 20
-138.2559419652411
 30
0.0
 11
17.18630267108197
 21
-135.2559419652411
 31
0.0
1001
TOP
1070
     2
  0
LINE
  5
6587
330
653E
100
AcDbEntity
  8
0
  6
Continuous
 62
     0
100
AcDbLine
 10
17.18630267108197
 20
-135.2559419652411
 30
0.0
 11
14.18630267108197
 21
-135.2559419652411
 31
0.0
1001
TOP
1070
     2
  0
LINE
  5
6588
330
653E
100
AcDbEntity
  8
0
  6
Continuous
 62
     0
100
AcDbLine
 10
14.18630267108197
 20
-135.2559419652411
 30
0.0
 11
12.68630267108197
 21
-138.2559419652411
 31
0.0
1001
TOP
1070
     2
  0
LINE
  5
6589
330
653E
100
AcDbEntity
  8
0
  6
Continuous
 62
     0
100
AcDbLine
 10
12.68630267108197
 20
-138.2559419652411
 30
0.0
 11
11.18630267108197
 21
-135.2559419652411
 31
0.0
1001
TOP
1070
     2
  0
LINE
  5
658A
330
653E
100
AcDbEntity
  8
0
  6
Continuous
 62
     0
100
AcDbLine
 10
11.18630267108197
 20
-135.2559419652411
 30
0.0
 11
14.18630267108197
 21
-135.2559419652411
 31
0.0
1001
TOP
1070
     2
  0
LINE
  5
658B
330
653E
100
AcDbEntity
  8
0
  6
Continuous
 62
     0
100
AcDbLine
 10
11.18630267108197
 20
-135.2559419652411
 30
0.0
 11
9.686302671081968
 21
-138.2559419652411
 31
0.0
1001
TOP
1070
     2
  0
LINE
  5
658C
330
653E
100
AcDbEntity
  8
0
  6
Continuous
 62
     0
100
AcDbLine
 10
9.686302671081968
 20
-138.2559419652411
 30
0.0
 11
8.186302671081968
 21
-135.2559419652411
 31
0.0
1001
TOP
1070
     2
  0
LINE
  5
658D
330
653E
100
AcDbEntity
  8
0
  6
Continuous
 62
     0
100
AcDbLine
 10
8.186302671081968
 20
-135.2559419652411
 30
0.0
 11
11.18630267108197
 21
-135.2559419652411
 31
0.0
1001
TOP
1070
     2
  0
LINE
  5
658E
330
653E
100
AcDbEntity
  8
0
  6
Continuous
 62
     0
100
AcDbLine
 10
-11.09407416882067
 20
-135.2999430320282
 30
0.0
 11
-9.594074168820668
 21
-138.2999430320282
 31
0.0
1001
TOP
1070
     2
  0
LINE
  5
658F
330
653E
100
AcDbEntity
  8
0
  6
Continuous
 62
     0
100
AcDbLine
 10
-9.594074168820668
 20
-138.2999430320282
 30
0.0
 11
-6.594074168820668
 21
-132.2999430320282
 31
0.0
1001
TOP
1070
     2
  0
TEXT
  5
6590
330
653E
100
AcDbEntity
  8
0
  6
Continuous
 62
     0
100
AcDbText
 10
-11.93293672806237
 20
-134.7999430320282
 30
0.0
 40
2.0
  1
1,6
  7
seansi_ttf
 11
-11.93293672806237
 21
-132.7999430320282
 31
0.0
100
AcDbText
 73
     3
1001
TOP
1070
     2
  0
LINE
  5
6591
330
653E
100
AcDbEntity
  8
0
  6
Continuous
 62
     0
100
AcDbLine
 10
-21.65592583117933
 20
-135.2999430320282
 30
0.0
 11
-20.15592583117933
 21
-138.2999430320282
 31
0.0
1001
TOP
1070
     2
  0
LINE
  5
6592
330
653E
100
AcDbEntity
  8
0
  6
Continuous
 62
     0
100
AcDbLine
 10
-20.15592583117933
 20
-138.2999430320282
 30
0.0
 11
-18.65592583117933
 21
-135.2999430320282
 31
0.0
1001
TOP
1070
     2
  0
LINE
  5
6593
330
653E
100
AcDbEntity
  8
0
  6
Continuous
 62
     0
100
AcDbLine
 10
-18.65592583117933
 20
-135.2999430320282
 30
0.0
 11
-21.65592583117933
 21
-135.2999430320282
 31
0.0
1001
TOP
1070
     2
  0
LINE
  5
6594
330
653E
100
AcDbEntity
  8
0
  6
Continuous
 62
     0
100
AcDbLine
 10
-21.65592583117933
 20
-135.2999430320282
 30
0.0
 11
-23.15592583117933
 21
-138.2999430320282
 31
0.0
1001
TOP
1070
     2
  0
LINE
  5
6595
330
653E
100
AcDbEntity
  8
0
  6
Continuous
 62
     0
100
AcDbLine
 10
-23.15592583117933
 20
-138.2999430320282
 30
0.0
 11
-24.65592583117933
 21
-135.2999430320282
 31
0.0
1001
TOP
1070
     2
  0
LINE
  5
6596
330
653E
100
AcDbEntity
  8
0
  6
Continuous
 62
     0
100
AcDbLine
 10
-24.65592583117933
 20
-135.2999430320282
 30
0.0
 11
-21.65592583117933
 21
-135.2999430320282
 31
0.0
1001
TOP
1070
     2
  0
LINE
  5
6597
330
653E
100
AcDbEntity
  8
0
  6
Continuous
 62
     0
100
AcDbLine
 10
-58.06883755106941
 20
-135.3397943988076
 30
0.0
 11
-56.56883755106941
 21
-138.3397943988076
 31
0.0
1001
TOP
1070
     2
  0
LINE
  5
6598
330
653E
100
AcDbEntity
  8
0
  6
Continuous
 62
     0
100
AcDbLine
 10
-56.56883755106941
 20
-138.3397943988076
 30
0.0
 11
-55.0688375510694
 21
-135.3397943988076
 31
0.0
1001
TOP
1070
     2
  0
LINE
  5
6599
330
653E
100
AcDbEntity
  8
0
  6
Continuous
 62
     0
100
AcDbLine
 10
-55.0688375510694
 20
-135.3397943988076
 30
0.0
 11
-58.06883755106941
 21
-135.3397943988076
 31
0.0
1001
TOP
1070
     2
  0
LINE
  5
659A
330
653E
100
AcDbEntity
  8
0
  6
Continuous
 62
     0
100
AcDbLine
 10
-43.68116244893059
 20
-135.3397943988076
 30
0.0
 11
-42.18116244893059
 21
-138.3397943988076
 31
0.0
1001
TOP
1070
     2
  0
LINE
  5
659B
330
653E
100
AcDbEntity
  8
0
  6
Continuous
 62
     0
100
AcDbLine
 10
-42.18116244893059
 20
-138.3397943988076
 30
0.0
 11
-39.18116244893059
 21
-132.3397943988076
 31
0.0
1001
TOP
1070
     2
  0
TEXT
  5
659C
330
653E
100
AcDbEntity
  8
0
  6
Continuous
 62
     0
100
AcDbText
 10
-44.52002500817229
 20
-134.8397943988076
 30
0.0
 40
2.0
  1
6,3
  7
seansi_ttf
 11
-44.52002500817229
 21
-132.8397943988076
 31
0.0
100
AcDbText
 73
     3
1001
TOP
1070
     2
  0
ATTDEF
  5
659D
330
653E
100
AcDbEntity
  8
0
 62
     0
 48
35.0
100
AcDbText
 10
-76.25989897767704
 20
-89.74999999999999
 30
0.0
 40
2.5
  1

  7
Stile_Cart
 11
-76.25989897767704
 21
-88.49999999999999
 31
0.0
100
AcDbAttributeDefinition
  3

  2
DESCRIZIONE2
 70
     4
 74
     2
1001
TOP
1070
     7
  0
ATTDEF
  5
659E
330
653E
100
AcDbEntity
  8
0
 62
     0
 48
35.0
100
AcDbText
 10
-76.25989897767704
 20
-94.74999999999999
 30
0.0
 40
2.5
  1

  7
Stile_Cart
 11
-76.25989897767704
 21
-93.49999999999999
 31
0.0
100
AcDbAttributeDefinition
  3

  2
DESCRIZIONE3
 70
     4
 74
     2
1001
TOP
1070
     7
  0
ATTDEF
  5
659F
330
653E
100
AcDbEntity
  8
0
 62
     0
 48
35.0
100
AcDbText
 10
42.76829842361894
 20
-83.99999999999989
 30
0.0
 40
3.5
  1

  7
Stile_Cart
 11
42.76829842361894
 21
-82.2499999999999
 31
0.0
100
AcDbAttributeDefinition
  3

  2
DATA
 70
     4
 74
     2
1001
TOP
1070
     7
  0
ATTDEF
  5
65A0
330
653E
100
AcDbEntity
  8
0
 62
     0
 48
35.0
100
AcDbText
 10
79.15321575123653
 20
-83.99999999999989
 30
0.0
 40
3.5
  1

  7
Stile_Cart
 11
79.15321575123653
 21
-82.24999999999988
 31
0.0
100
AcDbAttributeDefinition
  3

  2
SCALA
 70
     4
 74
     2
1001
TOP
1070
     7
  0
ATTDEF
  5
65A1
330
653E
100
AcDbEntity
  8
0
 62
     0
 48
35.0
100
AcDbText
 10
79.15321575123653
 20
-91.49999999999989
 30
0.0
 40
3.5
  1

  7
Stile_Cart
 11
79.15321575123653
 21
-89.74999999999988
 31
0.0
100
AcDbAttributeDefinition
  3

  2
QTA
 70
     4
 74
     2
1001
TOP
1070
     7
  0
ATTDEF
  5
65A2
330
653E
100
AcDbEntity
  8
0
 62
     0
 48
35.0
100
AcDbText
 10
42.76829842361894
 20
-90.74999999999988
 30
0.0
 40
2.0
  1

  7
Stile_Cart
 11
42.76829842361894
 21
-89.74999999999988
 31
0.0
100
AcDbAttributeDefinition
  3

  2
DISEGNATORE
 70
     4
 74
     2
1001
TOP
1070
     7
  0
ATTDEF
  5
65A3
330
653E
100
AcDbEntity
  8
0
 62
     0
 48
35.0
100
AcDbText
 10
51.64776592404542
 20
-98.49999999999988
 30
0.0
 40
2.5
  1

  7
Stile_Cart
 11
51.64776592404542
 21
-97.24999999999988
 31
0.0
100
AcDbAttributeDefinition
  3

  2
RIF_ORDINE
 70
     4
 74
     2
1001
TOP
1070
     7
  0
ATTDEF
  5
65A4
330
653E
100
AcDbEntity
  8
0
 62
     0
 48
35.0
100
AcDbText
 10
50.29007657152305
 20
-110.1249999999999
 30
0.0
 40
4.5
  1

  7
Stile_Cart
 11
50.29007657152305
 21
-107.8749999999999
 31
0.0
100
AcDbAttributeDefinition
  3

  2
CODICE
 70
     4
 74
     2
1001
TOP
1070
     7
  0
ATTDEF
  5
65A5
330
653E
100
AcDbEntity
  8
0
 62
     0
 48
35.0
100
AcDbText
 10
-10.1983793647978
 20
-102.25
 30
0.0
 40
2.5
  1

  7
Stile_Cart
 11
-10.1983793647978
 21
-101.0
 31
0.0
100
AcDbAttributeDefinition
  3

  2
COD_CLIENTE
 70
     4
 74
     2
1001
TOP
1070
     7
  0
ATTDEF
  5
65A6
330
653E
100
AcDbEntity
  8
0
 62
     0
 48
35.0
100
AcDbText
 10
-10.18785708582345
 20
-107.25
 30
0.0
 40
2.5
  1

  7
Stile_Cart
 11
-10.18785708582345
 21
-106.0
 31
0.0
100
AcDbAttributeDefinition
  3

  2
COMMESSA
 70
     4
 74
     2
1001
TOP
1070
     7
  0
ATTDEF
  5
65A7
330
653E
100
AcDbEntity
  8
0
 62
     0
 48
35.0
100
AcDbText
 10
-87.23964845993032
 20
-105.5
 30
0.0
 40
4.0
  1

  7
Stile_Cart
 11
-87.23964845993032
 21
-103.5
 31
0.0
100
AcDbAttributeDefinition
  3

  2
CLIENTE
 70
     4
 74
     2
1001
TOP
1070
     7
  0
ATTDEF
  5
65A8
330
653E
100
AcDbEntity
  8
0
 62
     0
 48
35.0
100
AcDbText
 10
-67.95452598552799
 20
-76.0
 30
0.0
 40
2.5
  1

  7
Stile_Cart
 11
-67.95452598552799
 21
-74.75
 31
0.0
100
AcDbAttributeDefinition
  3

  2
MATERIALE
 70
     4
 74
     2
1001
TOP
1070
     7
  0
ATTDEF
  5
65A9
330
653E
100
AcDbEntity
  8
0
 62
     0
 48
35.0
100
AcDbText
 10
35.56280592835867
 20
-76.0
 30
0.0
 40
2.5
  1

  7
Stile_Cart
 11
35.56280592835867
 21
-74.75
 31
0.0
100
AcDbAttributeDefinition
  3

  2
TRATTAMENTI
 70
     4
 74
     2
1001
TOP
1070
     7
  0
ATTDEF
  5
65AA
330
653E
100
AcDbEntity
  8
0
 62
     0
 48
35.0
100
AcDbText
 10
-89.96922082042067
 20
-76.0
 30
0.0
 40
2.5
  1

  7
Stile_Cart
 72
     1
 11
-89.96922082042067
 21
-74.75
 31
0.0
100
AcDbAttributeDefinition
  3

  2
POS.
 70
     4
 74
     2
1001
TOP
1070
     7
  0
ATTDEF
  5
65AB
330
653E
100
AcDbEntity
  8
0
 62
     0
 48
35.0
100
AcDbText
 10
-92.5
 20
-65.75
 30
0.0
 40
2.5
  1

  7
Stile_Cart
 72
     1
 11
-92.5
 21
-64.5
 31
0.0
100
AcDbAttributeDefinition
  3

  2
REV
 70
     4
 74
     2
1001
TOP
1070
     7
  0
ATTDEF
  5
65AC
330
653E
100
AcDbEntity
  8
0
 62
     0
 48
35.0
100
AcDbText
 10
-83.0
 20
-65.75
 30
0.0
 40
2.5
  1

  7
Stile_Cart
 11
-83.0
 21
-64.5
 31
0.0
100
AcDbAttributeDefinition
  3

  2
MOD_REV
 70
     4
 74
     2
1001
TOP
1070
     7
  0
ATTDEF
  5
65AD
330
653E
100
AcDbEntity
  8
0
 62
     0
 48
35.0
100
AcDbText
 10
72.50000000000032
 20
-65.74999999999994
 30
0.0
 40
2.5
  1

  7
Stile_Cart
 72
     1
 11
72.50000000000032
 21
-64.49999999999994
 31
0.0
100
AcDbAttributeDefinition
  3

  2
DATA_REV
 70
     4
 74
     2
1001
TOP
1070
     7
  0
ATTDEF
  5
65AE
330
653E
100
AcDbEntity
  8
0
 62
     0
 48
35.0
100
AcDbText
 10
89.96023144605638
 20
-65.49999999999994
 30
0.0
 40
2.0
  1

 41
0.8
  7
Stile_Cart
 72
     1
 11
89.96023144605638
 21
-64.49999999999994
 31
0.0
100
AcDbAttributeDefinition
  3

  2
DISEGN_REV
 70
     4
 74
     2
1001
TOP
1070
     7
  0
TEXT
  5
65AF
330
653E
100
AcDbEntity
  8
P-0000
  6
Continuous
 62
     0
 48
35.0
100
AcDbText
 10
-46.28135167661025
 20
-113.3527525052883
 30
0.0
 40
1.846799999999999
  1
Sedi operative: Fiorano Circ.le S. Giovanni Ev.,23   41042 Spezzano (MO)
  7
STYLE1
100
AcDbText
1001
TOP
1070
     7
  0
TEXT
  5
65B0
330
653E
100
AcDbEntity
  8
P-0000
  6
Continuous
 62
     0
 48
35.0
100
AcDbText
 10
-6.340918626483258
 20
-117.0692022869476
 30
0.0
 40
1.846799999999999
  1
Tel. 0536 921322  Fax 0536 921218
  7
STYLE1
100
AcDbText
1001
TOP
1070
     7
  0
TEXT
  5
65B1
330
653E
100
AcDbEntity
  8
P-0000
  6
Continuous
 62
     0
 48
35.0
100
AcDbText
 10
-29.75490795040492
 20
-120.7856520686069
 30
0.0
 40
1.846799999999999
  1
Bologna Via Del Selciatore, 12   40127 (BO) 
  7
STYLE1
100
AcDbText
1001
TOP
1070
     7
  0
TEXT
  5
65B2
330
653E
100
AcDbEntity
  8
P-0000
  6
Continuous
 62
     0
 48
35.0
100
AcDbText
 10
-3.770224758554846
 20
-124.5021018502664
 30
0.0
 40
1.846799999999999
  1
Tel. 051 535318  Fax 051 531297
  7
STYLE1
100
AcDbText
1001
TOP
1070
     7
  0
TEXT
  5
65B3
330
653E
100
AcDbEntity
  8
P-0000
  6
Continuous
 62
     0
 48
35.0
100
AcDbText
 10
-29.75453034516
 20
-128.1147363829751
 30
0.0
 40
1.5
  1
www.dierremacap.com . tecnico@dierreprotezioni.com  
  7
STYLE1
100
AcDbText
1001
TOP
1070
     7
  0
ARC
  5
65B4
330
653E
100
AcDbEntity
  8
P-0000
  6
Continuous
 62
     0
370
     0
100
AcDbCircle
 10
-87.55587540093328
 20
-119.8343908033039
 30
0.0
 40
7.264056604142308
100
AcDbArc
 50
54.62314853322836
 51
125.3768514667716
1001
TOP
1070
    85
  0
ARC
  5
65B5
330
653E
100
AcDbEntity
  8
P-0000
  6
Continuous
 62
     0
370
     0
100
AcDbCircle
 10
-88.37772146816295
 20
-119.8661633216503
 30
0.0
 40
7.793069759999999
100
AcDbArc
 50
49.82610094250764
 51
223.428751725223
1001
TOP
1070
    85
  0
ARC
  5
65B6
330
653E
100
AcDbEntity
  8
P-0000
  6
Continuous
 62
     0
370
     0
100
AcDbCircle
 10
-87.77383862674813
 20
-119.1102130429075
 30
0.0
 40
4.056769053873
100
AcDbArc
 50
51.09712919102834
 51
223.6094645412326
1001
TOP
1070
    85
  0
ARC
  5
65B7
330
653E
100
AcDbEntity
  8
P-0000
  6
Continuous
 62
     0
370
     0
100
AcDbCircle
 10
-88.42266163376624
 20
-119.4851385567151
 30
0.0
 40
4.763630338834137
100
AcDbArc
 50
47.85430720588668
 51
226.8522865263435
1001
TOP
1070
    85
  0
ARC
  5
65B8
330
653E
100
AcDbEntity
  8
P-0000
  6
Continuous
 62
     0
370
     0
100
AcDbCircle
 10
-88.82997178899747
 20
-120.0817487520743
 30
0.0
 40
4.056769053873
100
AcDbArc
 50
231.0971291910283
 51
43.60946454123257
1001
TOP
1070
    85
  0
ARC
  5
65B9
330
653E
100
AcDbEntity
  8
P-0000
  6
Continuous
 62
     0
370
     0
100
AcDbCircle
 10
-88.18114878197755
 20
-119.7068232382669
 30
0.0
 40
4.763630338834137
100
AcDbArc
 50
227.8543072058867
 51
46.85228652634355
1001
TOP
1070
    85
  0
ARC
  5
65BA
330
653E
100
AcDbEntity
  8
P-0000
  6
Continuous
 62
     0
370
     0
100
AcDbCircle
 10
-88.37772146816295
 20
-119.8661633216503
 30
0.0
 40
7.793069759999999
100
AcDbArc
 50
230.1466606584018
 51
45.36258570986113
1001
TOP
1070
    85
  0
ARC
  5
65BB
330
653E
100
AcDbEntity
  8
P-0000
  6
Continuous
 62
     0
370
     0
100
AcDbCircle
 10
-89.52593793590565
 20
-119.7374591014475
 30
0.0
 40
7.220700683144739
100
AcDbArc
 50
237.8184274609863
 51
321.1976420062348
1001
TOP
1070
    85
  0
ARC
  5
65BC
330
653E
100
AcDbEntity
  8
P-0000
  6
Continuous
 62
     0
370
     0
100
AcDbCircle
 10
-88.50216480330599
 20
-119.1656258049447
 30
0.0
 40
5.663278842528495
100
AcDbArc
 50
171.3036725542784
 51
228.0269063594487
1001
TOP
1070
    85
  0
LINE
  5
65BD
330
653E
100
AcDbEntity
  8
P-0000
  6
Continuous
 62
     0
370
     0
100
AcDbLine
 10
-92.28966119657778
 20
-123.3760412617837
 30
0.0
 11
-94.03728088778988
 21
-125.2235249353502
 31
0.0
1001
TOP
1070
    85
  0
LINE
  5
65BE
330
653E
100
AcDbEntity
  8
P-0000
  6
Continuous
 62
     0
370
     0
100
AcDbLine
 10
-90.71117445104736
 20
-121.9083255159412
 30
0.0
 11
-91.68042069830406
 21
-122.9606500129607
 31
0.0
1001
TOP
1070
    85
  0
ARC
  5
65BF
330
653E
100
AcDbEntity
  8
P-0000
  6
Continuous
 62
     0
370
     0
100
AcDbCircle
 10
-88.54309328048001
 20
-118.4440510223681
 30
0.0
 40
5.558875133404746
100
AcDbArc
 50
125.3768514667716
 51
178.611514748478
1001
TOP
1070
    85
  0
LINE
  5
65C0
330
653E
100
AcDbEntity
  8
P-0000
  6
Continuous
 62
     0
370
     0
100
AcDbLine
 10
-53.65438013237113
 20
-115.6426918998433
 30
0.0
 11
-52.51302380375555
 21
-115.6426918998433
 31
0.0
1001
TOP
1070
     7
  0
ARC
  5
65C1
330
653E
100
AcDbEntity
  8
P-0000
  6
Continuous
 62
     0
370
     0
100
AcDbCircle
 10
-54.83784997234598
 20
-114.9033114623533
 30
0.0
 40
2.439569664000001
100
AcDbArc
 50
354.0835439993975
 51
342.3574175336751
1001
TOP
1070
     7
  0
LINE
  5
65C2
330
653E
100
AcDbEntity
  8
P-0000
  6
Continuous
 62
     0
370
     0
100
AcDbLine
 10
-56.253151669302
 20
-115.1547779670433
 30
0.0
 11
-52.39829186638807
 21
-115.1547779670433
 31
0.0
1001
TOP
1070
     7
  0
ARC
  5
65C3
330
653E
100
AcDbEntity
  8
P-0000
  6
Continuous
 62
     0
370
     0
100
AcDbCircle
 10
-67.13328107890589
 20
-114.9033114623533
 30
0.0
 40
2.439569664000001
100
AcDbArc
 50
354.0835439993975
 51
342.3574175336751
1001
TOP
1070
     7
  0
LINE
  5
65C4
330
653E
100
AcDbEntity
  8
P-0000
  6
Continuous
 62
     0
370
     0
100
AcDbLine
 10
-77.50234959180421
 20
-117.3428811263534
 30
0.0
 11
-74.57486599500507
 21
-117.3428811263534
 31
0.0
1001
TOP
1070
     7
  0
LINE
  5
65C5
330
653E
100
AcDbEntity
  8
P-0000
  6
Continuous
 62
     0
370
     0
100
AcDbLine
 10
-74.57486599500507
 20
-110.9999999999532
 30
0.0
 11
-77.50234959180421
 21
-110.9999999999532
 31
0.0
1001
TOP
1070
     7
  0
LINE
  5
65C6
330
653E
100
AcDbEntity
  8
P-0000
  6
Continuous
 62
     0
370
     0
100
AcDbLine
 10
-82.90217148550416
 20
-114.320869039862
 30
0.0
 11
-84.48030571869711
 21
-115.9543842828061
 31
0.0
1001
TOP
1070
    85
  0
ARC
  5
65C7
330
653E
100
AcDbEntity
  8
P-0000
  6
Continuous
 62
     0
370
     0
100
AcDbCircle
 10
-89.02722975211579
 20
-120.4469356245718
 30
0.0
 40
6.391989965892938
100
AcDbArc
 50
323.352977406186
 51
44.65536847523573
1001
TOP
1070
    85
  0
LINE
  5
65C8
330
653E
100
AcDbEntity
  8
P-0000
  6
Continuous
 62
     0
370
     0
100
AcDbLine
 10
-85.89263596469553
 20
-117.283636279041
 30
0.0
 11
-84.92338971744155
 21
-116.2313117820216
 31
0.0
1001
TOP
1070
    85
  0
LINE
  5
65C9
330
653E
100
AcDbEntity
  8
P-0000
  6
Continuous
 62
     0
370
     0
100
AcDbLine
 10
-77.50234959180421
 20
-110.9999999999532
 30
0.0
 11
-77.50234959180421
 21
-117.3428811263534
 31
0.0
1001
TOP
1070
     7
  0
ARC
  5
65CA
330
653E
100
AcDbEntity
  8
P-0000
  6
Continuous
 62
     0
370
     0
100
AcDbCircle
 10
-74.81882296140435
 20
-113.6835266303536
 30
0.0
 40
1.5857202816
100
AcDbArc
 50
0.0
 51
90.0
1001
TOP
1070
     7
  0
ARC
  5
65CB
330
653E
100
AcDbEntity
  8
P-0000
  6
Continuous
 62
     0
370
     0
100
AcDbCircle
 10
-74.81882296140435
 20
-114.6593544959532
 30
0.0
 40
1.5857202816
100
AcDbArc
 50
270.0
 51
0.0
1001
TOP
1070
     7
  0
ARC
  5
65CC
330
653E
100
AcDbEntity
  8
P-0000
  6
Continuous
 62
     0
370
     0
100
AcDbCircle
 10
-74.57486599500507
 20
-114.9033114623533
 30
0.0
 40
2.439569663999999
100
AcDbArc
 50
270.0
 51
0.0
1001
TOP
1070
     7
  0
ARC
  5
65CD
330
653E
100
AcDbEntity
  8
P-0000
  6
Continuous
 62
     0
370
     0
100
AcDbCircle
 10
-74.57486599500507
 20
-113.4395696639535
 30
0.0
 40
2.439569663999999
100
AcDbArc
 50
0.0
 51
90.0
1001
TOP
1070
     7
  0
LINE
  5
65CE
330
653E
100
AcDbEntity
  8
P-0000
  6
Continuous
 62
     0
370
     0
100
AcDbLine
 10
-76.40454324300486
 20
-112.0978063487534
 30
0.0
 11
-76.40454324300486
 21
-116.2450747775533
 31
0.0
1001
TOP
1070
     7
  0
LINE
  5
65CF
330
653E
100
AcDbEntity
  8
P-0000
  6
Continuous
 62
     0
370
     0
100
AcDbLine
 10
-76.40454324300486
 20
-116.2450747775533
 30
0.0
 11
-74.81882296140435
 21
-116.2450747775533
 31
0.0
1001
TOP
1070
     7
  0
LINE
  5
65D0
330
653E
100
AcDbEntity
  8
P-0000
  6
Continuous
 62
     0
370
     0
100
AcDbLine
 10
-74.81882296140435
 20
-112.0978063487534
 30
0.0
 11
-76.40454324300486
 21
-112.0978063487534
 31
0.0
1001
TOP
1070
     7
  0
LINE
  5
65D1
330
653E
100
AcDbEntity
  8
P-0000
  6
Continuous
 62
     0
370
     0
100
AcDbLine
 10
-70.30472164210562
 20
-117.3428811263534
 30
0.0
 11
-70.30472164210562
 21
-112.4637417983535
 31
0.0
1001
TOP
1070
     7
  0
LINE
  5
65D2
330
653E
100
AcDbEntity
  8
P-0000
  6
Continuous
 62
     0
370
     0
100
AcDbLine
 10
-71.4025279909076
 20
-112.4637417983535
 30
0.0
 11
-71.4025279909076
 21
-117.3428811263534
 31
0.0
1001
TOP
1070
     7
  0
LINE
  5
65D3
330
653E
100
AcDbEntity
  8
P-0000
  6
Continuous
 62
     0
370
     0
100
AcDbLine
 10
-71.4025279909076
 20
-117.3428811263534
 30
0.0
 11
-70.30472164210562
 21
-117.3428811263534
 31
0.0
1001
TOP
1070
     7
  0
LINE
  5
65D4
330
653E
100
AcDbEntity
  8
P-0000
  6
Continuous
 62
     0
370
     0
100
AcDbLine
 10
-71.4025279909076
 20
-111.9758278655534
 30
0.0
 11
-70.30472164210562
 21
-111.9758278655534
 31
0.0
1001
TOP
1070
     7
  0
LINE
  5
65D5
330
653E
100
AcDbEntity
  8
P-0000
  6
Continuous
 62
     0
370
     0
100
AcDbLine
 10
-70.30472164210562
 20
-110.9999999999532
 30
0.0
 11
-71.4025279909076
 21
-110.9999999999532
 31
0.0
1001
TOP
1070
     7
  0
HATCH
  5
65D6
330
653E
100
AcDbEntity
  8
P-0000
  6
Continuous
 62
     0
100
AcDbHatch
 10
0.0
 20
0.0
 30
0.0
210
0.0
220
0.0
230
1.0
  2
SOLID
 70
     1
 71
     0
 91
        1
 92
        1
 93
        4
 72
     1
 10
-70.30472164210627
 20
-110.9999999999534
 11
-71.40252799090693
 21
-110.9999999999534
 72
     1
 10
-71.40252799090564
 20
-110.9999999999534
 11
-71.40252799090564
 21
-111.9758278655534
 72
     1
 10
-71.40252799090564
 20
-111.9758278655535
 11
-70.30472164210498
 21
-111.9758278655535
 72
     1
 10
-70.30472164210627
 20
-111.9758278655535
 11
-70.30472164210627
 21
-110.9999999999535
 97
        0
 75
     0
 76
     1
 98
        1
 10
-136.4839087803873
 20
-204.8924935638848
1001
TOP
1070
     3
  0
LINE
  5
65D7
330
653E
100
AcDbEntity
  8
P-0000
  6
Continuous
 62
     0
370
     0
100
AcDbLine
 10
-70.30472164210562
 20
-112.4637417983535
 30
0.0
 11
-71.4025279909076
 21
-112.4637417983535
 31
0.0
1001
TOP
1070
     7
  0
LINE
  5
65D8
330
653E
100
AcDbEntity
  8
P-0000
  6
Continuous
 62
     0
370
     0
100
AcDbLine
 10
-73.23310267980318
 20
-114.6593544959532
 30
0.0
 11
-73.23310267980318
 21
-113.6835266303536
 31
0.0
1001
TOP
1070
     7
  0
LINE
  5
65D9
330
653E
100
AcDbEntity
  8
P-0000
  6
Continuous
 62
     0
370
     0
100
AcDbLine
 10
-72.13529633100447
 20
-114.9033114623533
 30
0.0
 11
-72.13529633100447
 21
-113.4395696639535
 31
0.0
1001
TOP
1070
     7
  0
LINE
  5
65DA
330
653E
100
AcDbEntity
  8
P-0000
  6
Continuous
 62
     0
370
     0
100
AcDbLine
 10
-71.4025279909076
 20
-110.9999999999532
 30
0.0
 11
-71.4025279909076
 21
-111.9758278655534
 31
0.0
1001
TOP
1070
     7
  0
LINE
  5
65DB
330
653E
100
AcDbEntity
  8
P-0000
  6
Continuous
 62
     0
370
     0
100
AcDbLine
 10
-70.30472164210562
 20
-111.9758278655534
 30
0.0
 11
-70.30472164210562
 21
-110.9999999999532
 31
0.0
1001
TOP
1070
     7
  0
LINE
  5
65DC
330
653E
100
AcDbEntity
  8
P-0000
  6
Continuous
 62
     0
370
     0
100
AcDbLine
 10
-61.67972155649409
 20
-112.4637417983535
 30
0.0
 11
-61.22362894667041
 21
-112.4637417983535
 31
0.0
1001
TOP
1070
     7
  0
ARC
  5
65DD
330
653E
100
AcDbEntity
  8
P-0000
  6
Continuous
 62
     0
370
     0
100
AcDbCircle
 10
-61.22455238416592
 20
-115.7450893416161
 30
0.0
 40
2.30551986259622
100
AcDbArc
 50
89.97705113130741
 51
144.7782320142388
1001
TOP
1070
     7
  0
LINE
  5
65DE
330
653E
100
AcDbEntity
  8
P-0000
  6
Continuous
 62
     0
370
     0
100
AcDbLine
 10
-65.94981123893105
 20
-115.6426918998433
 30
0.0
 11
-64.80845491031482
 21
-115.6426918998433
 31
0.0
1001
TOP
1070
     7
  0
LINE
  5
65DF
330
653E
100
AcDbEntity
  8
P-0000
  6
Continuous
 62
     0
370
     0
100
AcDbLine
 10
-68.54858277585996
 20
-115.1547779670433
 30
0.0
 11
-64.69372297294865
 21
-115.1547779670433
 31
0.0
1001
TOP
1070
     7
  0
ARC
  5
65E0
330
653E
100
AcDbEntity
  8
P-0000
  6
Continuous
 62
     0
370
     0
100
AcDbCircle
 10
-67.13328107890589
 20
-114.7813329791535
 30
0.0
 40
1.463741798400002
100
AcDbArc
 50
194.7813103722914
 51
323.9519363800095
1001
TOP
1070
     7
  0
ARC
  5
65E1
330
653E
100
AcDbEntity
  8
P-0000
  6
Continuous
 62
     0
370
     0
100
AcDbCircle
 10
-67.13315394981435
 20
-114.7246775057507
 30
0.0
 40
1.309503544180366
100
AcDbArc
 50
23.46032899247153
 51
156.5396710075285
1001
TOP
1070
     7
  0
LINE
  5
65E2
330
653E
100
AcDbEntity
  8
P-0000
  6
Continuous
 62
     0
370
     0
100
AcDbLine
 10
-68.33440862006644
 20
-114.2033457980831
 30
0.0
 11
-65.93189927956226
 21
-114.2033457980831
 31
0.0
1001
TOP
1070
     7
  0
LINE
  5
65E3
330
653E
100
AcDbEntity
  8
P-0000
  6
Continuous
 62
     0
370
     0
100
AcDbLine
 10
-63.1079911333061
 20
-117.3428811263534
 30
0.0
 11
-63.1079911333061
 21
-114.4153975295534
 31
0.0
1001
TOP
1070
     7
  0
LINE
  5
65E4
330
653E
100
AcDbEntity
  8
P-0000
  6
Continuous
 62
     0
370
     0
100
AcDbLine
 10
-64.2057974821061
 20
-112.4637417983535
 30
0.0
 11
-64.2057974821061
 21
-117.3428811263534
 31
0.0
1001
TOP
1070
     7
  0
LINE
  5
65E5
330
653E
100
AcDbEntity
  8
P-0000
  6
Continuous
 62
     0
370
     0
100
AcDbLine
 10
-64.2057974821061
 20
-117.3428811263534
 30
0.0
 11
-63.1079911333061
 21
-117.3428811263534
 31
0.0
1001
TOP
1070
     7
  0
LINE
  5
65E6
330
653E
100
AcDbEntity
  8
P-0000
  6
Continuous
 62
     0
370
     0
100
AcDbLine
 10
-63.1079911333061
 20
-112.4637417983535
 30
0.0
 11
-64.2057974821061
 21
-112.4637417983535
 31
0.0
1001
TOP
1070
     7
  0
ARC
  5
65E7
330
653E
100
AcDbEntity
  8
P-0000
  6
Continuous
 62
     0
370
     0
100
AcDbCircle
 10
-61.5678898700862
 20
-114.1605808182826
 30
0.0
 40
1.700520210299701
100
AcDbArc
 50
93.77067625261986
 51
154.9129671807329
1001
TOP
1070
     7
  0
LINE
  5
65E8
330
653E
100
AcDbEntity
  8
P-0000
  6
Continuous
 62
     0
370
     0
100
AcDbLine
 10
-63.1079911333061
 20
-113.4395696639535
 30
0.0
 11
-63.1079911333061
 21
-112.4637417983535
 31
0.0
1001
TOP
1070
     7
  0
LINE
  5
65E9
330
653E
100
AcDbEntity
  8
P-0000
  6
Continuous
 62
     0
370
     0
100
AcDbLine
 10
-63.1079911333061
 20
-112.4637417983535
 30
0.0
 11
-63.1079911333061
 21
-113.4395696639535
 31
0.0
1001
TOP
1070
     7
  0
LINE
  5
65EA
330
653E
100
AcDbEntity
  8
P-0000
  6
Continuous
 62
     0
370
     0
100
AcDbLine
 10
-59.39496610469735
 20
-117.3428811263534
 30
0.0
 11
-59.39496610469735
 21
-114.4153975295534
 31
0.0
1001
TOP
1070
     7
  0
LINE
  5
65EB
330
653E
100
AcDbEntity
  8
P-0000
  6
Continuous
 62
     0
370
     0
100
AcDbLine
 10
-60.49277245349801
 20
-112.4637417983535
 30
0.0
 11
-60.49277245349801
 21
-117.3428811263534
 31
0.0
1001
TOP
1070
     7
  0
LINE
  5
65EC
330
653E
100
AcDbEntity
  8
P-0000
  6
Continuous
 62
     0
370
     0
100
AcDbLine
 10
-60.49277245349801
 20
-117.3428811263534
 30
0.0
 11
-59.39496610469735
 21
-117.3428811263534
 31
0.0
1001
TOP
1070
     7
  0
ARC
  5
65ED
330
653E
100
AcDbEntity
  8
P-0000
  6
Continuous
 62
     0
370
     0
100
AcDbCircle
 10
-57.8548648414781
 20
-114.1605808182826
 30
0.0
 40
1.700520210299701
100
AcDbArc
 50
93.77067625261986
 51
154.9129671807329
1001
TOP
1070
     7
  0
ARC
  5
65EE
330
653E
100
AcDbEntity
  8
P-0000
  6
Continuous
 62
     0
370
     0
100
AcDbCircle
 10
-57.51152735555913
 20
-115.7450893416161
 30
0.0
 40
2.30551986259622
100
AcDbArc
 50
89.97705113130741
 51
144.7782320142388
1001
TOP
1070
     7
  0
LINE
  5
65EF
330
653E
100
AcDbEntity
  8
P-0000
  6
Continuous
 62
     0
370
     0
100
AcDbLine
 10
-59.39496610469735
 20
-113.4395696639535
 30
0.0
 11
-59.39496610469735
 21
-112.4637417983535
 31
0.0
1001
TOP
1070
     7
  0
LINE
  5
65F0
330
653E
100
AcDbEntity
  8
P-0000
  6
Continuous
 62
     0
370
     0
100
AcDbLine
 10
-61.22362894667041
 20
-113.4395696639535
 30
0.0
 11
-61.22362894667041
 21
-112.4637417983535
 31
0.0
1001
TOP
1070
     7
  0
LINE
  5
65F1
330
653E
100
AcDbEntity
  8
P-0000
  6
Continuous
 62
     0
370
     0
100
AcDbLine
 10
-59.39496610469735
 20
-112.4637417983535
 30
0.0
 11
-59.39496610469735
 21
-113.4395696639535
 31
0.0
1001
TOP
1070
     7
  0
LINE
  5
65F2
330
653E
100
AcDbEntity
  8
P-0000
  6
Continuous
 62
     0
370
     0
100
AcDbLine
 10
-59.39496610469735
 20
-112.4637417983535
 30
0.0
 11
-60.49277245349801
 21
-112.4637417983535
 31
0.0
1001
TOP
1070
     7
  0
LINE
  5
65F3
330
653E
100
AcDbEntity
  8
P-0000
  6
Continuous
 62
     0
370
     0
100
AcDbLine
 10
-57.5106039180623
 20
-113.4395696639535
 30
0.0
 11
-57.5106039180623
 21
-112.4637417983535
 31
0.0
1001
TOP
1070
     7
  0
LINE
  5
65F4
330
653E
100
AcDbEntity
  8
P-0000
  6
Continuous
 62
     0
370
     0
100
AcDbLine
 10
-57.96669652788599
 20
-112.4637417983535
 30
0.0
 11
-57.5106039180623
 21
-112.4637417983535
 31
0.0
1001
TOP
1070
     7
  0
ARC
  5
65F5
330
653E
100
AcDbEntity
  8
P-0000
  6
Continuous
 62
     0
370
     0
100
AcDbCircle
 10
-54.83784997234598
 20
-114.7813329791535
 30
0.0
 40
1.463741798400002
100
AcDbArc
 50
194.7813103722914
 51
323.9519363800095
1001
TOP
1070
     7
  0
ARC
  5
65F6
330
653E
100
AcDbEntity
  8
P-0000
  6
Continuous
 62
     0
370
     0
100
AcDbCircle
 10
-54.83772284325443
 20
-114.7246775057507
 30
0.0
 40
1.309503544180366
100
AcDbArc
 50
23.46032899247153
 51
156.5396710075285
1001
TOP
1070
     7
  0
LINE
  5
65F7
330
653E
100
AcDbEntity
  8
P-0000
  6
Continuous
 62
     0
370
     0
100
AcDbLine
 10
-56.03897751350586
 20
-114.2033457980831
 30
0.0
 11
-53.63646817300168
 21
-114.2033457980831
 31
0.0
1001
TOP
1070
     7
  0
HATCH
  5
65F8
330
653E
100
AcDbEntity
  8
P-0000
  6
Continuous
 62
     0
 48
35.0
100
AcDbHatch
 10
0.0
 20
0.0
 30
0.0
210
0.0
220
0.0
230
1.0
  2
SOLID
 70
     1
 71
     0
 91
        4
 92
        7
 72
     1
 73
     1
 93
        5
 10
-94.03728088778988
 20
-125.2235249353502
 42
0.0
 10
-92.28966119657778
 20
-123.3760412617837
 42
-0.2526825286644691
 10
-94.10033621549056
 20
-118.3093524326913
 42
-0.2365496875282557
 10
-91.7614140375581
 20
-113.911556758355
 42
-0.3189181398811662
 10
-83.35033676430748
 20
-113.9115567583528
 42
0.9456749006874259
 97
        0
 92
       23
 72
     1
 73
     1
 93
        3
 10
-91.68042069830406
 20
-122.9606500129607
 42
0.0
 10
-90.71117445104736
 20
-121.9083255159412
 42
-0.9367032511192487
 10
-85.2261793413445
 20
-115.9531879682591
 42
0.991293729556146
 97
        0
 92
       23
 72
     1
 73
     1
 93
        3
 10
-91.37763107440111
 20
-123.2387738267226
 42
0.9912937295513184
 10
-84.92338971744155
 20
-116.2313117820216
 42
0.0
 10
-85.89263596469553
 20
-117.283636279041
 42
-0.9367032511219315
 97
        0
 92
        7
 72
     1
 73
     1
 93
        4
 10
-83.89875797035076
 20
-124.2622092592821
 42
-0.3807594385329842
 10
-93.37171269560638
 20
-125.8488038677993
 42
0.9590989174885454
 10
-82.90217148550416
 20
-114.320869039862
 42
0.0
 10
-84.48030571869711
 20
-115.9543842828061
 42
-0.3704192144445529
 97
        0
 75
     0
 76
     1
 47
0.0537802133905057
 98
        4
 10
-95.28899908413293
 20
-117.9121948253558
 10
-92.51811574438377
 20
-119.1148667670212
 10
-84.53359595731015
 20
-120.3175387086872
 10
-82.20022029262763
 20
-118.4953086011877
1001
TOP
1070
     3
  0
HATCH
  5
65F9
330
653E
100
AcDbEntity
  8
P-0000
  6
Continuous
 62
     0
 48
35.0
100
AcDbHatch
 10
0.0
 20
0.0
 30
0.0
210
0.0
220
0.0
230
1.0
  2
SOLID
 70
     1
 71
     0
 91
        9
 92
        7
 72
     1
 73
     1
 93
        6
 10
-74.57486599500573
 20
-110.9999999999531
 42
0.0
 10
-77.50234959180421
 20
-110.9999999999531
 42
0.0
 10
-77.50234959180485
 20
-117.3428811263533
 42
0.0
 10
-74.57486599500573
 20
-117.3428811263533
 42
0.4142135623732426
 10
-72.13529633100447
 20
-114.9033114623533
 42
0.0
 10
-72.13529633100447
 20
-113.4395696639534
 42
0.4142135623732917
 97
        0
 92
       22
 72
     1
 73
     1
 93
        6
 10
-76.40454324300486
 20
-112.0978063487534
 42
0.0
 10
-74.81882296140435
 20
-112.0978063487534
 42
-0.4142135623733217
 10
-73.23310267980318
 20
-113.6835266303533
 42
0.0
 10
-73.23310267980318
 20
-114.6593544959533
 42
-0.4142135623732008
 10
-74.81882296140369
 20
-116.2450747775532
 42
0.0
 10
-76.40454324300486
 20
-116.2450747775532
 42
0.0
 97
        0
 92
        7
 72
     0
 73
     1
 93
        4
 10
-71.40252799090825
 20
-117.3428811263533
 10
-70.30472164210562
 20
-117.3428811263534
 10
-70.30472164210562
 20
-112.4637417983535
 10
-71.4025279909076
 20
-112.4637417983534
 97
        0
 92
        7
 72
     1
 73
     1
 93
        4
 10
-68.5485827758606
 20
-115.1547779670432
 42
0.0
 10
-64.70670638553077
 20
-115.1547779670432
 42
19.52759892169242
 10
-64.80845491031548
 20
-115.6426918998433
 42
0.0
 10
-65.94981123892972
 20
-115.6426918998433
 42
-0.6319943824460191
 97
        0
 92
       22
 72
     1
 73
     1
 93
        2
 10
-68.33440862006513
 20
-114.2033457980811
 42
-0.6561238478654379
 10
-65.93189927956356
 20
-114.2033457980831
 42
0.0
 97
        0
 92
        7
 72
     1
 73
     1
 93
        9
 10
-63.1079911333061
 20
-114.4153975295551
 42
-0.2437791817823871
 10
-61.22362894667041
 20
-113.4395696639536
 42
0.0
 10
-61.22362894667041
 20
-112.4637417983535
 42
0.0
 10
-61.6797215564895
 20
-112.4637417983534
 42
0.2732984134248683
 10
-63.1079911333061
 20
-113.4395696639525
 42
0.0
 10
-63.1079911333061
 20
-112.4637417983534
 42
0.0
 10
-64.20579748210546
 20
-112.4637417983534
 42
0.0
 10
-64.2057974821061
 20
-117.3428811263532
 42
0.0
 10
-63.10799113330676
 20
-117.3428811263532
 42
0.0
 97
        0
 92
        7
 72
     1
 73
     1
 93
        9
 10
-60.49277245349736
 20
-117.3428811263533
 42
0.0
 10
-59.3949661046967
 20
-117.3428811263534
 42
0.0
 10
-59.39496610469735
 20
-114.4153975295523
 42
-0.2437791817821463
 10
-57.5106039180623
 20
-113.4395696639536
 42
0.0
 10
-57.5106039180623
 20
-112.4637417983535
 42
0.0
 10
-57.9666965278814
 20
-112.4637417983534
 42
0.2732984134246251
 10
-59.39496610469735
 20
-113.4395696639511
 42
0.0
 10
-59.39496610469735
 20
-112.4637417983534
 42
0.0
 10
-60.49277245349801
 20
-112.4637417983535
 42
0.0
 97
        0
 92
        7
 72
     1
 73
     1
 93
        4
 10
-52.41127527897084
 20
-115.1547779670432
 42
19.52759892169242
 10
-52.51302380375555
 20
-115.6426918998433
 42
0.0
 10
-53.65438013237048
 20
-115.6426918998433
 42
-0.631994382445661
 10
-56.25315166930069
 20
-115.1547779670432
 42
0.0
 97
        0
 92
       22
 72
     1
 73
     1
 93
        2
 10
-56.03897751350586
 20
-114.2033457980832
 42
-0.6561238478663365
 10
-53.63646817300299
 20
-114.2033457980831
 42
0.0
 97
        0
 75
     0
 76
     1
 47
0.1054092179442032
 98
        9
 10
-77.30509361450609
 20
-111.652214293695
 10
-77.30509361450609
 20
-111.652214293695
 10
-70.92517770860029
 20
-114.0180230722183
 10
-68.97004263540313
 20
-114.9952049659171
 10
-68.97004263540313
 20
-114.9952049659171
 10
-63.41334181494616
 20
-115.2523580455926
 10
-60.12048197631124
 20
-115.1494968773671
 10
-55.90150541812637
 20
-114.429468063343
 10
-55.90150541812637
 20
-114.429468063343
1001
TOP
1070
     5
  0
MTEXT
  5
65FA
330
653E
100
AcDbEntity
  8
P-0000
  6
Continuous
 62
     0
100
AcDbMText
 10
-77.50752909622914
 20
-125.390962447158
 30
0.0
 40
1.5
 41
15.89275572328779
 71
     1
 72
     5
  1
{\f@Arial Unicode MS|b0|i0|c0|p34;\H2x;Group\H0.5x; srl}
  7
ROMANS
 73
     1
 44
1.0
1001
TOP
1070
     7
1001
ACAD
1000
MTEXTBEGIN
1070
    73
1070
     1
1070
    44
1040
1.0
1070
    74
1070
     0
1000
MTEXTEND
  0
LINE
  5
65FB
330
653E
100
AcDbEntity
  8
P-0000
  6
Continuous
 62
     0
100
AcDbLine
 10
-60.31400746853627
 20
-118.6190131723036
 30
0.0
 11
-65.10163245619105
 21
-118.6190131723036
 31
0.0
1001
TOP
1070
     7
  0
LINE
  5
65FC
330
653E
100
AcDbEntity
  8
P-0000
  6
Continuous
 62
     0
100
AcDbLine
 10
-65.10163245619105
 20
-118.6190131723036
 30
0.0
 11
-60.31400746853627
 21
-118.6190131723036
 31
0.0
1001
TOP
1070
     7
  0
LINE
  5
65FD
330
653E
100
AcDbEntity
  8
P-0000
  6
Continuous
 62
     0
100
AcDbLine
 10
-60.60899754084211
 20
-122.4817401737899
 30
0.0
 11
-59.78513540320495
 21
-121.2719230596353
 31
0.0
1001
TOP
1070
     7
  0
LINE
  5
65FE
330
653E
100
AcDbEntity
  8
P-0000
  6
Continuous
 62
     0
100
AcDbLine
 10
-60.60899754084211
 20
-122.4817401737899
 30
0.0
 11
-59.78513540320495
 21
-121.2719230596353
 31
0.0
1001
TOP
1070
     7
  0
LINE
  5
65FF
330
653E
100
AcDbEntity
  8
P-0000
  6
Continuous
 62
     0
100
AcDbLine
 10
-60.60899754084211
 20
-122.4817401737899
 30
0.0
 11
-58.9612732655678
 21
-122.4817401737899
 31
0.0
1001
TOP
1070
     7
  0
LINE
  5
6600
330
653E
100
AcDbEntity
  8
P-0000
  6
Continuous
 62
     0
100
AcDbLine
 10
-58.9612732655678
 20
-122.4817401737899
 30
0.0
 11
-60.60899754084211
 21
-122.4817401737899
 31
0.0
1001
TOP
1070
     7
  0
LINE
  5
6601
330
653E
100
AcDbEntity
  8
P-0000
  6
Continuous
 62
     0
100
AcDbLine
 10
-63.4872398605242
 20
-124.055443766988
 30
0.0
 11
-56.08303094588571
 21
-124.055443766988
 31
0.0
1001
TOP
1070
     7
  0
LINE
  5
6602
330
653E
100
AcDbEntity
  8
P-0000
  6
Continuous
 62
     0
100
AcDbLine
 10
-63.4872398605242
 20
-124.055443766988
 30
0.0
 11
-56.08303094588571
 21
-124.055443766988
 31
0.0
1001
TOP
1070
     7
  0
LINE
  5
6603
330
653E
100
AcDbEntity
  8
P-0000
  6
Continuous
 62
     0
100
AcDbLine
 10
-61.88263947056615
 20
-120.9225027431548
 30
0.0
 11
-60.31400746853627
 21
-118.6190131723036
 31
0.0
1001
TOP
1070
     7
  0
LINE
  5
6604
330
653E
100
AcDbEntity
  8
P-0000
  6
Continuous
 62
     0
100
AcDbLine
 10
-61.88263947056615
 20
-120.9225027431548
 30
0.0
 11
-60.31400746853627
 21
-118.6190131723036
 31
0.0
1001
TOP
1070
     7
  0
LINE
  5
6605
330
653E
100
AcDbEntity
  8
P-0000
  6
Continuous
 62
     0
100
AcDbLine
 10
-63.4872398605242
 20
-124.055443766988
 30
0.0
 11
-59.78513540320495
 21
-118.6190131723036
 31
0.0
1001
TOP
1070
     7
  0
LINE
  5
6606
330
653E
100
AcDbEntity
  8
P-0000
  6
Continuous
 62
     0
100
AcDbLine
 10
-59.78513540320495
 20
-118.6190131723036
 30
0.0
 11
-63.4872398605242
 21
-124.055443766988
 31
0.0
1001
TOP
1070
     7
  0
LINE
  5
6607
330
653E
100
AcDbEntity
  8
P-0000
  6
Continuous
 62
     0
100
AcDbLine
 10
-72.47806497115667
 20
-118.6190131723036
 30
0.0
 11
-68.77596051383742
 21
-118.6190131723036
 31
0.0
1001
TOP
1070
     7
  0
LINE
  5
6608
330
653E
100
AcDbEntity
  8
P-0000
  6
Continuous
 62
     0
100
AcDbLine
 10
-72.47806497115667
 20
-118.6190131723036
 30
0.0
 11
-68.77596051383742
 21
-118.6190131723036
 31
0.0
1001
TOP
1070
     7
  0
LINE
  5
6609
330
653E
100
AcDbEntity
  8
P-0000
  6
Continuous
 62
     0
100
AcDbLine
 10
-71.94919290582532
 20
-124.055443766988
 30
0.0
 11
-68.24708844850608
 21
-118.6190131723036
 31
0.0
1001
TOP
1070
     7
  0
LINE
  5
660A
330
653E
100
AcDbEntity
  8
P-0000
  6
Continuous
 62
     0
100
AcDbLine
 10
-72.47806497115667
 20
-124.055443766988
 30
0.0
 11
-68.77596051383742
 21
-118.6190131723036
 31
0.0
1001
TOP
1070
     7
  0
LINE
  5
660B
330
653E
100
AcDbEntity
  8
P-0000
  6
Continuous
 62
     0
100
AcDbLine
 10
-71.94919290582532
 20
-124.055443766988
 30
0.0
 11
-68.24708844850608
 21
-118.6190131723036
 31
0.0
1001
TOP
1070
     7
  0
LINE
  5
660C
330
653E
100
AcDbEntity
  8
P-0000
  6
Continuous
 62
     0
100
AcDbLine
 10
-68.77596051383742
 20
-118.6190131723036
 30
0.0
 11
-72.47806497115667
 21
-124.055443766988
 31
0.0
1001
TOP
1070
     7
  0
LINE
  5
660D
330
653E
100
AcDbEntity
  8
P-0000
  6
Continuous
 62
     0
100
AcDbLine
 10
-71.94919290582532
 20
-124.055443766988
 30
0.0
 11
-64.54498399118683
 21
-124.055443766988
 31
0.0
1001
TOP
1070
     7
  0
LINE
  5
660E
330
653E
100
AcDbEntity
  8
P-0000
  6
Continuous
 62
     0
100
AcDbLine
 10
-64.54498399118683
 20
-124.055443766988
 30
0.0
 11
-71.94919290582532
 21
-124.055443766988
 31
0.0
1001
TOP
1070
     7
  0
LINE
  5
660F
330
653E
100
AcDbEntity
  8
P-0000
  6
Continuous
 62
     0
100
AcDbLine
 10
-77.50234959180421
 20
-118.6190131723036
 30
0.0
 11
-75.2546433141461
 21
-118.6190131723036
 31
0.0
1001
TOP
1070
     7
  0
LINE
  5
6610
330
653E
100
AcDbEntity
  8
P-0000
  6
Continuous
 62
     0
100
AcDbLine
 10
-77.50234959180421
 20
-124.055443766988
 30
0.0
 11
-75.2546433141461
 21
-124.055443766988
 31
0.0
1001
TOP
1070
     7
  0
LINE
  5
6611
330
653E
100
AcDbEntity
  8
P-0000
  6
Continuous
 62
     0
100
AcDbLine
 10
-75.2546433141461
 20
-124.055443766988
 30
0.0
 11
-77.50234959180421
 21
-124.055443766988
 31
0.0
1001
TOP
1070
     7
  0
LINE
  5
6612
330
653E
100
AcDbEntity
  8
P-0000
  6
Continuous
 62
     0
100
AcDbLine
 10
-77.50234959180421
 20
-118.6190131723036
 30
0.0
 11
-75.2546433141461
 21
-118.6190131723036
 31
0.0
1001
TOP
1070
     7
  0
LINE
  5
6613
330
653E
100
AcDbEntity
  8
P-0000
  6
Continuous
 62
     0
100
AcDbLine
 10
-77.50234959180421
 20
-124.055443766988
 30
0.0
 11
-77.50234959180421
 21
-118.6190131723036
 31
0.0
1001
TOP
1070
     7
  0
LINE
  5
6614
330
653E
100
AcDbEntity
  8
P-0000
  6
Continuous
 62
     0
100
AcDbLine
 10
-77.50234959180421
 20
-124.055443766988
 30
0.0
 11
-77.50234959180421
 21
-118.6190131723036
 31
0.0
1001
TOP
1070
     7
  0
LINE
  5
6615
330
653E
100
AcDbEntity
  8
P-0000
  6
Continuous
 62
     0
100
AcDbLine
 10
-72.47806497115667
 20
-121.7664203586998
 30
0.0
 11
-73.8663541426514
 21
-124.055443766988
 31
0.0
1001
TOP
1070
     7
  0
LINE
  5
6616
330
653E
100
AcDbEntity
  8
P-0000
  6
Continuous
 62
     0
100
AcDbLine
 10
-72.47806497115667
 20
-121.7664203586998
 30
0.0
 11
-72.47806497115667
 21
-124.055443766988
 31
0.0
1001
TOP
1070
     7
  0
LINE
  5
6617
330
653E
100
AcDbEntity
  8
P-0000
  6
Continuous
 62
     0
100
AcDbLine
 10
-72.47806497115667
 20
-121.7664203586998
 30
0.0
 11
-73.8663541426514
 21
-124.055443766988
 31
0.0
1001
TOP
1070
     7
  0
LINE
  5
6618
330
653E
100
AcDbEntity
  8
P-0000
  6
Continuous
 62
     0
100
AcDbLine
 10
-72.47806497115667
 20
-124.055443766988
 30
0.0
 11
-72.47806497115667
 21
-121.7664203586998
 31
0.0
1001
TOP
1070
     7
  0
LINE
  5
6619
330
653E
100
AcDbEntity
  8
P-0000
  6
Continuous
 62
     0
100
AcDbLine
 10
-75.2546433141461
 20
-124.055443766988
 30
0.0
 11
-75.2546433141461
 21
-121.7664203586998
 31
0.0
1001
TOP
1070
     7
  0
LINE
  5
661A
330
653E
100
AcDbEntity
  8
P-0000
  6
Continuous
 62
     0
100
AcDbLine
 10
-75.2546433141461
 20
-121.7664203586998
 30
0.0
 11
-75.2546433141461
 21
-124.055443766988
 31
0.0
1001
TOP
1070
     7
  0
LINE
  5
661B
330
653E
100
AcDbEntity
  8
P-0000
  6
Continuous
 62
     0
100
AcDbLine
 10
-75.2546433141461
 20
-121.7664203586998
 30
0.0
 11
-73.8663541426514
 21
-124.055443766988
 31
0.0
1001
TOP
1070
     7
  0
LINE
  5
661C
330
653E
100
AcDbEntity
  8
P-0000
  6
Continuous
 62
     0
100
AcDbLine
 10
-73.8663541426514
 20
-124.055443766988
 30
0.0
 11
-75.2546433141461
 21
-121.7664203586998
 31
0.0
1001
TOP
1070
     7
  0
LINE
  5
661D
330
653E
100
AcDbEntity
  8
P-0000
  6
Continuous
 62
     0
100
AcDbLine
 10
-72.47806497115667
 20
-118.6190131723036
 30
0.0
 11
-73.8663541426514
 21
-120.9080365805917
 31
0.0
1001
TOP
1070
     7
  0
LINE
  5
661E
330
653E
100
AcDbEntity
  8
P-0000
  6
Continuous
 62
     0
100
AcDbLine
 10
-73.8663541426514
 20
-120.9080365805917
 30
0.0
 11
-72.47806497115667
 21
-118.6190131723036
 31
0.0
1001
TOP
1070
     7
  0
LINE
  5
661F
330
653E
100
AcDbEntity
  8
P-0000
  6
Continuous
 62
     0
100
AcDbLine
 10
-75.2546433141461
 20
-118.6190131723036
 30
0.0
 11
-73.8663541426514
 21
-120.9080365805917
 31
0.0
1001
TOP
1070
     7
  0
LINE
  5
6620
330
653E
100
AcDbEntity
  8
P-0000
  6
Continuous
 62
     0
100
AcDbLine
 10
-75.2546433141461
 20
-118.6190131723036
 30
0.0
 11
-73.8663541426514
 21
-120.9080365805917
 31
0.0
1001
TOP
1070
     7
  0
ELLIPSE
  5
6621
330
653E
100
AcDbEntity
  8
P-0000
  6
Continuous
 62
     0
100
AcDbEllipse
 10
-65.10163245619105
 20
-120.0496528024836
 30
0.0
 11
-0.0000000000000277
 21
1.430639630180138
 31
0.0
210
0.0
220
0.0
230
-1.0
 40
0.9241881291669729
 41
4.077362244994374
 42
6.283185307179586
1001
TOP
1070
     7
  0
LINE
  5
6622
330
653E
100
AcDbEntity
  8
P-0000
  6
Continuous
 62
     0
100
AcDbLine
 10
-64.54498399118683
 20
-124.055443766988
 30
0.0
 11
-68.24708844850608
 21
-118.6190131723036
 31
0.0
1001
TOP
1070
     7
  0
LINE
  5
6623
330
653E
100
AcDbEntity
  8
P-0000
  6
Continuous
 62
     0
100
AcDbLine
 10
-68.24708844850608
 20
-118.6190131723036
 30
0.0
 11
-64.54498399118683
 21
-124.055443766988
 31
0.0
1001
TOP
1070
     7
  0
ELLIPSE
  5
6624
330
653E
100
AcDbEntity
  8
P-0000
  6
Continuous
 62
     0
100
AcDbEllipse
 10
-65.10163245619105
 20
-120.0496528024836
 30
0.0
 11
0.0000000000000073
 21
1.430639630180138
 31
0.0
210
0.0
220
0.0
230
1.0
 40
0.9241881291669608
 41
0.0000000000000056
 42
2.205823062185215
1001
TOP
1070
     7
  0
LINE
  5
6625
330
653E
100
AcDbEntity
  8
P-0000
  6
Continuous
 62
     0
100
AcDbLine
 10
-64.01611192585551
 20
-124.055443766988
 30
0.0
 11
-66.16606131471133
 21
-120.8983068549025
 31
0.0
1001
TOP
1070
     7
  0
LINE
  5
6626
330
653E
100
AcDbEntity
  8
P-0000
  6
Continuous
 62
     0
100
AcDbLine
 10
-66.16606131471133
 20
-120.8983068549025
 30
0.0
 11
-64.01611192585551
 21
-124.055443766988
 31
0.0
1001
TOP
1070
     7
  0
LINE
  5
6627
330
653E
100
AcDbEntity
  8
P-0000
  6
Continuous
 62
     0
100
AcDbLine
 10
-67.42322631086892
 20
-122.4817401737899
 30
0.0
 11
-68.24708844850608
 21
-121.2719230596353
 31
0.0
1001
TOP
1070
     7
  0
LINE
  5
6628
330
653E
100
AcDbEntity
  8
P-0000
  6
Continuous
 62
     0
100
AcDbLine
 10
-68.24708844850608
 20
-121.2719230596353
 30
0.0
 11
-67.42322631086892
 21
-122.4817401737899
 31
0.0
1001
TOP
1070
     7
  0
LINE
  5
6629
330
653E
100
AcDbEntity
  8
P-0000
  6
Continuous
 62
     0
100
AcDbLine
 10
-69.07095058614323
 20
-122.4817401737899
 30
0.0
 11
-68.24708844850608
 21
-121.2719230596353
 31
0.0
1001
TOP
1070
     7
  0
LINE
  5
662A
330
653E
100
AcDbEntity
  8
P-0000
  6
Continuous
 62
     0
100
AcDbLine
 10
-69.07095058614323
 20
-122.4817401737899
 30
0.0
 11
-68.24708844850608
 21
-121.2719230596353
 31
0.0
1001
TOP
1070
     7
  0
LINE
  5
662B
330
653E
100
AcDbEntity
  8
P-0000
  6
Continuous
 62
     0
100
AcDbLine
 10
-69.07095058614323
 20
-122.4817401737899
 30
0.0
 11
-67.42322631086892
 21
-122.4817401737899
 31
0.0
1001
TOP
1070
     7
  0
LINE
  5
662C
330
653E
100
AcDbEntity
  8
P-0000
  6
Continuous
 62
     0
100
AcDbLine
 10
-67.42322631086892
 20
-122.4817401737899
 30
0.0
 11
-69.07095058614323
 21
-122.4817401737899
 31
0.0
1001
TOP
1070
     7
  0
LINE
  5
662D
330
653E
100
AcDbEntity
  8
P-0000
  6
Continuous
 62
     0
100
AcDbLine
 10
-64.01611192585551
 20
-124.055443766988
 30
0.0
 11
-62.44747992382563
 21
-121.7519541961368
 31
0.0
1001
TOP
1070
     7
  0
LINE
  5
662E
330
653E
100
AcDbEntity
  8
P-0000
  6
Continuous
 62
     0
100
AcDbLine
 10
-64.01611192585551
 20
-124.055443766988
 30
0.0
 11
-62.44747992382563
 21
-121.7519541961368
 31
0.0
1001
TOP
1070
     7
  0
LINE
  5
662F
330
653E
100
AcDbEntity
  8
P-0000
  6
Continuous
 62
     0
100
AcDbLine
 10
-62.44747992382563
 20
-121.7519541961368
 30
0.0
 11
-63.46925566656012
 21
-121.7519541961368
 31
0.0
1001
TOP
1070
     7
  0
LINE
  5
6630
330
653E
100
AcDbEntity
  8
P-0000
  6
Continuous
 62
     0
100
AcDbLine
 10
-63.46925566656012
 20
-120.9225027431548
 30
0.0
 11
-61.88263947056615
 21
-120.9225027431548
 31
0.0
1001
TOP
1070
     7
  0
LINE
  5
6631
330
653E
100
AcDbEntity
  8
P-0000
  6
Continuous
 62
     0
100
AcDbLine
 10
-62.44747992382563
 20
-121.7519541961368
 30
0.0
 11
-63.46925566656012
 21
-121.7519541961368
 31
0.0
1001
TOP
1070
     7
  0
LINE
  5
6632
330
653E
100
AcDbEntity
  8
P-0000
  6
Continuous
 62
     0
100
AcDbLine
 10
-61.88263947056615
 20
-120.9225027431548
 30
0.0
 11
-63.46925566656012
 21
-120.9225027431548
 31
0.0
1001
TOP
1070
     7
  0
ELLIPSE
  5
6633
330
653E
100
AcDbEntity
  8
P-0000
  6
Continuous
 62
     0
100
AcDbEllipse
 10
-63.46925566656012
 20
-121.3372284696458
 30
0.0
 11
0.0000000000000016
 21
0.4147257264910956
 31
0.0
210
0.0
220
0.0
230
-1.0
 40
0.9241881291669779
 41
3.141592653589793
 42
6.283185307179586
1001
TOP
1070
     7
  0
ELLIPSE
  5
6634
330
653E
100
AcDbEntity
  8
P-0000
  6
Continuous
 62
     0
100
AcDbEllipse
 10
-63.46925566656012
 20
-121.3372284696458
 30
0.0
 11
-0.0000000000000201
 21
0.4147257264910956
 31
0.0
210
0.0
220
0.0
230
1.0
 40
0.9241881291669438
 41
-0.0000000000000524
 42
3.14159265358974
1001
TOP
1070
     7
  0
ELLIPSE
  5
6635
330
653E
100
AcDbEntity
  8
P-0000
  6
Continuous
 62
     0
100
AcDbEllipse
 10
-55.55415888055438
 20
-120.3357807285197
 30
0.0
 11
-0.0000000000001066
 21
0.6294814372792618
 31
0.0
210
0.0
220
0.0
230
1.0
 40
0.9241881291669697
 41
3.141592653589633
 42
6.283185307179426
1001
TOP
1070
     7
  0
ELLIPSE
  5
6636
330
653E
100
AcDbEntity
  8
P-0000
  6
Continuous
 62
     0
100
AcDbEllipse
 10
-55.55415888055438
 20
-120.3357807285197
 30
0.0
 11
0.0000000000000215
 21
0.6294814372792617
 31
0.0
210
0.0
220
0.0
230
-1.0
 40
0.9241881291669697
 41
0.0
 42
3.141592653589793
1001
TOP
1070
     7
  0
ELLIPSE
  5
6637
330
653E
100
AcDbEntity
  8
P-0000
  6
Continuous
 62
     0
100
AcDbEllipse
 10
-55.55415888055438
 20
-120.3357807285197
 30
0.0
 11
0.0000000000000215
 21
1.716767556216168
 31
0.0
210
0.0
220
0.0
230
1.0
 40
0.9241881291669681
 41
3.141592653589806
 42
6.283185307179599
1001
TOP
1070
     7
  0
ELLIPSE
  5
6638
330
653E
100
AcDbEntity
  8
P-0000
  6
Continuous
 62
     0
100
AcDbEllipse
 10
-55.55415888055438
 20
-120.3357807285197
 30
0.0
 11
0.0000000000000018
 21
1.716767556216167
 31
0.0
210
0.0
220
0.0
230
-1.0
 40
0.9241881291669688
 41
0.0
 42
3.141592653589793
1001
TOP
1070
     7
  0
LINE
  5
6639
330
653E
100
AcDbEntity
  8
P-0000
  6
Continuous
 62
     0
100
AcDbLine
 10
-59.78513540320495
 20
-121.2719230596353
 30
0.0
 11
-58.9612732655678
 21
-122.4817401737899
 31
0.0
1001
TOP
1070
     7
  0
LINE
  5
663A
330
653E
100
AcDbEntity
  8
P-0000
  6
Continuous
 62
     0
100
AcDbLine
 10
-58.9612732655678
 20
-122.4817401737899
 30
0.0
 11
-59.78513540320495
 21
-121.2719230596353
 31
0.0
1001
TOP
1070
     7
  0
LINE
  5
663B
330
653E
100
AcDbEntity
  8
P-0000
  6
Continuous
 62
     0
100
AcDbLine
 10
-56.08303094588571
 20
-124.055443766988
 30
0.0
 11
-59.78513540320495
 21
-118.6190131723036
 31
0.0
1001
TOP
1070
     7
  0
LINE
  5
663C
330
653E
100
AcDbEntity
  8
P-0000
  6
Continuous
 62
     0
100
AcDbLine
 10
-55.55415888055438
 20
-124.055443766988
 30
0.0
 11
-59.25626333787364
 21
-118.6190131723036
 31
0.0
1001
TOP
1070
     7
  0
LINE
  5
663D
330
653E
100
AcDbEntity
  8
P-0000
  6
Continuous
 62
     0
100
AcDbLine
 10
-55.55415888055438
 20
-124.055443766988
 30
0.0
 11
-59.25626333787364
 21
-118.6190131723036
 31
0.0
1001
TOP
1070
     7
  0
LINE
  5
663E
330
653E
100
AcDbEntity
  8
P-0000
  6
Continuous
 62
     0
100
AcDbLine
 10
-56.08303094588571
 20
-124.055443766988
 30
0.0
 11
-59.78513540320495
 21
-118.6190131723036
 31
0.0
1001
TOP
1070
     7
  0
LINE
  5
663F
330
653E
100
AcDbEntity
  8
P-0000
  6
Continuous
 62
     0
100
AcDbLine
 10
-55.55415888055438
 20
-124.055443766988
 30
0.0
 11
-55.55415888055438
 21
-122.0525482847359
 31
0.0
1001
TOP
1070
     7
  0
LINE
  5
6640
330
653E
100
AcDbEntity
  8
P-0000
  6
Continuous
 62
     0
100
AcDbLine
 10
-55.55415888055438
 20
-122.0525482847359
 30
0.0
 11
-55.55415888055438
 21
-124.055443766988
 31
0.0
1001
TOP
1070
     7
  0
LINE
  5
6641
330
653E
100
AcDbEntity
  8
P-0000
  6
Continuous
 62
     0
100
AcDbLine
 10
-59.25626333787364
 20
-118.6190131723036
 30
0.0
 11
-55.55415888055438
 21
-118.6190131723036
 31
0.0
1001
TOP
1070
     7
  0
LINE
  5
6642
330
653E
100
AcDbEntity
  8
P-0000
  6
Continuous
 62
     0
100
AcDbLine
 10
-59.25626333787364
 20
-118.6190131723036
 30
0.0
 11
-55.55415888055438
 21
-118.6190131723036
 31
0.0
1001
TOP
1070
     7
  0
LINE
  5
6643
330
653E
100
AcDbEntity
  8
P-0000
  6
Continuous
 62
     0
100
AcDbLine
 10
-55.55415888055438
 20
-119.7062992912404
 30
0.0
 11
-56.41148833382832
 21
-119.7062992912404
 31
0.0
1001
TOP
1070
     7
  0
LINE
  5
6644
330
653E
100
AcDbEntity
  8
P-0000
  6
Continuous
 62
     0
100
AcDbLine
 10
-56.41148833382832
 20
-119.7062992912404
 30
0.0
 11
-55.55415888055438
 21
-119.7062992912404
 31
0.0
1001
TOP
1070
     7
  0
LINE
  5
6645
330
653E
100
AcDbEntity
  8
P-0000
  6
Continuous
 62
     0
100
AcDbLine
 10
-55.55415888055438
 20
-120.9652621657989
 30
0.0
 11
-56.41148833382832
 21
-119.7062992912404
 31
0.0
1001
TOP
1070
     7
  0
LINE
  5
6646
330
653E
100
AcDbEntity
  8
P-0000
  6
Continuous
 62
     0
100
AcDbLine
 10
-55.55415888055438
 20
-120.9652621657989
 30
0.0
 11
-56.41148833382832
 21
-119.7062992912404
 31
0.0
1001
TOP
1070
     7
  0
LINE
  5
6647
330
653E
100
AcDbEntity
  8
0
 62
     0
 48
35.0
100
AcDbLine
 10
7.000000000000056
 20
142.5
 30
0.0
 11
98.00000000000004
 21
142.5
 31
0.0
1001
TOP
1070
     1
  0
LINE
  5
6648
330
653E
100
AcDbEntity
  8
0
 62
     0
100
AcDbLine
 10
7.000000000000056
 20
143.5
 30
0.0
 11
100.0
 21
143.5
 31
0.0
1001
TOP
1070
   256
  0
ARC
  5
6649
330
653E
100
AcDbEntity
  8
0
 62
     0
 48
35.0
100
AcDbCircle
 10
98.00000000000004
 20
141.5
 30
0.0
 40
1.0
100
AcDbArc
 50
0.0
 51
90.0
1001
TOP
1070
     1
  0
LINE
  5
664A
330
653E
100
AcDbEntity
  8
0
 62
     0
 48
35.0
100
AcDbLine
 10
99.00000000000003
 20
141.5
 30
0.0
 11
99.00000000000005
 21
113.5
 31
0.0
1001
TOP
1070
     1
  0
LINE
  5
664B
330
653E
100
AcDbEntity
  8
0
 62
     0
100
AcDbLine
 10
100.0
 20
143.5
 30
0.0
 11
100.0
 21
113.5
 31
0.0
1001
TOP
1070
   256
  0
ARC
  5
664C
330
653E
100
AcDbEntity
  8
0
 62
     0
 48
35.0
100
AcDbCircle
 10
98.00000000000006
 20
113.5
 30
0.0
 40
1.0
100
AcDbArc
 50
270.0
 51
0.0
1001
TOP
1070
     1
  0
ARC
  5
664D
330
653E
100
AcDbEntity
  8
0
 62
     0
100
AcDbCircle
 10
98.00000000000006
 20
113.5
 30
0.0
 40
2.0
100
AcDbArc
 50
270.0
 51
0.0
1001
TOP
1070
   256
  0
LINE
  5
664E
330
653E
100
AcDbEntity
  8
0
 62
     0
 48
35.0
100
AcDbLine
 10
98.00000000000006
 20
112.5
 30
0.0
 11
7.000000000000056
 21
112.5
 31
0.0
1001
TOP
1070
     1
  0
LINE
  5
664F
330
653E
100
AcDbEntity
  8
0
 62
     0
100
AcDbLine
 10
98.00000000000006
 20
111.4999999999999
 30
0.0
 11
7.000000000000056
 21
111.5
 31
0.0
1001
TOP
1070
   256
  0
ARC
  5
6650
330
653E
100
AcDbEntity
  8
0
 62
     0
 48
35.0
100
AcDbCircle
 10
7.000000000000056
 20
113.5
 30
0.0
 40
1.0
100
AcDbArc
 50
180.0
 51
270.0
1001
TOP
1070
     1
  0
ARC
  5
6651
330
653E
100
AcDbEntity
  8
0
 62
     0
100
AcDbCircle
 10
7.000000000000056
 20
113.5
 30
0.0
 40
2.0
100
AcDbArc
 50
180.0
 51
270.0
1001
TOP
1070
   256
  0
LINE
  5
6652
330
653E
100
AcDbEntity
  8
0
 62
     0
 48
35.0
100
AcDbLine
 10
6.000000000000056
 20
113.5
 30
0.0
 11
6.000000000000056
 21
141.5
 31
0.0
1001
TOP
1070
     1
  0
LINE
  5
6653
330
653E
100
AcDbEntity
  8
0
 62
     0
100
AcDbLine
 10
5.000000000000056
 20
113.5
 30
0.0
 11
5.000000000000056
 21
141.5
 31
0.0
1001
TOP
1070
   256
  0
ARC
  5
6654
330
653E
100
AcDbEntity
  8
0
 62
     0
 48
35.0
100
AcDbCircle
 10
7.000000000000056
 20
141.5
 30
0.0
 40
1.0
100
AcDbArc
 50
90.0
 51
180.0
1001
TOP
1070
     1
  0
ARC
  5
6655
330
653E
100
AcDbEntity
  8
0
 62
     0
100
AcDbCircle
 10
7.000000000000056
 20
141.5
 30
0.0
 40
2.0
100
AcDbArc
 50
90.0
 51
180.0
1001
TOP
1070
   256
  0
MTEXT
  5
6656
330
653E
100
AcDbEntity
  8
0
 62
     0
100
AcDbMText
 10
29.58535811428735
 20
135.6251466847724
 30
0.0
 40
6.0
 41
54.93080742428151
 71
     1
 72
     5
  1
{\fVrinda|b0|i0|c0|p2;BAR CODE\PMontaggio}
 73
     1
 44
1.0
1001
TOP
1070
   256
1001
ACAD
1000
MTEXTBEGIN
1070
    73
1070
     1
1070
    44
1040
1.0
1070
    74
1070
     0
1000
MTEXTEND
  0
ENDBLK
  5
665A
330
653E
100
AcDbEntity
  8
0
 62
     3
100
AcDbBlockEnd
  0
BLOCK
  5
7411
330
7410
100
AcDbEntity
  8
0
 62
     3
100
AcDbBlockBegin
  2
*D1
 70
     1
 10
0.0
 20
0.0
 30
0.0
  3
*D1
  1

  0
LINE
  5
796E
330
7410
100
AcDbEntity
  8
P-05BB
  6
Continuous
 62
     2
370
    -2
100
AcDbLine
 10
1213.845171488719
 20
411.9017963367518
 30
0.0
 11
1213.845171488719
 21
212.0707628801556
 31
0.0
  0
LINE
  5
796F
330
7410
100
AcDbEntity
  8
P-05BB
  6
Continuous
 62
     2
370
    -2
100
AcDbLine
 10
1263.845171483669
 20
411.9017963367518
 30
0.0
 11
1263.845171483669
 21
212.0707628801556
 31
0.0
  0
LINE
  5
7970
330
7410
100
AcDbEntity
  8
P-05BB
  6
Continuous
 62
     2
370
    -2
100
AcDbLine
 10
1193.845171488719
 20
227.0707628801556
 30
0.0
 11
1173.845171488719
 21
227.0707628801556
 31
0.0
  0
LINE
  5
7971
330
7410
100
AcDbEntity
  8
P-05BB
  6
Continuous
 62
     2
370
    -2
100
AcDbLine
 10
1283.845171483669
 20
227.0707628801556
 30
0.0
 11
1303.845171483669
 21
227.0707628801556
 31
0.0
  0
LINE
  5
7972
330
7410
100
AcDbEntity
  8
P-05BB
  6
Continuous
 62
     2
370
    -2
100
AcDbLine
 10
1213.845171488719
 20
227.0707628801556
 30
0.0
 11
1263.845171483669
 21
227.0707628801556
 31
0.0
  0
SOLID
  5
7973
330
7410
100
AcDbEntity
  8
P-05BB
  6
Continuous
 62
     2
100
AcDbTrace
 10
1193.845171488719
 20
230.404096213489
 30
0.0
 11
1193.845171488719
 21
223.7374295468223
 31
0.0
 12
1213.845171488719
 22
227.0707628801556
 32
0.0
 13
1213.845171488719
 23
227.0707628801556
 33
0.0
  0
SOLID
  5
7974
330
7410
100
AcDbEntity
  8
P-05BB
  6
Continuous
 62
     2
100
AcDbTrace
 10
1283.845171483669
 20
230.404096213489
 30
0.0
 11
1283.845171483669
 21
223.7374295468223
 31
0.0
 12
1263.845171483669
 22
227.0707628801556
 32
0.0
 13
1263.845171483669
 23
227.0707628801556
 33
0.0
  0
MTEXT
  5
7975
330
7410
100
AcDbEntity
  8
P-05BB
  6
Continuous
 62
     1
100
AcDbMText
 10
1238.845171486194
 20
247.2967104020215
 30
0.0
 40
20.0
 41
0.0
 71
     5
 72
     1
  1
\A1;5
  7
Stile_Quota
 73
     1
 44
1.0
1001
ACAD
1000
MTEXTBEGIN
1070
    73
1070
     1
1070
    44
1040
1.0
1070
    74
1070
     0
1000
MTEXTEND
  0
POINT
  5
7976
330
7410
100
AcDbEntity
  8
Defpoints
  6
Continuous
 62
     0
100
AcDbPoint
 10
1213.845171488719
 20
421.9017963367519
 30
0.0
  0
POINT
  5
7977
330
7410
100
AcDbEntity
  8
Defpoints
  6
Continuous
 62
     0
100
AcDbPoint
 10
1263.845171483669
 20
421.9017963367519
 30
0.0
  0
POINT
  5
7978
330
7410
100
AcDbEntity
  8
Defpoints
  6
Continuous
 62
     0
100
AcDbPoint
 10
1263.845171483669
 20
227.0707628801556
 30
0.0
  0
ENDBLK
  5
7412
330
7410
100
AcDbEntity
  8
0
 62
     3
100
AcDbBlockEnd
  0
BLOCK
  5
741F
330
741E
100
AcDbEntity
  8
0
 62
     3
100
AcDbBlockBegin
  2
*D2
 70
     1
 10
0.0
 20
0.0
 30
0.0
  3
*D2
  1

  0
LINE
  5
7979
330
741E
100
AcDbEntity
  8
P-05BB
  6
Continuous
 62
     2
370
    -2
100
AcDbLine
 10
1263.84517148367
 20
411.9017963367518
 30
0.0
 11
1263.84517148367
 21
212.0707628801556
 31
0.0
  0
LINE
  5
797A
330
741E
100
AcDbEntity
  8
P-05BB
  6
Continuous
 62
     2
370
    -2
100
AcDbLine
 10
1313.84517147862
 20
411.9017963367518
 30
0.0
 11
1313.84517147862
 21
212.0707628801556
 31
0.0
  0
LINE
  5
797B
330
741E
100
AcDbEntity
  8
P-05BB
  6
Continuous
 62
     2
370
    -2
100
AcDbLine
 10
1243.84517148367
 20
227.0707628801556
 30
0.0
 11
1223.84517148367
 21
227.0707628801556
 31
0.0
  0
LINE
  5
797C
330
741E
100
AcDbEntity
  8
P-05BB
  6
Continuous
 62
     2
370
    -2
100
AcDbLine
 10
1333.84517147862
 20
227.0707628801556
 30
0.0
 11
1353.845171478619
 21
227.0707628801556
 31
0.0
  0
LINE
  5
797D
330
741E
100
AcDbEntity
  8
P-05BB
  6
Continuous
 62
     2
370
    -2
100
AcDbLine
 10
1263.84517148367
 20
227.0707628801556
 30
0.0
 11
1313.84517147862
 21
227.0707628801556
 31
0.0
  0
SOLID
  5
797E
330
741E
100
AcDbEntity
  8
P-05BB
  6
Continuous
 62
     2
100
AcDbTrace
 10
1243.84517148367
 20
230.404096213489
 30
0.0
 11
1243.84517148367
 21
223.7374295468223
 31
0.0
 12
1263.84517148367
 22
227.0707628801556
 32
0.0
 13
1263.84517148367
 23
227.0707628801556
 33
0.0
  0
SOLID
  5
797F
330
741E
100
AcDbEntity
  8
P-05BB
  6
Continuous
 62
     2
100
AcDbTrace
 10
1333.84517147862
 20
230.404096213489
 30
0.0
 11
1333.84517147862
 21
223.7374295468223
 31
0.0
 12
1313.84517147862
 22
227.0707628801556
 32
0.0
 13
1313.84517147862
 23
227.0707628801556
 33
0.0
  0
MTEXT
  5
7980
330
741E
100
AcDbEntity
  8
P-05BB
  6
Continuous
 62
     1
100
AcDbMText
 10
1288.845171481145
 20
247.2967104020215
 30
0.0
 40
20.0
 41
0.0
 71
     5
 72
     1
  1
\A1;5
  7
Stile_Quota
 73
     1
 44
1.0
1001
ACAD
1000
MTEXTBEGIN
1070
    73
1070
     1
1070
    44
1040
1.0
1070
    74
1070
     0
1000
MTEXTEND
  0
POINT
  5
7981
330
741E
100
AcDbEntity
  8
Defpoints
  6
Continuous
 62
     0
100
AcDbPoint
 10
1263.84517148367
 20
421.9017963367519
 30
0.0
  0
POINT
  5
7982
330
741E
100
AcDbEntity
  8
Defpoints
  6
Continuous
 62
     0
100
AcDbPoint
 10
1313.84517147862
 20
421.9017963367519
 30
0.0
  0
POINT
  5
7983
330
741E
100
AcDbEntity
  8
Defpoints
  6
Continuous
 62
     0
100
AcDbPoint
 10
1313.84517147862
 20
227.0707628801556
 30
0.0
  0
ENDBLK
  5
7420
330
741E
100
AcDbEntity
  8
0
 62
     3
100
AcDbBlockEnd
  0
BLOCK
  5
742D
330
742C
100
AcDbEntity
  8
0
 62
     3
100
AcDbBlockBegin
  2
*D3
 70
     1
 10
0.0
 20
0.0
 30
0.0
  3
*D3
  1

  0
LINE
  5
79C6
330
742C
100
AcDbEntity
  8
P-05BB
  6
Continuous
 62
     2
370
    -2
100
AcDbLine
 10
1095.845171499526
 20
528.9017963259434
 30
0.0
 11
900.4217124721833
 21
528.9017963259434
 31
0.0
  0
LINE
  5
79C7
330
742C
100
AcDbEntity
  8
P-05BB
  6
Continuous
 62
     2
370
    -2
100
AcDbLine
 10
1095.845171499526
 20
578.9017963208957
 30
0.0
 11
900.4217124721833
 21
578.9017963208957
 31
0.0
  0
LINE
  5
79C8
330
742C
100
AcDbEntity
  8
P-05BB
  6
Continuous
 62
     2
370
    -2
100
AcDbLine
 10
915.4217124721833
 20
508.9017963259435
 30
0.0
 11
915.4217124721833
 21
488.9017963259434
 31
0.0
  0
LINE
  5
79C9
330
742C
100
AcDbEntity
  8
P-05BB
  6
Continuous
 62
     2
370
    -2
100
AcDbLine
 10
915.4217124721833
 20
598.9017963208957
 30
0.0
 11
915.4217124721833
 21
618.9017963208957
 31
0.0
  0
LINE
  5
79CA
330
742C
100
AcDbEntity
  8
P-05BB
  6
Continuous
 62
     2
370
    -2
100
AcDbLine
 10
915.4217124721833
 20
528.9017963259434
 30
0.0
 11
915.4217124721833
 21
578.9017963208957
 31
0.0
  0
SOLID
  5
79CB
330
742C
100
AcDbEntity
  8
P-05BB
  6
Continuous
 62
     2
100
AcDbTrace
 10
912.08837913885
 20
508.9017963259435
 30
0.0
 11
918.7550458055167
 21
508.9017963259435
 31
0.0
 12
915.4217124721833
 22
528.9017963259434
 32
0.0
 13
915.4217124721833
 23
528.9017963259434
 33
0.0
  0
SOLID
  5
79CC
330
742C
100
AcDbEntity
  8
P-05BB
  6
Continuous
 62
     2
100
AcDbTrace
 10
912.08837913885
 20
598.9017963208957
 30
0.0
 11
918.7550458055167
 21
598.9017963208957
 31
0.0
 12
915.4217124721833
 22
578.9017963208957
 32
0.0
 13
915.4217124721833
 23
578.9017963208957
 33
0.0
  0
MTEXT
  5
79CD
330
742C
100
AcDbEntity
  8
P-05BB
  6
Continuous
 62
     1
100
AcDbMText
 10
895.1957649503173
 20
553.9017963234198
 30
0.0
 40
20.0
 41
0.0
 71
     5
 72
     1
  1
\A1;5
  7
Stile_Quota
 11
0.0000000000000001
 21
1.0
 31
0.0
 73
     1
 44
1.0
1001
ACAD
1000
MTEXTBEGIN
1070
    73
1070
     1
1070
    44
1040
1.0
1070
    74
1070
     0
1000
MTEXTEND
  0
POINT
  5
79CE
330
742C
100
AcDbEntity
  8
Defpoints
  6
Continuous
 62
     0
100
AcDbPoint
 10
1105.845171499526
 20
528.9017963259434
 30
0.0
  0
POINT
  5
79CF
330
742C
100
AcDbEntity
  8
Defpoints
  6
Continuous
 62
     0
100
AcDbPoint
 10
1105.845171499526
 20
578.9017963208957
 30
0.0
  0
POINT
  5
79D0
330
742C
100
AcDbEntity
  8
Defpoints
  6
Continuous
 62
     0
100
AcDbPoint
 10
915.4217124721833
 20
578.9017963208957
 30
0.0
  0
ENDBLK
  5
742E
330
742C
100
AcDbEntity
  8
0
 62
     3
100
AcDbBlockEnd
  0
BLOCK
  5
743B
330
743A
100
AcDbEntity
  8
0
 62
     3
100
AcDbBlockBegin
  2
*D4
 70
     1
 10
0.0
 20
0.0
 30
0.0
  3
*D4
  1

  0
LINE
  5
79D1
330
743A
100
AcDbEntity
  8
P-05BB
  6
Continuous
 62
     2
370
    -2
100
AcDbLine
 10
1095.845171499526
 20
578.9017963208957
 30
0.0
 11
900.4217124721833
 21
578.9017963208957
 31
0.0
  0
LINE
  5
79D2
330
743A
100
AcDbEntity
  8
P-05BB
  6
Continuous
 62
     2
370
    -2
100
AcDbLine
 10
1095.845171499526
 20
628.9017963158426
 30
0.0
 11
900.4217124721833
 21
628.9017963158426
 31
0.0
  0
LINE
  5
79D3
330
743A
100
AcDbEntity
  8
P-05BB
  6
Continuous
 62
     2
370
    -2
100
AcDbLine
 10
915.4217124721833
 20
558.9017963208958
 30
0.0
 11
915.4217124721833
 21
538.9017963208957
 31
0.0
  0
LINE
  5
79D4
330
743A
100
AcDbEntity
  8
P-05BB
  6
Continuous
 62
     2
370
    -2
100
AcDbLine
 10
915.4217124721833
 20
648.9017963158426
 30
0.0
 11
915.4217124721833
 21
668.9017963158426
 31
0.0
  0
LINE
  5
79D5
330
743A
100
AcDbEntity
  8
P-05BB
  6
Continuous
 62
     2
370
    -2
100
AcDbLine
 10
915.4217124721833
 20
578.9017963208957
 30
0.0
 11
915.4217124721833
 21
628.9017963158426
 31
0.0
  0
SOLID
  5
79D6
330
743A
100
AcDbEntity
  8
P-05BB
  6
Continuous
 62
     2
100
AcDbTrace
 10
912.08837913885
 20
558.9017963208958
 30
0.0
 11
918.7550458055167
 21
558.9017963208958
 31
0.0
 12
915.4217124721833
 22
578.9017963208957
 32
0.0
 13
915.4217124721833
 23
578.9017963208957
 33
0.0
  0
SOLID
  5
79D7
330
743A
100
AcDbEntity
  8
P-05BB
  6
Continuous
 62
     2
100
AcDbTrace
 10
912.08837913885
 20
648.9017963158426
 30
0.0
 11
918.7550458055167
 21
648.9017963158426
 31
0.0
 12
915.4217124721833
 22
628.9017963158426
 32
0.0
 13
915.4217124721833
 23
628.9017963158426
 33
0.0
  0
MTEXT
  5
79D8
330
743A
100
AcDbEntity
  8
P-05BB
  6
Continuous
 62
     1
100
AcDbMText
 10
895.1957649503173
 20
603.9017963183693
 30
0.0
 40
20.0
 41
0.0
 71
     5
 72
     1
  1
\A1;5
  7
Stile_Quota
 11
0.0000000000000001
 21
1.0
 31
0.0
 73
     1
 44
1.0
1001
ACAD
1000
MTEXTBEGIN
1070
    73
1070
     1
1070
    44
1040
1.0
1070
    74
1070
     0
1000
MTEXTEND
  0
POINT
  5
79D9
330
743A
100
AcDbEntity
  8
Defpoints
  6
Continuous
 62
     0
100
AcDbPoint
 10
1105.845171499526
 20
578.9017963208957
 30
0.0
  0
POINT
  5
79DA
330
743A
100
AcDbEntity
  8
Defpoints
  6
Continuous
 62
     0
100
AcDbPoint
 10
1105.845171499526
 20
628.9017963158426
 30
0.0
  0
POINT
  5
79DB
330
743A
100
AcDbEntity
  8
Defpoints
  6
Continuous
 62
     0
100
AcDbPoint
 10
915.4217124721833
 20
628.9017963158426
 30
0.0
  0
ENDBLK
  5
743C
330
743A
100
AcDbEntity
  8
0
 62
     3
100
AcDbBlockEnd
  0
BLOCK
  5
7449
330
7448
100
AcDbEntity
  8
0
 62
     3
100
AcDbBlockBegin
  2
*D5
 70
     1
 10
0.0
 20
0.0
 30
0.0
  3
*D5
  1

  0
LINE
  5
7BD2
330
7448
100
AcDbEntity
  8
P-05BB
  6
Continuous
 62
     2
370
    -2
100
AcDbLine
 10
1129.845171497844
 20
925.9418564193609
 30
0.0
 11
1327.492950833286
 21
925.9418564193607
 31
0.0
  0
LINE
  5
7BD3
330
7448
100
AcDbEntity
  8
P-05BB
  6
Continuous
 62
     2
370
    -2
100
AcDbLine
 10
1129.845171497844
 20
861.8617361847807
 30
0.0
 11
1327.492950833286
 21
861.8617361847805
 31
0.0
  0
LINE
  5
7BD4
330
7448
100
AcDbEntity
  8
P-05BB
  6
Continuous
 62
     2
370
    -2
100
AcDbLine
 10
1312.492950833286
 20
905.9418564193608
 30
0.0
 11
1312.492950833286
 21
881.8617361847804
 31
0.0
  0
SOLID
  5
7BD5
330
7448
100
AcDbEntity
  8
P-05BB
  6
Continuous
 62
     2
100
AcDbTrace
 10
1309.159617499953
 20
905.9418564193608
 30
0.0
 11
1315.826284166619
 21
905.9418564193608
 31
0.0
 12
1312.492950833286
 22
925.9418564193607
 32
0.0
 13
1312.492950833286
 23
925.9418564193607
 33
0.0
  0
SOLID
  5
7BD6
330
7448
100
AcDbEntity
  8
P-05BB
  6
Continuous
 62
     2
100
AcDbTrace
 10
1309.159617499953
 20
881.8617361847804
 30
0.0
 11
1315.826284166619
 21
881.8617361847804
 31
0.0
 12
1312.492950833286
 22
861.8617361847805
 32
0.0
 13
1312.492950833286
 23
861.8617361847805
 33
0.0
  0
MTEXT
  5
7BD7
330
7448
100
AcDbEntity
  8
P-05BB
  6
Continuous
 62
     1
100
AcDbMText
 10
1292.26700331142
 20
893.9017963020695
 30
0.0
 40
20.0
 41
0.0
 71
     5
 72
     1
  1
\A1;6.4
  7
Stile_Quota
 11
0.0000000000000001
 21
1.0
 31
0.0
 73
     1
 44
1.0
1001
ACAD
1000
MTEXTBEGIN
1070
    73
1070
     1
1070
    44
1040
1.0
1070
    74
1070
     0
1000
MTEXTEND
  0
POINT
  5
7BD8
330
7448
100
AcDbEntity
  8
Defpoints
  6
Continuous
 62
     0
100
AcDbPoint
 10
1119.845171497844
 20
925.9418564193609
 30
0.0
  0
POINT
  5
7BD9
330
7448
100
AcDbEntity
  8
Defpoints
  6
Continuous
 62
     0
100
AcDbPoint
 10
1119.845171497845
 20
861.8617361847807
 30
0.0
  0
POINT
  5
7BDA
330
7448
100
AcDbEntity
  8
Defpoints
  6
Continuous
 62
     0
100
AcDbPoint
 10
1312.492950833286
 20
861.8617361847805
 30
0.0
  0
ENDBLK
  5
744A
330
7448
100
AcDbEntity
  8
0
 62
     3
100
AcDbBlockEnd
  0
BLOCK
  5
7457
330
7456
100
AcDbEntity
  8
0
 62
     3
100
AcDbBlockBegin
  2
*D6
 70
     1
 10
0.0
 20
0.0
 30
0.0
  3
*D6
  1

  0
LINE
  5
7B83
330
7456
100
AcDbEntity
  8
P-05BB
  6
Continuous
 62
     2
370
    -2
100
AcDbLine
 10
1114.107757202634
 20
935.3626334829703
 30
0.0
 11
1373.490366103364
 21
935.3626334829703
 31
0.0
  0
LINE
  5
7B84
330
7456
100
AcDbEntity
  8
P-05BB
  6
Continuous
 62
     2
370
    -2
100
AcDbLine
 10
1114.107757202634
 20
852.4409591211702
 30
0.0
 11
1373.490366103364
 21
852.44095912117
 31
0.0
  0
LINE
  5
7B85
330
7456
100
AcDbEntity
  8
P-05BB
  6
Continuous
 62
     2
370
    -2
100
AcDbLine
 10
1358.490366103364
 20
915.3626334829702
 30
0.0
 11
1358.490366103364
 21
872.4409591211701
 31
0.0
  0
SOLID
  5
7B86
330
7456
100
AcDbEntity
  8
P-05BB
  6
Continuous
 62
     2
100
AcDbTrace
 10
1355.157032770031
 20
915.3626334829702
 30
0.0
 11
1361.823699436697
 21
915.3626334829702
 31
0.0
 12
1358.490366103364
 22
935.3626334829703
 32
0.0
 13
1358.490366103364
 23
935.3626334829703
 33
0.0
  0
SOLID
  5
7B87
330
7456
100
AcDbEntity
  8
P-05BB
  6
Continuous
 62
     2
100
AcDbTrace
 10
1355.157032770031
 20
872.4409591211701
 30
0.0
 11
1361.823699436697
 21
872.4409591211701
 31
0.0
 12
1358.490366103364
 22
852.44095912117
 32
0.0
 13
1358.490366103364
 23
852.44095912117
 33
0.0
  0
MTEXT
  5
7B88
330
7456
100
AcDbEntity
  8
P-05BB
  6
Continuous
 62
     1
100
AcDbMText
 10
1338.264418581498
 20
893.9017963020704
 30
0.0
 40
20.0
 41
0.0
 71
     5
 72
     1
  1
\A1;8.3
  7
Stile_Quota
 11
0.0000000000000001
 21
1.0
 31
0.0
 73
     1
 44
1.0
1001
ACAD
1000
MTEXTBEGIN
1070
    73
1070
     1
1070
    44
1040
1.0
1070
    74
1070
     0
1000
MTEXTEND
  0
POINT
  5
7B89
330
7456
100
AcDbEntity
  8
Defpoints
  6
Continuous
 62
     0
100
AcDbPoint
 10
1104.107757202634
 20
935.3626334829703
 30
0.0
  0
POINT
  5
7B8A
330
7456
100
AcDbEntity
  8
Defpoints
  6
Continuous
 62
     0
100
AcDbPoint
 10
1104.107757202634
 20
852.4409591211702
 30
0.0
  0
POINT
  5
7B8B
330
7456
100
AcDbEntity
  8
Defpoints
  6
Continuous
 62
     0
100
AcDbPoint
 10
1358.490366103364
 20
852.44095912117
 30
0.0
  0
ENDBLK
  5
7458
330
7456
100
AcDbEntity
  8
0
 62
     3
100
AcDbBlockEnd
  0
BLOCK
  5
7479
330
7478
100
AcDbEntity
  8
0
 62
     3
100
AcDbBlockBegin
  2
*D7
 70
     1
 10
0.0
 20
0.0
 30
0.0
  3
*D7
  1

  0
LINE
  5
82B9
330
7478
100
AcDbEntity
  8
P-05BB
  6
Continuous
 62
     2
370
    -2
100
AcDbLine
 10
1082.536338438939
 20
396.5790957650658
 30
0.0
 11
1014.066648772885
 21
325.892166200136
 31
0.0
  0
LINE
  5
82BA
330
7478
100
AcDbEntity
  8
P-05BB
  6
Continuous
 62
     2
370
    -2
100
AcDbLine
 10
1113.845171498819
 20
428.9017963360461
 30
0.0
 11
1096.451375355222
 21
410.9447404640858
 31
0.0
  0
SOLID
  5
82BB
330
7478
100
AcDbEntity
  8
P-05BB
  6
Continuous
 62
     2
100
AcDbTrace
 10
1080.142064322436
 20
398.8982685844463
 30
0.0
 11
1084.930612555443
 21
394.2599229456853
 31
0.0
 12
1096.451375355222
 22
410.9447404640858
 32
0.0
 13
1096.451375355222
 23
410.9447404640858
 33
0.0
  0
MTEXT
  5
82BC
330
7478
100
AcDbEntity
  8
P-05BB
  6
Continuous
 62
     1
100
AcDbMText
 10
1026.816036357763
 20
368.1250489547692
 30
0.0
 40
20.0
 41
0.0
 71
     5
 72
     1
  1
\A1;R2.5
  7
Stile_Quota
 11
0.6957518458141515
 21
0.7182822349509985
 31
0.0
 73
     1
 44
1.0
1001
ACAD
1000
MTEXTBEGIN
1070
    73
1070
     1
1070
    44
1040
1.0
1070
    74
1070
     0
1000
MTEXTEND
  0
POINT
  5
82BD
330
7478
100
AcDbEntity
  8
Defpoints
  6
Continuous
 62
     0
100
AcDbPoint
 10
1096.451375355222
 20
410.9447404640858
 30
0.0
  0
POINT
  5
82BE
330
7478
100
AcDbEntity
  8
Defpoints
  6
Continuous
 62
     0
100
AcDbPoint
 10
1113.845171498819
 20
428.9017963360461
 30
0.0
  0
ENDBLK
  5
747A
330
7478
100
AcDbEntity
  8
0
 62
     3
100
AcDbBlockEnd
  0
BLOCK
  5
7482
330
7481
100
AcDbEntity
  8
0
 62
     3
100
AcDbBlockBegin
  2
*D8
 70
     1
 10
0.0
 20
0.0
 30
0.0
  3
*D8
  1

  0
LINE
  5
82BF
330
7481
100
AcDbEntity
  8
P-05BB
  6
Continuous
 62
     2
370
    -2
100
AcDbLine
 10
1395.904507805742
 20
397.323339221846
 30
0.0
 11
1466.015482729824
 21
328.2640052438976
 31
0.0
  0
LINE
  5
82C0
330
7481
100
AcDbEntity
  8
P-05BB
  6
Continuous
 62
     2
370
    -2
100
AcDbLine
 10
1363.845171473569
 20
428.9017963360461
 30
0.0
 11
1381.655913879532
 21
411.3582090511669
 31
0.0
  0
SOLID
  5
82C1
330
7481
100
AcDbEntity
  8
P-05BB
  6
Continuous
 62
     2
100
AcDbTrace
 10
1398.243652777295
 20
399.6981048762143
 30
0.0
 11
1393.565362834188
 21
394.9485735674778
 31
0.0
 12
1381.655913879532
 22
411.3582090511669
 32
0.0
 13
1381.655913879532
 23
411.3582090511669
 33
0.0
  0
MTEXT
  5
82C2
330
7481
100
AcDbEntity
  8
P-05BB
  6
Continuous
 62
     1
100
AcDbMText
 10
1452.277719263091
 20
370.185802968806
 30
0.0
 40
20.0
 41
0.0
 71
     5
 72
     1
  1
\A1;R2.5
  7
Stile_Quota
 11
0.7124296963104817
 21
-0.7017434914660448
 31
0.0
 73
     1
 44
1.0
1001
ACAD
1000
MTEXTBEGIN
1070
    73
1070
     1
1070
    44
1040
1.0
1070
    74
1070
     0
1000
MTEXTEND
  0
POINT
  5
82C3
330
7481
100
AcDbEntity
  8
Defpoints
  6
Continuous
 62
     0
100
AcDbPoint
 10
1381.655913879532
 20
411.3582090511669
 30
0.0
  0
POINT
  5
82C4
330
7481
100
AcDbEntity
  8
Defpoints
  6
Continuous
 62
     0
100
AcDbPoint
 10
1363.845171473569
 20
428.9017963360461
 30
0.0
  0
ENDBLK
  5
7483
330
7481
100
AcDbEntity
  8
0
 62
     3
100
AcDbBlockEnd
  0
BLOCK
  5
748B
330
748A
100
AcDbEntity
  8
0
 62
     3
100
AcDbBlockBegin
  2
*D9
 70
     1
 10
0.0
 20
0.0
 30
0.0
  3
*D9
  1

  0
LINE
  5
82C5
330
748A
100
AcDbEntity
  8
P-05BB
  6
Continuous
 62
     2
370
    -2
100
AcDbLine
 10
1394.377413630282
 20
711.9590525287058
 30
0.0
 11
1461.148766662848
 21
784.252391284663
 31
0.0
  0
LINE
  5
82C6
330
748A
100
AcDbEntity
  8
P-05BB
  6
Continuous
 62
     2
370
    -2
100
AcDbLine
 10
1363.845171473569
 20
678.9017963107948
 30
0.0
 11
1380.807528226537
 21
697.2669386532544
 31
0.0
  0
SOLID
  5
82C7
330
748A
100
AcDbEntity
  8
P-05BB
  6
Continuous
 62
     2
100
AcDbTrace
 10
1391.928727984373
 20
714.2207000959968
 30
0.0
 11
1396.82609927619
 21
709.697404961415
 31
0.0
 12
1380.807528226537
 22
697.2669386532544
 32
0.0
 13
1380.807528226537
 23
697.2669386532544
 33
0.0
  0
MTEXT
  5
82C8
330
748A
100
AcDbEntity
  8
P-05BB
  6
Continuous
 62
     1
100
AcDbMText
 10
1419.689936636929
 20
769.174968347104
 30
0.0
 40
20.0
 41
0.0
 71
     5
 72
     1
  1
\A1;R2.5
  7
Stile_Quota
 11
0.6784942701872394
 21
0.7346056937725744
 31
0.0
 73
     1
 44
1.0
1001
ACAD
1000
MTEXTBEGIN
1070
    73
1070
     1
1070
    44
1040
1.0
1070
    74
1070
     0
1000
MTEXTEND
  0
POINT
  5
82C9
330
748A
100
AcDbEntity
  8
Defpoints
  6
Continuous
 62
     0
100
AcDbPoint
 10
1380.807528226537
 20
697.2669386532544
 30
0.0
  0
POINT
  5
82CA
330
748A
100
AcDbEntity
  8
Defpoints
  6
Continuous
 62
     0
100
AcDbPoint
 10
1363.845171473569
 20
678.9017963107948
 30
0.0
  0
ENDBLK
  5
748C
330
748A
100
AcDbEntity
  8
0
 62
     3
100
AcDbBlockEnd
  0
BLOCK
  5
7494
330
7493
100
AcDbEntity
  8
0
 62
     3
100
AcDbBlockBegin
  2
*D10
 70
     1
 10
0.0
 20
0.0
 30
0.0
  3
*D10
  1

  0
LINE
  5
7A04
330
7493
100
AcDbEntity
  8
P-05BB
  6
Continuous
 62
     2
370
    -2
100
AcDbLine
 10
1095.845171499526
 20
478.9017963309966
 30
0.0
 11
900.4217124721833
 21
478.9017963309966
 31
0.0
  0
LINE
  5
7A05
330
7493
100
AcDbEntity
  8
P-05BB
  6
Continuous
 62
     2
370
    -2
100
AcDbLine
 10
1103.845171498718
 20
423.9017963364463
 30
0.0
 11
900.4217124721833
 21
423.9017963364463
 31
0.0
  0
LINE
  5
7A06
330
7493
100
AcDbEntity
  8
P-05BB
  6
Continuous
 62
     2
370
    -2
100
AcDbLine
 10
915.4217124721833
 20
498.9017963309966
 30
0.0
 11
915.4217124721833
 21
518.9017963309965
 31
0.0
  0
LINE
  5
7A07
330
7493
100
AcDbEntity
  8
P-05BB
  6
Continuous
 62
     2
370
    -2
100
AcDbLine
 10
915.4217124721833
 20
403.9017963364463
 30
0.0
 11
915.4217124721833
 21
383.9017963364463
 31
0.0
  0
LINE
  5
7A08
330
7493
100
AcDbEntity
  8
P-05BB
  6
Continuous
 62
     2
370
    -2
100
AcDbLine
 10
915.4217124721833
 20
478.9017963309966
 30
0.0
 11
915.4217124721833
 21
423.9017963364463
 31
0.0
  0
SOLID
  5
7A09
330
7493
100
AcDbEntity
  8
P-05BB
  6
Continuous
 62
     2
100
AcDbTrace
 10
912.08837913885
 20
498.9017963309966
 30
0.0
 11
918.7550458055167
 21
498.9017963309966
 31
0.0
 12
915.4217124721833
 22
478.9017963309966
 32
0.0
 13
915.4217124721833
 23
478.9017963309966
 33
0.0
  0
SOLID
  5
7A0A
330
7493
100
AcDbEntity
  8
P-05BB
  6
Continuous
 62
     2
100
AcDbTrace
 10
912.08837913885
 20
403.9017963364463
 30
0.0
 11
918.7550458055167
 21
403.9017963364463
 31
0.0
 12
915.4217124721833
 22
423.9017963364463
 32
0.0
 13
915.4217124721833
 23
423.9017963364463
 33
0.0
  0
MTEXT
  5
7A0B
330
7493
100
AcDbEntity
  8
P-05BB
  6
Continuous
 62
     1
100
AcDbMText
 10
895.1957649503173
 20
451.4017963337216
 30
0.0
 40
20.0
 41
0.0
 71
     5
 72
     1
  1
\A1;5.5
  7
Stile_Quota
 11
0.0000000000000001
 21
1.0
 31
0.0
 73
     1
 44
1.0
1001
ACAD
1000
MTEXTBEGIN
1070
    73
1070
     1
1070
    44
1040
1.0
1070
    74
1070
     0
1000
MTEXTEND
  0
POINT
  5
7A0C
330
7493
100
AcDbEntity
  8
Defpoints
  6
Continuous
 62
     0
100
AcDbPoint
 10
1105.845171499526
 20
478.9017963309966
 30
0.0
  0
POINT
  5
7A0D
330
7493
100
AcDbEntity
  8
Defpoints
  6
Continuous
 62
     0
100
AcDbPoint
 10
1113.845171498718
 20
423.9017963364463
 30
0.0
  0
POINT
  5
7A0E
330
7493
100
AcDbEntity
  8
Defpoints
  6
Continuous
 62
     0
100
AcDbPoint
 10
915.4217124721833
 20
423.9017963364463
 30
0.0
  0
ENDBLK
  5
7495
330
7493
100
AcDbEntity
  8
0
 62
     3
100
AcDbBlockEnd
  0
BLOCK
  5
74A2
330
74A1
100
AcDbEntity
  8
0
 62
     3
100
AcDbBlockBegin
  2
*D11
 70
     1
 10
0.0
 20
0.0
 30
0.0
  3
*D11
  1

  0
LINE
  5
799A
330
74A1
100
AcDbEntity
  8
P-05BB
  6
Continuous
 62
     2
370
    -2
100
AcDbLine
 10
1095.845171499526
 20
478.9017963309966
 30
0.0
 11
900.4217124721833
 21
478.9017963309966
 31
0.0
  0
LINE
  5
799B
330
74A1
100
AcDbEntity
  8
P-05BB
  6
Continuous
 62
     2
370
    -2
100
AcDbLine
 10
1095.845171499526
 20
528.9017963259434
 30
0.0
 11
900.4217124721833
 21
528.9017963259434
 31
0.0
  0
LINE
  5
799C
330
74A1
100
AcDbEntity
  8
P-05BB
  6
Continuous
 62
     2
370
    -2
100
AcDbLine
 10
915.4217124721833
 20
458.9017963309966
 30
0.0
 11
915.4217124721833
 21
438.9017963309965
 31
0.0
  0
LINE
  5
799D
330
74A1
100
AcDbEntity
  8
P-05BB
  6
Continuous
 62
     2
370
    -2
100
AcDbLine
 10
915.4217124721833
 20
548.9017963259434
 30
0.0
 11
915.4217124721833
 21
568.9017963259434
 31
0.0
  0
LINE
  5
799E
330
74A1
100
AcDbEntity
  8
P-05BB
  6
Continuous
 62
     2
370
    -2
100
AcDbLine
 10
915.4217124721833
 20
478.9017963309966
 30
0.0
 11
915.4217124721833
 21
528.9017963259434
 31
0.0
  0
SOLID
  5
799F
330
74A1
100
AcDbEntity
  8
P-05BB
  6
Continuous
 62
     2
100
AcDbTrace
 10
912.08837913885
 20
458.9017963309966
 30
0.0
 11
918.7550458055167
 21
458.9017963309966
 31
0.0
 12
915.4217124721833
 22
478.9017963309966
 32
0.0
 13
915.4217124721833
 23
478.9017963309966
 33
0.0
  0
SOLID
  5
79A0
330
74A1
100
AcDbEntity
  8
P-05BB
  6
Continuous
 62
     2
100
AcDbTrace
 10
912.08837913885
 20
548.9017963259434
 30
0.0
 11
918.7550458055167
 21
548.9017963259434
 31
0.0
 12
915.4217124721833
 22
528.9017963259434
 32
0.0
 13
915.4217124721833
 23
528.9017963259434
 33
0.0
  0
MTEXT
  5
79A1
330
74A1
100
AcDbEntity
  8
P-05BB
  6
Continuous
 62
     1
100
AcDbMText
 10
895.1957649503173
 20
503.9017963284702
 30
0.0
 40
20.0
 41
0.0
 71
     5
 72
     1
  1
\A1;5
  7
Stile_Quota
 11
0.0000000000000001
 21
1.0
 31
0.0
 73
     1
 44
1.0
1001
ACAD
1000
MTEXTBEGIN
1070
    73
1070
     1
1070
    44
1040
1.0
1070
    74
1070
     0
1000
MTEXTEND
  0
POINT
  5
79A2
330
74A1
100
AcDbEntity
  8
Defpoints
  6
Continuous
 62
     0
100
AcDbPoint
 10
1105.845171499526
 20
478.9017963309966
 30
0.0
  0
POINT
  5
79A3
330
74A1
100
AcDbEntity
  8
Defpoints
  6
Continuous
 62
     0
100
AcDbPoint
 10
1105.845171499526
 20
528.9017963259434
 30
0.0
  0
POINT
  5
79A4
330
74A1
100
AcDbEntity
  8
Defpoints
  6
Continuous
 62
     0
100
AcDbPoint
 10
915.4217124721833
 20
528.9017963259434
 30
0.0
  0
ENDBLK
  5
74A3
330
74A1
100
AcDbEntity
  8
0
 62
     3
100
AcDbBlockEnd
  0
BLOCK
  5
74B0
330
74AF
100
AcDbEntity
  8
0
 62
     3
100
AcDbBlockBegin
  2
*D12
 70
     1
 10
0.0
 20
0.0
 30
0.0
  3
*D12
  1

  0
LINE
  5
79EE
330
74AF
100
AcDbEntity
  8
P-05BB
  6
Continuous
 62
     2
370
    -2
100
AcDbLine
 10
1095.845171499526
 20
628.9017963158443
 30
0.0
 11
900.4217124721836
 21
628.9017963158443
 31
0.0
  0
LINE
  5
79EF
330
74AF
100
AcDbEntity
  8
P-05BB
  6
Continuous
 62
     2
370
    -2
100
AcDbLine
 10
1103.845171498718
 20
683.9017963103915
 30
0.0
 11
900.4217124721836
 21
683.9017963103915
 31
0.0
  0
LINE
  5
79F0
330
74AF
100
AcDbEntity
  8
P-05BB
  6
Continuous
 62
     2
370
    -2
100
AcDbLine
 10
915.4217124721837
 20
608.9017963158444
 30
0.0
 11
915.4217124721837
 21
588.9017963158444
 31
0.0
  0
LINE
  5
79F1
330
74AF
100
AcDbEntity
  8
P-05BB
  6
Continuous
 62
     2
370
    -2
100
AcDbLine
 10
915.4217124721837
 20
703.9017963103916
 30
0.0
 11
915.4217124721837
 21
723.9017963103915
 31
0.0
  0
LINE
  5
79F2
330
74AF
100
AcDbEntity
  8
P-05BB
  6
Continuous
 62
     2
370
    -2
100
AcDbLine
 10
915.4217124721837
 20
628.9017963158443
 30
0.0
 11
915.4217124721837
 21
683.9017963103915
 31
0.0
  0
SOLID
  5
79F3
330
74AF
100
AcDbEntity
  8
P-05BB
  6
Continuous
 62
     2
100
AcDbTrace
 10
912.0883791388504
 20
608.9017963158444
 30
0.0
 11
918.755045805517
 21
608.9017963158444
 31
0.0
 12
915.4217124721837
 22
628.9017963158443
 32
0.0
 13
915.4217124721837
 23
628.9017963158443
 33
0.0
  0
SOLID
  5
79F4
330
74AF
100
AcDbEntity
  8
P-05BB
  6
Continuous
 62
     2
100
AcDbTrace
 10
912.0883791388504
 20
703.9017963103916
 30
0.0
 11
918.755045805517
 21
703.9017963103916
 31
0.0
 12
915.4217124721837
 22
683.9017963103915
 32
0.0
 13
915.4217124721837
 23
683.9017963103915
 33
0.0
  0
MTEXT
  5
79F5
330
74AF
100
AcDbEntity
  8
P-05BB
  6
Continuous
 62
     1
100
AcDbMText
 10
895.1957649503176
 20
656.4017963131182
 30
0.0
 40
20.0
 41
0.0
 71
     5
 72
     1
  1
\A1;5.5
  7
Stile_Quota
 11
0.0000000000000001
 21
1.0
 31
0.0
 73
     1
 44
1.0
1001
ACAD
1000
MTEXTBEGIN
1070
    73
1070
     1
1070
    44
1040
1.0
1070
    74
1070
     0
1000
MTEXTEND
  0
POINT
  5
79F6
330
74AF
100
AcDbEntity
  8
Defpoints
  6
Continuous
 62
     0
100
AcDbPoint
 10
1105.845171499526
 20
628.9017963158443
 30
0.0
  0
POINT
  5
79F7
330
74AF
100
AcDbEntity
  8
Defpoints
  6
Continuous
 62
     0
100
AcDbPoint
 10
1113.845171498717
 20
683.9017963103915
 30
0.0
  0
POINT
  5
79F8
330
74AF
100
AcDbEntity
  8
Defpoints
  6
Continuous
 62
     0
100
AcDbPoint
 10
915.4217124721837
 20
683.9017963103915
 30
0.0
  0
ENDBLK
  5
74B1
330
74AF
100
AcDbEntity
  8
0
 62
     3
100
AcDbBlockEnd
  0
BLOCK
  5
74D4
330
74D3
100
AcDbEntity
  8
0
 62
     3
100
AcDbBlockBegin
  2
*D13
 70
     1
 10
0.0
 20
0.0
 30
0.0
  3
*D13
  1

  0
LINE
  5
78C0
330
74D3
100
AcDbEntity
  8
P-05BB
  6
Continuous
 62
     2
370
    -2
100
AcDbLine
 10
1088.845171501343
 20
938.9017962980693
 30
0.0
 11
1088.845171501343
 21
1198.761033779928
 31
0.0
  0
LINE
  5
78C1
330
74D3
100
AcDbEntity
  8
P-05BB
  6
Continuous
 62
     2
370
    -2
100
AcDbLine
 10
1123.845171497845
 20
958.9017962960721
 30
0.0
 11
1123.845171497845
 21
1198.761033779928
 31
0.0
  0
LINE
  5
78C2
330
74D3
100
AcDbEntity
  8
P-05BB
  6
Continuous
 62
     2
370
    -2
100
AcDbLine
 10
1068.845171501343
 20
1183.761033779928
 30
0.0
 11
1048.845171501343
 21
1183.761033779928
 31
0.0
  0
LINE
  5
78C3
330
74D3
100
AcDbEntity
  8
P-05BB
  6
Continuous
 62
     2
370
    -2
100
AcDbLine
 10
1143.845171497845
 20
1183.761033779928
 30
0.0
 11
1220.988028640702
 21
1183.761033779928
 31
0.0
  0
LINE
  5
78C4
330
74D3
100
AcDbEntity
  8
P-05BB
  6
Continuous
 62
     2
370
    -2
100
AcDbLine
 10
1088.845171501343
 20
1183.761033779928
 30
0.0
 11
1123.845171497845
 21
1183.761033779928
 31
0.0
  0
SOLID
  5
78C5
330
74D3
100
AcDbEntity
  8
P-05BB
  6
Continuous
 62
     2
100
AcDbTrace
 10
1068.845171501343
 20
1187.094367113261
 30
0.0
 11
1068.845171501343
 21
1180.427700446594
 31
0.0
 12
1088.845171501343
 22
1183.761033779928
 32
0.0
 13
1088.845171501343
 23
1183.761033779928
 33
0.0
  0
SOLID
  5
78C6
330
74D3
100
AcDbEntity
  8
P-05BB
  6
Continuous
 62
     2
100
AcDbTrace
 10
1143.845171497845
 20
1187.094367113261
 30
0.0
 11
1143.845171497845
 21
1180.427700446594
 31
0.0
 12
1123.845171497845
 22
1183.761033779928
 32
0.0
 13
1123.845171497845
 23
1183.761033779928
 33
0.0
  0
MTEXT
  5
78C7
330
74D3
100
AcDbEntity
  8
P-05BB
  6
Continuous
 62
     1
100
AcDbMText
 10
1192.416600069273
 20
1203.986981301794
 30
0.0
 40
20.0
 41
0.0
 71
     5
 72
     1
  1
\A1;3.5
  7
Stile_Quota
 73
     1
 44
1.0
1001
ACAD
1000
MTEXTBEGIN
1070
    73
1070
     1
1070
    44
1040
1.0
1070
    74
1070
     0
1000
MTEXTEND
  0
POINT
  5
78C8
330
74D3
100
AcDbEntity
  8
Defpoints
  6
Continuous
 62
     0
100
AcDbPoint
 10
1088.845171501343
 20
928.9017962980691
 30
0.0
  0
POINT
  5
78C9
330
74D3
100
AcDbEntity
  8
Defpoints
  6
Continuous
 62
     0
100
AcDbPoint
 10
1123.845171497845
 20
948.9017962960719
 30
0.0
  0
POINT
  5
78CA
330
74D3
100
AcDbEntity
  8
Defpoints
  6
Continuous
 62
     0
100
AcDbPoint
 10
1123.845171497845
 20
1183.761033779928
 30
0.0
  0
ENDBLK
  5
74D5
330
74D3
100
AcDbEntity
  8
0
 62
     3
100
AcDbBlockEnd
  0
BLOCK
  5
74E2
330
74E1
100
AcDbEntity
  8
0
 62
     3
100
AcDbBlockBegin
  2
*D14
 70
     1
 10
0.0
 20
0.0
 30
0.0
  3
*D14
  1

  0
LINE
  5
7CCA
330
74E1
100
AcDbEntity
  8
P-05BB
  6
Continuous
 62
     2
370
    -2
100
AcDbLine
 10
1102.107757202833
 20
945.3626334829701
 30
0.0
 11
1102.107757202833
 21
1157.819637052836
 31
0.0
  0
LINE
  5
7CCB
330
74E1
100
AcDbEntity
  8
P-05BB
  6
Continuous
 62
     2
370
    -2
100
AcDbLine
 10
1088.845171501343
 20
938.9017962980693
 30
0.0
 11
1088.845171501343
 21
1157.819637052836
 31
0.0
  0
LINE
  5
7CCC
330
74E1
100
AcDbEntity
  8
P-05BB
  6
Continuous
 62
     2
370
    -2
100
AcDbLine
 10
1122.107757202833
 20
1142.819637052836
 30
0.0
 11
1142.107757202833
 21
1142.819637052836
 31
0.0
  0
LINE
  5
7CCD
330
74E1
100
AcDbEntity
  8
P-05BB
  6
Continuous
 62
     2
370
    -2
100
AcDbLine
 10
1068.845171501343
 20
1142.819637052836
 30
0.0
 11
992.3728682943462
 21
1142.819637052836
 31
0.0
  0
LINE
  5
7CCE
330
74E1
100
AcDbEntity
  8
P-05BB
  6
Continuous
 62
     2
370
    -2
100
AcDbLine
 10
1102.107757202833
 20
1142.819637052836
 30
0.0
 11
1088.845171501343
 21
1142.819637052836
 31
0.0
  0
SOLID
  5
7CCF
330
74E1
100
AcDbEntity
  8
P-05BB
  6
Continuous
 62
     2
100
AcDbTrace
 10
1122.107757202833
 20
1146.152970386169
 30
0.0
 11
1122.107757202833
 21
1139.486303719502
 31
0.0
 12
1102.107757202833
 22
1142.819637052836
 32
0.0
 13
1102.107757202833
 23
1142.819637052836
 33
0.0
  0
SOLID
  5
7CD0
330
74E1
100
AcDbEntity
  8
P-05BB
  6
Continuous
 62
     2
100
AcDbTrace
 10
1068.845171501343
 20
1146.152970386169
 30
0.0
 11
1068.845171501343
 21
1139.486303719502
 31
0.0
 12
1088.845171501343
 22
1142.819637052836
 32
0.0
 13
1088.845171501343
 23
1142.819637052836
 33
0.0
  0
MTEXT
  5
7CD1
330
74E1
100
AcDbEntity
  8
P-05BB
  6
Continuous
 62
     1
100
AcDbMText
 10
1020.609019897845
 20
1163.031007315226
 30
0.0
 40
20.0
 41
0.0
 71
     5
 72
     1
  1
\A1;1.3
  7
Stile_Quota
 73
     1
 44
1.0
1001
ACAD
1000
MTEXTBEGIN
1070
    73
1070
     1
1070
    44
1040
1.0
1070
    74
1070
     0
1000
MTEXTEND
  0
POINT
  5
7CD2
330
74E1
100
AcDbEntity
  8
Defpoints
  6
Continuous
 62
     0
100
AcDbPoint
 10
1102.107757202833
 20
935.36263348297
 30
0.0
  0
POINT
  5
7CD3
330
74E1
100
AcDbEntity
  8
Defpoints
  6
Continuous
 62
     0
100
AcDbPoint
 10
1088.845171501343
 20
928.9017962980691
 30
0.0
  0
POINT
  5
7CD4
330
74E1
100
AcDbEntity
  8
Defpoints
  6
Continuous
 62
     0
100
AcDbPoint
 10
1088.845171501343
 20
1142.819637052836
 30
0.0
  0
ENDBLK
  5
74E3
330
74E1
100
AcDbEntity
  8
0
 62
     3
100
AcDbBlockEnd
  0
BLOCK
  5
74F0
330
74EF
100
AcDbEntity
  8
0
 62
     3
100
AcDbBlockBegin
  2
*D15
 70
     1
 10
0.0
 20
0.0
 30
0.0
  3
*D15
  1

  0
LINE
  5
7CD5
330
74EF
100
AcDbEntity
  8
P-05BB
  6
Continuous
 62
     2
370
    -2
100
AcDbLine
 10
1102.107757202833
 20
945.3626334829701
 30
0.0
 11
1102.107757202833
 21
1152.819637052836
 31
0.0
  0
LINE
  5
7CD6
330
74EF
100
AcDbEntity
  8
P-05BB
  6
Continuous
 62
     2
370
    -2
100
AcDbLine
 10
1123.845171497845
 20
958.9017962960721
 30
0.0
 11
1123.845171497845
 21
1152.819637052836
 31
0.0
  0
LINE
  5
7CD7
330
74EF
100
AcDbEntity
  8
P-05BB
  6
Continuous
 62
     2
370
    -2
100
AcDbLine
 10
1082.107757202833
 20
1137.819637052835
 30
0.0
 11
1062.107757202833
 21
1137.819637052835
 31
0.0
  0
LINE
  5
7CD8
330
74EF
100
AcDbEntity
  8
P-05BB
  6
Continuous
 62
     2
370
    -2
100
AcDbLine
 10
1143.845171497845
 20
1137.819637052835
 30
0.0
 11
1221.527387241285
 21
1137.819637052835
 31
0.0
  0
LINE
  5
7CD9
330
74EF
100
AcDbEntity
  8
P-05BB
  6
Continuous
 62
     2
370
    -2
100
AcDbLine
 10
1102.107757202833
 20
1137.819637052835
 30
0.0
 11
1123.845171497845
 21
1137.819637052835
 31
0.0
  0
SOLID
  5
7CDA
330
74EF
100
AcDbEntity
  8
P-05BB
  6
Continuous
 62
     2
100
AcDbTrace
 10
1082.107757202833
 20
1141.152970386169
 30
0.0
 11
1082.107757202833
 21
1134.486303719502
 31
0.0
 12
1102.107757202833
 22
1137.819637052835
 32
0.0
 13
1102.107757202833
 23
1137.819637052835
 33
0.0
  0
SOLID
  5
7CDB
330
74EF
100
AcDbEntity
  8
P-05BB
  6
Continuous
 62
     2
100
AcDbTrace
 10
1143.845171497845
 20
1141.152970386169
 30
0.0
 11
1143.845171497845
 21
1134.486303719502
 31
0.0
 12
1123.845171497845
 22
1137.819637052835
 32
0.0
 13
1123.845171497845
 23
1137.819637052835
 33
0.0
  0
MTEXT
  5
7CDC
330
74EF
100
AcDbEntity
  8
P-05BB
  6
Continuous
 62
     1
100
AcDbMText
 10
1192.686279369565
 20
1158.001852796276
 30
0.0
 40
20.0
 41
0.0
 71
     5
 72
     1
  1
\A1;2.2
  7
Stile_Quota
 73
     1
 44
1.0
1001
ACAD
1000
MTEXTBEGIN
1070
    73
1070
     1
1070
    44
1040
1.0
1070
    74
1070
     0
1000
MTEXTEND
  0
POINT
  5
7CDD
330
74EF
100
AcDbEntity
  8
Defpoints
  6
Continuous
 62
     0
100
AcDbPoint
 10
1102.107757202833
 20
935.36263348297
 30
0.0
  0
POINT
  5
7CDE
330
74EF
100
AcDbEntity
  8
Defpoints
  6
Continuous
 62
     0
100
AcDbPoint
 10
1123.845171497845
 20
948.9017962960719
 30
0.0
  0
POINT
  5
7CDF
330
74EF
100
AcDbEntity
  8
Defpoints
  6
Continuous
 62
     0
100
AcDbPoint
 10
1123.845171497845
 20
1137.819637052835
 30
0.0
  0
ENDBLK
  5
74F1
330
74EF
100
AcDbEntity
  8
0
 62
     3
100
AcDbBlockEnd
  0
BLOCK
  5
74FE
330
74FD
100
AcDbEntity
  8
0
 62
     3
100
AcDbBlockBegin
  2
*D16
 70
     1
 10
0.0
 20
0.0
 30
0.0
  3
*D16
  1

  0
LINE
  5
7B09
330
74FD
100
AcDbEntity
  8
P-05BB
  6
Continuous
 62
     2
370
    -2
100
AcDbLine
 10
1373.845171473569
 20
403.901796338569
 30
0.0
 11
1643.734645236381
 21
403.9017963385689
 31
0.0
  0
LINE
  5
7B0A
330
74FD
100
AcDbEntity
  8
P-05BB
  6
Continuous
 62
     2
370
    -2
100
AcDbLine
 10
1150.485536855862
 20
893.9017963020701
 30
0.0
 11
1643.734645236382
 21
893.9017963020701
 31
0.0
  0
LINE
  5
7B0B
330
74FD
100
AcDbEntity
  8
P-05BB
  6
Continuous
 62
     2
370
    -2
100
AcDbLine
 10
1628.734645236382
 20
423.9017963385689
 30
0.0
 11
1628.734645236382
 21
873.90179630207
 31
0.0
  0
SOLID
  5
7B0C
330
74FD
100
AcDbEntity
  8
P-05BB
  6
Continuous
 62
     2
100
AcDbTrace
 10
1625.401311903048
 20
423.9017963385689
 30
0.0
 11
1632.067978569715
 21
423.9017963385689
 31
0.0
 12
1628.734645236382
 22
403.9017963385689
 32
0.0
 13
1628.734645236382
 23
403.9017963385689
 33
0.0
  0
SOLID
  5
7B0D
330
74FD
100
AcDbEntity
  8
P-05BB
  6
Continuous
 62
     2
100
AcDbTrace
 10
1625.401311903048
 20
873.90179630207
 30
0.0
 11
1632.067978569715
 21
873.90179630207
 31
0.0
 12
1628.734645236382
 22
893.9017963020701
 32
0.0
 13
1628.734645236382
 23
893.9017963020701
 33
0.0
  0
MTEXT
  5
7B0E
330
74FD
100
AcDbEntity
  8
P-05BB
  6
Continuous
 62
     1
100
AcDbMText
 10
1608.501409084778
 20
648.9017963203196
 30
0.0
 40
20.0
 41
0.0
 71
     5
 72
     1
  1
\A1;49
  7
Stile_Quota
 11
0.0000000000000001
 21
1.0
 31
0.0
 73
     1
 44
1.0
1001
ACAD
1000
MTEXTBEGIN
1070
    73
1070
     1
1070
    44
1040
1.0
1070
    74
1070
     0
1000
MTEXTEND
  0
POINT
  5
7B0F
330
74FD
100
AcDbEntity
  8
Defpoints
  6
Continuous
 62
     0
100
AcDbPoint
 10
1363.845171473569
 20
403.901796338569
 30
0.0
  0
POINT
  5
7B10
330
74FD
100
AcDbEntity
  8
Defpoints
  6
Continuous
 62
     0
100
AcDbPoint
 10
1140.485536855862
 20
893.9017963020701
 30
0.0
  0
POINT
  5
7B11
330
74FD
100
AcDbEntity
  8
Defpoints
  6
Continuous
 62
     0
100
AcDbPoint
 10
1628.734645236382
 20
893.9017963020701
 30
0.0
  0
ENDBLK
  5
74FF
330
74FD
100
AcDbEntity
  8
0
 62
     3
100
AcDbBlockEnd
  0
BLOCK
  5
753F
330
753E
100
AcDbEntity
  8
0
 62
     3
100
AcDbBlockBegin
  2
*D17
 70
     1
 10
0.0
 20
0.0
 30
0.0
  3
*D17
  1

  0
LINE
  5
82B3
330
753E
100
AcDbEntity
  8
P-05BB
  6
Continuous
 62
     2
370
    -2
100
AcDbLine
 10
1130.476999735784
 20
971.0309754907436
 30
0.0
 11
1181.001911326952
 21
1067.152995139993
 31
0.0
  0
LINE
  5
82B4
330
753E
100
AcDbEntity
  8
P-05BB
  6
Continuous
 62
     2
370
    -2
100
AcDbLine
 10
1118.845171498344
 20
948.9017962960716
 30
0.0
 11
1121.171537145648
 21
953.3276321346548
 31
0.0
  0
SOLID
  5
82B5
330
753E
100
AcDbEntity
  8
P-05BB
  6
Continuous
 62
     2
100
AcDbTrace
 10
1127.526442509769
 20
972.5818859224331
 30
0.0
 11
1133.427556961799
 21
969.480065059054
 31
0.0
 12
1121.171537145648
 22
953.3276321346548
 32
0.0
 13
1121.171537145648
 23
953.3276321346548
 33
0.0
  0
MTEXT
  5
82B6
330
753E
100
AcDbEntity
  8
P-05BB
  6
Continuous
 62
     1
100
AcDbMText
 10
1144.857282651482
 20
1041.860128804435
 30
0.0
 40
20.0
 41
0.0
 71
     5
 72
     1
  1
\A1;R0.5
  7
Stile_Quota
 11
0.4652731295068284
 21
0.8851671678044334
 31
0.0
 73
     1
 44
1.0
1001
ACAD
1000
MTEXTBEGIN
1070
    73
1070
     1
1070
    44
1040
1.0
1070
    74
1070
     0
1000
MTEXTEND
  0
POINT
  5
82B7
330
753E
100
AcDbEntity
  8
Defpoints
  6
Continuous
 62
     0
100
AcDbPoint
 10
1121.171537145648
 20
953.3276321346548
 30
0.0
  0
POINT
  5
82B8
330
753E
100
AcDbEntity
  8
Defpoints
  6
Continuous
 62
     0
100
AcDbPoint
 10
1118.845171498344
 20
948.9017962960716
 30
0.0
  0
ENDBLK
  5
7540
330
753E
100
AcDbEntity
  8
0
 62
     3
100
AcDbBlockEnd
  0
BLOCK
  5
7548
330
7547
100
AcDbEntity
  8
0
 62
     3
100
AcDbBlockBegin
  2
*D18
 70
     1
 10
0.0
 20
0.0
 30
0.0
  3
*D18
  1

  0
LINE
  5
82AD
330
7547
100
AcDbEntity
  8
P-05BB
  6
Continuous
 62
     2
370
    -2
100
AcDbLine
 10
1073.523570118322
 20
948.8809970299575
 30
0.0
 11
970.1535583008364
 21
1000.100446284194
 31
0.0
  0
LINE
  5
82AE
330
7547
100
AcDbEntity
  8
P-05BB
  6
Continuous
 62
     2
370
    -2
100
AcDbLine
 10
1113.845171498844
 20
928.9017962980691
 30
0.0
 11
1091.444281843995
 21
940.0013522597356
 31
0.0
  0
SOLID
  5
82AF
330
7547
100
AcDbEntity
  8
P-05BB
  6
Continuous
 62
     2
100
AcDbTrace
 10
1075.003510913359
 20
951.8677823175694
 30
0.0
 11
1072.043629323285
 21
945.8942117423454
 31
0.0
 12
1091.444281843995
 22
940.0013522597356
 32
0.0
 13
1091.444281843995
 23
940.0013522597356
 33
0.0
  0
MTEXT
  5
82B0
330
7547
100
AcDbEntity
  8
P-05BB
  6
Continuous
 62
     1
100
AcDbMText
 10
1014.263078202352
 20
1000.817051903625
 30
0.0
 40
20.0
 41
0.0
 71
     5
 72
     1
  1
\A1;R2.5
  7
Stile_Quota
 11
0.896035586283647
 21
-0.4439822385110929
 31
0.0
 73
     1
 44
1.0
1001
ACAD
1000
MTEXTBEGIN
1070
    73
1070
     1
1070
    44
1040
1.0
1070
    74
1070
     0
1000
MTEXTEND
  0
POINT
  5
82B1
330
7547
100
AcDbEntity
  8
Defpoints
  6
Continuous
 62
     0
100
AcDbPoint
 10
1091.444281843995
 20
940.0013522597356
 30
0.0
  0
POINT
  5
82B2
330
7547
100
AcDbEntity
  8
Defpoints
  6
Continuous
 62
     0
100
AcDbPoint
 10
1113.845171498844
 20
928.9017962980691
 30
0.0
  0
ENDBLK
  5
7549
330
7547
100
AcDbEntity
  8
0
 62
     3
100
AcDbBlockEnd
  0
BLOCK
  5
7551
330
7550
100
AcDbEntity
  8
0
 62
     3
100
AcDbBlockBegin
  2
*D19
 70
     1
 10
0.0
 20
0.0
 30
0.0
  3
*D19
  1

  0
LINE
  5
82A6
330
7550
100
AcDbEntity
  8
P-05BB
  6
Continuous
 62
     2
370
    -2
100
AcDbLine
 10
1083.399689652822
 20
927.9345827061094
 30
0.0
 11
983.8375176749266
 21
892.2213097448652
 31
0.0
  0
LINE
  5
82A7
330
7550
100
AcDbEntity
  8
P-05BB
  6
Continuous
 62
     2
370
    -2
100
AcDbLine
 10
1104.107757202634
 20
935.36263348297
 30
0.0
 11
1102.225205607368
 21
934.6873561396805
 31
0.0
  0
SOLID
  5
82A8
330
7550
100
AcDbEntity
  8
P-05BB
  6
Continuous
 62
     2
100
AcDbTrace
 10
1082.274227413893
 20
931.0721686985337
 30
0.0
 11
1084.52515189175
 21
924.7969967136851
 31
0.0
 12
1102.225205607368
 22
934.6873561396805
 32
0.0
 13
1102.225205607368
 23
934.6873561396805
 33
0.0
  0
MTEXT
  5
82A9
330
7550
100
AcDbEntity
  8
P-05BB
  6
Continuous
 62
     1
100
AcDbMText
 10
1013.911680955299
 20
924.496810864778
 30
0.0
 40
20.0
 41
0.0
 71
     5
 72
     1
  1
\A1;R0.2
  7
Stile_Quota
 11
0.9412757977272901
 21
0.3376386716785473
 31
0.0
 73
     1
 44
1.0
1001
ACAD
1000
MTEXTBEGIN
1070
    73
1070
     1
1070
    44
1040
1.0
1070
    74
1070
     0
1000
MTEXTEND
  0
ARC
  5
82AA
330
7550
100
AcDbEntity
  8
P-05BB
  6
Continuous
 62
     2
370
    -2
100
AcDbCircle
 10
1104.107757202634
 20
935.36263348297
 30
0.0
 40
1.999999999800138
100
AcDbArc
 50
180.0
 51
199.7330743281785
  0
POINT
  5
82AB
330
7550
100
AcDbEntity
  8
Defpoints
  6
Continuous
 62
     0
100
AcDbPoint
 10
1102.225205607368
 20
934.6873561396805
 30
0.0
  0
POINT
  5
82AC
330
7550
100
AcDbEntity
  8
Defpoints
  6
Continuous
 62
     0
100
AcDbPoint
 10
1104.107757202634
 20
935.36263348297
 30
0.0
  0
ENDBLK
  5
7552
330
7550
100
AcDbEntity
  8
0
 62
     3
100
AcDbBlockEnd
  0
BLOCK
  5
755B
330
755A
100
AcDbEntity
  8
0
 62
     3
100
AcDbBlockBegin
  2
*D20
 70
     1
 10
0.0
 20
0.0
 30
0.0
  3
*D20
  1

  0
LINE
  5
79B0
330
755A
100
AcDbEntity
  8
P-05BB
  6
Continuous
 62
     2
370
    -2
100
AcDbLine
 10
1371.845171472863
 20
488.9017963309965
 30
0.0
 11
1371.845171472863
 21
540.4853041308485
 31
0.0
  0
LINE
  5
79B1
330
755A
100
AcDbEntity
  8
P-05BB
  6
Continuous
 62
     2
370
    -2
100
AcDbLine
 10
1368.845171473165
 20
488.9017963309965
 30
0.0
 11
1368.845171473165
 21
540.4853041308485
 31
0.0
  0
LINE
  5
79B2
330
755A
100
AcDbEntity
  8
P-05BB
  6
Continuous
 62
     2
370
    -2
100
AcDbLine
 10
1391.845171472862
 20
525.4853041308486
 30
0.0
 11
1411.845171472863
 21
525.4853041308486
 31
0.0
  0
LINE
  5
79B3
330
755A
100
AcDbEntity
  8
P-05BB
  6
Continuous
 62
     2
370
    -2
100
AcDbLine
 10
1348.845171473165
 20
525.4853041308486
 30
0.0
 11
1271.197941152466
 21
525.4853041308486
 31
0.0
  0
LINE
  5
79B4
330
755A
100
AcDbEntity
  8
P-05BB
  6
Continuous
 62
     2
370
    -2
100
AcDbLine
 10
1371.845171472863
 20
525.4853041308486
 30
0.0
 11
1368.845171473165
 21
525.4853041308486
 31
0.0
  0
SOLID
  5
79B5
330
755A
100
AcDbEntity
  8
P-05BB
  6
Continuous
 62
     2
100
AcDbTrace
 10
1391.845171472862
 20
528.8186374641819
 30
0.0
 11
1391.845171472862
 21
522.1519707975152
 31
0.0
 12
1371.845171472863
 22
525.4853041308486
 32
0.0
 13
1371.845171472863
 23
525.4853041308486
 33
0.0
  0
SOLID
  5
79B6
330
755A
100
AcDbEntity
  8
P-05BB
  6
Continuous
 62
     2
100
AcDbTrace
 10
1348.845171473165
 20
528.8186374641819
 30
0.0
 11
1348.845171473165
 21
522.1519707975152
 31
0.0
 12
1368.845171473165
 22
525.4853041308486
 32
0.0
 13
1368.845171473165
 23
525.4853041308486
 33
0.0
  0
MTEXT
  5
79B7
330
755A
100
AcDbEntity
  8
P-05BB
  6
Continuous
 62
     1
100
AcDbMText
 10
1299.521556312815
 20
545.7112516527145
 30
0.0
 40
20.0
 41
0.0
 71
     5
 72
     1
  1
\A1;0.3
  7
Stile_Quota
 73
     1
 44
1.0
1001
ACAD
1000
MTEXTBEGIN
1070
    73
1070
     1
1070
    44
1040
1.0
1070
    74
1070
     0
1000
MTEXTEND
  0
POINT
  5
79B8
330
755A
100
AcDbEntity
  8
Defpoints
  6
Continuous
 62
     0
100
AcDbPoint
 10
1371.845171472863
 20
478.9017963309966
 30
0.0
  0
POINT
  5
79B9
330
755A
100
AcDbEntity
  8
Defpoints
  6
Continuous
 62
     0
100
AcDbPoint
 10
1368.845171473165
 20
478.9017963309966
 30
0.0
  0
POINT
  5
79BA
330
755A
100
AcDbEntity
  8
Defpoints
  6
Continuous
 62
     0
100
AcDbPoint
 10
1368.845171473165
 20
525.4853041308486
 30
0.0
  0
ENDBLK
  5
755C
330
755A
100
AcDbEntity
  8
0
 62
     3
100
AcDbBlockEnd
  0
BLOCK
  5
7569
330
7568
100
AcDbEntity
  8
0
 62
     3
100
AcDbBlockBegin
  2
*D21
 70
     1
 10
0.0
 20
0.0
 30
0.0
  3
*D21
  1

  0
LINE
  5
78B7
330
7568
100
AcDbEntity
  8
P-05BB
  6
Continuous
 62
     2
370
    -2
100
AcDbLine
 10
1083.845171500843
 20
703.9017963082701
 30
0.0
 11
801.4438110422416
 21
703.9017963082701
 31
0.0
  0
LINE
  5
78B8
330
7568
100
AcDbEntity
  8
P-05BB
  6
Continuous
 62
     2
370
    -2
100
AcDbLine
 10
1103.845171498818
 20
403.901796338569
 30
0.0
 11
801.4438110422416
 21
403.9017963385691
 31
0.0
  0
LINE
  5
78B9
330
7568
100
AcDbEntity
  8
P-05BB
  6
Continuous
 62
     2
370
    -2
100
AcDbLine
 10
816.4438110422416
 20
683.9017963082701
 30
0.0
 11
816.4438110422416
 21
423.901796338569
 31
0.0
  0
SOLID
  5
78BA
330
7568
100
AcDbEntity
  8
P-05BB
  6
Continuous
 62
     2
100
AcDbTrace
 10
813.1104777089081
 20
683.9017963082701
 30
0.0
 11
819.7771443755749
 21
683.9017963082701
 31
0.0
 12
816.4438110422416
 22
703.9017963082701
 32
0.0
 13
816.4438110422416
 23
703.9017963082701
 33
0.0
  0
SOLID
  5
78BB
330
7568
100
AcDbEntity
  8
P-05BB
  6
Continuous
 62
     2
100
AcDbTrace
 10
813.1104777089081
 20
423.901796338569
 30
0.0
 11
819.7771443755749
 21
423.901796338569
 31
0.0
 12
816.4438110422416
 22
403.9017963385691
 32
0.0
 13
816.4438110422416
 23
403.9017963385691
 33
0.0
  0
MTEXT
  5
78BC
330
7568
100
AcDbEntity
  8
P-05BB
  6
Continuous
 62
     1
100
AcDbMText
 10
796.2178635203756
 20
553.9017963234198
 30
0.0
 40
20.0
 41
0.0
 71
     5
 72
     1
  1
\A1;30
  7
Stile_Quota
 11
0.0000000000000001
 21
1.0
 31
0.0
 73
     1
 44
1.0
1001
ACAD
1000
MTEXTBEGIN
1070
    73
1070
     1
1070
    44
1040
1.0
1070
    74
1070
     0
1000
MTEXTEND
  0
POINT
  5
78BD
330
7568
100
AcDbEntity
  8
Defpoints
  6
Continuous
 62
     0
100
AcDbPoint
 10
1093.845171500843
 20
703.9017963082701
 30
0.0
  0
POINT
  5
78BE
330
7568
100
AcDbEntity
  8
Defpoints
  6
Continuous
 62
     0
100
AcDbPoint
 10
1113.845171498819
 20
403.901796338569
 30
0.0
  0
POINT
  5
78BF
330
7568
100
AcDbEntity
  8
Defpoints
  6
Continuous
 62
     0
100
AcDbPoint
 10
816.4438110422416
 20
403.9017963385691
 30
0.0
  0
ENDBLK
  5
756A
330
7568
100
AcDbEntity
  8
0
 62
     3
100
AcDbBlockEnd
  0
BLOCK
  5
7575
330
7574
100
AcDbEntity
  8
0
 62
     3
100
AcDbBlockBegin
  2
*D22
 70
     1
 10
0.0
 20
0.0
 30
0.0
  3
*D22
  1

  0
LINE
  5
7930
330
7574
100
AcDbEntity
  8
P-05BB
  6
Continuous
 62
     2
370
    -2
100
AcDbLine
 10
1083.845171500843
 20
703.9017963082701
 30
0.0
 11
801.4438110422414
 21
703.9017963082701
 31
0.0
  0
LINE
  5
7931
330
7574
100
AcDbEntity
  8
P-05BB
  6
Continuous
 62
     2
370
    -2
100
AcDbLine
 10
1103.845171498844
 20
953.9017962955693
 30
0.0
 11
801.4438110422416
 21
953.9017962955693
 31
0.0
  0
LINE
  5
7932
330
7574
100
AcDbEntity
  8
P-05BB
  6
Continuous
 62
     2
370
    -2
100
AcDbLine
 10
816.4438110422414
 20
723.9017963082702
 30
0.0
 11
816.4438110422416
 21
933.9017962955692
 31
0.0
  0
SOLID
  5
7933
330
7574
100
AcDbEntity
  8
P-05BB
  6
Continuous
 62
     2
100
AcDbTrace
 10
813.1104777089081
 20
723.9017963082702
 30
0.0
 11
819.7771443755748
 21
723.9017963082702
 31
0.0
 12
816.4438110422414
 22
703.9017963082701
 32
0.0
 13
816.4438110422414
 23
703.9017963082701
 33
0.0
  0
SOLID
  5
7934
330
7574
100
AcDbEntity
  8
P-05BB
  6
Continuous
 62
     2
100
AcDbTrace
 10
813.1104777089081
 20
933.9017962955692
 30
0.0
 11
819.7771443755749
 21
933.9017962955692
 31
0.0
 12
816.4438110422416
 22
953.9017962955693
 32
0.0
 13
816.4438110422416
 23
953.9017962955693
 33
0.0
  0
MTEXT
  5
7935
330
7574
100
AcDbEntity
  8
P-05BB
  6
Continuous
 62
     1
100
AcDbMText
 10
796.2178635203754
 20
828.9017963019199
 30
0.0
 40
20.0
 41
0.0
 71
     5
 72
     1
  1
\A1;25
  7
Stile_Quota
 11
0.0000000000000001
 21
1.0
 31
0.0
 73
     1
 44
1.0
1001
ACAD
1000
MTEXTBEGIN
1070
    73
1070
     1
1070
    44
1040
1.0
1070
    74
1070
     0
1000
MTEXTEND
  0
POINT
  5
7936
330
7574
100
AcDbEntity
  8
Defpoints
  6
Continuous
 62
     0
100
AcDbPoint
 10
1093.845171500843
 20
703.9017963082701
 30
0.0
  0
POINT
  5
7937
330
7574
100
AcDbEntity
  8
Defpoints
  6
Continuous
 62
     0
100
AcDbPoint
 10
1113.845171498844
 20
953.9017962955693
 30
0.0
  0
POINT
  5
7938
330
7574
100
AcDbEntity
  8
Defpoints
  6
Continuous
 62
     0
100
AcDbPoint
 10
816.4438110422416
 20
953.9017962955693
 30
0.0
  0
ENDBLK
  5
7576
330
7574
100
AcDbEntity
  8
0
 62
     3
100
AcDbBlockEnd
  0
BLOCK
  5
7581
330
7580
100
AcDbEntity
  8
0
 62
     3
100
AcDbBlockBegin
  2
*D23
 70
     1
 10
0.0
 20
0.0
 30
0.0
  3
*D23
  1

  0
LINE
  5
7939
330
7580
100
AcDbEntity
  8
P-05BB
  6
Continuous
 62
     2
370
    -2
100
AcDbLine
 10
1103.845171498818
 20
403.901796338569
 30
0.0
 11
751.076242387773
 21
403.9017963385691
 31
0.0
  0
LINE
  5
793A
330
7580
100
AcDbEntity
  8
P-05BB
  6
Continuous
 62
     2
370
    -2
100
AcDbLine
 10
1103.845171498844
 20
953.9017962955693
 30
0.0
 11
751.0762423877731
 21
953.9017962955695
 31
0.0
  0
LINE
  5
793B
330
7580
100
AcDbEntity
  8
P-05BB
  6
Continuous
 62
     2
370
    -2
100
AcDbLine
 10
766.076242387773
 20
423.901796338569
 30
0.0
 11
766.0762423877732
 21
933.9017962955693
 31
0.0
  0
SOLID
  5
793C
330
7580
100
AcDbEntity
  8
P-05BB
  6
Continuous
 62
     2
100
AcDbTrace
 10
762.7429090544397
 20
423.901796338569
 30
0.0
 11
769.4095757211064
 21
423.901796338569
 31
0.0
 12
766.076242387773
 22
403.9017963385691
 32
0.0
 13
766.076242387773
 23
403.9017963385691
 33
0.0
  0
SOLID
  5
793D
330
7580
100
AcDbEntity
  8
P-05BB
  6
Continuous
 62
     2
100
AcDbTrace
 10
762.7429090544397
 20
933.9017962955693
 30
0.0
 11
769.4095757211065
 21
933.9017962955692
 31
0.0
 12
766.0762423877732
 22
953.9017962955695
 32
0.0
 13
766.0762423877732
 23
953.9017962955695
 33
0.0
  0
MTEXT
  5
793E
330
7580
100
AcDbEntity
  8
P-05BB
  6
Continuous
 62
     1
100
AcDbMText
 10
745.850294865907
 20
678.9017963170693
 30
0.0
 40
20.0
 41
0.0
 71
     5
 72
     1
  1
\A1;55
  7
Stile_Quota
 11
0.0000000000000001
 21
1.0
 31
0.0
 73
     1
 44
1.0
1001
ACAD
1000
MTEXTBEGIN
1070
    73
1070
     1
1070
    44
1040
1.0
1070
    74
1070
     0
1000
MTEXTEND
  0
POINT
  5
793F
330
7580
100
AcDbEntity
  8
Defpoints
  6
Continuous
 62
     0
100
AcDbPoint
 10
1113.845171498819
 20
403.901796338569
 30
0.0
  0
POINT
  5
7940
330
7580
100
AcDbEntity
  8
Defpoints
  6
Continuous
 62
     0
100
AcDbPoint
 10
1113.845171498844
 20
953.9017962955693
 30
0.0
  0
POINT
  5
7941
330
7580
100
AcDbEntity
  8
Defpoints
  6
Continuous
 62
     0
100
AcDbPoint
 10
766.0762423877732
 20
953.9017962955695
 30
0.0
  0
ENDBLK
  5
7582
330
7580
100
AcDbEntity
  8
0
 62
     3
100
AcDbBlockEnd
  0
BLOCK
  5
758D
330
758C
100
AcDbEntity
  8
0
 62
     3
100
AcDbBlockBegin
  2
*D24
 70
     1
 10
0.0
 20
0.0
 30
0.0
  3
*D24
  1

  0
LINE
  5
789A
330
758C
100
AcDbEntity
  8
P-05BB
  6
Continuous
 62
     2
370
    -2
100
AcDbLine
 10
1103.845171498718
 20
683.9017963103911
 30
0.0
 11
856.2884966444835
 21
683.9017963103911
 31
0.0
  0
LINE
  5
789B
330
758C
100
AcDbEntity
  8
P-05BB
  6
Continuous
 62
     2
370
    -2
100
AcDbLine
 10
1083.845171500843
 20
703.9017963082701
 30
0.0
 11
856.2884966444835
 21
703.9017963082701
 31
0.0
  0
LINE
  5
789C
330
758C
100
AcDbEntity
  8
P-05BB
  6
Continuous
 62
     2
370
    -2
100
AcDbLine
 10
871.2884966444836
 20
663.9017963103911
 30
0.0
 11
871.2884966444836
 21
643.9017963103911
 31
0.0
  0
LINE
  5
789D
330
758C
100
AcDbEntity
  8
P-05BB
  6
Continuous
 62
     2
370
    -2
100
AcDbLine
 10
871.2884966444836
 20
723.9017963082702
 30
0.0
 11
871.2884966444836
 21
777.298297765996
 31
0.0
  0
LINE
  5
789E
330
758C
100
AcDbEntity
  8
P-05BB
  6
Continuous
 62
     2
370
    -2
100
AcDbLine
 10
871.2884966444836
 20
683.9017963103911
 30
0.0
 11
871.2884966444836
 21
703.9017963082701
 31
0.0
  0
SOLID
  5
789F
330
758C
100
AcDbEntity
  8
P-05BB
  6
Continuous
 62
     2
100
AcDbTrace
 10
867.9551633111501
 20
663.9017963103911
 30
0.0
 11
874.6218299778169
 21
663.9017963103911
 31
0.0
 12
871.2884966444836
 22
683.9017963103911
 32
0.0
 13
871.2884966444836
 23
683.9017963103911
 33
0.0
  0
SOLID
  5
78A0
330
758C
100
AcDbEntity
  8
P-05BB
  6
Continuous
 62
     2
100
AcDbTrace
 10
867.9551633111501
 20
723.9017963082702
 30
0.0
 11
874.6218299778169
 21
723.9017963082702
 31
0.0
 12
871.2884966444836
 22
703.9017963082701
 32
0.0
 13
871.2884966444836
 23
703.9017963082701
 33
0.0
  0
MTEXT
  5
78A1
330
758C
100
AcDbEntity
  8
P-05BB
  6
Continuous
 62
     1
100
AcDbMText
 10
851.2884966444834
 20
760.6000470371333
 30
0.0
 40
20.0
 41
0.0
 71
     5
 72
     1
  1
\A1;2
  7
Stile_Quota
 11
0.0000000000000001
 21
1.0
 31
0.0
 73
     1
 44
1.0
1001
ACAD
1000
MTEXTBEGIN
1070
    73
1070
     1
1070
    44
1040
1.0
1070
    74
1070
     0
1000
MTEXTEND
  0
POINT
  5
78A2
330
758C
100
AcDbEntity
  8
Defpoints
  6
Continuous
 62
     0
100
AcDbPoint
 10
1113.845171498717
 20
683.9017963103911
 30
0.0
  0
POINT
  5
78A3
330
758C
100
AcDbEntity
  8
Defpoints
  6
Continuous
 62
     0
100
AcDbPoint
 10
1093.845171500843
 20
703.9017963082701
 30
0.0
  0
POINT
  5
78A4
330
758C
100
AcDbEntity
  8
Defpoints
  6
Continuous
 62
     0
100
AcDbPoint
 10
871.2884966444836
 20
703.9017963082701
 30
0.0
  0
ENDBLK
  5
758E
330
758C
100
AcDbEntity
  8
0
 62
     3
100
AcDbBlockEnd
  0
BLOCK
  5
759B
330
759A
100
AcDbEntity
  8
0
 62
     3
100
AcDbBlockBegin
  2
*D25
 70
     1
 10
0.0
 20
0.0
 30
0.0
  3
*D25
  1

  0
LINE
  5
7891
330
759A
100
AcDbEntity
  8
P-05BB
  6
Continuous
 62
     2
370
    -2
100
AcDbLine
 10
1103.845171498718
 20
683.9017963103911
 30
0.0
 11
855.2884966444835
 21
683.9017963103911
 31
0.0
  0
LINE
  5
7892
330
759A
100
AcDbEntity
  8
P-05BB
  6
Continuous
 62
     2
370
    -2
100
AcDbLine
 10
1103.845171498718
 20
423.9017963364463
 30
0.0
 11
855.2884966444835
 21
423.9017963364463
 31
0.0
  0
LINE
  5
7893
330
759A
100
AcDbEntity
  8
P-05BB
  6
Continuous
 62
     2
370
    -2
100
AcDbLine
 10
870.2884966444836
 20
663.9017963103911
 30
0.0
 11
870.2884966444836
 21
443.9017963364463
 31
0.0
  0
SOLID
  5
7894
330
759A
100
AcDbEntity
  8
P-05BB
  6
Continuous
 62
     2
100
AcDbTrace
 10
866.9551633111501
 20
663.9017963103911
 30
0.0
 11
873.6218299778169
 21
663.9017963103911
 31
0.0
 12
870.2884966444836
 22
683.9017963103911
 32
0.0
 13
870.2884966444836
 23
683.9017963103911
 33
0.0
  0
SOLID
  5
7895
330
759A
100
AcDbEntity
  8
P-05BB
  6
Continuous
 62
     2
100
AcDbTrace
 10
866.9551633111501
 20
443.9017963364463
 30
0.0
 11
873.6218299778169
 21
443.9017963364463
 31
0.0
 12
870.2884966444836
 22
423.9017963364463
 32
0.0
 13
870.2884966444836
 23
423.9017963364463
 33
0.0
  0
MTEXT
  5
7896
330
759A
100
AcDbEntity
  8
P-05BB
  6
Continuous
 62
     1
100
AcDbMText
 10
850.0625491226175
 20
553.9017963234189
 30
0.0
 40
20.0
 41
0.0
 71
     5
 72
     1
  1
\A1;26
  7
Stile_Quota
 11
0.0000000000000001
 21
1.0
 31
0.0
 73
     1
 44
1.0
1001
ACAD
1000
MTEXTBEGIN
1070
    73
1070
     1
1070
    44
1040
1.0
1070
    74
1070
     0
1000
MTEXTEND
  0
POINT
  5
7897
330
759A
100
AcDbEntity
  8
Defpoints
  6
Continuous
 62
     0
100
AcDbPoint
 10
1113.845171498717
 20
683.9017963103911
 30
0.0
  0
POINT
  5
7898
330
759A
100
AcDbEntity
  8
Defpoints
  6
Continuous
 62
     0
100
AcDbPoint
 10
1113.845171498718
 20
423.9017963364463
 30
0.0
  0
POINT
  5
7899
330
759A
100
AcDbEntity
  8
Defpoints
  6
Continuous
 62
     0
100
AcDbPoint
 10
870.2884966444836
 20
423.9017963364463
 30
0.0
  0
ENDBLK
  5
759C
330
759A
100
AcDbEntity
  8
0
 62
     3
100
AcDbBlockEnd
  0
BLOCK
  5
75A7
330
75A6
100
AcDbEntity
  8
0
 62
     3
100
AcDbBlockBegin
  2
*D26
 70
     1
 10
0.0
 20
0.0
 30
0.0
  3
*D26
  1

  0
LINE
  5
7886
330
75A6
100
AcDbEntity
  8
P-05BB
  6
Continuous
 62
     2
370
    -2
100
AcDbLine
 10
1103.845171498718
 20
423.9017963364463
 30
0.0
 11
855.2884966444835
 21
423.9017963364463
 31
0.0
  0
LINE
  5
7887
330
75A6
100
AcDbEntity
  8
P-05BB
  6
Continuous
 62
     2
370
    -2
100
AcDbLine
 10
1102.845171498818
 20
403.901796338569
 30
0.0
 11
855.2884966444835
 21
403.9017963385691
 31
0.0
  0
LINE
  5
7888
330
75A6
100
AcDbEntity
  8
P-05BB
  6
Continuous
 62
     2
370
    -2
100
AcDbLine
 10
870.2884966444836
 20
443.9017963364463
 30
0.0
 11
870.2884966444836
 21
463.9017963364463
 31
0.0
  0
LINE
  5
7889
330
75A6
100
AcDbEntity
  8
P-05BB
  6
Continuous
 62
     2
370
    -2
100
AcDbLine
 10
870.2884966444836
 20
383.9017963385691
 30
0.0
 11
870.2884966444836
 21
330.5052948808432
 31
0.0
  0
LINE
  5
788A
330
75A6
100
AcDbEntity
  8
P-05BB
  6
Continuous
 62
     2
370
    -2
100
AcDbLine
 10
870.2884966444836
 20
423.9017963364463
 30
0.0
 11
870.2884966444836
 21
403.9017963385691
 31
0.0
  0
SOLID
  5
788B
330
75A6
100
AcDbEntity
  8
P-05BB
  6
Continuous
 62
     2
100
AcDbTrace
 10
866.9551633111501
 20
443.9017963364463
 30
0.0
 11
873.6218299778169
 21
443.9017963364463
 31
0.0
 12
870.2884966444836
 22
423.9017963364463
 32
0.0
 13
870.2884966444836
 23
423.9017963364463
 33
0.0
  0
SOLID
  5
788C
330
75A6
100
AcDbEntity
  8
P-05BB
  6
Continuous
 62
     2
100
AcDbTrace
 10
866.9551633111501
 20
383.9017963385691
 30
0.0
 11
873.6218299778169
 21
383.9017963385691
 31
0.0
 12
870.2884966444836
 22
403.9017963385691
 32
0.0
 13
870.2884966444836
 23
403.9017963385691
 33
0.0
  0
MTEXT
  5
788D
330
75A6
100
AcDbEntity
  8
P-05BB
  6
Continuous
 62
     1
100
AcDbMText
 10
850.2884966444835
 20
347.2035456097063
 30
0.0
 40
20.0
 41
0.0
 71
     5
 72
     1
  1
\A1;2
  7
Stile_Quota
 11
0.0000000000000001
 21
1.0
 31
0.0
 73
     1
 44
1.0
1001
ACAD
1000
MTEXTBEGIN
1070
    73
1070
     1
1070
    44
1040
1.0
1070
    74
1070
     0
1000
MTEXTEND
  0
POINT
  5
788E
330
75A6
100
AcDbEntity
  8
Defpoints
  6
Continuous
 62
     0
100
AcDbPoint
 10
1113.845171498718
 20
423.9017963364463
 30
0.0
  0
POINT
  5
788F
330
75A6
100
AcDbEntity
  8
Defpoints
  6
Continuous
 62
     0
100
AcDbPoint
 10
1112.845171498818
 20
403.901796338569
 30
0.0
  0
POINT
  5
7890
330
75A6
100
AcDbEntity
  8
Defpoints
  6
Continuous
 62
     0
100
AcDbPoint
 10
870.2884966444836
 20
403.9017963385691
 30
0.0
  0
ENDBLK
  5
75A8
330
75A6
100
AcDbEntity
  8
0
 62
     3
100
AcDbBlockEnd
  0
BLOCK
  5
75B5
330
75B4
100
AcDbEntity
  8
0
 62
     3
100
AcDbBlockBegin
  2
*D27
 70
     1
 10
0.0
 20
0.0
 30
0.0
  3
*D27
  1

  0
LINE
  5
787D
330
75B4
100
AcDbEntity
  8
P-05BB
  6
Continuous
 62
     2
370
    -2
100
AcDbLine
 10
1088.845171501343
 20
418.9017963360461
 30
0.0
 11
1088.845171501343
 21
101.2913869901849
 31
0.0
  0
LINE
  5
787E
330
75B4
100
AcDbEntity
  8
P-05BB
  6
Continuous
 62
     2
370
    -2
100
AcDbLine
 10
1388.845171471044
 20
418.9017963360461
 30
0.0
 11
1388.845171471044
 21
101.2913869901849
 31
0.0
  0
LINE
  5
787F
330
75B4
100
AcDbEntity
  8
P-05BB
  6
Continuous
 62
     2
370
    -2
100
AcDbLine
 10
1108.845171501343
 20
116.2913869901849
 30
0.0
 11
1368.845171471044
 21
116.2913869901849
 31
0.0
  0
SOLID
  5
7880
330
75B4
100
AcDbEntity
  8
P-05BB
  6
Continuous
 62
     2
100
AcDbTrace
 10
1108.845171501343
 20
119.6247203235182
 30
0.0
 11
1108.845171501343
 21
112.9580536568516
 31
0.0
 12
1088.845171501343
 22
116.2913869901849
 32
0.0
 13
1088.845171501343
 23
116.2913869901849
 33
0.0
  0
SOLID
  5
7881
330
75B4
100
AcDbEntity
  8
P-05BB
  6
Continuous
 62
     2
100
AcDbTrace
 10
1368.845171471044
 20
119.6247203235182
 30
0.0
 11
1368.845171471044
 21
112.9580536568516
 31
0.0
 12
1388.845171471044
 22
116.2913869901849
 32
0.0
 13
1388.845171471044
 23
116.2913869901849
 33
0.0
  0
MTEXT
  5
7882
330
75B4
100
AcDbEntity
  8
P-05BB
  6
Continuous
 62
     1
100
AcDbMText
 10
1238.845171486194
 20
136.5173345120508
 30
0.0
 40
20.0
 41
0.0
 71
     5
 72
     1
  1
\A1;30
  7
Stile_Quota
 73
     1
 44
1.0
1001
ACAD
1000
MTEXTBEGIN
1070
    73
1070
     1
1070
    44
1040
1.0
1070
    74
1070
     0
1000
MTEXTEND
  0
POINT
  5
7883
330
75B4
100
AcDbEntity
  8
Defpoints
  6
Continuous
 62
     0
100
AcDbPoint
 10
1088.845171501343
 20
428.9017963360461
 30
0.0
  0
POINT
  5
7884
330
75B4
100
AcDbEntity
  8
Defpoints
  6
Continuous
 62
     0
100
AcDbPoint
 10
1388.845171471044
 20
428.9017963360461
 30
0.0
  0
POINT
  5
7885
330
75B4
100
AcDbEntity
  8
Defpoints
  6
Continuous
 62
     0
100
AcDbPoint
 10
1388.845171471044
 20
116.2913869901849
 30
0.0
  0
ENDBLK
  5
75B6
330
75B4
100
AcDbEntity
  8
0
 62
     3
100
AcDbBlockEnd
  0
BLOCK
  5
75C1
330
75C0
100
AcDbEntity
  8
0
 62
     3
100
AcDbBlockBegin
  2
*D28
 70
     1
 10
0.0
 20
0.0
 30
0.0
  3
*D28
  1

  0
LINE
  5
7872
330
75C0
100
AcDbEntity
  8
P-05BB
  6
Continuous
 62
     2
370
    -2
100
AcDbLine
 10
1368.845171473165
 20
418.9017963359442
 30
0.0
 11
1368.845171473165
 21
154.4968001376128
 31
0.0
  0
LINE
  5
7873
330
75C0
100
AcDbEntity
  8
P-05BB
  6
Continuous
 62
     2
370
    -2
100
AcDbLine
 10
1388.845171471044
 20
418.9017963360461
 30
0.0
 11
1388.845171471044
 21
154.4968001376128
 31
0.0
  0
LINE
  5
7874
330
75C0
100
AcDbEntity
  8
P-05BB
  6
Continuous
 62
     2
370
    -2
100
AcDbLine
 10
1348.845171473165
 20
169.4968001376128
 30
0.0
 11
1328.845171473165
 21
169.4968001376128
 31
0.0
  0
LINE
  5
7875
330
75C0
100
AcDbEntity
  8
P-05BB
  6
Continuous
 62
     2
370
    -2
100
AcDbLine
 10
1408.845171471044
 20
169.4968001376128
 30
0.0
 11
1462.24167292877
 21
169.4968001376128
 31
0.0
  0
LINE
  5
7876
330
75C0
100
AcDbEntity
  8
P-05BB
  6
Continuous
 62
     2
370
    -2
100
AcDbLine
 10
1368.845171473165
 20
169.4968001376128
 30
0.0
 11
1388.845171471044
 21
169.4968001376128
 31
0.0
  0
SOLID
  5
7877
330
75C0
100
AcDbEntity
  8
P-05BB
  6
Continuous
 62
     2
100
AcDbTrace
 10
1348.845171473165
 20
172.8301334709461
 30
0.0
 11
1348.845171473165
 21
166.1634668042794
 31
0.0
 12
1368.845171473165
 22
169.4968001376128
 32
0.0
 13
1368.845171473165
 23
169.4968001376128
 33
0.0
  0
SOLID
  5
7878
330
75C0
100
AcDbEntity
  8
P-05BB
  6
Continuous
 62
     2
100
AcDbTrace
 10
1408.845171471044
 20
172.8301334709461
 30
0.0
 11
1408.845171471044
 21
166.1634668042794
 31
0.0
 12
1388.845171471044
 22
169.4968001376128
 32
0.0
 13
1388.845171471044
 23
169.4968001376128
 33
0.0
  0
MTEXT
  5
7879
330
75C0
100
AcDbEntity
  8
P-05BB
  6
Continuous
 62
     1
100
AcDbMText
 10
1445.543422199907
 20
189.4968001376128
 30
0.0
 40
20.0
 41
0.0
 71
     5
 72
     1
  1
\A1;2
  7
Stile_Quota
 73
     1
 44
1.0
1001
ACAD
1000
MTEXTBEGIN
1070
    73
1070
     1
1070
    44
1040
1.0
1070
    74
1070
     0
1000
MTEXTEND
  0
POINT
  5
787A
330
75C0
100
AcDbEntity
  8
Defpoints
  6
Continuous
 62
     0
100
AcDbPoint
 10
1368.845171473165
 20
428.9017963359442
 30
0.0
  0
POINT
  5
787B
330
75C0
100
AcDbEntity
  8
Defpoints
  6
Continuous
 62
     0
100
AcDbPoint
 10
1388.845171471044
 20
428.9017963360461
 30
0.0
  0
POINT
  5
787C
330
75C0
100
AcDbEntity
  8
Defpoints
  6
Continuous
 62
     0
100
AcDbPoint
 10
1388.845171471044
 20
169.4968001376128
 30
0.0
  0
ENDBLK
  5
75C2
330
75C0
100
AcDbEntity
  8
0
 62
     3
100
AcDbBlockEnd
  0
BLOCK
  5
75CF
330
75CE
100
AcDbEntity
  8
0
 62
     3
100
AcDbBlockBegin
  2
*D29
 70
     1
 10
0.0
 20
0.0
 30
0.0
  3
*D29
  1

  0
LINE
  5
7869
330
75CE
100
AcDbEntity
  8
P-05BB
  6
Continuous
 62
     2
370
    -2
100
AcDbLine
 10
1368.845171473165
 20
418.9017963359442
 30
0.0
 11
1368.845171473165
 21
153.4968001377146
 31
0.0
  0
LINE
  5
786A
330
75CE
100
AcDbEntity
  8
P-05BB
  6
Continuous
 62
     2
370
    -2
100
AcDbLine
 10
1108.845171499224
 20
418.9017963359442
 30
0.0
 11
1108.845171499224
 21
153.4968001377146
 31
0.0
  0
LINE
  5
786B
330
75CE
100
AcDbEntity
  8
P-05BB
  6
Continuous
 62
     2
370
    -2
100
AcDbLine
 10
1348.845171473165
 20
168.4968001377147
 30
0.0
 11
1128.845171499224
 21
168.4968001377147
 31
0.0
  0
SOLID
  5
786C
330
75CE
100
AcDbEntity
  8
P-05BB
  6
Continuous
 62
     2
100
AcDbTrace
 10
1348.845171473165
 20
171.830133471048
 30
0.0
 11
1348.845171473165
 21
165.1634668043813
 31
0.0
 12
1368.845171473165
 22
168.4968001377147
 32
0.0
 13
1368.845171473165
 23
168.4968001377147
 33
0.0
  0
SOLID
  5
786D
330
75CE
100
AcDbEntity
  8
P-05BB
  6
Continuous
 62
     2
100
AcDbTrace
 10
1128.845171499224
 20
171.830133471048
 30
0.0
 11
1128.845171499224
 21
165.1634668043813
 31
0.0
 12
1108.845171499224
 22
168.4968001377147
 32
0.0
 13
1108.845171499224
 23
168.4968001377147
 33
0.0
  0
MTEXT
  5
786E
330
75CE
100
AcDbEntity
  8
P-05BB
  6
Continuous
 62
     1
100
AcDbMText
 10
1238.845171486195
 20
188.7227476595805
 30
0.0
 40
20.0
 41
0.0
 71
     5
 72
     1
  1
\A1;26
  7
Stile_Quota
 73
     1
 44
1.0
1001
ACAD
1000
MTEXTBEGIN
1070
    73
1070
     1
1070
    44
1040
1.0
1070
    74
1070
     0
1000
MTEXTEND
  0
POINT
  5
786F
330
75CE
100
AcDbEntity
  8
Defpoints
  6
Continuous
 62
     0
100
AcDbPoint
 10
1368.845171473165
 20
428.9017963359442
 30
0.0
  0
POINT
  5
7870
330
75CE
100
AcDbEntity
  8
Defpoints
  6
Continuous
 62
     0
100
AcDbPoint
 10
1108.845171499224
 20
428.9017963359442
 30
0.0
  0
POINT
  5
7871
330
75CE
100
AcDbEntity
  8
Defpoints
  6
Continuous
 62
     0
100
AcDbPoint
 10
1108.845171499224
 20
168.4968001377147
 30
0.0
  0
ENDBLK
  5
75D0
330
75CE
100
AcDbEntity
  8
0
 62
     3
100
AcDbBlockEnd
  0
BLOCK
  5
75DB
330
75DA
100
AcDbEntity
  8
0
 62
     3
100
AcDbBlockBegin
  2
*D30
 70
     1
 10
0.0
 20
0.0
 30
0.0
  3
*D30
  1

  0
LINE
  5
785E
330
75DA
100
AcDbEntity
  8
P-05BB
  6
Continuous
 62
     2
370
    -2
100
AcDbLine
 10
1108.845171499224
 20
418.9017963359442
 30
0.0
 11
1108.845171499224
 21
154.4968001376128
 31
0.0
  0
LINE
  5
785F
330
75DA
100
AcDbEntity
  8
P-05BB
  6
Continuous
 62
     2
370
    -2
100
AcDbLine
 10
1088.845171501343
 20
418.9017963360461
 30
0.0
 11
1088.845171501343
 21
154.4968001376128
 31
0.0
  0
LINE
  5
7860
330
75DA
100
AcDbEntity
  8
P-05BB
  6
Continuous
 62
     2
370
    -2
100
AcDbLine
 10
1128.845171499223
 20
169.4968001376128
 30
0.0
 11
1148.845171499223
 21
169.4968001376128
 31
0.0
  0
LINE
  5
7861
330
75DA
100
AcDbEntity
  8
P-05BB
  6
Continuous
 62
     2
370
    -2
100
AcDbLine
 10
1068.845171501344
 20
169.4968001376128
 30
0.0
 11
1015.448670043618
 21
169.4968001376128
 31
0.0
  0
LINE
  5
7862
330
75DA
100
AcDbEntity
  8
P-05BB
  6
Continuous
 62
     2
370
    -2
100
AcDbLine
 10
1108.845171499224
 20
169.4968001376128
 30
0.0
 11
1088.845171501343
 21
169.4968001376128
 31
0.0
  0
SOLID
  5
7863
330
75DA
100
AcDbEntity
  8
P-05BB
  6
Continuous
 62
     2
100
AcDbTrace
 10
1128.845171499223
 20
172.8301334709461
 30
0.0
 11
1128.845171499223
 21
166.1634668042794
 31
0.0
 12
1108.845171499224
 22
169.4968001376128
 32
0.0
 13
1108.845171499224
 23
169.4968001376128
 33
0.0
  0
SOLID
  5
7864
330
75DA
100
AcDbEntity
  8
P-05BB
  6
Continuous
 62
     2
100
AcDbTrace
 10
1068.845171501344
 20
172.8301334709461
 30
0.0
 11
1068.845171501344
 21
166.1634668042794
 31
0.0
 12
1088.845171501343
 22
169.4968001376128
 32
0.0
 13
1088.845171501343
 23
169.4968001376128
 33
0.0
  0
MTEXT
  5
7865
330
75DA
100
AcDbEntity
  8
P-05BB
  6
Continuous
 62
     1
100
AcDbMText
 10
1032.14692077248
 20
189.4968001376128
 30
0.0
 40
20.0
 41
0.0
 71
     5
 72
     1
  1
\A1;2
  7
Stile_Quota
 73
     1
 44
1.0
1001
ACAD
1000
MTEXTBEGIN
1070
    73
1070
     1
1070
    44
1040
1.0
1070
    74
1070
     0
1000
MTEXTEND
  0
POINT
  5
7866
330
75DA
100
AcDbEntity
  8
Defpoints
  6
Continuous
 62
     0
100
AcDbPoint
 10
1108.845171499224
 20
428.9017963359442
 30
0.0
  0
POINT
  5
7867
330
75DA
100
AcDbEntity
  8
Defpoints
  6
Continuous
 62
     0
100
AcDbPoint
 10
1088.845171501343
 20
428.9017963360461
 30
0.0
  0
POINT
  5
7868
330
75DA
100
AcDbEntity
  8
Defpoints
  6
Continuous
 62
     0
100
AcDbPoint
 10
1088.845171501343
 20
169.4968001376128
 30
0.0
  0
ENDBLK
  5
75DC
330
75DA
100
AcDbEntity
  8
0
 62
     3
100
AcDbBlockEnd
  0
BLOCK
  5
75E9
330
75E8
100
AcDbEntity
  8
0
 62
     3
100
AcDbBlockBegin
  2
*D31
 70
     1
 10
0.0
 20
0.0
 30
0.0
  3
*D31
  1

  0
LINE
  5
7A51
330
75E8
100
AcDbEntity
  8
P-05BB
  6
Continuous
 62
     2
370
    -2
100
AcDbLine
 10
1163.84517149377
 20
410.9017963367518
 30
0.0
 11
1163.84517149377
 21
212.0707628801556
 31
0.0
  0
LINE
  5
7A52
330
75E8
100
AcDbEntity
  8
P-05BB
  6
Continuous
 62
     2
370
    -2
100
AcDbLine
 10
1108.845171499224
 20
418.9017963359442
 30
0.0
 11
1108.845171499224
 21
212.0707628801556
 31
0.0
  0
LINE
  5
7A53
330
75E8
100
AcDbEntity
  8
P-05BB
  6
Continuous
 62
     2
370
    -2
100
AcDbLine
 10
1183.84517149377
 20
227.0707628801556
 30
0.0
 11
1203.84517149377
 21
227.0707628801556
 31
0.0
  0
LINE
  5
7A54
330
75E8
100
AcDbEntity
  8
P-05BB
  6
Continuous
 62
     2
370
    -2
100
AcDbLine
 10
1088.845171499224
 20
227.0707628801556
 30
0.0
 11
1068.845171499224
 21
227.0707628801556
 31
0.0
  0
LINE
  5
7A55
330
75E8
100
AcDbEntity
  8
P-05BB
  6
Continuous
 62
     2
370
    -2
100
AcDbLine
 10
1163.84517149377
 20
227.0707628801556
 30
0.0
 11
1108.845171499224
 21
227.0707628801556
 31
0.0
  0
SOLID
  5
7A56
330
75E8
100
AcDbEntity
  8
P-05BB
  6
Continuous
 62
     2
100
AcDbTrace
 10
1183.84517149377
 20
230.404096213489
 30
0.0
 11
1183.84517149377
 21
223.7374295468223
 31
0.0
 12
1163.84517149377
 22
227.0707628801556
 32
0.0
 13
1163.84517149377
 23
227.0707628801556
 33
0.0
  0
SOLID
  5
7A57
330
75E8
100
AcDbEntity
  8
P-05BB
  6
Continuous
 62
     2
100
AcDbTrace
 10
1088.845171499224
 20
230.404096213489
 30
0.0
 11
1088.845171499224
 21
223.7374295468223
 31
0.0
 12
1108.845171499224
 22
227.0707628801556
 32
0.0
 13
1108.845171499224
 23
227.0707628801556
 33
0.0
  0
MTEXT
  5
7A58
330
75E8
100
AcDbEntity
  8
P-05BB
  6
Continuous
 62
     1
100
AcDbMText
 10
1136.345171496497
 20
247.2967104020215
 30
0.0
 40
20.0
 41
0.0
 71
     5
 72
     1
  1
\A1;5.5
  7
Stile_Quota
 73
     1
 44
1.0
1001
ACAD
1000
MTEXTBEGIN
1070
    73
1070
     1
1070
    44
1040
1.0
1070
    74
1070
     0
1000
MTEXTEND
  0
POINT
  5
7A59
330
75E8
100
AcDbEntity
  8
Defpoints
  6
Continuous
 62
     0
100
AcDbPoint
 10
1163.84517149377
 20
420.9017963367519
 30
0.0
  0
POINT
  5
7A5A
330
75E8
100
AcDbEntity
  8
Defpoints
  6
Continuous
 62
     0
100
AcDbPoint
 10
1108.845171499224
 20
428.9017963359442
 30
0.0
  0
POINT
  5
7A5B
330
75E8
100
AcDbEntity
  8
Defpoints
  6
Continuous
 62
     0
100
AcDbPoint
 10
1108.845171499224
 20
227.0707628801556
 30
0.0
  0
ENDBLK
  5
75EA
330
75E8
100
AcDbEntity
  8
0
 62
     3
100
AcDbBlockEnd
  0
BLOCK
  5
75F7
330
75F6
100
AcDbEntity
  8
0
 62
     3
100
AcDbBlockBegin
  2
*D32
 70
     1
 10
0.0
 20
0.0
 30
0.0
  3
*D32
  1

  0
LINE
  5
7A46
330
75F6
100
AcDbEntity
  8
P-05BB
  6
Continuous
 62
     2
370
    -2
100
AcDbLine
 10
1313.845171478619
 20
410.9017963367518
 30
0.0
 11
1313.845171478619
 21
212.0707628801556
 31
0.0
  0
LINE
  5
7A47
330
75F6
100
AcDbEntity
  8
P-05BB
  6
Continuous
 62
     2
370
    -2
100
AcDbLine
 10
1368.845171473165
 20
418.9017963359442
 30
0.0
 11
1368.845171473165
 21
212.0707628801556
 31
0.0
  0
LINE
  5
7A48
330
75F6
100
AcDbEntity
  8
P-05BB
  6
Continuous
 62
     2
370
    -2
100
AcDbLine
 10
1293.845171478619
 20
227.0707628801556
 30
0.0
 11
1273.845171478619
 21
227.0707628801556
 31
0.0
  0
LINE
  5
7A49
330
75F6
100
AcDbEntity
  8
P-05BB
  6
Continuous
 62
     2
370
    -2
100
AcDbLine
 10
1388.845171473165
 20
227.0707628801556
 30
0.0
 11
1408.845171473165
 21
227.0707628801556
 31
0.0
  0
LINE
  5
7A4A
330
75F6
100
AcDbEntity
  8
P-05BB
  6
Continuous
 62
     2
370
    -2
100
AcDbLine
 10
1313.845171478619
 20
227.0707628801556
 30
0.0
 11
1368.845171473165
 21
227.0707628801556
 31
0.0
  0
SOLID
  5
7A4B
330
75F6
100
AcDbEntity
  8
P-05BB
  6
Continuous
 62
     2
100
AcDbTrace
 10
1293.845171478619
 20
230.404096213489
 30
0.0
 11
1293.845171478619
 21
223.7374295468223
 31
0.0
 12
1313.845171478619
 22
227.0707628801556
 32
0.0
 13
1313.845171478619
 23
227.0707628801556
 33
0.0
  0
SOLID
  5
7A4C
330
75F6
100
AcDbEntity
  8
P-05BB
  6
Continuous
 62
     2
100
AcDbTrace
 10
1388.845171473165
 20
230.404096213489
 30
0.0
 11
1388.845171473165
 21
223.7374295468223
 31
0.0
 12
1368.845171473165
 22
227.0707628801556
 32
0.0
 13
1368.845171473165
 23
227.0707628801556
 33
0.0
  0
MTEXT
  5
7A4D
330
75F6
100
AcDbEntity
  8
P-05BB
  6
Continuous
 62
     1
100
AcDbMText
 10
1341.345171475892
 20
247.2967104020215
 30
0.0
 40
20.0
 41
0.0
 71
     5
 72
     1
  1
\A1;5.5
  7
Stile_Quota
 73
     1
 44
1.0
1001
ACAD
1000
MTEXTBEGIN
1070
    73
1070
     1
1070
    44
1040
1.0
1070
    74
1070
     0
1000
MTEXTEND
  0
POINT
  5
7A4E
330
75F6
100
AcDbEntity
  8
Defpoints
  6
Continuous
 62
     0
100
AcDbPoint
 10
1313.845171478619
 20
420.9017963367519
 30
0.0
  0
POINT
  5
7A4F
330
75F6
100
AcDbEntity
  8
Defpoints
  6
Continuous
 62
     0
100
AcDbPoint
 10
1368.845171473165
 20
428.9017963359442
 30
0.0
  0
POINT
  5
7A50
330
75F6
100
AcDbEntity
  8
Defpoints
  6
Continuous
 62
     0
100
AcDbPoint
 10
1368.845171473165
 20
227.0707628801556
 30
0.0
  0
ENDBLK
  5
75F8
330
75F6
100
AcDbEntity
  8
0
 62
     3
100
AcDbBlockEnd
  0
BLOCK
  5
7605
330
7604
100
AcDbEntity
  8
0
 62
     3
100
AcDbBlockBegin
  2
*D33
 70
     1
 10
0.0
 20
0.0
 30
0.0
  3
*D33
  1

  0
LINE
  5
7A25
330
7604
100
AcDbEntity
  8
P-05BB
  6
Continuous
 62
     2
370
    -2
100
AcDbLine
 10
1163.84517149377
 20
410.9017963367518
 30
0.0
 11
1163.84517149377
 21
212.0707628801556
 31
0.0
  0
LINE
  5
7A26
330
7604
100
AcDbEntity
  8
P-05BB
  6
Continuous
 62
     2
370
    -2
100
AcDbLine
 10
1213.845171488719
 20
410.9017963367518
 30
0.0
 11
1213.845171488719
 21
212.0707628801556
 31
0.0
  0
LINE
  5
7A27
330
7604
100
AcDbEntity
  8
P-05BB
  6
Continuous
 62
     2
370
    -2
100
AcDbLine
 10
1143.84517149377
 20
227.0707628801556
 30
0.0
 11
1123.84517149377
 21
227.0707628801556
 31
0.0
  0
LINE
  5
7A28
330
7604
100
AcDbEntity
  8
P-05BB
  6
Continuous
 62
     2
370
    -2
100
AcDbLine
 10
1233.845171488719
 20
227.0707628801556
 30
0.0
 11
1253.845171488719
 21
227.0707628801556
 31
0.0
  0
LINE
  5
7A29
330
7604
100
AcDbEntity
  8
P-05BB
  6
Continuous
 62
     2
370
    -2
100
AcDbLine
 10
1163.84517149377
 20
227.0707628801556
 30
0.0
 11
1213.845171488719
 21
227.0707628801556
 31
0.0
  0
SOLID
  5
7A2A
330
7604
100
AcDbEntity
  8
P-05BB
  6
Continuous
 62
     2
100
AcDbTrace
 10
1143.84517149377
 20
230.404096213489
 30
0.0
 11
1143.84517149377
 21
223.7374295468223
 31
0.0
 12
1163.84517149377
 22
227.0707628801556
 32
0.0
 13
1163.84517149377
 23
227.0707628801556
 33
0.0
  0
SOLID
  5
7A2B
330
7604
100
AcDbEntity
  8
P-05BB
  6
Continuous
 62
     2
100
AcDbTrace
 10
1233.845171488719
 20
230.404096213489
 30
0.0
 11
1233.845171488719
 21
223.7374295468223
 31
0.0
 12
1213.845171488719
 22
227.0707628801556
 32
0.0
 13
1213.845171488719
 23
227.0707628801556
 33
0.0
  0
MTEXT
  5
7A2C
330
7604
100
AcDbEntity
  8
P-05BB
  6
Continuous
 62
     1
100
AcDbMText
 10
1188.845171491245
 20
247.2967104020215
 30
0.0
 40
20.0
 41
0.0
 71
     5
 72
     1
  1
\A1;5
  7
Stile_Quota
 73
     1
 44
1.0
1001
ACAD
1000
MTEXTBEGIN
1070
    73
1070
     1
1070
    44
1040
1.0
1070
    74
1070
     0
1000
MTEXTEND
  0
POINT
  5
7A2D
330
7604
100
AcDbEntity
  8
Defpoints
  6
Continuous
 62
     0
100
AcDbPoint
 10
1163.84517149377
 20
420.9017963367519
 30
0.0
  0
POINT
  5
7A2E
330
7604
100
AcDbEntity
  8
Defpoints
  6
Continuous
 62
     0
100
AcDbPoint
 10
1213.845171488719
 20
420.9017963367519
 30
0.0
  0
POINT
  5
7A2F
330
7604
100
AcDbEntity
  8
Defpoints
  6
Continuous
 62
     0
100
AcDbPoint
 10
1213.845171488719
 20
227.0707628801556
 30
0.0
  0
ENDBLK
  5
7606
330
7604
100
AcDbEntity
  8
0
 62
     3
100
AcDbBlockEnd
  0
BLOCK
  5
7AA0
330
7A9F
100
AcDbEntity
  8
0
 62
     3
100
AcDbBlockBegin
  2
*D34
 70
     1
 10
0.0
 20
0.0
 30
0.0
  3
*D34
  1

  0
LINE
  5
7B31
330
7A9F
100
AcDbEntity
  8
P-05BB
  6
Continuous
 62
     2
370
    -2
100
AcDbLine
 10
1183.496752750909
 20
718.6337697202913
 30
0.0
 11
1256.976450517611
 21
708.8714099535736
 31
0.0
  0
LINE
  5
7B32
330
7A9F
100
AcDbEntity
  8
P-05BB
  6
Continuous
 62
     2
370
    -2
100
AcDbLine
 10
1143.845171497846
 20
723.9017963082702
 30
0.0
 11
1163.670962124377
 21
721.2677830142808
 31
0.0
  0
SOLID
  5
7B33
330
7A9F
100
AcDbEntity
  8
P-05BB
  6
Continuous
 62
     2
100
AcDbTrace
 10
1183.935754966574
 20
721.9380681580466
 30
0.0
 11
1183.057750535244
 21
715.3294712825359
 31
0.0
 12
1163.670962124377
 22
721.2677830142808
 32
0.0
 13
1163.670962124377
 23
721.2677830142808
 33
0.0
  0
MTEXT
  5
7B34
330
7A9F
100
AcDbEntity
  8
P-05BB
  6
Continuous
 62
     1
100
AcDbMText
 10
1232.798868919614
 20
732.3769760941753
 30
0.0
 40
20.0
 41
0.0
 71
     5
 72
     1
  1
\A1;R2
  7
Stile_Quota
 11
0.991289531326603
 21
-0.131700664699475
 31
0.0
 73
     1
 44
1.0
1001
ACAD
1000
MTEXTBEGIN
1070
    73
1070
     1
1070
    44
1040
1.0
1070
    74
1070
     0
1000
MTEXTEND
  0
ARC
  5
7B35
330
7A9F
100
AcDbEntity
  8
P-05BB
  6
Continuous
 62
     2
370
    -2
100
AcDbCircle
 10
1143.845171497846
 20
723.9017963082702
 30
0.0
 40
19.99999999999886
100
AcDbArc
 50
298.6478897565428
 51
35.40395634652457
  0
POINT
  5
7B36
330
7A9F
100
AcDbEntity
  8
Defpoints
  6
Continuous
 62
     0
100
AcDbPoint
 10
1163.670962124377
 20
721.2677830142808
 30
0.0
  0
POINT
  5
7B37
330
7A9F
100
AcDbEntity
  8
Defpoints
  6
Continuous
 62
     0
100
AcDbPoint
 10
1143.845171497846
 20
723.9017963082702
 30
0.0
  0
ENDBLK
  5
7AA1
330
7A9F
100
AcDbEntity
  8
0
 62
     3
100
AcDbBlockEnd
  0
BLOCK
  5
7AB9
330
7AB8
100
AcDbEntity
  8
0
 62
     3
100
AcDbBlockBegin
  2
*D35
 70
     1
 10
0.0
 20
0.0
 30
0.0
  3
*D35
  1

  0
LINE
  5
7B00
330
7AB8
100
AcDbEntity
  8
P-05BB
  6
Continuous
 62
     2
370
    -2
100
AcDbLine
 10
1135.845171497845
 20
843.9017963082701
 30
0.0
 11
1568.88930254327
 21
843.9017963082701
 31
0.0
  0
LINE
  5
7B01
330
7AB8
100
AcDbEntity
  8
P-05BB
  6
Continuous
 62
     2
370
    -2
100
AcDbLine
 10
1135.845171497845
 20
773.9017963082702
 30
0.0
 11
1568.88930254327
 21
773.90179630827
 31
0.0
  0
LINE
  5
7B02
330
7AB8
100
AcDbEntity
  8
P-05BB
  6
Continuous
 62
     2
370
    -2
100
AcDbLine
 10
1553.88930254327
 20
823.90179630827
 30
0.0
 11
1553.88930254327
 21
793.90179630827
 31
0.0
  0
SOLID
  5
7B03
330
7AB8
100
AcDbEntity
  8
P-05BB
  6
Continuous
 62
     2
100
AcDbTrace
 10
1550.555969209936
 20
823.90179630827
 30
0.0
 11
1557.222635876603
 21
823.90179630827
 31
0.0
 12
1553.88930254327
 22
843.9017963082701
 32
0.0
 13
1553.88930254327
 23
843.9017963082701
 33
0.0
  0
SOLID
  5
7B04
330
7AB8
100
AcDbEntity
  8
P-05BB
  6
Continuous
 62
     2
100
AcDbTrace
 10
1550.555969209936
 20
793.90179630827
 30
0.0
 11
1557.222635876603
 21
793.90179630827
 31
0.0
 12
1553.88930254327
 22
773.90179630827
 32
0.0
 13
1553.88930254327
 23
773.90179630827
 33
0.0
  0
MTEXT
  5
7B05
330
7AB8
100
AcDbEntity
  8
P-05BB
  6
Continuous
 62
     1
100
AcDbMText
 10
1533.590468724027
 20
808.9017963082703
 30
0.0
 40
20.0
 41
0.0
 71
     5
 72
     1
  1
\A1;7
  7
Stile_Quota
 11
0.0000000000000001
 21
1.0
 31
0.0
 73
     1
 44
1.0
1001
ACAD
1000
MTEXTBEGIN
1070
    73
1070
     1
1070
    44
1040
1.0
1070
    74
1070
     0
1000
MTEXTEND
  0
POINT
  5
7B06
330
7AB8
100
AcDbEntity
  8
Defpoints
  6
Continuous
 62
     0
100
AcDbPoint
 10
1125.845171497845
 20
843.9017963082701
 30
0.0
  0
POINT
  5
7B07
330
7AB8
100
AcDbEntity
  8
Defpoints
  6
Continuous
 62
     0
100
AcDbPoint
 10
1125.845171497845
 20
773.9017963082702
 30
0.0
  0
POINT
  5
7B08
330
7AB8
100
AcDbEntity
  8
Defpoints
  6
Continuous
 62
     0
100
AcDbPoint
 10
1553.88930254327
 20
773.90179630827
 30
0.0
  0
ENDBLK
  5
7ABA
330
7AB8
100
AcDbEntity
  8
0
 62
     3
100
AcDbBlockEnd
  0
BLOCK
  5
7AC6
330
7AC5
100
AcDbEntity
  8
0
 62
     3
100
AcDbBlockBegin
  2
*D36
 70
     1
 10
0.0
 20
0.0
 30
0.0
  3
*D36
  1

  0
LINE
  5
7AF7
330
7AC5
100
AcDbEntity
  8
P-05BB
  6
Continuous
 62
     2
370
    -2
100
AcDbLine
 10
1135.845171497845
 20
773.9017963082702
 30
0.0
 11
1568.88930254327
 21
773.90179630827
 31
0.0
  0
LINE
  5
7AF8
330
7AC5
100
AcDbEntity
  8
P-05BB
  6
Continuous
 62
     2
370
    -2
100
AcDbLine
 10
1373.845171473569
 20
703.9017963082701
 30
0.0
 11
1568.88930254327
 21
703.9017963082701
 31
0.0
  0
LINE
  5
7AF9
330
7AC5
100
AcDbEntity
  8
P-05BB
  6
Continuous
 62
     2
370
    -2
100
AcDbLine
 10
1553.88930254327
 20
753.90179630827
 30
0.0
 11
1553.88930254327
 21
723.9017963082702
 31
0.0
  0
SOLID
  5
7AFA
330
7AC5
100
AcDbEntity
  8
P-05BB
  6
Continuous
 62
     2
100
AcDbTrace
 10
1550.555969209936
 20
753.90179630827
 30
0.0
 11
1557.222635876603
 21
753.90179630827
 31
0.0
 12
1553.88930254327
 22
773.90179630827
 32
0.0
 13
1553.88930254327
 23
773.90179630827
 33
0.0
  0
SOLID
  5
7AFB
330
7AC5
100
AcDbEntity
  8
P-05BB
  6
Continuous
 62
     2
100
AcDbTrace
 10
1550.555969209936
 20
723.9017963082702
 30
0.0
 11
1557.222635876603
 21
723.9017963082702
 31
0.0
 12
1553.88930254327
 22
703.9017963082701
 32
0.0
 13
1553.88930254327
 23
703.9017963082701
 33
0.0
  0
MTEXT
  5
7AFC
330
7AC5
100
AcDbEntity
  8
P-05BB
  6
Continuous
 62
     1
100
AcDbMText
 10
1533.590468724027
 20
738.9017963082702
 30
0.0
 40
20.0
 41
0.0
 71
     5
 72
     1
  1
\A1;7
  7
Stile_Quota
 11
0.0000000000000001
 21
1.0
 31
0.0
 73
     1
 44
1.0
1001
ACAD
1000
MTEXTBEGIN
1070
    73
1070
     1
1070
    44
1040
1.0
1070
    74
1070
     0
1000
MTEXTEND
  0
POINT
  5
7AFD
330
7AC5
100
AcDbEntity
  8
Defpoints
  6
Continuous
 62
     0
100
AcDbPoint
 10
1125.845171497845
 20
773.9017963082702
 30
0.0
  0
POINT
  5
7AFE
330
7AC5
100
AcDbEntity
  8
Defpoints
  6
Continuous
 62
     0
100
AcDbPoint
 10
1363.845171473569
 20
703.9017963082701
 30
0.0
  0
POINT
  5
7AFF
330
7AC5
100
AcDbEntity
  8
Defpoints
  6
Continuous
 62
     0
100
AcDbPoint
 10
1553.88930254327
 20
703.9017963082701
 30
0.0
  0
ENDBLK
  5
7AC7
330
7AC5
100
AcDbEntity
  8
0
 62
     3
100
AcDbBlockEnd
  0
BLOCK
  5
7ADC
330
7ADB
100
AcDbEntity
  8
0
 62
     3
100
AcDbBlockBegin
  2
*D37
 70
     1
 10
0.0
 20
0.0
 30
0.0
  3
*D37
  1

  0
LINE
  5
7AE7
330
7ADB
100
AcDbEntity
  8
P-05BB
  6
Continuous
 62
     2
370
    -2
100
AcDbLine
 10
1113.845171498345
 20
808.9017963082701
 30
0.0
 11
957.7976381614062
 21
808.9017963082701
 31
0.0
  0
LINE
  5
7AE8
330
7ADB
100
AcDbEntity
  8
P-05BB
  6
Continuous
 62
     2
370
    -2
100
AcDbLine
 10
1083.845171500843
 20
703.9017963082701
 30
0.0
 11
957.7976381614062
 21
703.9017963082701
 31
0.0
  0
LINE
  5
7AE9
330
7ADB
100
AcDbEntity
  8
P-05BB
  6
Continuous
 62
     2
370
    -2
100
AcDbLine
 10
972.7976381614062
 20
788.9017963082701
 30
0.0
 11
972.7976381614062
 21
723.9017963082702
 31
0.0
  0
SOLID
  5
7AEA
330
7ADB
100
AcDbEntity
  8
P-05BB
  6
Continuous
 62
     2
100
AcDbTrace
 10
969.4643048280729
 20
788.9017963082701
 30
0.0
 11
976.1309714947397
 21
788.9017963082701
 31
0.0
 12
972.7976381614062
 22
808.9017963082701
 32
0.0
 13
972.7976381614062
 23
808.9017963082701
 33
0.0
  0
SOLID
  5
7AEB
330
7ADB
100
AcDbEntity
  8
P-05BB
  6
Continuous
 62
     2
100
AcDbTrace
 10
969.4643048280727
 20
723.9017963082702
 30
0.0
 11
976.1309714947396
 21
723.9017963082702
 31
0.0
 12
972.7976381614062
 22
703.9017963082701
 32
0.0
 13
972.7976381614062
 23
703.9017963082701
 33
0.0
  0
MTEXT
  5
7AEC
330
7ADB
100
AcDbEntity
  8
P-05BB
  6
Continuous
 62
     1
100
AcDbMText
 10
952.5716906395402
 20
756.4017963082703
 30
0.0
 40
20.0
 41
0.0
 71
     5
 72
     1
  1
\A1;10.5
  7
Stile_Quota
 11
0.0000000000000001
 21
1.0
 31
0.0
 73
     1
 44
1.0
1001
ACAD
1000
MTEXTBEGIN
1070
    73
1070
     1
1070
    44
1040
1.0
1070
    74
1070
     0
1000
MTEXTEND
  0
POINT
  5
7AED
330
7ADB
100
AcDbEntity
  8
Defpoints
  6
Continuous
 62
     0
100
AcDbPoint
 10
1123.845171498345
 20
808.9017963082701
 30
0.0
  0
POINT
  5
7AEE
330
7ADB
100
AcDbEntity
  8
Defpoints
  6
Continuous
 62
     0
100
AcDbPoint
 10
1093.845171500843
 20
703.9017963082701
 30
0.0
  0
POINT
  5
7AEF
330
7ADB
100
AcDbEntity
  8
Defpoints
  6
Continuous
 62
     0
100
AcDbPoint
 10
972.7976381614062
 20
703.9017963082701
 30
0.0
  0
ENDBLK
  5
7ADD
330
7ADB
100
AcDbEntity
  8
0
 62
     3
100
AcDbBlockEnd
  0
BLOCK
  5
7B15
330
7B14
100
AcDbEntity
  8
0
 62
     3
100
AcDbBlockBegin
  2
*D38
 70
     1
 10
0.0
 20
0.0
 30
0.0
  3
*D38
  1

  0
LINE
  5
7B38
330
7B14
100
AcDbEntity
  8
P-05BB
  6
Continuous
 62
     2
370
    -2
100
AcDbLine
 10
1148.670255369761
 20
779.7329703121103
 30
0.0
 11
1248.60410578117
 21
792.1285488333547
 31
0.0
  0
LINE
  5
7B39
330
7B14
100
AcDbEntity
  8
P-05BB
  6
Continuous
 62
     2
370
    -2
100
AcDbLine
 10
1125.845171497846
 20
776.9017963082713
 30
0.0
 11
1128.822356350704
 21
777.2710798739894
 31
0.0
  0
SOLID
  5
7B3A
330
7B14
100
AcDbEntity
  8
P-05BB
  6
Continuous
 62
     2
100
AcDbTrace
 10
1148.259940296741
 20
783.0409534819532
 30
0.0
 11
1149.080570442781
 21
776.4249871422674
 31
0.0
 12
1128.822356350704
 22
777.2710798739894
 32
0.0
 13
1128.822356350704
 23
777.2710798739894
 33
0.0
  0
MTEXT
  5
7B3B
330
7B14
100
AcDbEntity
  8
P-05BB
  6
Continuous
 62
     1
100
AcDbMText
 10
1207.409552713838
 20
807.3998112398758
 30
0.0
 40
20.0
 41
0.0
 71
     5
 72
     1
  1
\A1;R0.3
  7
Stile_Quota
 11
0.9923949509528565
 21
0.1230945219060434
 31
0.0
 73
     1
 44
1.0
1001
ACAD
1000
MTEXTBEGIN
1070
    73
1070
     1
1070
    44
1040
1.0
1070
    74
1070
     0
1000
MTEXTEND
  0
ARC
  5
7B3C
330
7B14
100
AcDbEntity
  8
P-05BB
  6
Continuous
 62
     2
370
    -2
100
AcDbCircle
 10
1125.845171497846
 20
776.9017963082713
 30
0.0
 40
2.999999999999772
100
AcDbArc
 50
0.0
 51
7.070730107050146
  0
POINT
  5
7B3D
330
7B14
100
AcDbEntity
  8
Defpoints
  6
Continuous
 62
     0
100
AcDbPoint
 10
1128.822356350704
 20
777.2710798739894
 30
0.0
  0
POINT
  5
7B3E
330
7B14
100
AcDbEntity
  8
Defpoints
  6
Continuous
 62
     0
100
AcDbPoint
 10
1125.845171497846
 20
776.9017963082713
 30
0.0
  0
ENDBLK
  5
7B16
330
7B14
100
AcDbEntity
  8
0
 62
     3
100
AcDbBlockEnd
  0
BLOCK
  5
7B41
330
7B40
100
AcDbEntity
  8
0
 62
     3
100
AcDbBlockBegin
  2
*D39
 70
     1
 10
0.0
 20
0.0
 30
0.0
  3
*D39
  1

  0
LINE
  5
7D90
330
7B40
100
AcDbEntity
  8
P-05BB
  6
Continuous
 62
     2
370
    -2
100
AcDbLine
 10
1099.211969991852
 20
944.3086531334019
 30
0.0
 11
956.3925404526482
 21
1114.514221378974
 31
0.0
  0
LINE
  5
7D91
330
7B40
100
AcDbEntity
  8
P-05BB
  6
Continuous
 62
     2
370
    -2
100
AcDbLine
 10
1099.211969991853
 20
843.4949394707357
 30
0.0
 11
956.3925404526735
 21
673.2893712251528
 31
0.0
  0
ARC
  5
7D92
330
7B40
100
AcDbEntity
  8
P-05BB
  6
Continuous
 62
     2
370
    -2
100
AcDbCircle
 10
1141.508344967833
 20
893.9017963020742
 30
0.0
 40
272.9890678126774
100
AcDbArc
 50
134.1986004496446
 51
225.8013995503619
  0
SOLID
  5
7D93
330
7B40
100
AcDbEntity
  8
P-05BB
  6
Continuous
 62
     2
100
AcDbTrace
 10
948.9599488264451
 20
1092.088483691671
 30
0.0
 11
953.4293992056136
 21
1087.141923497698
 31
0.0
 12
966.0343545979472
 22
1103.02355473219
 32
0.0
 13
966.0343545979472
 23
1103.02355473219
 33
0.0
  0
SOLID
  5
7D94
330
7B40
100
AcDbEntity
  8
P-05BB
  6
Continuous
 62
     2
100
AcDbTrace
 10
953.4293992056358
 20
700.6616691064283
 30
0.0
 11
948.9599488264678
 21
695.7151089124551
 31
0.0
 12
966.0343545979712
 22
684.7800378719377
 32
0.0
 13
966.0343545979712
 23
684.7800378719377
 33
0.0
  0
MTEXT
  5
7D95
330
7B40
100
AcDbEntity
  8
P-05BB
  6
Continuous
 62
     1
100
AcDbMText
 10
848.2933296332895
 20
893.9017963020559
 30
0.0
 40
20.0
 41
0.0
 71
     5
 72
     1
  1
\A1;100\U+00B0
  7
Stile_Quota
 11
0.0000000000000001
 21
1.0
 31
0.0
 73
     1
 44
1.0
1001
ACAD
1000
MTEXTBEGIN
1070
    73
1070
     1
1070
    44
1040
1.0
1070
    74
1070
     0
1000
MTEXTEND
  0
POINT
  5
7D96
330
7B40
100
AcDbEntity
  8
Defpoints
  6
Continuous
 62
     0
100
AcDbPoint
 10
879.987681026501
 20
972.1959434455195
 30
0.0
  0
POINT
  5
7D97
330
7B40
100
AcDbEntity
  8
Defpoints
  6
Continuous
 62
     0
100
AcDbPoint
 10
1118.547038169017
 20
866.5375764339264
 30
0.0
  0
POINT
  5
7D98
330
7B40
100
AcDbEntity
  8
Defpoints
  6
Continuous
 62
     0
100
AcDbPoint
 10
1118.547038169017
 20
921.2660161702157
 30
0.0
  0
POINT
  5
7D99
330
7B40
100
AcDbEntity
  8
Defpoints
  6
Continuous
 62
     0
100
AcDbPoint
 10
1105.639846088718
 20
936.6482087022127
 30
0.0
  0
POINT
  5
7D9A
330
7B40
100
AcDbEntity
  8
Defpoints
  6
Continuous
 62
     0
100
AcDbPoint
 10
1105.639846088718
 20
851.1553839019256
 30
0.0
  0
ENDBLK
  5
7B42
330
7B40
100
AcDbEntity
  8
0
 62
     3
100
AcDbBlockEnd
  0
BLOCK
  5
7BC1
330
7BC0
100
AcDbEntity
  8
0
 62
     3
100
AcDbBlockBegin
  2
*D40
 70
     1
 10
0.0
 20
0.0
 30
0.0
  3
*D40
  1

  0
LINE
  5
7BC3
330
7BC0
100
AcDbEntity
  8
P-05BB
  6
Continuous
 62
     2
370
    -2
100
AcDbLine
 10
1137.809191692136
 20
910.0266442480108
 30
0.0
 11
1193.226622794424
 21
860.9296067004613
 31
0.0
  0
LINE
  5
7BC4
330
7BC0
100
AcDbEntity
  8
P-05BB
  6
Continuous
 62
     2
370
    -2
100
AcDbLine
 10
1119.845171497844
 20
925.9418564193612
 30
0.0
 11
1122.839174863559
 21
923.289321057469
 31
0.0
  0
SOLID
  5
7BC5
330
7BC0
100
AcDbEntity
  8
P-05BB
  6
Continuous
 62
     2
100
AcDbTrace
 10
1140.019637827045
 20
912.5216470527737
 30
0.0
 11
1135.598745557226
 21
907.5316414432483
 31
0.0
 12
1122.839174863559
 22
923.289321057469
 32
0.0
 13
1122.839174863559
 23
923.289321057469
 33
0.0
  0
MTEXT
  5
7BC6
330
7BC0
100
AcDbEntity
  8
P-05BB
  6
Continuous
 62
     1
100
AcDbMText
 10
1186.342925859501
 20
893.9040926259471
 30
0.0
 40
20.0
 41
0.0
 71
     5
 72
     1
  1
\A1;R4
  7
Stile_Quota
 11
0.7485008414288203
 21
-0.6631338404729079
 31
0.0
 73
     1
 44
1.0
1001
ACAD
1000
MTEXTBEGIN
1070
    73
1070
     1
1070
    44
1040
1.0
1070
    74
1070
     0
1000
MTEXTEND
  0
POINT
  5
7BC7
330
7BC0
100
AcDbEntity
  8
Defpoints
  6
Continuous
 62
     0
100
AcDbPoint
 10
1122.839174863559
 20
923.289321057469
 30
0.0
  0
POINT
  5
7BC8
330
7BC0
100
AcDbEntity
  8
Defpoints
  6
Continuous
 62
     0
100
AcDbPoint
 10
1119.845171497844
 20
925.9418564193612
 30
0.0
  0
ENDBLK
  5
7BC2
330
7BC0
100
AcDbEntity
  8
0
 62
     3
100
AcDbBlockEnd
  0
BLOCK
  5
7D25
330
7D24
100
AcDbEntity
  8
0
 62
     3
100
AcDbBlockBegin
  2
*D41
 70
     1
 10
0.0
 20
0.0
 30
0.0
  3
*D41
  1

  0
LINE
  5
7D48
330
7D24
100
AcDbEntity
  8
P-05BB
  6
Continuous
 62
     2
370
    -2
100
AcDbLine
 10
1128.845171497845
 20
766.9017963082701
 30
0.0
 11
1128.845171497845
 21
724.8659040058337
 31
0.0
  0
LINE
  5
7D49
330
7D24
100
AcDbEntity
  8
P-05BB
  6
Continuous
 62
     2
370
    -2
100
AcDbLine
 10
1123.845171497844
 20
762.9017963082701
 30
0.0
 11
1123.845171497844
 21
724.8659040058337
 31
0.0
  0
LINE
  5
7D4A
330
7D24
100
AcDbEntity
  8
P-05BB
  6
Continuous
 62
     2
370
    -2
100
AcDbLine
 10
1103.845171497845
 20
739.8659040058337
 30
0.0
 11
1083.845171497844
 21
739.8659040058337
 31
0.0
  0
LINE
  5
7D4B
330
7D24
100
AcDbEntity
  8
P-05BB
  6
Continuous
 62
     2
370
    -2
100
AcDbLine
 10
1148.845171497845
 20
739.8659040058337
 30
0.0
 11
1225.900565083851
 21
739.8659040058337
 31
0.0
  0
LINE
  5
7D4C
330
7D24
100
AcDbEntity
  8
P-05BB
  6
Continuous
 62
     2
370
    -2
100
AcDbLine
 10
1123.845171497844
 20
739.8659040058337
 30
0.0
 11
1128.845171497845
 21
739.8659040058337
 31
0.0
  0
SOLID
  5
7D4D
330
7D24
100
AcDbEntity
  8
P-05BB
  6
Continuous
 62
     2
100
AcDbTrace
 10
1103.845171497845
 20
743.1992373391671
 30
0.0
 11
1103.845171497845
 21
736.5325706725003
 31
0.0
 12
1123.845171497844
 22
739.8659040058337
 32
0.0
 13
1123.845171497844
 23
739.8659040058337
 33
0.0
  0
SOLID
  5
7D4E
330
7D24
100
AcDbEntity
  8
P-05BB
  6
Continuous
 62
     2
100
AcDbTrace
 10
1148.845171497845
 20
743.1992373391671
 30
0.0
 11
1148.845171497845
 21
736.5325706725003
 31
0.0
 12
1128.845171497845
 22
739.8659040058337
 32
0.0
 13
1128.845171497845
 23
739.8659040058337
 33
0.0
  0
MTEXT
  5
7D4F
330
7D24
100
AcDbEntity
  8
P-05BB
  6
Continuous
 62
     1
100
AcDbMText
 10
1197.372868290847
 20
760.0918515276996
 30
0.0
 40
20.0
 41
0.0
 71
     5
 72
     1
  1
\A1;0.5
  7
Stile_Quota
 73
     1
 44
1.0
1001
ACAD
1000
MTEXTBEGIN
1070
    73
1070
     1
1070
    44
1040
1.0
1070
    74
1070
     0
1000
MTEXTEND
  0
POINT
  5
7D50
330
7D24
100
AcDbEntity
  8
Defpoints
  6
Continuous
 62
     0
100
AcDbPoint
 10
1128.845171497845
 20
776.9017963082701
 30
0.0
  0
POINT
  5
7D51
330
7D24
100
AcDbEntity
  8
Defpoints
  6
Continuous
 62
     0
100
AcDbPoint
 10
1123.845171497844
 20
772.9017963082701
 30
0.0
  0
POINT
  5
7D52
330
7D24
100
AcDbEntity
  8
Defpoints
  6
Continuous
 62
     0
100
AcDbPoint
 10
1123.845171497844
 20
739.8659040058337
 30
0.0
  0
ENDBLK
  5
7D26
330
7D24
100
AcDbEntity
  8
0
 62
     3
100
AcDbBlockEnd
  0
BLOCK
  5
8299
330
8298
100
AcDbEntity
  8
0
 62
     7
100
AcDbBlockBegin
  2
*D44
 70
     1
 10
0.0
 20
0.0
 30
0.0
  3
*D44
  1

  0
MTEXT
  5
829B
330
8298
100
AcDbEntity
  8
P-6014
  6
Continuous
 62
    30
100
AcDbMText
 10
965.2553629430993
 20
-134.8273231402538
 30
0.0
 40
20.0
 41
0.0
 71
     5
 72
     1
  1
\A1;1000
  7
Stile_Quota_FISSO
 73
     1
 44
1.0
1001
ACAD
1000
MTEXTBEGIN
1070
    73
1070
     1
1070
    44
1040
1.0
1070
    74
1070
     0
1000
MTEXTEND
  0
POINT
  5
829C
330
8298
100
AcDbEntity
  8
Defpoints
  6
Continuous
 62
     0
100
AcDbPoint
 10
465.2616600529135
 20
-121.3912092901195
 30
0.0
  0
POINT
  5
829D
330
8298
100
AcDbEntity
  8
Defpoints
  6
Continuous
 62
     0
100
AcDbPoint
 10
1465.255362943098
 20
-151.3912092901195
 30
0.0
  0
POINT
  5
829E
330
8298
100
AcDbEntity
  8
Defpoints
  6
Continuous
 62
     0
100
AcDbPoint
 10
1465.255362943098
 20
-134.8273231402538
 30
0.0
  0
ENDBLK
  5
829A
330
8298
100
AcDbEntity
  8
0
 62
     7
100
AcDbBlockEnd
  0
BLOCK
  5
82A0
330
829F
100
AcDbEntity
  8
0
 62
     7
100
AcDbBlockBegin
  2
*D45
 70
     1
 10
0.0
 20
0.0
 30
0.0
  3
*D45
  1

  0
MTEXT
  5
82A2
330
829F
100
AcDbEntity
  8
P-6014
  6
Continuous
 62
    30
100
AcDbMText
 10
965.2553629430993
 20
-220.5738567036462
 30
0.0
 40
20.0
 41
0.0
 71
     5
 72
     1
  1
\A1;1000
  7
Stile_Quota_FISSO
 73
     1
 44
1.0
1001
ACAD
1000
MTEXTBEGIN
1070
    73
1070
     1
1070
    44
1040
1.0
1070
    74
1070
     0
1000
MTEXTEND
  0
POINT
  5
82A3
330
829F
100
AcDbEntity
  8
Defpoints
  6
Continuous
 62
     0
100
AcDbPoint
 10
465.2616600529135
 20
-207.1377428535119
 30
0.0
  0
POINT
  5
82A4
330
829F
100
AcDbEntity
  8
Defpoints
  6
Continuous
 62
     0
100
AcDbPoint
 10
1465.255362943098
 20
-237.137742853512
 30
0.0
  0
POINT
  5
82A5
330
829F
100
AcDbEntity
  8
Defpoints
  6
Continuous
 62
     0
100
AcDbPoint
 10
1465.255362943098
 20
-220.5738567036462
 30
0.0
  0
ENDBLK
  5
82A1
330
829F
100
AcDbEntity
  8
0
 62
     7
100
AcDbBlockEnd
  0
BLOCK
  5
82FA
330
82F9
100
AcDbEntity
  8
0
 62
     7
100
AcDbBlockBegin
  2
*D46
 70
     1
 10
0.0
 20
0.0
 30
0.0
  3
*D46
  1

  0
LINE
  5
82FC
330
82F9
100
AcDbEntity
  8
P-0000
  6
Continuous
 62
     2
370
    -2
100
AcDbLine
 10
1093.845171498844
 20
953.9017962955693
 30
0.0
 11
594.1033609616335
 21
953.9017962955695
 31
0.0
  0
LINE
  5
82FD
330
82F9
100
AcDbEntity
  8
P-0000
  6
Continuous
 62
     2
370
    -2
100
AcDbLine
 10
1092.845171498818
 20
403.901796338569
 30
0.0
 11
594.1033609616333
 21
403.9017963385692
 31
0.0
  0
LINE
  5
82FE
330
82F9
100
AcDbEntity
  8
P-0000
  6
Continuous
 62
     2
370
    -2
100
AcDbLine
 10
609.1033609616334
 20
933.9017962955693
 30
0.0
 11
609.1033609616333
 21
423.9017963385692
 31
0.0
  0
SOLID
  5
82FF
330
82F9
100
AcDbEntity
  8
P-0000
  6
Continuous
 62
     2
100
AcDbTrace
 10
605.7700276283001
 20
933.9017962955693
 30
0.0
 11
612.4366942949668
 21
933.9017962955693
 31
0.0
 12
609.1033609616334
 22
953.9017962955695
 32
0.0
 13
609.1033609616334
 23
953.9017962955695
 33
0.0
  0
SOLID
  5
8300
330
82F9
100
AcDbEntity
  8
P-0000
  6
Continuous
 62
     2
100
AcDbTrace
 10
605.7700276283
 20
423.9017963385692
 30
0.0
 11
612.4366942949667
 21
423.9017963385692
 31
0.0
 12
609.1033609616333
 22
403.9017963385692
 32
0.0
 13
609.1033609616333
 23
403.9017963385692
 33
0.0
  0
MTEXT
  5
8301
330
82F9
100
AcDbEntity
  8
P-0000
  6
Continuous
 62
     1
100
AcDbMText
 10
588.8774134397673
 20
678.9017963170693
 30
0.0
 40
20.0
 41
0.0
 71
     5
 72
     1
  1
\A1;550
  7
Stile_Quota
 11
0.0000000000000001
 21
1.0
 31
0.0
 73
     1
 44
1.0
1001
ACAD
1000
MTEXTBEGIN
1070
    73
1070
     1
1070
    44
1040
1.0
1070
    74
1070
     0
1000
MTEXTEND
  0
POINT
  5
8302
330
82F9
100
AcDbEntity
  8
Defpoints
  6
Continuous
 62
     0
100
AcDbPoint
 10
1103.845171498844
 20
953.9017962955693
 30
0.0
  0
POINT
  5
8303
330
82F9
100
AcDbEntity
  8
Defpoints
  6
Continuous
 62
     0
100
AcDbPoint
 10
1102.845171498818
 20
403.901796338569
 30
0.0
  0
POINT
  5
8304
330
82F9
100
AcDbEntity
  8
Defpoints
  6
Continuous
 62
     0
100
AcDbPoint
 10
609.1033609616333
 20
403.9017963385692
 30
0.0
  0
ENDBLK
  5
82FB
330
82F9
100
AcDbEntity
  8
0
 62
     7
100
AcDbBlockEnd
  0
ENDSEC
  0
SECTION
  2
ENTITIES
  0
MTEXT
  5
8F4
330
17
100
AcDbEntity
  8
0
100
AcDbMText
 10
116.6572975124263
 20
147.3876407827601
 30
0.0
 40
30.0
 41
1075.7
 71
     1
 72
     5
  1

  7
SIMPLEX
 73
     1
 44
1.0
1001
ACAD
1000
MTEXTBEGIN
1070
    73
1070
     1
1070
    44
1040
1.0
1070
    74
1070
     0
1000
MTEXTEND
  0
TEXT
  5
953
330
17
100
AcDbEntity
  8
0
100
AcDbText
 10
-4318.5
 20
-1582.0
 30
0.0
 40
40.0
  1

 41
0.8
  7
SIMPLEX
100
AcDbText
  0
TEXT
  5
954
330
17
100
AcDbEntity
  8
0
100
AcDbText
 10
-2601.0
 20
-872.4999999999999
 30
0.0
 40
40.0
  1

 41
0.8
  7
SIMPLEX
100
AcDbText
  0
MTEXT
  5
9CF
330
17
100
AcDbEntity
  8
0
100
AcDbMText
 10
119.6344937859121
 20
142.5906624035024
 30
0.0
 40
30.0
 41
1075.7
 71
     1
 72
     5
  1

  7
SIMPLEX
 73
     1
 44
1.0
1001
ACAD
1000
MTEXTBEGIN
1070
    73
1070
     1
1070
    44
1040
1.0
1070
    74
1070
     0
1000
MTEXTEND
  0
TEXT
  5
9D0
330
17
100
AcDbEntity
  8
0
100
AcDbText
 10
-4315.522803726518
 20
-1586.796978379258
 30
0.0
 40
40.0
  1

 41
0.8
  7
SIMPLEX
100
AcDbText
  0
TEXT
  5
9D1
330
17
100
AcDbEntity
  8
0
100
AcDbText
 10
-2598.022803726519
 20
-877.2969783792577
 30
0.0
 40
40.0
  1

 41
0.8
  7
SIMPLEX
100
AcDbText
  0
MTEXT
  5
9D2
330
17
100
AcDbEntity
  8
0
100
AcDbMText
 10
119.6344937859121
 20
142.5906624035024
 30
0.0
 40
30.0
 41
1075.7
 71
     1
 72
     5
  1

  7
SIMPLEX
 73
     1
 44
1.0
1001
ACAD
1000
MTEXTBEGIN
1070
    73
1070
     1
1070
    44
1040
1.0
1070
    74
1070
     0
1000
MTEXTEND
  0
TEXT
  5
9D3
330
17
100
AcDbEntity
  8
0
100
AcDbText
 10
-4315.522803726518
 20
-1586.796978379258
 30
0.0
 40
40.0
  1

 41
0.8
  7
SIMPLEX
100
AcDbText
  0
TEXT
  5
9D4
330
17
100
AcDbEntity
  8
0
100
AcDbText
 10
-2598.022803726519
 20
-877.2969783792577
 30
0.0
 40
40.0
  1

 41
0.8
  7
SIMPLEX
100
AcDbText
  0
MTEXT
  5
B09
330
17
100
AcDbEntity
  8
0
100
AcDbMText
 10
136.2555261436282
 20
169.3626425292368
 30
0.0
 40
30.0
 41
1075.7
 71
     1
 72
     5
  1

  7
SIMPLEX
 73
     1
 44
1.0
1001
ACAD
1000
MTEXTBEGIN
1070
    73
1070
     1
1070
    44
1040
1.0
1070
    74
1070
     0
1000
MTEXTEND
  0
TEXT
  5
B0A
330
17
100
AcDbEntity
  8
0
100
AcDbText
 10
-4298.901771368808
 20
-1560.024998253524
 30
0.0
 40
40.0
  1

 41
0.8
  7
SIMPLEX
100
AcDbText
  0
TEXT
  5
B0B
330
17
100
AcDbEntity
  8
0
100
AcDbText
 10
-2581.401771368794
 20
-850.5249982535243
 30
0.0
 40
40.0
  1

 41
0.8
  7
SIMPLEX
100
AcDbText
  0
MTEXT
  5
B16
330
17
100
AcDbEntity
  8
0
100
AcDbMText
 10
139.232722417114
 20
164.565664149979
 30
0.0
 40
30.0
 41
1075.7
 71
     1
 72
     5
  1

  7
SIMPLEX
 73
     1
 44
1.0
1001
ACAD
1000
MTEXTBEGIN
1070
    73
1070
     1
1070
    44
1040
1.0
1070
    74
1070
     0
1000
MTEXTEND
  0
TEXT
  5
B17
330
17
100
AcDbEntity
  8
0
100
AcDbText
 10
-4295.924575095312
 20
-1564.821976632782
 30
0.0
 40
40.0
  1

 41
0.8
  7
SIMPLEX
100
AcDbText
  0
TEXT
  5
B18
330
17
100
AcDbEntity
  8
0
100
AcDbText
 10
-2578.424575095312
 20
-855.3219766327821
 30
0.0
 40
40.0
  1

 41
0.8
  7
SIMPLEX
100
AcDbText
  0
MTEXT
  5
B19
330
17
100
AcDbEntity
  8
0
100
AcDbMText
 10
139.232722417114
 20
164.565664149979
 30
0.0
 40
30.0
 41
1075.7
 71
     1
 72
     5
  1

  7
SIMPLEX
 73
     1
 44
1.0
1001
ACAD
1000
MTEXTBEGIN
1070
    73
1070
     1
1070
    44
1040
1.0
1070
    74
1070
     0
1000
MTEXTEND
  0
TEXT
  5
B1A
330
17
100
AcDbEntity
  8
0
100
AcDbText
 10
-4295.924575095312
 20
-1564.821976632782
 30
0.0
 40
40.0
  1

 41
0.8
  7
SIMPLEX
100
AcDbText
  0
TEXT
  5
B1B
330
17
100
AcDbEntity
  8
0
100
AcDbText
 10
-2578.424575095312
 20
-855.3219766327821
 30
0.0
 40
40.0
  1

 41
0.8
  7
SIMPLEX
100
AcDbText
  0
MTEXT
  5
B6E
330
17
100
AcDbEntity
  8
0
100
AcDbMText
 10
121.6572975124263
 20
117.3876407827602
 30
0.0
 40
30.0
 41
1075.7
 71
     1
 72
     5
  1

  7
SIMPLEX
 73
     1
 44
1.0
1001
ACAD
1000
MTEXTBEGIN
1070
    73
1070
     1
1070
    44
1040
1.0
1070
    74
1070
     0
1000
MTEXTEND
  0
TEXT
  5
B6F
330
17
100
AcDbEntity
  8
0
100
AcDbText
 10
-4313.5
 20
-1612.0
 30
0.0
 40
40.0
  1

 41
0.8
  7
SIMPLEX
100
AcDbText
  0
TEXT
  5
B70
330
17
100
AcDbEntity
  8
0
100
AcDbText
 10
-2596.0
 20
-902.5
 30
0.0
 40
40.0
  1

 41
0.8
  7
SIMPLEX
100
AcDbText
  0
MTEXT
  5
B7B
330
17
100
AcDbEntity
  8
0
100
AcDbMText
 10
124.6344937859121
 20
112.5906624035024
 30
0.0
 40
30.0
 41
1075.7
 71
     1
 72
     5
  1

  7
SIMPLEX
 73
     1
 44
1.0
1001
ACAD
1000
MTEXTBEGIN
1070
    73
1070
     1
1070
    44
1040
1.0
1070
    74
1070
     0
1000
MTEXTEND
  0
TEXT
  5
B7C
330
17
100
AcDbEntity
  8
0
100
AcDbText
 10
-4310.522803726518
 20
-1616.796978379258
 30
0.0
 40
40.0
  1

 41
0.8
  7
SIMPLEX
100
AcDbText
  0
TEXT
  5
B7D
330
17
100
AcDbEntity
  8
0
100
AcDbText
 10
-2593.022803726519
 20
-907.2969783792578
 30
0.0
 40
40.0
  1

 41
0.8
  7
SIMPLEX
100
AcDbText
  0
MTEXT
  5
B7E
330
17
100
AcDbEntity
  8
0
100
AcDbMText
 10
124.6344937859121
 20
112.5906624035024
 30
0.0
 40
30.0
 41
1075.7
 71
     1
 72
     5
  1

  7
SIMPLEX
 73
     1
 44
1.0
1001
ACAD
1000
MTEXTBEGIN
1070
    73
1070
     1
1070
    44
1040
1.0
1070
    74
1070
     0
1000
MTEXTEND
  0
TEXT
  5
B7F
330
17
100
AcDbEntity
  8
0
100
AcDbText
 10
-4310.522803726518
 20
-1616.796978379258
 30
0.0
 40
40.0
  1

 41
0.8
  7
SIMPLEX
100
AcDbText
  0
TEXT
  5
B80
330
17
100
AcDbEntity
  8
0
100
AcDbText
 10
-2593.022803726519
 20
-907.2969783792578
 30
0.0
 40
40.0
  1

 41
0.8
  7
SIMPLEX
100
AcDbText
  0
MTEXT
  5
BFE
330
17
100
AcDbEntity
  8
0
100
AcDbMText
 10
115.9619590121715
 20
186.2652965906354
 30
0.0
 40
30.0
 41
1075.7
 71
     1
 72
     5
  1

  7
SIMPLEX
 73
     1
 44
1.0
1001
ACAD
1000
MTEXTBEGIN
1070
    73
1070
     1
1070
    44
1040
1.0
1070
    74
1070
     0
1000
MTEXTEND
  0
TEXT
  5
BFF
330
17
100
AcDbEntity
  8
0
100
AcDbText
 10
-4319.195338500256
 20
-1543.122344192125
 30
0.0
 40
40.0
  1

 41
0.8
  7
SIMPLEX
100
AcDbText
  0
TEXT
  5
C00
330
17
100
AcDbEntity
  8
0
100
AcDbText
 10
-2601.695338500257
 20
-833.6223441921246
 30
0.0
 40
40.0
  1

 41
0.8
  7
SIMPLEX
100
AcDbText
  0
MTEXT
  5
C03
330
17
100
AcDbEntity
  8
0
100
AcDbMText
 10
118.9391552856568
 20
181.4683182113776
 30
0.0
 40
30.0
 41
1075.7
 71
     1
 72
     5
  1

  7
SIMPLEX
 73
     1
 44
1.0
1001
ACAD
1000
MTEXTBEGIN
1070
    73
1070
     1
1070
    44
1040
1.0
1070
    74
1070
     0
1000
MTEXTEND
  0
TEXT
  5
C04
330
17
100
AcDbEntity
  8
0
100
AcDbText
 10
-4316.218142226775
 20
-1547.919322571382
 30
0.0
 40
40.0
  1

 41
0.8
  7
SIMPLEX
100
AcDbText
  0
TEXT
  5
C05
330
17
100
AcDbEntity
  8
0
100
AcDbText
 10
-2598.718142226775
 20
-838.4193225713826
 30
0.0
 40
40.0
  1

 41
0.8
  7
SIMPLEX
100
AcDbText
  0
MTEXT
  5
C06
330
17
100
AcDbEntity
  8
0
100
AcDbMText
 10
118.9391552856568
 20
181.4683182113776
 30
0.0
 40
30.0
 41
1075.7
 71
     1
 72
     5
  1

  7
SIMPLEX
 73
     1
 44
1.0
1001
ACAD
1000
MTEXTBEGIN
1070
    73
1070
     1
1070
    44
1040
1.0
1070
    74
1070
     0
1000
MTEXTEND
  0
TEXT
  5
C07
330
17
100
AcDbEntity
  8
0
100
AcDbText
 10
-4316.218142226775
 20
-1547.919322571382
 30
0.0
 40
40.0
  1

 41
0.8
  7
SIMPLEX
100
AcDbText
  0
TEXT
  5
C08
330
17
100
AcDbEntity
  8
0
100
AcDbText
 10
-2598.718142226775
 20
-838.4193225713826
 30
0.0
 40
40.0
  1

 41
0.8
  7
SIMPLEX
100
AcDbText
  0
MTEXT
  5
C20
330
17
100
AcDbEntity
  8
0
100
AcDbMText
 10
135.5601876433738
 20
208.2402983371121
 30
0.0
 40
30.0
 41
1075.7
 71
     1
 72
     5
  1

  7
SIMPLEX
 73
     1
 44
1.0
1001
ACAD
1000
MTEXTBEGIN
1070
    73
1070
     1
1070
    44
1040
1.0
1070
    74
1070
     0
1000
MTEXTEND
  0
TEXT
  5
C21
330
17
100
AcDbEntity
  8
0
100
AcDbText
 10
-4299.597109869064
 20
-1521.147342445649
 30
0.0
 40
40.0
  1

 41
0.8
  7
SIMPLEX
100
AcDbText
  0
TEXT
  5
C22
330
17
100
AcDbEntity
  8
0
100
AcDbText
 10
-2582.09710986905
 20
-811.647342445649
 30
0.0
 40
40.0
  1

 41
0.8
  7
SIMPLEX
100
AcDbText
  0
MTEXT
  5
C23
330
17
100
AcDbEntity
  8
0
100
AcDbMText
 10
138.5373839168592
 20
203.4433199578543
 30
0.0
 40
30.0
 41
1075.7
 71
     1
 72
     5
  1

  7
SIMPLEX
 73
     1
 44
1.0
1001
ACAD
1000
MTEXTBEGIN
1070
    73
1070
     1
1070
    44
1040
1.0
1070
    74
1070
     0
1000
MTEXTEND
  0
TEXT
  5
C24
330
17
100
AcDbEntity
  8
0
100
AcDbText
 10
-4296.619913595568
 20
-1525.944320824907
 30
0.0
 40
40.0
  1

 41
0.8
  7
SIMPLEX
100
AcDbText
  0
TEXT
  5
C25
330
17
100
AcDbEntity
  8
0
100
AcDbText
 10
-2579.119913595569
 20
-816.4443208249068
 30
0.0
 40
40.0
  1

 41
0.8
  7
SIMPLEX
100
AcDbText
  0
MTEXT
  5
C26
330
17
100
AcDbEntity
  8
0
100
AcDbMText
 10
138.5373839168592
 20
203.4433199578543
 30
0.0
 40
30.0
 41
1075.7
 71
     1
 72
     5
  1

  7
SIMPLEX
 73
     1
 44
1.0
1001
ACAD
1000
MTEXTBEGIN
1070
    73
1070
     1
1070
    44
1040
1.0
1070
    74
1070
     0
1000
MTEXTEND
  0
TEXT
  5
C27
330
17
100
AcDbEntity
  8
0
100
AcDbText
 10
-4296.619913595568
 20
-1525.944320824907
 30
0.0
 40
40.0
  1

 41
0.8
  7
SIMPLEX
100
AcDbText
  0
TEXT
  5
C28
330
17
100
AcDbEntity
  8
0
100
AcDbText
 10
-2579.119913595569
 20
-816.4443208249068
 30
0.0
 40
40.0
  1

 41
0.8
  7
SIMPLEX
100
AcDbText
  0
MTEXT
  5
C37
330
17
100
AcDbEntity
  8
0
100
AcDbMText
 10
115.9619590121715
 20
161.2652965906354
 30
0.0
 40
30.0
 41
1075.7
 71
     1
 72
     5
  1

  7
SIMPLEX
 73
     1
 44
1.0
1001
ACAD
1000
MTEXTBEGIN
1070
    73
1070
     1
1070
    44
1040
1.0
1070
    74
1070
     0
1000
MTEXTEND
  0
TEXT
  5
C38
330
17
100
AcDbEntity
  8
0
100
AcDbText
 10
-4319.195338500256
 20
-1568.122344192125
 30
0.0
 40
40.0
  1

 41
0.8
  7
SIMPLEX
100
AcDbText
  0
TEXT
  5
C39
330
17
100
AcDbEntity
  8
0
100
AcDbText
 10
-2601.695338500257
 20
-858.6223441921246
 30
0.0
 40
40.0
  1

 41
0.8
  7
SIMPLEX
100
AcDbText
  0
MTEXT
  5
C44
330
17
100
AcDbEntity
  8
0
100
AcDbMText
 10
118.9391552856568
 20
156.4683182113776
 30
0.0
 40
30.0
 41
1075.7
 71
     1
 72
     5
  1

  7
SIMPLEX
 73
     1
 44
1.0
1001
ACAD
1000
MTEXTBEGIN
1070
    73
1070
     1
1070
    44
1040
1.0
1070
    74
1070
     0
1000
MTEXTEND
  0
TEXT
  5
C45
330
17
100
AcDbEntity
  8
0
100
AcDbText
 10
-4316.218142226775
 20
-1572.919322571382
 30
0.0
 40
40.0
  1

 41
0.8
  7
SIMPLEX
100
AcDbText
  0
TEXT
  5
C46
330
17
100
AcDbEntity
  8
0
100
AcDbText
 10
-2598.718142226775
 20
-863.4193225713826
 30
0.0
 40
40.0
  1

 41
0.8
  7
SIMPLEX
100
AcDbText
  0
MTEXT
  5
C47
330
17
100
AcDbEntity
  8
0
100
AcDbMText
 10
118.9391552856568
 20
156.4683182113776
 30
0.0
 40
30.0
 41
1075.7
 71
     1
 72
     5
  1

  7
SIMPLEX
 73
     1
 44
1.0
1001
ACAD
1000
MTEXTBEGIN
1070
    73
1070
     1
1070
    44
1040
1.0
1070
    74
1070
     0
1000
MTEXTEND
  0
TEXT
  5
C48
330
17
100
AcDbEntity
  8
0
100
AcDbText
 10
-4316.218142226775
 20
-1572.919322571382
 30
0.0
 40
40.0
  1

 41
0.8
  7
SIMPLEX
100
AcDbText
  0
TEXT
  5
C49
330
17
100
AcDbEntity
  8
0
100
AcDbText
 10
-2598.718142226775
 20
-863.4193225713826
 30
0.0
 40
40.0
  1

 41
0.8
  7
SIMPLEX
100
AcDbText
  0
MTEXT
  5
CD0
330
17
100
AcDbEntity
  8
0
100
AcDbMText
 10
85.96195901217152
 20
161.2652965906354
 30
0.0
 40
30.0
 41
1075.7
 71
     1
 72
     5
  1

  7
SIMPLEX
 73
     1
 44
1.0
1001
ACAD
1000
MTEXTBEGIN
1070
    73
1070
     1
1070
    44
1040
1.0
1070
    74
1070
     0
1000
MTEXTEND
  0
TEXT
  5
CD1
330
17
100
AcDbEntity
  8
0
100
AcDbText
 10
-4349.195338500256
 20
-1568.122344192125
 30
0.0
 40
40.0
  1

 41
0.8
  7
SIMPLEX
100
AcDbText
  0
TEXT
  5
CD2
330
17
100
AcDbEntity
  8
0
100
AcDbText
 10
-2631.695338500256
 20
-858.6223441921246
 30
0.0
 40
40.0
  1

 41
0.8
  7
SIMPLEX
100
AcDbText
  0
MTEXT
  5
CD7
330
17
100
AcDbEntity
  8
0
100
AcDbMText
 10
88.93915528565685
 20
156.4683182113776
 30
0.0
 40
30.0
 41
1075.7
 71
     1
 72
     5
  1

  7
SIMPLEX
 73
     1
 44
1.0
1001
ACAD
1000
MTEXTBEGIN
1070
    73
1070
     1
1070
    44
1040
1.0
1070
    74
1070
     0
1000
MTEXTEND
  0
TEXT
  5
CD8
330
17
100
AcDbEntity
  8
0
100
AcDbText
 10
-4346.218142226774
 20
-1572.919322571382
 30
0.0
 40
40.0
  1

 41
0.8
  7
SIMPLEX
100
AcDbText
  0
TEXT
  5
CD9
330
17
100
AcDbEntity
  8
0
100
AcDbText
 10
-2628.718142226775
 20
-863.4193225713826
 30
0.0
 40
40.0
  1

 41
0.8
  7
SIMPLEX
100
AcDbText
  0
MTEXT
  5
CDA
330
17
100
AcDbEntity
  8
0
100
AcDbMText
 10
88.93915528565685
 20
156.4683182113776
 30
0.0
 40
30.0
 41
1075.7
 71
     1
 72
     5
  1

  7
SIMPLEX
 73
     1
 44
1.0
1001
ACAD
1000
MTEXTBEGIN
1070
    73
1070
     1
1070
    44
1040
1.0
1070
    74
1070
     0
1000
MTEXTEND
  0
TEXT
  5
CDB
330
17
100
AcDbEntity
  8
0
100
AcDbText
 10
-4346.218142226774
 20
-1572.919322571382
 30
0.0
 40
40.0
  1

 41
0.8
  7
SIMPLEX
100
AcDbText
  0
TEXT
  5
CDC
330
17
100
AcDbEntity
  8
0
100
AcDbText
 10
-2628.718142226775
 20
-863.4193225713826
 30
0.0
 40
40.0
  1

 41
0.8
  7
SIMPLEX
100
AcDbText
  0
ARC
  5
7367
330
17
100
AcDbEntity
  8
P-05BB
  6
Continuous
 62
   144
100
AcDbCircle
 10
2.999999999902456
 20
29.49999999722241
 30
0.0
 40
2.0
100
AcDbArc
 50
180.0
 51
270.0
1001
OrigLayer
1000
P-0000
1001
TOP
1070
     7
  0
LINE
  5
7368
330
17
100
AcDbEntity
  8
P-05BB
  6
Continuous
 62
   144
100
AcDbLine
 10
-2.499999999747615
 20
26.99999999727243
 30
0.0
 11
-2.499999999747615
 21
0.0
 31
0.0
1001
OrigLayer
1000
P-0000
1001
TOP
1070
     7
  0
LINE
  5
7369
330
17
100
AcDbEntity
  8
P-05BB
  6
Continuous
 62
   144
100
AcDbLine
 10
-1.999999999797637
 20
27.4999999972224
 30
0.0
 11
-2.499999999747615
 21
27.99999999717238
 31
0.0
1001
OrigLayer
1000
P-0000
1001
TOP
1070
     7
  0
LINE
  5
736A
330
17
100
AcDbEntity
  8
P-05BB
  6
Continuous
 62
   144
100
AcDbLine
 10
-1.999999999797637
 20
27.4999999972224
 30
0.0
 11
-2.499999999747615
 21
26.99999999727243
 31
0.0
1001
OrigLayer
1000
P-0000
1001
TOP
1070
     7
  0
LINE
  5
736B
330
17
100
AcDbEntity
  8
P-05BB
  6
Continuous
 62
   144
100
AcDbLine
 10
0.9999999999024566
 20
43.29599398487346
 30
0.0
 11
0.9999999999024566
 21
41.59999999722242
 31
0.0
1001
OrigLayer
1000
P-0000
1001
TOP
1070
     7
  0
ARC
  5
736C
330
17
100
AcDbEntity
  8
P-05BB
  6
Continuous
 62
   144
100
AcDbCircle
 10
-0.9737414296184851
 20
50.6460837146924
 30
0.0
 40
0.19999999998
100
AcDbArc
 50
39.99999999997426
 51
180.0
1001
OrigLayer
1000
P-0000
1001
TOP
1070
     7
  0
LINE
  5
736D
330
17
100
AcDbEntity
  8
P-05BB
  6
Continuous
 62
   144
100
AcDbLine
 10
0.2935822226550044
 20
49.44689096445689
 30
0.0
 11
-0.8205325410101522
 21
50.77464123661673
 31
0.0
1001
OrigLayer
1000
P-0000
1001
TOP
1070
     7
  0
LINE
  5
7370
330
17
100
AcDbEntity
  8
P-05BB
  6
Continuous
 62
   144
100
AcDbLine
 10
0.2935822226550044
 20
43.55310902874805
 30
0.0
 11
-0.8205325410101522
 21
42.22535875658798
 31
0.0
1001
OrigLayer
1000
P-0000
1001
TOP
1070
     7
  0
ARC
  5
7371
330
17
100
AcDbEntity
  8
P-05BB
  6
Continuous
 62
   144
100
AcDbCircle
 10
-0.9737414296184851
 20
42.35391627851242
 30
0.0
 40
0.19999999998
100
AcDbArc
 50
180.0
 51
320.0000000000258
1001
OrigLayer
1000
P-0000
1001
TOP
1070
     7
  0
LINE
  5
7372
330
17
100
AcDbEntity
  8
P-05BB
  6
Continuous
 62
   144
100
AcDbLine
 10
-1.173741429598521
 20
42.35391627851242
 30
0.0
 11
-1.173741429598521
 21
50.6460837146924
 31
0.0
1001
OrigLayer
1000
P-0000
1001
TOP
1070
     7
  0
ARC
  5
7373
330
17
100
AcDbEntity
  8
P-05BB
  6
Continuous
 62
   144
100
AcDbCircle
 10
0.0000000000025011
 20
49.99999999620229
 30
0.0
 40
2.499999999749999
100
AcDbArc
 50
90.0
 51
180.0
1001
OrigLayer
1000
P-0000
1001
TOP
1070
     7
  0
ARC
  5
7374
330
17
100
AcDbEntity
  8
P-05BB
  6
Continuous
 62
   144
100
AcDbCircle
 10
0.4999999999524789
 20
51.99999999600265
 30
0.0
 40
0.49999999995
100
AcDbArc
 50
0.0
 51
90.0
1001
OrigLayer
1000
P-0000
1001
TOP
1070
     7
  0
LINE
  5
7375
330
17
100
AcDbEntity
  8
P-05BB
  6
Continuous
 62
   144
100
AcDbLine
 10
0.9999999999024566
 20
51.99999999600265
 30
0.0
 11
0.9999999999024566
 21
49.70400600833148
 31
0.0
1001
OrigLayer
1000
P-0000
1001
TOP
1070
     7
  0
LINE
  5
7376
330
17
100
AcDbEntity
  8
P-05BB
  6
Continuous
 62
   144
100
AcDbLine
 10
0.0000000000025011
 20
52.49999999595241
 30
0.0
 11
0.4999999999524789
 21
52.49999999595241
 31
0.0
1001
OrigLayer
1000
P-0000
1001
TOP
1070
     7
  0
LINE
  5
7377
330
17
100
AcDbEntity
  8
P-05BB
  6
Continuous
 62
   144
100
AcDbLine
 10
19.99999999798001
 20
25.49999999743454
 30
0.0
 11
19.99999999798001
 21
25.79999999740414
 31
0.0
1001
OrigLayer
1000
P-0000
1001
TOP
1070
     7
  0
LINE
  5
7378
330
17
100
AcDbEntity
  8
P-05BB
  6
Continuous
 62
   144
100
AcDbLine
 10
14.99999999848501
 20
25.79999999740414
 30
0.0
 11
14.99999999848501
 21
25.49999999743454
 31
0.0
1001
OrigLayer
1000
P-0000
1001
TOP
1070
     7
  0
LINE
  5
7379
330
17
100
AcDbEntity
  8
P-05BB
  6
Continuous
 62
   144
100
AcDbLine
 10
19.99999999798001
 20
25.79999999740414
 30
0.0
 11
14.99999999848501
 21
25.79999999740414
 31
0.0
1001
OrigLayer
1000
P-0000
1001
TOP
1070
     7
  0
LINE
  5
737A
330
17
100
AcDbEntity
  8
P-05BB
  6
Continuous
 62
   144
100
AcDbLine
 10
19.99999999798001
 20
-0.799999999929355
 30
0.0
 11
19.99999999798001
 21
-0.4999999999599823
 31
0.0
1001
OrigLayer
1000
P-0000
1001
TOP
1070
     7
  0
LINE
  5
737B
330
17
100
AcDbEntity
  8
P-05BB
  6
Continuous
 62
   144
100
AcDbLine
 10
14.99999999848501
 20
-0.4999999999599823
 30
0.0
 11
14.99999999848501
 21
-0.799999999929355
 31
0.0
1001
OrigLayer
1000
P-0000
1001
TOP
1070
     7
  0
LINE
  5
737C
330
17
100
AcDbEntity
  8
P-05BB
  6
Continuous
 62
   144
100
AcDbLine
 10
14.99999999848501
 20
-0.799999999929355
 30
0.0
 11
19.99999999798001
 21
-0.799999999929355
 31
0.0
1001
OrigLayer
1000
P-0000
1001
TOP
1070
     7
  0
LINE
  5
737D
330
17
100
AcDbEntity
  8
P-05BB
  6
Continuous
 62
   144
100
AcDbLine
 10
9.999999998990006
 20
25.49999999743454
 30
0.0
 11
9.999999998990006
 21
25.79999999740414
 31
0.0
1001
OrigLayer
1000
P-0000
1001
TOP
1070
     7
  0
LINE
  5
737E
330
17
100
AcDbEntity
  8
P-05BB
  6
Continuous
 62
   144
100
AcDbLine
 10
4.999999999495003
 20
25.79999999740414
 30
0.0
 11
4.999999999495003
 21
25.49999999743454
 31
0.0
1001
OrigLayer
1000
P-0000
1001
TOP
1070
     7
  0
LINE
  5
737F
330
17
100
AcDbEntity
  8
P-05BB
  6
Continuous
 62
   144
100
AcDbLine
 10
9.999999998990006
 20
25.79999999740414
 30
0.0
 11
4.999999999495003
 21
25.79999999740414
 31
0.0
1001
OrigLayer
1000
P-0000
1001
TOP
1070
     7
  0
LINE
  5
7380
330
17
100
AcDbEntity
  8
P-05BB
  6
Continuous
 62
   144
100
AcDbLine
 10
-0.4999999999595275
 20
19.9999999979799
 30
0.0
 11
-0.7999999999292414
 21
19.9999999979799
 31
0.0
1001
OrigLayer
1000
P-0000
1001
TOP
1070
     7
  0
LINE
  5
7381
330
17
100
AcDbEntity
  8
P-05BB
  6
Continuous
 62
   144
100
AcDbLine
 10
-0.4999999999597549
 20
24.99999999748514
 30
0.0
 11
-0.4999999999595275
 21
19.9999999979799
 31
0.0
1001
OrigLayer
1000
P-0000
1001
TOP
1070
     7
  0
ARC
  5
7382
330
17
100
AcDbEntity
  8
P-05BB
  6
Continuous
 62
   144
100
AcDbCircle
 10
-0.0000000000102318
 20
24.99999999748514
 30
0.0
 40
0.4999999999495001
100
AcDbArc
 50
90.0
 51
180.0
1001
OrigLayer
1000
P-0000
1001
TOP
1070
     7
  0
LINE
  5
7383
330
17
100
AcDbEntity
  8
P-05BB
  6
Continuous
 62
   144
100
AcDbLine
 10
4.999999999495003
 20
25.49999999743454
 30
0.0
 11
-0.0000000000102318
 21
25.49999999743454
 31
0.0
1001
OrigLayer
1000
P-0000
1001
TOP
1070
     7
  0
LINE
  5
7384
330
17
100
AcDbEntity
  8
P-05BB
  6
Continuous
 62
   144
100
AcDbLine
 10
9.999999998990006
 20
-0.799999999929355
 30
0.0
 11
9.999999998990006
 21
-0.4999999999599823
 31
0.0
1001
OrigLayer
1000
P-0000
1001
TOP
1070
     7
  0
LINE
  5
7385
330
17
100
AcDbEntity
  8
P-05BB
  6
Continuous
 62
   144
100
AcDbLine
 10
4.999999999495003
 20
-0.4999999999599823
 30
0.0
 11
4.999999999495003
 21
-0.799999999929355
 31
0.0
1001
OrigLayer
1000
P-0000
1001
TOP
1070
     7
  0
LINE
  5
7386
330
17
100
AcDbEntity
  8
P-05BB
  6
Continuous
 62
   144
100
AcDbLine
 10
4.999999999495003
 20
-0.799999999929355
 30
0.0
 11
9.999999998990006
 21
-0.799999999929355
 31
0.0
1001
OrigLayer
1000
P-0000
1001
TOP
1070
     7
  0
LINE
  5
7387
330
17
100
AcDbEntity
  8
P-05BB
  6
Continuous
 62
   144
100
AcDbLine
 10
-0.7999999999292414
 20
14.99999999848501
 30
0.0
 11
-0.4999999999595275
 21
14.99999999848501
 31
0.0
1001
OrigLayer
1000
P-0000
1001
TOP
1070
     7
  0
LINE
  5
7388
330
17
100
AcDbEntity
  8
P-05BB
  6
Continuous
 62
   144
100
AcDbLine
 10
-0.4999999999595275
 20
9.999999998989778
 30
0.0
 11
-0.7999999999292414
 21
9.999999998989778
 31
0.0
1001
OrigLayer
1000
P-0000
1001
TOP
1070
     7
  0
LINE
  5
7389
330
17
100
AcDbEntity
  8
P-05BB
  6
Continuous
 62
   144
100
AcDbLine
 10
-0.4999999999595275
 20
14.99999999848501
 30
0.0
 11
-0.4999999999595275
 21
9.999999998989778
 31
0.0
1001
OrigLayer
1000
P-0000
1001
TOP
1070
     7
  0
LINE
  5
738A
330
17
100
AcDbEntity
  8
P-05BB
  6
Continuous
 62
   144
100
AcDbLine
 10
-0.7999999999292414
 20
4.999999999495116
 30
0.0
 11
-0.4999999999595275
 21
4.999999999495116
 31
0.0
1001
OrigLayer
1000
P-0000
1001
TOP
1070
     7
  0
ARC
  5
738B
330
17
100
AcDbEntity
  8
P-05BB
  6
Continuous
 62
   144
100
AcDbCircle
 10
-0.0000000000100044
 20
-0.0000000000101181
 30
0.0
 40
0.4999999999495001
100
AcDbArc
 50
180.0
 51
270.0
1001
OrigLayer
1000
P-0000
1001
TOP
1070
     7
  0
LINE
  5
738C
330
17
100
AcDbEntity
  8
P-05BB
  6
Continuous
 62
   144
100
AcDbLine
 10
-0.4999999999595275
 20
4.999999999495116
 30
0.0
 11
-0.4999999999595275
 21
-0.0000000000101181
 31
0.0
1001
OrigLayer
1000
P-0000
1001
TOP
1070
     7
  0
LINE
  5
738D
330
17
100
AcDbEntity
  8
P-05BB
  6
Continuous
 62
   144
100
AcDbLine
 10
-0.7999999999292414
 20
9.999999998989778
 30
0.0
 11
-0.7999999999292414
 21
4.999999999495116
 31
0.0
1001
OrigLayer
1000
P-0000
1001
TOP
1070
     7
  0
LINE
  5
738E
330
17
100
AcDbEntity
  8
P-05BB
  6
Continuous
 62
   144
100
AcDbLine
 10
-0.0000000000100044
 20
-0.4999999999599823
 30
0.0
 11
4.999999999495003
 21
-0.4999999999599823
 31
0.0
1001
OrigLayer
1000
P-0000
1001
TOP
1070
     7
  0
LINE
  5
738F
330
17
100
AcDbEntity
  8
P-05BB
  6
Continuous
 62
   144
100
AcDbLine
 10
-0.7999999999292414
 20
19.9999999979799
 30
0.0
 11
-0.7999999999292414
 21
14.99999999848501
 31
0.0
1001
OrigLayer
1000
P-0000
1001
TOP
1070
     7
  0
LINE
  5
7390
330
17
100
AcDbEntity
  8
P-05BB
  6
Continuous
 62
   144
100
AcDbLine
 10
9.999999998990006
 20
-0.4999999999599823
 30
0.0
 11
14.99999999848501
 21
-0.4999999999599823
 31
0.0
1001
OrigLayer
1000
P-0000
1001
TOP
1070
     7
  0
LINE
  5
7391
330
17
100
AcDbEntity
  8
P-05BB
  6
Continuous
 62
   144
100
AcDbLine
 10
14.99999999848501
 20
25.49999999743454
 30
0.0
 11
9.999999998990006
 21
25.49999999743454
 31
0.0
1001
OrigLayer
1000
P-0000
1001
TOP
1070
     7
  0
LINE
  5
7392
330
17
100
AcDbEntity
  8
P-05BB
  6
Continuous
 62
   144
100
AcDbLine
 10
-2.499999999747615
 20
49.99999999620229
 30
0.0
 11
-2.499999999747615
 21
27.99999999717238
 31
0.0
1001
OrigLayer
1000
P-0000
1001
TOP
1070
     7
  0
ARC
  5
7393
330
17
100
AcDbEntity
  8
P-05BB
  6
Continuous
 62
   144
100
AcDbCircle
 10
0.0
 20
0.0
 30
0.0
 40
2.499999999747499
100
AcDbArc
 50
180.0
 51
270.0
1001
OrigLayer
1000
P-0000
1001
TOP
1070
     7
  0
ARC
  5
7394
330
17
100
AcDbEntity
  8
P-05BB
  6
Continuous
 62
   144
100
AcDbCircle
 10
24.99999999747501
 20
0.0
 30
0.0
 40
2.499999999747499
100
AcDbArc
 50
270.0
 51
0.0
1001
OrigLayer
1000
P-0000
1001
TOP
1070
     7
  0
LINE
  5
7395
330
17
100
AcDbEntity
  8
P-05BB
  6
Continuous
 62
   144
100
AcDbLine
 10
24.99999999747501
 20
27.4999999972224
 30
0.0
 11
2.999999999902456
 21
27.4999999972224
 31
0.0
1001
OrigLayer
1000
P-0000
1001
TOP
1070
     7
  0
LINE
  5
7396
330
17
100
AcDbEntity
  8
P-05BB
  6
Continuous
 62
   144
100
AcDbLine
 10
0.0
 20
-2.499999999747728
 30
0.0
 11
24.99999999747501
 21
-2.499999999747728
 31
0.0
1001
OrigLayer
1000
P-0000
1001
TOP
1070
     7
  0
LINE
  5
7397
330
17
100
AcDbEntity
  8
P-05BB
  6
Continuous
 62
   144
100
AcDbLine
 10
19.99999999798001
 20
-0.4999999999599823
 30
0.0
 11
24.99999999748502
 21
-0.4999999999599823
 31
0.0
1001
OrigLayer
1000
P-0000
1001
TOP
1070
     7
  0
LINE
  5
7398
330
17
100
AcDbEntity
  8
P-05BB
  6
Continuous
 62
   144
100
AcDbLine
 10
24.99999999748502
 20
25.49999999743454
 30
0.0
 11
19.99999999798001
 21
25.49999999743454
 31
0.0
1001
OrigLayer
1000
P-0000
1001
TOP
1070
     7
  0
LINE
  5
7399
330
17
100
AcDbEntity
  8
P-05BB
  6
Continuous
 62
   144
100
AcDbLine
 10
25.79999999740426
 20
14.99999999848501
 30
0.0
 11
25.79999999740426
 21
19.9999999979799
 31
0.0
1001
OrigLayer
1000
P-0000
1001
TOP
1070
     7
  0
LINE
  5
739A
330
17
100
AcDbEntity
  8
P-05BB
  6
Continuous
 62
   144
100
AcDbLine
 10
27.4999999972224
 20
0.0
 30
0.0
 11
27.4999999972224
 21
24.9999999974749
 31
0.0
1001
OrigLayer
1000
P-0000
1001
TOP
1070
     7
  0
LINE
  5
739B
330
17
100
AcDbEntity
  8
P-05BB
  6
Continuous
 62
   144
100
AcDbLine
 10
25.79999999740426
 20
4.999999999495116
 30
0.0
 11
25.79999999740426
 21
9.999999998989778
 31
0.0
1001
OrigLayer
1000
P-0000
1001
TOP
1070
     7
  0
LINE
  5
739C
330
17
100
AcDbEntity
  8
P-05BB
  6
Continuous
 62
   144
100
AcDbLine
 10
25.49999999743454
 20
-0.0000000000101181
 30
0.0
 11
25.49999999743454
 21
4.999999999495116
 31
0.0
1001
OrigLayer
1000
P-0000
1001
TOP
1070
     7
  0
ARC
  5
739D
330
17
100
AcDbEntity
  8
P-05BB
  6
Continuous
 62
   144
100
AcDbCircle
 10
24.99999999748502
 20
-0.0000000000101181
 30
0.0
 40
0.4999999999495001
100
AcDbArc
 50
270.0
 51
0.0
1001
OrigLayer
1000
P-0000
1001
TOP
1070
     7
  0
LINE
  5
739E
330
17
100
AcDbEntity
  8
P-05BB
  6
Continuous
 62
   144
100
AcDbLine
 10
25.49999999743454
 20
4.999999999495116
 30
0.0
 11
25.79999999740426
 21
4.999999999495116
 31
0.0
1001
OrigLayer
1000
P-0000
1001
TOP
1070
     7
  0
LINE
  5
739F
330
17
100
AcDbEntity
  8
P-05BB
  6
Continuous
 62
   144
100
AcDbLine
 10
25.49999999743454
 20
9.999999998989778
 30
0.0
 11
25.49999999743454
 21
14.99999999848501
 31
0.0
1001
OrigLayer
1000
P-0000
1001
TOP
1070
     7
  0
LINE
  5
73A0
330
17
100
AcDbEntity
  8
P-05BB
  6
Continuous
 62
   144
100
AcDbLine
 10
25.79999999740426
 20
9.999999998989778
 30
0.0
 11
25.49999999743454
 21
9.999999998989778
 31
0.0
1001
OrigLayer
1000
P-0000
1001
TOP
1070
     7
  0
LINE
  5
73A1
330
17
100
AcDbEntity
  8
P-05BB
  6
Continuous
 62
   144
100
AcDbLine
 10
25.49999999743454
 20
14.99999999848501
 30
0.0
 11
25.79999999740426
 21
14.99999999848501
 31
0.0
1001
OrigLayer
1000
P-0000
1001
TOP
1070
     7
  0
ARC
  5
73A2
330
17
100
AcDbEntity
  8
P-05BB
  6
Continuous
 62
   144
100
AcDbCircle
 10
24.99999999747501
 20
24.9999999974749
 30
0.0
 40
2.499999999747499
100
AcDbArc
 50
0.0
 51
90.0
1001
OrigLayer
1000
P-0000
1001
TOP
1070
     7
  0
ARC
  5
73A3
330
17
100
AcDbEntity
  8
P-05BB
  6
Continuous
 62
   144
100
AcDbCircle
 10
24.99999999748502
 20
24.99999999748514
 30
0.0
 40
0.4999999999495001
100
AcDbArc
 50
0.0
 51
90.0
1001
OrigLayer
1000
P-0000
1001
TOP
1070
     7
  0
LINE
  5
73A4
330
17
100
AcDbEntity
  8
P-05BB
  6
Continuous
 62
   144
100
AcDbLine
 10
25.49999999743454
 20
19.9999999979799
 30
0.0
 11
25.49999999743454
 21
24.99999999748514
 31
0.0
1001
OrigLayer
1000
P-0000
1001
TOP
1070
     7
  0
LINE
  5
73A5
330
17
100
AcDbEntity
  8
P-05BB
  6
Continuous
 62
   144
100
AcDbLine
 10
25.79999999740426
 20
19.9999999979799
 30
0.0
 11
25.49999999743454
 21
19.9999999979799
 31
0.0
1001
OrigLayer
1000
P-0000
1001
TOP
1070
     7
  0
LINE
  5
7A5C
330
17
100
AcDbEntity
  8
P-05BB
  6
Continuous
 62
   144
100
AcDbLine
 10
1.199999999902502
 20
34.49999999722241
 30
0.0
 11
1.099999999902593
 21
34.49999999722241
 31
0.0
1001
OrigLayer
1000
P-0000
1001
TOP
1070
     7
  0
LINE
  5
7A5D
330
17
100
AcDbEntity
  8
P-05BB
  6
Continuous
 62
   144
100
AcDbLine
 10
1.199999999902502
 20
41.4999999972224
 30
0.0
 11
1.099999999902593
 21
41.4999999972224
 31
0.0
1001
OrigLayer
1000
P-0000
1001
TOP
1070
     7
  0
LINE
  5
7A5E
330
17
100
AcDbEntity
  8
P-05BB
  6
Continuous
 62
   144
100
AcDbLine
 10
1.499999999902456
 20
41.19999999722245
 30
0.0
 11
1.499999999902456
 21
38.49999999717238
 31
0.0
1001
OrigLayer
1000
P-0000
1001
TOP
1070
     7
  0
ARC
  5
7A61
330
17
100
AcDbEntity
  8
P-05BB
  6
Continuous
 62
   144
100
AcDbCircle
 10
1.199999999902502
 20
34.79999999722247
 30
0.0
 40
0.3
100
AcDbArc
 50
270.0
 51
0.0
1001
OrigLayer
1000
P-0000
1001
TOP
1070
     7
  0
LINE
  5
7A62
330
17
100
AcDbEntity
  8
P-05BB
  6
Continuous
 62
   144
100
AcDbLine
 10
0.9999999999024566
 20
34.39999999722238
 30
0.0
 11
0.9999999999024566
 21
29.49999999722241
 31
0.0
1001
OrigLayer
1000
P-0000
1001
TOP
1070
     7
  0
ARC
  5
7A6E
330
17
100
AcDbEntity
  8
P-05BB
  6
Continuous
 62
   144
100
AcDbCircle
 10
1.099999999902593
 20
41.59999999722242
 30
0.0
 40
0.1
100
AcDbArc
 50
180.0
 51
270.0
1001
OrigLayer
1000
P-0000
1001
TOP
1070
     7
  0
ARC
  5
7A6F
330
17
100
AcDbEntity
  8
P-05BB
  6
Continuous
 62
   144
100
AcDbCircle
 10
1.099999999902593
 20
34.39999999722238
 30
0.0
 40
0.1
100
AcDbArc
 50
90.0
 51
180.0
1001
OrigLayer
1000
P-0000
1001
TOP
1070
     7
  0
LINE
  5
7A71
330
17
100
AcDbEntity
  8
P-05BB
  6
Continuous
 62
   144
100
AcDbLine
 10
0.9999999999524789
 20
37.99999999722241
 30
0.0
 11
1.499999999902456
 21
38.49999999717238
 31
0.0
1001
OrigLayer
1000
P-0000
1001
TOP
1070
     7
  0
LINE
  5
7A72
102
{ACAD_REACTORS
330
73A8
330
73AB
330
73B1
102
}
330
17
100
AcDbEntity
  8
P-05BB
  6
Continuous
 62
   144
100
AcDbLine
 10
0.9999999999524789
 20
37.99999999722241
 30
0.0
 11
1.499999999902456
 21
37.49999999727243
 31
0.0
1001
OrigLayer
1000
P-0000
1001
TOP
1070
     7
  0
LINE
  5
7A73
330
17
100
AcDbEntity
  8
P-05BB
  6
Continuous
 62
   144
100
AcDbLine
 10
1.499999999902456
 20
37.49999999727254
 30
0.0
 11
1.499999999902456
 21
34.79999999722247
 31
0.0
1001
OrigLayer
1000
P-0000
1001
TOP
1070
     7
  0
ARC
  5
7AB6
330
17
100
AcDbEntity
  8
P-05BB
  6
Continuous
 62
   144
100
AcDbCircle
 10
1.199999999902502
 20
41.19999999722245
 30
0.0
 40
0.3
100
AcDbArc
 50
0.0
 51
90.0
1001
OrigLayer
1000
P-0000
1001
TOP
1070
     7
  0
ARC
  5
7BBD
330
17
100
AcDbEntity
  8
P-05BB
  6
Continuous
 62
   144
100
AcDbCircle
 10
0.5999999999025932
 20
43.29599398487346
 30
0.0
 40
0.4
100
AcDbArc
 50
0.0
 51
139.999999999979
1001
OrigLayer
1000
P-0000
1001
TOP
1070
     7
  0
ARC
  5
7BBE
330
17
100
AcDbEntity
  8
P-05BB
  6
Continuous
 62
   144
100
AcDbCircle
 10
0.5999999999023658
 20
49.70400600833148
 30
0.0
 40
0.4
100
AcDbArc
 50
220.0000000000209
 51
0.0
1001
OrigLayer
1000
P-0000
1001
TOP
1070
     7
  0
ENDSEC
  0
SECTION
  2
OBJECTS
  0
DICTIONARY
  5
C
330
0
100
AcDbDictionary
281
     1
  3
ACAD_2007HEADERVARS_RT
350
830B
  3
ACAD_COLOR
350
DFC
  3
ACAD_GROUP
350
D
  3
ACAD_LAYOUT
350
E24
  3
ACAD_MATERIAL
350
DD2
  3
ACAD_MLEADERSTYLE
350
E21
  3
ACAD_MLINESTYLE
350
1A
  3
ACAD_PLOTSETTINGS
350
E25
  3
ACAD_PLOTSTYLENAME
350
DD0
  3
ACAD_SCALELIST
350
DFF
  3
ACAD_TABLESTYLE
350
DFD
  3
ACAD_VISUALSTYLE
350
DEB
  3
ACDB_RECOMPOSE_DATA
350
8309
  3
ACDBVARIABLEDICTIONARY
350
2A
  3
ACMDICTIONARY
350
40
  3
ACME_BOM_MANAGER_NAME
350
3D
  3
ACME_COMMAND_HISTORY
350
33
  3
ACME_SCOPE_NAME
350
32
  3
ACMESTATEMGR
350
31
  3
ACMESYSVARMANAGER
350
36
  3
ACMSYSTEMVARIABLEMANAGER
350
57
  3
AEC_PROPERTY_SET_DEFS
350
1437
  3
DWGPROPS
350
830A
  3
qs_topprt_diz
350
E31
  3
QSCATDICT
350
E2E
  3
QsPallStyleDict
350
E30
  3
QsTop499
350
82DA
  3
TopSpotLight
350
E38
  0
DICTIONARY
  5
120C
330
2
100
AcDbDictionary
280
     1
281
     1
  3
ACAD_LAYERSTATES
360
120D
  0
DICTIONARY
  5
1047
330
E
100
AcDbDictionary
280
     1
281
     1
  3
ADSK_XREC_LAYER_RECONCILED
360
1048
  0
DICTIONARY
  5
104F
330
E33
100
AcDbDictionary
280
     1
281
     1
  3
ADSK_XREC_LAYER_RECONCILED
360
1050
  0
DICTIONARY
  5
43
330
17
100
AcDbDictionary
280
     1
281
     1
  3
ACAD_INDEX
360
82D1
  0
DICTIONARY
  5
6657
330
653E
100
AcDbDictionary
280
     1
281
     1
  3
ACAD_SORTENTS
360
6658
  0
DICTIONARY
  5
830B
102
{ACAD_REACTORS
330
C
102
}
330
C
100
AcDbDictionary
281
     1
  3
INTERFEREVPVS
350
830C
  0
DICTIONARY
  5
DFC
102
{ACAD_REACTORS
330
C
102
}
330
C
100
AcDbDictionary
281
     1
  0
DICTIONARY
  5
D
102
{ACAD_REACTORS
330
C
102
}
330
C
100
AcDbDictionary
281
     1
  0
DICTIONARY
  5
E24
102
{ACAD_REACTORS
330
C
102
}
330
C
100
AcDbDictionary
281
     1
  3
Layout1
350
E27
  3
Model
350
E26
  0
DICTIONARY
  5
DD2
102
{ACAD_REACTORS
330
C
102
}
330
C
100
AcDbDictionary
281
     1
  3
ByBlock
350
DDB
  3
ByLayer
350
DD3
  3
Global
350
DE3
  0
DICTIONARY
  5
E21
102
{ACAD_REACTORS
330
C
102
}
330
C
100
AcDbDictionary
281
     1
  3
Standard
350
E22
  0
DICTIONARY
  5
1A
102
{ACAD_REACTORS
330
C
102
}
330
C
100
AcDbDictionary
281
     1
  3
STANDARD
350
1B
  0
DICTIONARY
  5
E25
102
{ACAD_REACTORS
330
C
102
}
330
C
100
AcDbDictionary
281
     1
  3
Kyocera_1010 OR
350
8226
  3
Kyocera_1010 VER
350
8227
  3
Olivetti_200 A3
350
8228
  3
Olivetti_200 A4
350
8229
  3
PLOTTER
350
822A
  0
ACDBDICTIONARYWDFLT
  5
DD0
102
{ACAD_REACTORS
330
C
102
}
330
C
100
AcDbDictionary
281
     1
  3
Normal
350
DD1
100
AcDbDictionaryWithDefault
340
DD1
  0
DICTIONARY
  5
DFF
102
{ACAD_REACTORS
330
C
102
}
330
C
100
AcDbDictionary
281
     1
  3
A0
350
E00
  3
A1
350
E01
  3
A2
350
E02
  3
A3
350
E03
  3
A4
350
E04
  3
A5
350
E05
  3
A6
350
E06
  3
A7
350
E07
  3
A8
350
E08
  3
A9
350
E09
  3
B0
350
E0A
  3
B1
350
E0B
  3
B2
350
E0C
  3
B3
350
E0D
  3
B4
350
E0E
  3
B5
350
E0F
  3
B6
350
E10
  3
B7
350
E11
  3
B8
350
E12
  3
B9
350
E13
  3
C0
350
E14
  3
C1
350
E15
  3
C2
350
E16
  3
C3
350
E17
  3
C4
350
E18
  3
C5
350
E19
  3
C6
350
E1A
  3
C7
350
E1B
  3
C8
350
E1C
  3
C9
350
E1D
  3
D0
350
E1E
  3
D1
350
E1F
  3
D2
350
E20
  0
DICTIONARY
  5
DFD
102
{ACAD_REACTORS
330
C
102
}
330
C
100
AcDbDictionary
281
     1
  3
Standard
350
DFE
  0
DICTIONARY
  5
DEB
102
{ACAD_REACTORS
330
C
102
}
330
C
100
AcDbDictionary
281
     1
  3
2dWireframe
350
DF1
  3
3D Hidden
350
DF3
  3
3dWireframe
350
DF2
  3
Basic
350
DF0
  3
Brighten
350
DF7
  3
ColorChange
350
DFB
  3
Conceptual
350
DF4
  3
Dim
350
DF6
  3
EdgeColorOff
350
82EB
  3
Facepattern
350
DFA
  3
Flat
350
DEC
  3
FlatWithEdges
350
DED
  3
Gouraud
350
DEE
  3
GouraudWithEdges
350
DEF
  3
Hidden
350
82E3
  3
JitterOff
350
82E9
  3
Linepattern
350
DF9
  3
OverhangOff
350
82EA
  3
Realistic
350
DF5
  3
Shaded
350
82E8
  3
Shaded with edges
350
82E7
  3
Shades of Gray
350
82E4
  3
Sketchy
350
82E5
  3
Thicken
350
DF8
  3
Wireframe
350
82E2
  3
X-Ray
350
82E6
  0
XRECORD
  5
8309
102
{ACAD_REACTORS
330
C
102
}
330
C
100
AcDbXrecord
280
     1
 90
        1
330
DFE
  0
DICTIONARY
  5
2A
102
{ACAD_REACTORS
330
C
102
}
330
C
100
AcDbDictionary
281
     1
  3
CANNOSCALE
350
1065
  3
CMLEADERSTYLE
350
1062
  3
CTABLESTYLE
350
1061
  3
DIMADEC
350
2B
  3
DIMASSOC
350
8307
  3
DRAWORDERCTL
350
1063
  3
INDEXCTL
350
35
  3
LAYEREVAL
350
5CDE
  3
LAYERNOTIFY
350
5CDF
  3
LIGHTINGUNITS
350
1066
  3
MLEADERSCALE
350
7BEC
  3
MSLTSCALE
350
1064
  3
SORTENTS
350
8305
  3
XCLIPFRAME
350
8306
  0
DICTIONARY
  5
40
102
{ACAD_REACTORS
330
C
102
}
330
C
100
AcDbDictionary
281
     1
  3
ACMBOM
350
8F7
  3
ACMBOMDATA
350
41
  3
ACMSTDDICTIONARY
350
5A
  0
ACAD_PROXY_OBJECT
  5
3D
102
{ACAD_REACTORS
330
C
102
}
330
C
100
AcDbProxyObject
 90
      499
 91
      509
 95
   589845
 70
     0
 93
       52
310
0001004040006F
330
0
330
0
330
3E
 94
        0
1001
ACAD
1000
AcRTDxfName
1000
ACMEDRAWINGMAN
  0
ACAD_PROXY_OBJECT
  5
33
102
{ACAD_REACTORS
330
C
102
}
330
C
100
AcDbProxyObject
 90
      499
 91
      504
 95
   589845
 70
     0
 93
     1882
310
47805055055524745805055055524745805055055524745805055055524745805055055524745805055055524745805055055524745805045A4F4F4D80505515341564580506534156454153805045A4F4F4D805045A4F4F4D805075354524554434880507535452455443488050944494D4C494E4541528050944494D4C49
310
4E454152805054552415345805054552415345805055055524745805055055524745805055055524745805055055524745805055055524745805055055524745805055055524745805055055524745805055055524745805055055524745805045A4F4F4D805055153415645BF
 94
        0
1001
ACAD
1000
AcRTDxfName
1000
ACMECOMMANDHISTORY
  0
ACAD_PROXY_OBJECT
  5
32
102
{ACAD_REACTORS
330
C
102
}
330
C
100
AcDbProxyObject
 90
      499
 91
      503
 95
   589845
 70
     0
 93
      132
310
03000042D0641E000000000000AAA406AF
360
37
360
38
360
39
360
3E
360
58
360
59
 94
        0
1001
ACAD
1000
AcRTDxfName
1000
ACMESCOPE
  0
ACAD_PROXY_OBJECT
  5
31
102
{ACAD_REACTORS
330
C
102
}
330
C
100
AcDbProxyObject
 90
      499
 91
      502
 95
   589845
 70
     0
 93
       50
310
03000040A412BF
 94
        0
1001
ACAD
1000
AcRTDxfName
1000
ACMESTATEMGR
  0
ACAD_PROXY_OBJECT
  5
36
102
{ACAD_REACTORS
330
C
102
}
330
C
100
AcDbProxyObject
 90
      499
 91
      506
 95
   589845
 70
     0
 93
       48
310
903412000000D0
330
37
330
38
330
39
 94
        0
1001
ACAD
1000
AcRTDxfName
1000
ACIMSYSVARMAN
  0
ACAD_PROXY_OBJECT
  5
57
102
{ACAD_REACTORS
330
C
102
}
330
C
100
AcDbProxyObject
 90
      499
 91
      506
 95
   589845
 70
     0
 93
       40
310
90240E00007E
330
58
330
59
 94
        0
1001
ACAD
1000
AcRTDxfName
1000
ACIMSYSVARMAN
  0
DICTIONARY
  5
1437
102
{ACAD_REACTORS
330
C
102
}
330
C
100
AcDbDictionary
281
     1
  0
XRECORD
  5
830A
102
{ACAD_REACTORS
330
C
102
}
330
C
100
AcDbXrecord
280
     1
  1
DWGPROPS COOKIE
  2

  3

  4

  6

  7

  8
mpistoia
  9

300
=
301
=
302
=
303
=
304
=
305
=
306
=
307
=
308
=
309
=
 40
0.5887531250000001
 41
2451738.648347384
 42
2455646.4702711
  1

 90
        0
  0
DICTIONARY
  5
E31
102
{ACAD_REACTORS
330
C
102
}
330
C
100
AcDbDictionary
281
     1
  3
UCNT
350
E32
  0
DICTIONARY
  5
E2E
102
{ACAD_REACTORS
330
C
102
}
330
C
100
AcDbDictionary
280
     1
281
     1
  3
DEFAULT
360
E2F
  0
DICTIONARY
  5
E30
102
{ACAD_REACTORS
330
C
102
}
330
C
100
AcDbDictionary
281
     1
  3
DEFAULT
350
17EA
  0
DICTIONARY
  5
82DA
102
{ACAD_REACTORS
330
C
102
}
330
C
100
AcDbDictionary
281
     1
  3
TOP
350
82DF
  3
X139c
350
82DD
  3
X5ed2
350
82DE
  3
X6274
350
82DB
  3
X7d37
350
82DC
  0
DICTIONARY
  5
E38
102
{ACAD_REACTORS
330
C
102
}
330
C
100
AcDbDictionary
281
     1
  3
colors
350
E39
  0
DICTIONARY
  5
120D
102
{ACAD_REACTORS
330
120C
102
}
330
120C
100
AcDbDictionary
281
     1
  0
XRECORD
  5
1048
102
{ACAD_REACTORS
330
1047
102
}
330
1047
100
AcDbXrecord
280
     1
290
     1
  0
XRECORD
  5
1050
102
{ACAD_REACTORS
330
104F
102
}
330
104F
100
AcDbXrecord
280
     1
290
     1
  0
DICTIONARY
  5
82D1
102
{ACAD_REACTORS
330
43
102
}
330
43
100
AcDbDictionary
281
     1
  3
*A1
350
82D2
  0
SORTENTSTABLE
  5
6658
102
{ACAD_REACTORS
330
6657
102
}
330
6657
100
AcDbSortentsTable
330
653E
331
6577
  5
6596
331
658F
  5
655F
331
6593
  5
6559
331
657B
  5
659C
331
6597
  5
6551
331
657F
  5
6587
331
659B
  5
6550
331
6560
  5
657C
331
6564
  5
6580
331
6580
  5
6588
331
6568
  5
6584
331
6551
  5
656F
331
656C
  5
658B
331
6584
  5
656C
331
6555
  5
655A
331
6570
  5
658F
331
6588
  5
6564
331
6559
  5
6576
331
6541
  5
6545
331
6574
  5
6593
331
658C
  5
6568
331
6545
  5
6541
331
655D
  5
6579
331
6590
  5
6560
331
6578
  5
6597
331
6594
  5
655B
331
657C
  5
654F
331
6598
  5
6554
331
659C
  5
659B
331
6561
  5
657D
331
6565
  5
6581
331
6552
  5
6570
331
6569
  5
6586
331
6581
  5
6585
331
6556
  5
6573
331
656D
  5
658C
331
6585
  5
6561
331
6542
  5
6546
331
655A
  5
6575
331
6571
  5
6590
331
6589
  5
6565
331
6546
  5
6542
331
655E
  5
657B
331
6575
  5
6594
331
658D
  5
6569
331
6591
  5
6555
331
6579
  5
6598
331
6595
  5
655C
331
657D
  5
6552
331
6599
  5
6553
331
6562
  5
657E
331
654F
  5
656D
331
6566
  5
6582
331
656A
  5
6589
331
6582
  5
656A
331
6553
  5
6571
331
656E
  5
658D
331
6586
  5
6562
331
653F
  5
6543
331
6557
  5
6572
331
6572
  5
6591
331
658A
  5
6566
331
655B
  5
6577
331
6543
  5
653F
331
6576
  5
6595
331
658E
  5
655E
331
655F
  5
657A
331
6592
  5
6558
331
657A
  5
659A
331
6596
  5
655D
331
657E
  5
6556
331
659A
  5
6599
331
6563
  5
657F
331
6567
  5
6583
331
6550
  5
656E
331
656B
  5
658A
331
6583
  5
656B
331
6554
  5
6557
331
656F
  5
658E
331
6587
  5
6563
331
6558
  5
6574
331
6540
  5
6544
331
6573
  5
6592
331
658B
  5
6567
331
655C
  5
6578
331
6544
  5
6540
  0
XRECORD
  5
830C
102
{ACAD_REACTORS
330
830B
102
}
330
830B
100
AcDbXrecord
280
     1
340
DF2
  0
LAYOUT
  5
E27
102
{ACAD_XDICTIONARY
360
8333
102
}
102
{ACAD_REACTORS
330
E24
102
}
330
E24
100
AcDbPlotSettings
  1

  2
\\marcoa-xp\HP LJ 5200
  4

  6

 40
0.0
 41
0.0
 42
0.0
 43
0.0
 44
0.0
 45
0.0
 46
0.0
 47
0.0
 48
0.0
 49
0.0
140
0.0
141
0.0
142
1.0
143
1.0
 70
   688
 72
     0
 73
     0
 74
     5
  7

 75
    16
147
1.0
148
0.0
149
0.0
100
AcDbLayout
  1
Layout1
 70
     0
 71
     1
 10
0.0
 20
0.0
 11
12.0
 21
9.0
 12
0.0
 22
0.0
 32
0.0
 14
1.000000000000000E+20
 24
1.000000000000000E+20
 34
1.000000000000000E+20
 15
-1.000000000000000E+20
 25
-1.000000000000000E+20
 35
-1.000000000000000E+20
146
0.0
 13
0.0
 23
0.0
 33
0.0
 16
1.0
 26
0.0
 36
0.0
 17
0.0
 27
1.0
 37
0.0
 76
     0
330
14
  0
LAYOUT
  5
E26
102
{ACAD_XDICTIONARY
360
8331
102
}
102
{ACAD_REACTORS
330
E24
102
}
330
E24
100
AcDbPlotSettings
  1

  2
\\marcoa-xp\HP LJ 5200
  4
A4
  6

 40
4.233333110809326
 41
5.757328510284423
 42
4.233322143554687
 43
4.23333740234375
 44
209.9733276367187
 45
296.9683227539062
 46
0.0
 47
0.0
 48
0.0
 49
0.0
140
0.0
141
0.0
142
1.0
143
3.477728076716543
 70
 11952
 72
     1
 73
     1
 74
     0
  7

 75
     0
147
0.2875440454056829
148
-581.2084465931721
149
334.636417654604
100
AcDbLayout
  1
Model
 70
     1
 71
     0
 10
0.0
 20
0.0
 11
12.0
 21
9.0
 12
0.0
 22
0.0
 32
0.0
 14
0.0
 24
0.0
 34
0.0
 15
0.0
 25
0.0
 35
0.0
146
0.0
 13
0.0
 23
0.0
 33
0.0
 16
1.0
 26
0.0
 36
0.0
 17
0.0
 27
1.0
 37
0.0
 76
     0
330
17
331
DCE
1001
ACAD_PSEXT
1000
\\marcoa-xp\HP LJ 5200
1000
HP LaserJet 5200 PCL 6
1000
\\marcoa-xp
1000

1070
     0
  0
MATERIAL
  5
DDB
102
{ACAD_XDICTIONARY
360
DDC
102
}
102
{ACAD_REACTORS
330
DD2
102
}
330
DD2
100
AcDbMaterial
  1
ByBlock
 72
     0
 43
0.0208333333333333
 43
0.0
 43
0.0
 43
0.0
 43
0.0
 43
0.0208333333333333
 43
0.0
 43
0.0
 43
0.0
 43
0.0
 43
1.0
 43
0.0
 43
0.0
 43
0.0
 43
0.0
 43
1.0
 77
     0
 47
0.0208333333333333
 47
0.0
 47
0.0
 47
0.0
 47
0.0
 47
0.0208333333333333
 47
0.0
 47
0.0
 47
0.0
 47
0.0
 47
1.0
 47
0.0
 47
0.0
 47
0.0
 47
0.0
 47
1.0
171
     0
 49
0.0208333333333333
 49
0.0
 49
0.0
 49
0.0
 49
0.0
 49
0.0208333333333333
 49
0.0
 49
0.0
 49
0.0
 49
0.0
 49
1.0
 49
0.0
 49
0.0
 49
0.0
 49
0.0
 49
1.0
175
     0
142
0.0208333333333333
142
0.0
142
0.0
142
0.0
142
0.0
142
0.0208333333333333
142
0.0
142
0.0
142
0.0
142
0.0
142
1.0
142
0.0
142
0.0
142
0.0
142
0.0
142
1.0
179
     0
144
0.0208333333333333
144
0.0
144
0.0
144
0.0
144
0.0
144
0.0208333333333333
144
0.0
144
0.0
144
0.0
144
0.0
144
1.0
144
0.0
144
0.0
144
0.0
144
0.0
144
1.0
147
0.0208333333333333
147
0.0
147
0.0
147
0.0
147
0.0
147
0.0208333333333333
147
0.0
147
0.0
147
0.0
147
0.0
147
1.0
147
0.0
147
0.0
147
0.0
147
0.0
147
1.0
  0
MATERIAL
  5
DD3
102
{ACAD_XDICTIONARY
360
DD4
102
}
102
{ACAD_REACTORS
330
DD2
102
}
330
DD2
100
AcDbMaterial
  1
ByLayer
 72
     0
 43
0.0208333333333333
 43
0.0
 43
0.0
 43
0.0
 43
0.0
 43
0.0208333333333333
 43
0.0
 43
0.0
 43
0.0
 43
0.0
 43
1.0
 43
0.0
 43
0.0
 43
0.0
 43
0.0
 43
1.0
 77
     0
 47
0.0208333333333333
 47
0.0
 47
0.0
 47
0.0
 47
0.0
 47
0.0208333333333333
 47
0.0
 47
0.0
 47
0.0
 47
0.0
 47
1.0
 47
0.0
 47
0.0
 47
0.0
 47
0.0
 47
1.0
171
     0
 49
0.0208333333333333
 49
0.0
 49
0.0
 49
0.0
 49
0.0
 49
0.0208333333333333
 49
0.0
 49
0.0
 49
0.0
 49
0.0
 49
1.0
 49
0.0
 49
0.0
 49
0.0
 49
0.0
 49
1.0
175
     0
142
0.0208333333333333
142
0.0
142
0.0
142
0.0
142
0.0
142
0.0208333333333333
142
0.0
142
0.0
142
0.0
142
0.0
142
1.0
142
0.0
142
0.0
142
0.0
142
0.0
142
1.0
179
     0
144
0.0208333333333333
144
0.0
144
0.0
144
0.0
144
0.0
144
0.0208333333333333
144
0.0
144
0.0
144
0.0
144
0.0
144
1.0
144
0.0
144
0.0
144
0.0
144
0.0
144
1.0
147
0.0208333333333333
147
0.0
147
0.0
147
0.0
147
0.0
147
0.0208333333333333
147
0.0
147
0.0
147
0.0
147
0.0
147
1.0
147
0.0
147
0.0
147
0.0
147
0.0
147
1.0
  0
MATERIAL
  5
DE3
102
{ACAD_XDICTIONARY
360
DE4
102
}
102
{ACAD_REACTORS
330
DD2
102
}
330
DD2
100
AcDbMaterial
  1
Global
 72
     0
 43
0.0208333333333333
 43
0.0
 43
0.0
 43
0.0
 43
0.0
 43
0.0208333333333333
 43
0.0
 43
0.0
 43
0.0
 43
0.0
 43
1.0
 43
0.0
 43
0.0
 43
0.0
 43
0.0
 43
1.0
 77
     0
 47
0.0208333333333333
 47
0.0
 47
0.0
 47
0.0
 47
0.0
 47
0.0208333333333333
 47
0.0
 47
0.0
 47
0.0
 47
0.0
 47
1.0
 47
0.0
 47
0.0
 47
0.0
 47
0.0
 47
1.0
171
     0
 49
0.0208333333333333
 49
0.0
 49
0.0
 49
0.0
 49
0.0
 49
0.0208333333333333
 49
0.0
 49
0.0
 49
0.0
 49
0.0
 49
1.0
 49
0.0
 49
0.0
 49
0.0
 49
0.0
 49
1.0
175
     0
142
0.0208333333333333
142
0.0
142
0.0
142
0.0
142
0.0
142
0.0208333333333333
142
0.0
142
0.0
142
0.0
142
0.0
142
1.0
142
0.0
142
0.0
142
0.0
142
0.0
142
1.0
179
     0
144
0.0208333333333333
144
0.0
144
0.0
144
0.0
144
0.0
144
0.0208333333333333
144
0.0
144
0.0
144
0.0
144
0.0
144
1.0
144
0.0
144
0.0
144
0.0
144
0.0
144
1.0
147
0.0208333333333333
147
0.0
147
0.0
147
0.0
147
0.0
147
0.0208333333333333
147
0.0
147
0.0
147
0.0
147
0.0
147
1.0
147
0.0
147
0.0
147
0.0
147
0.0
147
1.0
  0
MLEADERSTYLE
  5
E22
102
{ACAD_REACTORS
330
E21
102
}
330
E21
100
AcDbMLeaderStyle
170
     2
171
     1
172
     0
 90
        2
 40
0.0
 41
0.0
173
     1
 91
-1056964608
340
11
 92
       -2
290
     1
 42
2.0
291
     1
 43
0.36
  3
Standard
 44
4.0
300

342
F
174
     1
178
     6
175
     1
176
     0
 93
-1056964608
 45
4.0
292
     0
297
     0
 46
4.0
 94
-1056964608
 47
1.0
 49
1.0
140
1.0
293
     1
141
0.0
294
     1
177
     0
142
1.0
295
     0
296
     0
143
0.125
1001
ACAD_MLEADERVER
1070
     2
  0
MLINESTYLE
  5
1B
102
{ACAD_REACTORS
330
1A
102
}
330
1A
100
AcDbMlineStyle
  2
STANDARD
 70
     0
  3

 62
   256
 51
90.0
 52
90.0
 71
     2
 49
0.5
 62
   256
  6
BYLAYER
 49
-0.5
 62
   256
  6
BYLAYER
  0
PLOTSETTINGS
  5
8226
102
{ACAD_XDICTIONARY
360
8335
102
}
102
{ACAD_REACTORS
330
E25
102
}
330
E25
100
AcDbPlotSettings
  1
Kyocera_1010 OR
  2
Kyocera_1010.pc3
  4
A4
  6

 40
4.984749794006347
 41
5.154074668884277
 42
5.111740112304687
 43
4.9847412109375
 44
210.0156707763672
 45
297.0106506347656
 46
0.0
 47
109.7870247470818
 48
0.0
 49
0.0
140
0.0
141
0.0
142
1.0
143
0.6770771918566143
 70
 11956
 72
     1
 73
     1
 74
     1
  7
DIERRE BN.ctb
 75
     0
147
1.476936473458659
148
-222.4649060220283
149
-239.0808115236937
1001
ACAD_PSEXT
1000
Kyocera_1010.pc3
1000
Kyocera Mita FS-1010 KX
1000
\\PC5
1000

1070
     0
  0
PLOTSETTINGS
  5
8227
102
{ACAD_XDICTIONARY
360
8337
102
}
102
{ACAD_REACTORS
330
E25
102
}
330
E25
100
AcDbPlotSettings
  1
Kyocera_1010 VER
  2
Kyocera_1010.pc3
  4
A4
  6

 40
4.984749794006347
 41
5.154074668884277
 42
5.111740112304687
 43
4.9847412109375
 44
210.0156707763672
 45
297.0106506347656
 46
51.67548120477697
 47
0.0
 48
0.0
 49
0.0
140
0.0
141
0.0
142
1.0
143
0.4718508448115938
 70
 11956
 72
     1
 73
     0
 74
     1
  7
DIERRE BN.ctb
 75
     0
147
2.119313785268927
148
-222.4649060220283
149
-239.0808115236937
1001
ACAD_PSEXT
1000
Kyocera_1010.pc3
1000
Kyocera Mita FS-1010 KX
1000
\\PC5
1000

1070
     0
  0
PLOTSETTINGS
  5
8228
102
{ACAD_XDICTIONARY
360
8339
102
}
102
{ACAD_REACTORS
330
E25
102
}
330
E25
100
AcDbPlotSettings
  1
Olivetti_200 A3
  2
Olivetti_200.pc3
  4
A3
  6

 40
4.984749794006347
 41
5.111746788024902
 42
5.154083251953125
 43
4.9847412109375
 44
297.0106506347656
 45
419.9889831542968
 46
0.0
 47
156.6621412366913
 48
0.0
 49
0.0
140
0.0
141
0.0
142
1.0
143
0.4718508730467012
 70
 11956
 72
     1
 73
     1
 74
     1
  7
DIERRE BN.ctb
 75
     0
147
2.119313658451206
148
-222.4649060220283
149
-239.0808115236937
1001
ACAD_PSEXT
1000
Olivetti_200.pc3
1000
Olivetti d-Copia 200MF KX
1000
IP_192.168.1.151
1000

1070
     0
  0
PLOTSETTINGS
  5
8229
102
{ACAD_XDICTIONARY
360
833B
102
}
102
{ACAD_REACTORS
330
E25
102
}
330
E25
100
AcDbPlotSettings
  1
Olivetti_200 A4
  2
Olivetti_200.pc3
  4
A4
  6

 40
4.984749794006347
 41
5.154074668884277
 42
5.111740112304687
 43
4.9847412109375
 44
210.0156707763672
 45
297.0106506347656
 46
51.67548120477697
 47
0.0
 48
0.0
 49
0.0
140
0.0
141
0.0
142
1.0
143
0.4718508448115938
 70
 11956
 72
     1
 73
     0
 74
     1
  7
DIERRE BN.ctb
 75
     0
147
2.119313785268927
148
-222.4649060220283
149
-239.0808115236937
1001
ACAD_PSEXT
1000
Olivetti_200.pc3
1000
Olivetti d-Copia 200MF KX
1000
IP_192.168.1.151
1000

1070
     0
  0
PLOTSETTINGS
  5
822A
102
{ACAD_XDICTIONARY
360
833D
102
}
102
{ACAD_REACTORS
330
E25
102
}
330
E25
100
AcDbPlotSettings
  1
PLOTTER
  2
PLOTTER.pc3
  4
User622
  6

 40
0.0
 41
0.0
 42
0.0
 43
0.0
 44
841.0
 45
1189.0
 46
0.0
 47
0.0
 48
0.0
 49
0.0
140
0.0
141
0.0
142
1.0
143
1.0
 70
 11936
 72
     1
 73
     0
 74
     1
  7
DIERRE BN.ctb
 75
     0
147
2.194137304425714
148
-222.4649060220283
149
-239.0808115236937
1001
ACAD_PSEXT
1000
PLOTTER.pc3
1000
HP DesignJet 430 (E/A0) by HP
1000
\\SERVER2003
1000

1070
     0
  0
ACDBPLACEHOLDER
  5
DD1
102
{ACAD_REACTORS
330
DD0
102
}
330
DD0
  0
SCALE
  5
E00
102
{ACAD_REACTORS
330
DFF
102
}
330
DFF
100
AcDbScale
 70
     0
300
1:1
140
1.0
141
1.0
290
     1
  0
SCALE
  5
E01
102
{ACAD_REACTORS
330
DFF
102
}
330
DFF
100
AcDbScale
 70
     0
300
1:2
140
1.0
141
2.0
290
     0
  0
SCALE
  5
E02
102
{ACAD_REACTORS
330
DFF
102
}
330
DFF
100
AcDbScale
 70
     0
300
1:4
140
1.0
141
4.0
290
     0
  0
SCALE
  5
E03
102
{ACAD_REACTORS
330
DFF
102
}
330
DFF
100
AcDbScale
 70
     0
300
1:5
140
1.0
141
5.0
290
     0
  0
SCALE
  5
E04
102
{ACAD_REACTORS
330
DFF
102
}
330
DFF
100
AcDbScale
 70
     0
300
1:8
140
1.0
141
8.0
290
     0
  0
SCALE
  5
E05
102
{ACAD_REACTORS
330
DFF
102
}
330
DFF
100
AcDbScale
 70
     0
300
1:10
140
1.0
141
10.0
290
     0
  0
SCALE
  5
E06
102
{ACAD_REACTORS
330
DFF
102
}
330
DFF
100
AcDbScale
 70
     0
300
1:16
140
1.0
141
16.0
290
     0
  0
SCALE
  5
E07
102
{ACAD_REACTORS
330
DFF
102
}
330
DFF
100
AcDbScale
 70
     0
300
1:20
140
1.0
141
20.0
290
     0
  0
SCALE
  5
E08
102
{ACAD_REACTORS
330
DFF
102
}
330
DFF
100
AcDbScale
 70
     0
300
1:30
140
1.0
141
30.0
290
     0
  0
SCALE
  5
E09
102
{ACAD_REACTORS
330
DFF
102
}
330
DFF
100
AcDbScale
 70
     0
300
1:40
140
1.0
141
40.0
290
     0
  0
SCALE
  5
E0A
102
{ACAD_REACTORS
330
DFF
102
}
330
DFF
100
AcDbScale
 70
     0
300
1:50
140
1.0
141
50.0
290
     0
  0
SCALE
  5
E0B
102
{ACAD_REACTORS
330
DFF
102
}
330
DFF
100
AcDbScale
 70
     0
300
1:100
140
1.0
141
100.0
290
     0
  0
SCALE
  5
E0C
102
{ACAD_REACTORS
330
DFF
102
}
330
DFF
100
AcDbScale
 70
     0
300
2:1
140
2.0
141
1.0
290
     0
  0
SCALE
  5
E0D
102
{ACAD_REACTORS
330
DFF
102
}
330
DFF
100
AcDbScale
 70
     0
300
4:1
140
4.0
141
1.0
290
     0
  0
SCALE
  5
E0E
102
{ACAD_REACTORS
330
DFF
102
}
330
DFF
100
AcDbScale
 70
     0
300
8:1
140
8.0
141
1.0
290
     0
  0
SCALE
  5
E0F
102
{ACAD_REACTORS
330
DFF
102
}
330
DFF
100
AcDbScale
 70
     0
300
10:1
140
10.0
141
1.0
290
     0
  0
SCALE
  5
E10
102
{ACAD_REACTORS
330
DFF
102
}
330
DFF
100
AcDbScale
 70
     0
300
100:1
140
100.0
141
1.0
290
     0
  0
SCALE
  5
E11
102
{ACAD_REACTORS
330
DFF
102
}
330
DFF
100
AcDbScale
 70
     0
300
1/128" = 1'-0"
140
0.0078125
141
12.0
290
     0
  0
SCALE
  5
E12
102
{ACAD_REACTORS
330
DFF
102
}
330
DFF
100
AcDbScale
 70
     0
300
1/64" = 1'-0"
140
0.015625
141
12.0
290
     0
  0
SCALE
  5
E13
102
{ACAD_REACTORS
330
DFF
102
}
330
DFF
100
AcDbScale
 70
     0
300
1/32" = 1'-0"
140
0.03125
141
12.0
290
     0
  0
SCALE
  5
E14
102
{ACAD_REACTORS
330
DFF
102
}
330
DFF
100
AcDbScale
 70
     0
300
1/16" = 1'-0"
140
0.0625
141
12.0
290
     0
  0
SCALE
  5
E15
102
{ACAD_REACTORS
330
DFF
102
}
330
DFF
100
AcDbScale
 70
     0
300
3/32" = 1'-0"
140
0.09375
141
12.0
290
     0
  0
SCALE
  5
E16
102
{ACAD_REACTORS
330
DFF
102
}
330
DFF
100
AcDbScale
 70
     0
300
1/8" = 1'-0"
140
0.125
141
12.0
290
     0
  0
SCALE
  5
E17
102
{ACAD_REACTORS
330
DFF
102
}
330
DFF
100
AcDbScale
 70
     0
300
3/16" = 1'-0"
140
0.1875
141
12.0
290
     0
  0
SCALE
  5
E18
102
{ACAD_REACTORS
330
DFF
102
}
330
DFF
100
AcDbScale
 70
     0
300
1/4" = 1'-0"
140
0.25
141
12.0
290
     0
  0
SCALE
  5
E19
102
{ACAD_REACTORS
330
DFF
102
}
330
DFF
100
AcDbScale
 70
     0
300
3/8" = 1'-0"
140
0.375
141
12.0
290
     0
  0
SCALE
  5
E1A
102
{ACAD_REACTORS
330
DFF
102
}
330
DFF
100
AcDbScale
 70
     0
300
1/2" = 1'-0"
140
0.5
141
12.0
290
     0
  0
SCALE
  5
E1B
102
{ACAD_REACTORS
330
DFF
102
}
330
DFF
100
AcDbScale
 70
     0
300
3/4" = 1'-0"
140
0.75
141
12.0
290
     0
  0
SCALE
  5
E1C
102
{ACAD_REACTORS
330
DFF
102
}
330
DFF
100
AcDbScale
 70
     0
300
1" = 1'-0"
140
1.0
141
12.0
290
     0
  0
SCALE
  5
E1D
102
{ACAD_REACTORS
330
DFF
102
}
330
DFF
100
AcDbScale
 70
     0
300
1-1/2" = 1'-0"
140
1.5
141
12.0
290
     0
  0
SCALE
  5
E1E
102
{ACAD_REACTORS
330
DFF
102
}
330
DFF
100
AcDbScale
 70
     0
300
3" = 1'-0"
140
3.0
141
12.0
290
     0
  0
SCALE
  5
E1F
102
{ACAD_REACTORS
330
DFF
102
}
330
DFF
100
AcDbScale
 70
     0
300
6" = 1'-0"
140
6.0
141
12.0
290
     0
  0
SCALE
  5
E20
102
{ACAD_REACTORS
330
DFF
102
}
330
DFF
100
AcDbScale
 70
     0
300
1'-0" = 1'-0"
140
12.0
141
12.0
290
     0
  0
TABLESTYLE
  5
DFE
102
{ACAD_XDICTIONARY
360
105C
102
}
102
{ACAD_REACTORS
330
DFD
102
}
330
DFD
100
AcDbTableStyle
  3
Standard
 70
     0
 71
     0
 40
1.5
 41
1.5
280
     0
281
     0
  7
STANDARD
140
4.5
170
     2
 62
     0
 63
     7
283
     0
274
    -2
284
     1
 64
     0
275
    -2
285
     1
 65
     0
276
    -2
286
     1
 66
     0
277
    -2
287
     1
 67
     0
278
    -2
288
     1
 68
     0
279
    -2
289
     1
 69
     0
  7
STANDARD
140
6.0
170
     5
 62
     0
 63
     7
283
     0
274
    -2
284
     1
 64
     0
275
    -2
285
     1
 65
     0
276
    -2
286
     1
 66
     0
277
    -2
287
     1
 67
     0
278
    -2
288
     1
 68
     0
279
    -2
289
     1
 69
     0
  7
STANDARD
140
4.5
170
     5
 62
     0
 63
     7
283
     0
274
    -2
284
     1
 64
     0
275
    -2
285
     1
 65
     0
276
    -2
286
     1
 66
     0
277
    -2
287
     1
 67
     0
278
    -2
288
     1
 68
     0
279
    -2
289
     1
 69
     0
  0
VISUALSTYLE
  5
DF1
102
{ACAD_XDICTIONARY
360
831A
102
}
102
{ACAD_REACTORS
330
DEB
102
}
330
DEB
100
AcDbVisualStyle
  2
2dWireframe
 70
     4
 71
     0
 72
     2
 73
     0
 90
        0
 40
-0.6
 41
-30.0
 62
     5
 63
     7
 74
     1
 91
        4
 64
     7
 65
   257
 75
     1
175
     1
 42
1.0
 92
        0
 66
   257
 43
1.0
 76
     1
 77
     6
 78
     2
 67
     7
 79
     5
170
     0
171
     0
290
     0
174
     0
 93
        1
 44
0.0
173
     0
291
     0
 45
0.0
1001
ACAD
1000
AcDbSavedByObjectVersion
1070
     0
  0
VISUALSTYLE
  5
DF3
102
{ACAD_XDICTIONARY
360
831E
102
}
102
{ACAD_REACTORS
330
DEB
102
}
330
DEB
100
AcDbVisualStyle
  2
3D Hidden
 70
     6
 71
     1
 72
     2
 73
     2
 90
        0
 40
-0.6
 41
-30.0
 62
     5
 63
     7
 74
     2
 91
        2
 64
     7
 65
   257
 75
     2
175
     1
 42
40.0
 92
        0
 66
   257
 43
1.0
 76
     1
 77
     6
 78
     2
 67
     7
 79
     3
170
     0
171
     0
290
     0
174
     0
 93
        1
 44
0.0
173
     0
291
     0
 45
0.0
1001
ACAD
1000
AcDbSavedByObjectVersion
1070
     0
  0
VISUALSTYLE
  5
DF2
102
{ACAD_XDICTIONARY
360
831C
102
}
102
{ACAD_REACTORS
330
DEB
102
}
330
DEB
100
AcDbVisualStyle
  2
3dWireframe
 70
     5
 71
     0
 72
     2
 73
     0
 90
        0
 40
-0.6
 41
-30.0
 62
     5
 63
     7
 74
     1
 91
        4
 64
     7
 65
   257
 75
     1
175
     1
 42
1.0
 92
        0
 66
   257
 43
1.0
 76
     1
 77
     6
 78
     2
 67
     7
 79
     5
170
     0
171
     0
290
     0
174
     0
 93
        1
 44
0.0
173
     0
291
     0
 45
0.0
1001
ACAD
1000
AcDbSavedByObjectVersion
1070
     0
  0
VISUALSTYLE
  5
DF0
102
{ACAD_XDICTIONARY
360
8318
102
}
102
{ACAD_REACTORS
330
DEB
102
}
330
DEB
100
AcDbVisualStyle
  2
Basic
 70
     7
 71
     1
 72
     0
 73
     1
 90
        0
 40
-0.6
 41
-30.0
 62
     5
 63
     7
 74
     0
 91
        4
 64
     7
 65
   257
 75
     1
175
     1
 42
1.0
 92
        8
 66
     7
 43
1.0
 76
     1
 77
     6
 78
     2
 67
     7
 79
     5
170
     0
171
     0
290
     0
174
     0
 93
        1
 44
0.0
173
     0
291
     1
 45
0.0
1001
ACAD
1000
AcDbSavedByObjectVersion
1070
     0
  0
VISUALSTYLE
  5
DF7
102
{ACAD_XDICTIONARY
360
8326
102
}
102
{ACAD_REACTORS
330
DEB
102
}
330
DEB
100
AcDbVisualStyle
  2
Brighten
 70
    12
 71
     2
 72
     2
 73
     0
 90
        0
 40
-0.6
 41
-30.0
 62
     5
 63
     7
 74
     1
 91
        4
 64
     7
 65
   257
 75
     1
175
     1
 42
1.0
 92
        8
 66
     7
 43
1.0
 76
     1
 77
     6
 78
     2
 67
     7
 79
     5
170
     0
171
     0
290
     0
174
     0
 93
        1
 44
50.0
173
     0
291
     1
 45
0.0
1001
ACAD
1000
AcDbSavedByObjectVersion
1070
     0
  0
VISUALSTYLE
  5
DFB
102
{ACAD_XDICTIONARY
360
832E
102
}
102
{ACAD_REACTORS
330
DEB
102
}
330
DEB
100
AcDbVisualStyle
  2
ColorChange
 70
    16
 71
     2
 72
     2
 73
     3
 90
        0
 40
-0.6
 41
-30.0
 62
     5
 63
     8
 74
     1
 91
        4
 64
     7
 65
   257
 75
     1
175
     1
 42
1.0
 92
        8
 66
     8
 43
1.0
 76
     1
 77
     6
 78
     2
 67
     7
 79
     5
170
     0
171
     0
290
     0
174
     0
 93
        1
 44
0.0
173
     0
291
     1
 45
0.0
1001
ACAD
1000
AcDbSavedByObjectVersion
1070
     0
  0
VISUALSTYLE
  5
DF4
102
{ACAD_XDICTIONARY
360
8320
102
}
102
{ACAD_REACTORS
330
DEB
102
}
330
DEB
100
AcDbVisualStyle
  2
Conceptual
 70
     9
 71
     3
 72
     2
 73
     0
 90
        0
 40
-0.6
 41
-30.0
 62
     5
 63
     7
 74
     2
 91
        2
 64
     7
 65
   257
 75
     1
175
     1
 42
40.0
 92
        8
 66
     7
 43
1.0
 76
     1
 77
     6
 78
     2
 67
     7
 79
     3
170
     0
171
     0
290
     0
174
     0
 93
        1
 44
0.0
173
     0
291
     0
 45
0.0
1001
ACAD
1000
AcDbSavedByObjectVersion
1070
     0
  0
VISUALSTYLE
  5
DF6
102
{ACAD_XDICTIONARY
360
8324
102
}
102
{ACAD_REACTORS
330
DEB
102
}
330
DEB
100
AcDbVisualStyle
  2
Dim
 70
    11
 71
     2
 72
     2
 73
     0
 90
        0
 40
-0.6
 41
-30.0
 62
     5
 63
     7
 74
     1
 91
        4
 64
     7
 65
   257
 75
     1
175
     1
 42
1.0
 92
        8
 66
     7
 43
1.0
 76
     1
 77
     6
 78
     2
 67
     7
 79
     5
170
     0
171
     0
290
     0
174
     0
 93
        1
 44
-50.0
173
     0
291
     1
 45
0.0
1001
ACAD
1000
AcDbSavedByObjectVersion
1070
     0
  0
VISUALSTYLE
  5
82EB
102
{ACAD_XDICTIONARY
360
8351
102
}
102
{ACAD_REACTORS
330
DEB
102
}
330
DEB
100
AcDbVisualStyle
  2
EdgeColorOff
 70
    22
 71
     2
 72
     2
 73
     0
 90
        0
 40
-0.6
 41
-30.0
 62
     5
 63
     7
 74
     1
 91
        4
 64
     7
 65
   257
 75
     1
175
     1
 42
1.0
 92
        8
 66
     7
 43
1.0
 76
     1
 77
     6
 78
     2
 67
     7
 79
     5
170
     0
171
     0
290
     0
174
     0
 93
        1
 44
0.0
173
     0
291
     1
 45
0.0
1001
ACAD
1000
AcDbSavedByObjectVersion
1070
     0
  0
VISUALSTYLE
  5
DFA
102
{ACAD_XDICTIONARY
360
832C
102
}
102
{ACAD_REACTORS
330
DEB
102
}
330
DEB
100
AcDbVisualStyle
  2
Facepattern
 70
    15
 71
     2
 72
     2
 73
     0
 90
        0
 40
-0.6
 41
-30.0
 62
     5
 63
     7
 74
     1
 91
        4
 64
     7
 65
   257
 75
     1
175
     1
 42
1.0
 92
        8
 66
     7
 43
1.0
 76
     1
 77
     6
 78
     2
 67
     7
 79
     5
170
     0
171
     0
290
     0
174
     0
 93
        1
 44
0.0
173
     0
291
     1
 45
0.0
1001
ACAD
1000
AcDbSavedByObjectVersion
1070
     0
  0
VISUALSTYLE
  5
DEC
102
{ACAD_XDICTIONARY
360
8310
102
}
102
{ACAD_REACTORS
330
DEB
102
}
330
DEB
100
AcDbVisualStyle
  2
Flat
 70
     0
 71
     2
 72
     1
 73
     1
 90
        2
 40
-0.6
 41
30.0
 62
     5
 63
     7
 74
     0
 91
        4
 64
     7
 65
   257
 75
     1
175
     1
 42
1.0
 92
        8
 66
     7
 43
1.0
 76
     1
 77
     6
 78
     2
 67
     7
 79
     5
170
     0
171
     0
290
     0
174
     0
 93
       13
 44
0.0
173
     0
291
     1
 45
0.0
1001
ACAD
1000
AcDbSavedByObjectVersion
1070
     0
  0
VISUALSTYLE
  5
DED
102
{ACAD_XDICTIONARY
360
8312
102
}
102
{ACAD_REACTORS
330
DEB
102
}
330
DEB
100
AcDbVisualStyle
  2
FlatWithEdges
 70
     1
 71
     2
 72
     1
 73
     1
 90
        2
 40
-0.6
 41
30.0
 62
     5
 63
     7
 74
     1
 91
        4
 64
     7
 65
   257
 75
     1
175
     1
 42
1.0
 92
        0
 66
   257
 43
1.0
 76
     1
 77
     6
 78
     2
 67
     7
 79
     5
170
     0
171
     0
290
     0
174
     0
 93
       13
 44
0.0
173
     0
291
     1
 45
0.0
1001
ACAD
1000
AcDbSavedByObjectVersion
1070
     0
  0
VISUALSTYLE
  5
DEE
102
{ACAD_XDICTIONARY
360
8314
102
}
102
{ACAD_REACTORS
330
DEB
102
}
330
DEB
100
AcDbVisualStyle
  2
Gouraud
 70
     2
 71
     2
 72
     2
 73
     1
 90
        2
 40
-0.6
 41
30.0
 62
     5
 63
     7
 74
     0
 91
        4
 64
     7
 65
   257
 75
     1
175
     1
 42
1.0
 92
        0
 66
     7
 43
1.0
 76
     1
 77
     6
 78
     2
 67
     7
 79
     5
170
     0
171
     0
290
     0
174
     0
 93
       13
 44
0.0
173
     0
291
     1
 45
0.0
1001
ACAD
1000
AcDbSavedByObjectVersion
1070
     0
  0
VISUALSTYLE
  5
DEF
102
{ACAD_XDICTIONARY
360
8316
102
}
102
{ACAD_REACTORS
330
DEB
102
}
330
DEB
100
AcDbVisualStyle
  2
GouraudWithEdges
 70
     3
 71
     2
 72
     2
 73
     1
 90
        2
 40
-0.6
 41
30.0
 62
     5
 63
     7
 74
     1
 91
        4
 64
     7
 65
   257
 75
     1
175
     1
 42
1.0
 92
        0
 66
   257
 43
1.0
 76
     1
 77
     6
 78
     2
 67
     7
 79
     5
170
     0
171
     0
290
     0
174
     0
 93
       13
 44
0.0
173
     0
291
     1
 45
0.0
1001
ACAD
1000
AcDbSavedByObjectVersion
1070
     0
  0
VISUALSTYLE
  5
82E3
102
{ACAD_XDICTIONARY
360
8341
102
}
102
{ACAD_REACTORS
330
DEB
102
}
330
DEB
100
AcDbVisualStyle
  2
Hidden
 70
     6
 71
     1
 72
     2
 73
     2
 90
        0
 40
-0.6
 41
-30.0
 62
     5
 63
     7
 74
     2
 91
        2
 64
     7
 65
   257
 75
     2
175
     1
 42
40.0
 92
        0
 66
   257
 43
1.0
 76
     1
 77
     6
 78
     2
 67
     7
 79
     3
170
     0
171
     0
290
     0
174
     0
 93
        1
 44
0.0
173
     0
291
     0
 45
0.0
1001
ACAD
1000
AcDbSavedByObjectVersion
1070
     0
  0
VISUALSTYLE
  5
82E9
102
{ACAD_XDICTIONARY
360
834D
102
}
102
{ACAD_REACTORS
330
DEB
102
}
330
DEB
100
AcDbVisualStyle
  2
JitterOff
 70
    20
 71
     2
 72
     2
 73
     0
 90
        0
 40
-0.6
 41
-30.0
 62
     5
 63
     7
 74
     1
 91
        4
 64
     7
 65
   257
 75
     1
175
     1
 42
1.0
 92
       10
 66
     7
 43
1.0
 76
     1
 77
     6
 78
     2
 67
     7
 79
     5
170
     0
171
     0
290
     0
174
     0
 93
        1
 44
0.0
173
     0
291
     1
 45
0.0
1001
ACAD
1000
AcDbSavedByObjectVersion
1070
     0
  0
VISUALSTYLE
  5
DF9
102
{ACAD_XDICTIONARY
360
832A
102
}
102
{ACAD_REACTORS
330
DEB
102
}
330
DEB
100
AcDbVisualStyle
  2
Linepattern
 70
    14
 71
     2
 72
     2
 73
     0
 90
        0
 40
-0.6
 41
-30.0
 62
     5
 63
     7
 74
     1
 91
        4
 64
     7
 65
   257
 75
     7
175
     7
 42
1.0
 92
        8
 66
     7
 43
1.0
 76
     1
 77
     6
 78
     2
 67
     7
 79
     5
170
     0
171
     0
290
     0
174
     0
 93
        1
 44
0.0
173
     0
291
     1
 45
0.0
1001
ACAD
1000
AcDbSavedByObjectVersion
1070
     0
  0
VISUALSTYLE
  5
82EA
102
{ACAD_XDICTIONARY
360
834F
102
}
102
{ACAD_REACTORS
330
DEB
102
}
330
DEB
100
AcDbVisualStyle
  2
OverhangOff
 70
    21
 71
     2
 72
     2
 73
     0
 90
        0
 40
-0.6
 41
-30.0
 62
     5
 63
     7
 74
     1
 91
        4
 64
     7
 65
   257
 75
     1
175
     1
 42
1.0
 92
        9
 66
     7
 43
1.0
 76
     1
 77
     6
 78
     2
 67
     7
 79
     5
170
     0
171
     0
290
     0
174
     0
 93
        1
 44
0.0
173
     0
291
     1
 45
0.0
1001
ACAD
1000
AcDbSavedByObjectVersion
1070
     0
  0
VISUALSTYLE
  5
DF5
102
{ACAD_XDICTIONARY
360
8322
102
}
102
{ACAD_REACTORS
330
DEB
102
}
330
DEB
100
AcDbVisualStyle
  2
Realistic
 70
     8
 71
     2
 72
     2
 73
     0
 90
        0
 40
-0.6
 41
-30.0
 62
     5
 63
     7
 74
     1
 91
        0
 64
     7
 65
   257
 75
     1
175
     1
 42
1.0
 92
        8
 66
     8
 43
1.0
 76
     1
 77
     6
 78
     2
 67
     7
 79
     5
170
     0
171
     0
290
     0
174
     0
 93
       13
 44
0.0
173
     0
291
     0
 45
0.0
1001
ACAD
1000
AcDbSavedByObjectVersion
1070
     0
  0
VISUALSTYLE
  5
82E8
102
{ACAD_XDICTIONARY
360
834B
102
}
102
{ACAD_REACTORS
330
DEB
102
}
330
DEB
100
AcDbVisualStyle
  2
Shaded
 70
    27
 71
     2
 72
     2
 73
     1
 90
        2
 40
-0.6
 41
30.0
 62
     5
 63
     7
 74
     0
 91
        4
 64
     7
 65
   257
 75
     1
175
     1
 42
1.0
 92
        8
 66
   257
 43
1.0
 76
     1
 77
     6
 78
     2
 67
     8
 79
     3
170
     0
171
     0
290
     0
174
     0
 93
        5
 44
0.0
173
     0
291
     0
 45
0.0
1001
ACAD
1000
AcDbSavedByObjectVersion
1070
     0
  0
VISUALSTYLE
  5
82E7
102
{ACAD_XDICTIONARY
360
8349
102
}
102
{ACAD_REACTORS
330
DEB
102
}
330
DEB
100
AcDbVisualStyle
  2
Shaded with edges
 70
    26
 71
     2
 72
     2
 73
     1
 90
        2
 40
-0.6
 41
30.0
 62
     5
 63
     7
 74
     1
 91
       10
 64
     7
 65
   257
 75
     2
175
     1
 42
1.0
 92
        8
 66
   257
 43
1.0
 76
     1
 77
     6
 78
     2
 67
     7
 79
     3
170
     0
171
     0
290
     0
174
     0
 93
        5
 44
0.0
173
     0
291
     0
 45
0.0
1001
ACAD
1000
AcDbSavedByObjectVersion
1070
     0
  0
VISUALSTYLE
  5
82E4
102
{ACAD_XDICTIONARY
360
8343
102
}
102
{ACAD_REACTORS
330
DEB
102
}
330
DEB
100
AcDbVisualStyle
  2
Shades of Gray
 70
    23
 71
     2
 72
     2
 73
     3
 90
        0
 40
-0.6
 41
-30.0
 62
     5
 63
     7
 74
     2
 91
        2
 64
     7
 65
     7
 75
     1
175
     1
 42
40.0
 92
        8
 66
     7
 43
1.0
 76
     1
 77
     6
 78
     2
 67
     7
 79
     3
170
     0
171
     0
290
     0
174
     0
 93
        1
 44
0.0
173
     0
291
     0
 45
0.0
1001
ACAD
1000
AcDbSavedByObjectVersion
1070
     0
  0
VISUALSTYLE
  5
82E5
102
{ACAD_XDICTIONARY
360
8345
102
}
102
{ACAD_REACTORS
330
DEB
102
}
330
DEB
100
AcDbVisualStyle
  2
Sketchy
 70
    24
 71
     1
 72
     2
 73
     2
 90
        0
 40
-0.6
 41
-30.0
 62
     5
 63
     7
 74
     2
 91
        2
 64
     7
 65
     7
 75
     1
175
     1
 42
40.0
 92
       11
 66
     7
 43
1.0
 76
     1
 77
     6
 78
     2
 67
     7
 79
     6
170
     0
171
     0
290
     0
174
     0
 93
        1
 44
0.0
173
     0
291
     0
 45
0.0
1001
ACAD
1000
AcDbSavedByObjectVersion
1070
     0
  0
VISUALSTYLE
  5
DF8
102
{ACAD_XDICTIONARY
360
8328
102
}
102
{ACAD_REACTORS
330
DEB
102
}
330
DEB
100
AcDbVisualStyle
  2
Thicken
 70
    13
 71
     2
 72
     2
 73
     0
 90
        0
 40
-0.6
 41
-30.0
 62
     5
 63
     7
 74
     1
 91
        4
 64
     7
 65
   257
 75
     1
175
     1
 42
1.0
 92
       12
 66
     7
 43
1.0
 76
     1
 77
     6
 78
     2
 67
     7
 79
     5
170
     0
171
     0
290
     0
174
     0
 93
        1
 44
0.0
173
     0
291
     1
 45
0.0
1001
ACAD
1000
AcDbSavedByObjectVersion
1070
     0
  0
VISUALSTYLE
  5
82E2
102
{ACAD_XDICTIONARY
360
833F
102
}
102
{ACAD_REACTORS
330
DEB
102
}
330
DEB
100
AcDbVisualStyle
  2
Wireframe
 70
     5
 71
     0
 72
     2
 73
     0
 90
        0
 40
-0.6
 41
-30.0
 62
     5
 63
     7
 74
     1
 91
        4
 64
     7
 65
   257
 75
     1
175
     1
 42
1.0
 92
        0
 66
   257
 43
1.0
 76
     1
 77
     6
 78
     2
 67
     7
 79
     3
170
     0
171
     0
290
     0
174
     0
 93
        1
 44
0.0
173
     0
291
     0
 45
0.0
1001
ACAD
1000
AcDbSavedByObjectVersion
1070
     0
  0
VISUALSTYLE
  5
82E6
102
{ACAD_XDICTIONARY
360
8347
102
}
102
{ACAD_REACTORS
330
DEB
102
}
330
DEB
100
AcDbVisualStyle
  2
X-Ray
 70
    25
 71
     2
 72
     2
 73
     1
 90
        1
 40
0.5
 41
-30.0
 62
     5
 63
     7
 74
     1
 91
        0
 64
     7
 65
   257
 75
     1
175
     1
 42
1.0
 92
        8
 66
     7
 43
1.0
 76
     1
 77
     6
 78
     2
 67
     7
 79
     3
170
     0
171
     0
290
     0
174
     0
 93
       13
 44
0.0
173
     0
291
     0
 45
0.0
1001
ACAD
1000
AcDbSavedByObjectVersion
1070
     0
  0
DICTIONARYVAR
  5
1065
102
{ACAD_REACTORS
330
2A
102
}
330
2A
100
DictionaryVariables
280
     0
  1
1:1
  0
DICTIONARYVAR
  5
1062
102
{ACAD_REACTORS
330
2A
102
}
330
2A
100
DictionaryVariables
280
     0
  1
STANDARD
  0
DICTIONARYVAR
  5
1061
102
{ACAD_REACTORS
330
2A
102
}
330
2A
100
DictionaryVariables
280
     0
  1
STANDARD
  0
DICTIONARYVAR
  5
2B
102
{ACAD_REACTORS
330
2A
102
}
330
2A
100
DictionaryVariables
280
     0
  1
2
  0
DICTIONARYVAR
  5
8307
102
{ACAD_REACTORS
330
2A
102
}
330
2A
100
DictionaryVariables
280
     0
  1
1
  0
DICTIONARYVAR
  5
1063
102
{ACAD_REACTORS
330
2A
102
}
330
2A
100
DictionaryVariables
280
     0
  1
0
  0
DICTIONARYVAR
  5
35
102
{ACAD_REACTORS
330
2A
102
}
330
2A
100
DictionaryVariables
280
     0
  1
1
  0
DICTIONARYVAR
  5
5CDE
102
{ACAD_REACTORS
330
2A
102
}
330
2A
100
DictionaryVariables
280
     0
  1
1
  0
DICTIONARYVAR
  5
5CDF
102
{ACAD_REACTORS
330
2A
102
}
330
2A
100
DictionaryVariables
280
     0
  1
15
  0
DICTIONARYVAR
  5
1066
102
{ACAD_REACTORS
330
2A
102
}
330
2A
100
DictionaryVariables
280
     0
  1
0
  0
DICTIONARYVAR
  5
7BEC
102
{ACAD_REACTORS
330
2A
102
}
330
2A
100
DictionaryVariables
280
     0
  1
10.000000
  0
DICTIONARYVAR
  5
1064
102
{ACAD_REACTORS
330
2A
102
}
330
2A
100
DictionaryVariables
280
     0
  1
0
  0
DICTIONARYVAR
  5
8305
102
{ACAD_REACTORS
330
2A
102
}
330
2A
100
DictionaryVariables
280
     0
  1
127
  0
DICTIONARYVAR
  5
8306
102
{ACAD_REACTORS
330
2A
102
}
330
2A
100
DictionaryVariables
280
     0
  1
0
  0
DICTIONARY
  5
8F7
102
{ACAD_REACTORS
330
40
102
}
330
40
100
AcDbDictionary
281
     1
  3
*A1
350
8F8
  0
ACAD_PROXY_OBJECT
  5
41
102
{ACAD_REACTORS
330
40
102
}
330
40
100
AcDbProxyObject
 90
      499
 91
      512
 95
   589845
 70
     0
 93
      106
310
40401032A4131057356C1D17443F
350
42
 94
        0
1001
ACAD
1000
AcRTDxfName
1000
ACMDATADICTIONARY
  0
DICTIONARY
  5
5A
102
{ACAD_REACTORS
330
40
102
}
330
40
100
AcDbDictionary
281
     1
  3
ANSI
350
5B
  0
ACAD_PROXY_OBJECT
  5
37
330
0
100
AcDbProxyObject
 90
      499
 91
      507
 95
   589845
 70
     0
 93
      156
310
00010143D050D351505391D5531054925390D49F
330
32
 94
        0
1001
ACAD
1000
AcRTDxfName
1000
ACIMREALSYSVAR
  0
ACAD_PROXY_OBJECT
  5
38
330
0
100
AcDbProxyObject
 90
      499
 91
      507
 95
   589845
 70
     0
 93
      148
310
000101439050D351531253915054925390D49F
330
32
 94
        0
1001
ACAD
1000
AcRTDxfName
1000
ACIMREALSYSVAR
  0
ACAD_PROXY_OBJECT
  5
39
330
0
100
AcDbProxyObject
 90
      499
 91
      508
 95
   589845
 70
     0
 93
      156
310
000101439050D35154D6535093D314D25691508F
330
32
 94
        0
1001
ACAD
1000
AcRTDxfName
1000
ACIMINTSYSVAR
  0
ACAD_PROXY_OBJECT
  5
3E
330
0
100
AcDbProxyObject
 90
      499
 91
      510
 95
   589845
 70
     0
 93
      208
310
00010144D0D85D185B1BD9DBC81B585D195C9A585B1A4C402B00CC
330
32
330
0
330
0
 94
        0
1001
ACAD
1000
AcRTDxfName
1000
ACMEVIEW
  0
ACAD_PROXY_OBJECT
  5
58
330
0
100
AcDbProxyObject
 90
      499
 91
      508
 95
   589845
 70
     0
 93
      108
310
00010142505351D153D35054D4EF
330
32
 94
        0
1001
ACAD
1000
AcRTDxfName
1000
ACIMINTSYSVAR
  0
ACAD_PROXY_OBJECT
  5
59
330
0
100
AcDbProxyObject
 90
      499
 91
      516
 95
   589845
 70
     0
 93
      148
310
00010142105350D55494D51100504414E5349F
330
32
 94
        0
1001
ACAD
1000
AcRTDxfName
1000
ACIMSTRSYSVAR
  0
XRECORD
  5
E32
102
{ACAD_REACTORS
330
E31
102
}
330
E31
100
AcDbXrecord
280
     1
 91
        0
  0
ACAD_PROXY_OBJECT
  5
E2F
102
{ACAD_REACTORS
330
E2E
102
}
330
E2E
100
AcDbProxyObject
 90
      499
 91
      537
 95
  3276827
 70
     0
 93
      153
310
407907440045004600410055004C0054007A00CC
 94
        0
1001
ACAD
1000
AcRTDxfName
1000
ACDBQSCATEGORY
  0
ACAD_PROXY_OBJECT
  5
17EA
102
{ACAD_REACTORS
330
E30
102
}
330
E30
100
AcDbProxyObject
 90
      499
 91
      540
 95
  3276827
 70
     0
 93
     2964
310
40A80D20281C8120280D480A0281203520280A0280C0000000000000A200000000000000448080C00000000000019200000000000000688120280A0280A0E88008A008C008200AA009800A80082280027802980170020E88008A008C008200AA009800A80080A180202860080988020C86009E008800920086008A008A2200
310
2480268022802700298024802780270024802F8022002480268018801680220024802680190024EA2007400B800A200A600BE00A4008A00A8008A00B80082009A00840092008A009C00A8009200B800A8009E00A000BE00880092008A00A400A4008A00B800A8008200840060005C008800AE008E0095A8801D002E0028802
310
9802F80290022802A0022802E002080268021002480228027002A0024802E002A00278028002F802200248022802900290022802E002A00278028002F802800208026002600170022002B80238020C86009E008800920086008A0085A200228029802180290024802D00248027802700228053413C
 94
        0
1001
ACAD
1000
AcRTDxfName
1000
ACDBQSPALLSTYLE
  0
XRECORD
  5
82DF
102
{ACAD_REACTORS
330
82DA
102
}
330
82DA
100
AcDbXrecord
280
     1
  9
X6274
  0
XRECORD
  5
82DD
102
{ACAD_REACTORS
330
82DA
102
}
330
82DA
100
AcDbXrecord
280
     1
  2
.1
  3
P-05BB
  6
X6274
280
     1
310
6465736372697A696F6E65002E3100444154410032332F30392F30390064697365676E61746F7265004D6172636F20412E00717461003100554D004E520052455600300000
 10
0.0
 20
0.0
 30
0.0
  0
XRECORD
  5
82DE
102
{ACAD_REACTORS
330
82DA
102
}
330
82DA
100
AcDbXrecord
280
     1
  2
PROF.Q30 SPORT. TENUT. ALTO ALL. ARGENTO
  3
P-6014
  6
X6274
280
     1
310
6465736372697A696F6E650050524F462E5133302053504F52542E2054454E55542E20414C544F20414C4C2E20415247454E544F00444154410032342F30392F30390064697365676E61746F7265004D6172636F20412E00717461003100554D004D4C0052455600300024736F7572636500416E61677261666963612047657374696F6E616C6500434F444943450058423235393331005452415454414D454E544900414E4F442E415247454E544F004D4154455249414C4500414C4C554D494E494F0044494D3100313030300044494D454E53494F4E495F44494D312D44494D3200313030300000
 10
465.2616600529135
 20
-151.3912092901196
 30
0.0
  0
XRECORD
  5
82DB
102
{ACAD_REACTORS
330
82DA
102
}
330
82DA
100
AcDbXrecord
280
     1
  2
PROFILO Q30 SPORT.TENUTA ALTO
  3
P-0000
280
     1
310
6465736372697A696F6E650050524F46494C4F205133302053504F52542E54454E55544120414C544F00444154410031342F30392F303900554D004E520052455600300044495345474E41544F5245004D6172636F20412E005343414C4100313A3130002E666D740034005343414C414400322E35303030303000434F444943450058423235393331005452415454414D454E544900414E4F442E415247454E544F004D4154455249414C4500414C4C554D494E494F0000
 10
0.0
 20
0.0
 30
0.0
  0
XRECORD
  5
82DC
102
{ACAD_REACTORS
330
82DA
102
}
330
82DA
100
AcDbXrecord
280
     1
  2
.cart
  3
P-570F
  6
X6274
280
     1
310
6465736372697A696F6E65002E6361727400444154410032332F30392F30390064697365676E61746F7265004D6172636F20412E00717461003100554D004E52005245560030005343414C4100313A31300000
 10
0.0
 20
0.0
 30
0.0
  0
XRECORD
  5
E39
102
{ACAD_REACTORS
330
E38
102
}
330
E38
100
AcDbXrecord
280
     1
 90
      202
 91
      144
  0
LAYER_INDEX
  5
82D2
102
{ACAD_REACTORS
330
82D1
102
}
330
82D1
100
AcDbIndex
 40
2455646.4702711
100
AcDbLayerIndex
  8
0
360
82D3
 90
       63
  8
P-0000
360
82D4
 90
        0
  8
Defpoints
360
82D5
 90
        0
  8
P-570F
360
82D6
 90
        0
  8
P-05BB
360
82D7
 90
       74
  8
P-6014
360
82D8
 90
        0
  0
DICTIONARY
  5
8333
330
E27
100
AcDbDictionary
280
     1
281
     1
  3
ACAD_XREC_ROUNDTRIP
360
8334
  0
DICTIONARY
  5
8331
330
E26
100
AcDbDictionary
280
     1
281
     1
  3
ACAD_XREC_ROUNDTRIP
360
8332
  0
DICTIONARY
  5
DDC
330
DDB
100
AcDbDictionary
280
     1
281
     1
  3
ACAD_XREC_ROUNDTRIP
360
830E
  3
BUMPTILE
360
DDE
  3
DIFFUSETILE
360
DDD
  3
OPACITYTILE
360
DE1
  3
REFLECTIONTILE
360
DE0
  3
REFRACTIONTILE
360
DE2
  3
SPECULARTILE
360
DDF
  0
DICTIONARY
  5
DD4
330
DD3
100
AcDbDictionary
280
     1
281
     1
  3
ACAD_XREC_ROUNDTRIP
360
830D
  3
BUMPTILE
360
DD6
  3
DIFFUSETILE
360
DD5
  3
OPACITYTILE
360
DD9
  3
REFLECTIONTILE
360
DD8
  3
REFRACTIONTILE
360
DDA
  3
SPECULARTILE
360
DD7
  0
DICTIONARY
  5
DE4
330
DE3
100
AcDbDictionary
280
     1
281
     1
  3
ACAD_XREC_ROUNDTRIP
360
830F
  3
BUMPTILE
360
DE6
  3
DIFFUSETILE
360
DE5
  3
OPACITYTILE
360
DE9
  3
REFLECTIONTILE
360
DE8
  3
REFRACTIONTILE
360
DEA
  3
SPECULARTILE
360
DE7
  0
DICTIONARY
  5
8335
330
8226
100
AcDbDictionary
280
     1
281
     1
  3
ACAD_XREC_ROUNDTRIP
360
8336
  0
DICTIONARY
  5
8337
330
8227
100
AcDbDictionary
280
     1
281
     1
  3
ACAD_XREC_ROUNDTRIP
360
8338
  0
DICTIONARY
  5
8339
330
8228
100
AcDbDictionary
280
     1
281
     1
  3
ACAD_XREC_ROUNDTRIP
360
833A
  0
DICTIONARY
  5
833B
330
8229
100
AcDbDictionary
280
     1
281
     1
  3
ACAD_XREC_ROUNDTRIP
360
833C
  0
DICTIONARY
  5
833D
330
822A
100
AcDbDictionary
280
     1
281
     1
  3
ACAD_XREC_ROUNDTRIP
360
833E
  0
DICTIONARY
  5
105C
330
DFE
100
AcDbDictionary
280
     1
281
     1
  3
ACAD_ROUNDTRIP_2008_TABLESTYLE_CELLSTYLEMAP
360
8308
  3
ACAD_XREC_ROUNDTRIP
360
8330
  0
DICTIONARY
  5
831A
330
DF1
100
AcDbDictionary
280
     1
281
     1
  3
ACAD_XREC_ROUNDTRIP
360
831B
  0
DICTIONARY
  5
831E
330
DF3
100
AcDbDictionary
280
     1
281
     1
  3
ACAD_XREC_ROUNDTRIP
360
831F
  0
DICTIONARY
  5
831C
330
DF2
100
AcDbDictionary
280
     1
281
     1
  3
ACAD_XREC_ROUNDTRIP
360
831D
  0
DICTIONARY
  5
8318
330
DF0
100
AcDbDictionary
280
     1
281
     1
  3
ACAD_XREC_ROUNDTRIP
360
8319
  0
DICTIONARY
  5
8326
330
DF7
100
AcDbDictionary
280
     1
281
     1
  3
ACAD_XREC_ROUNDTRIP
360
8327
  0
DICTIONARY
  5
832E
330
DFB
100
AcDbDictionary
280
     1
281
     1
  3
ACAD_XREC_ROUNDTRIP
360
832F
  0
DICTIONARY
  5
8320
330
DF4
100
AcDbDictionary
280
     1
281
     1
  3
ACAD_XREC_ROUNDTRIP
360
8321
  0
DICTIONARY
  5
8324
330
DF6
100
AcDbDictionary
280
     1
281
     1
  3
ACAD_XREC_ROUNDTRIP
360
8325
  0
DICTIONARY
  5
8351
330
82EB
100
AcDbDictionary
280
     1
281
     1
  3
ACAD_XREC_ROUNDTRIP
360
8352
  0
DICTIONARY
  5
832C
330
DFA
100
AcDbDictionary
280
     1
281
     1
  3
ACAD_XREC_ROUNDTRIP
360
832D
  0
DICTIONARY
  5
8310
330
DEC
100
AcDbDictionary
280
     1
281
     1
  3
ACAD_XREC_ROUNDTRIP
360
8311
  0
DICTIONARY
  5
8312
330
DED
100
AcDbDictionary
280
     1
281
     1
  3
ACAD_XREC_ROUNDTRIP
360
8313
  0
DICTIONARY
  5
8314
330
DEE
100
AcDbDictionary
280
     1
281
     1
  3
ACAD_XREC_ROUNDTRIP
360
8315
  0
DICTIONARY
  5
8316
330
DEF
100
AcDbDictionary
280
     1
281
     1
  3
ACAD_XREC_ROUNDTRIP
360
8317
  0
DICTIONARY
  5
8341
330
82E3
100
AcDbDictionary
280
     1
281
     1
  3
ACAD_XREC_ROUNDTRIP
360
8342
  0
DICTIONARY
  5
834D
330
82E9
100
AcDbDictionary
280
     1
281
     1
  3
ACAD_XREC_ROUNDTRIP
360
834E
  0
DICTIONARY
  5
832A
330
DF9
100
AcDbDictionary
280
     1
281
     1
  3
ACAD_XREC_ROUNDTRIP
360
832B
  0
DICTIONARY
  5
834F
330
82EA
100
AcDbDictionary
280
     1
281
     1
  3
ACAD_XREC_ROUNDTRIP
360
8350
  0
DICTIONARY
  5
8322
330
DF5
100
AcDbDictionary
280
     1
281
     1
  3
ACAD_XREC_ROUNDTRIP
360
8323
  0
DICTIONARY
  5
834B
330
82E8
100
AcDbDictionary
280
     1
281
     1
  3
ACAD_XREC_ROUNDTRIP
360
834C
  0
DICTIONARY
  5
8349
330
82E7
100
AcDbDictionary
280
     1
281
     1
  3
ACAD_XREC_ROUNDTRIP
360
834A
  0
DICTIONARY
  5
8343
330
82E4
100
AcDbDictionary
280
     1
281
     1
  3
ACAD_XREC_ROUNDTRIP
360
8344
  0
DICTIONARY
  5
8345
330
82E5
100
AcDbDictionary
280
     1
281
     1
  3
ACAD_XREC_ROUNDTRIP
360
8346
  0
DICTIONARY
  5
8328
330
DF8
100
AcDbDictionary
280
     1
281
     1
  3
ACAD_XREC_ROUNDTRIP
360
8329
  0
DICTIONARY
  5
833F
330
82E2
100
AcDbDictionary
280
     1
281
     1
  3
ACAD_XREC_ROUNDTRIP
360
8340
  0
DICTIONARY
  5
8347
330
82E6
100
AcDbDictionary
280
     1
281
     1
  3
ACAD_XREC_ROUNDTRIP
360
8348
  0
ACAD_PROXY_OBJECT
  5
8F8
102
{ACAD_REACTORS
330
8F7
102
}
330
8F7
100
AcDbProxyObject
 90
      499
 91
      526
 95
   589845
 70
     0
 93
       75
310
80117411093D34C501DF
340
17
340
42
 94
        0
1001
ACAD
1000
AcRTDxfName
1000
AcmBom
  0
ACAD_PROXY_OBJECT
  5
42
102
{ACAD_REACTORS
330
41
102
}
330
41
100
AcDbProxyObject
 90
      499
 91
      513
 95
   589845
 70
     0
 93
      137
310
057356C1D17406406AA8FFFFFFFF117480FF
330
17
330
0
330
0
 94
        0
1001
ACAD
1000
AcRTDxfName
1000
ACMDATAENTRYBLOCK
  0
ACAD_PROXY_OBJECT
  5
5B
102
{ACAD_REACTORS
330
5A
102
}
330
5A
100
AcDbProxyObject
 90
      499
 91
      517
 95
   589845
 70
     0
 93
      929
310
45C0000000000000840D04414E5349405901F000000000000021032208321C82C6DAA6EAE4CCA8CAF0E8A6E8C88120284A0B1B6A321A329BA3220480A1A82C6DAAECAD8C8D2DCCEA6E8C8812028420B1B6A4B229BA3220480A1682C6DA88C2E8EADAA6E8C88120284A0B1B6A127A6A9BA3220480FF
340
5C
360
5D
360
5E
360
5F
360
60
360
61
360
62
 94
        0
1001
ACAD
1000
AcRTDxfName
1000
ACMSTANDARDANSI
  0
IDBUFFER
  5
82D3
330
0
100
AcDbIdBuffer
330
8F4
330
953
330
954
330
9CF
330
9D0
330
9D1
330
9D2
330
9D3
330
9D4
330
B09
330
B0A
330
B0B
330
B16
330
B17
330
B18
330
B19
330
B1A
330
B1B
330
B6E
330
B6F
330
B70
330
B7B
330
B7C
330
B7D
330
B7E
330
B7F
330
B80
330
BFE
330
BFF
330
C00
330
C03
330
C04
330
C05
330
C06
330
C07
330
C08
330
C20
330
C21
330
C22
330
C23
330
C24
330
C25
330
C26
330
C27
330
C28
330
C37
330
C38
330
C39
330
C44
330
C45
330
C46
330
C47
330
C48
330
C49
330
CD0
330
CD1
330
CD2
330
CD7
330
CD8
330
CD9
330
CDA
330
CDB
330
CDC
  0
IDBUFFER
  5
82D4
330
0
100
AcDbIdBuffer
  0
IDBUFFER
  5
82D5
330
0
100
AcDbIdBuffer
  0
IDBUFFER
  5
82D6
330
0
100
AcDbIdBuffer
  0
IDBUFFER
  5
82D7
330
0
100
AcDbIdBuffer
330
7367
330
7368
330
7369
330
736A
330
736B
330
736C
330
736D
330
7370
330
7371
330
7372
330
7373
330
7374
330
7375
330
7376
330
7377
330
7378
330
7379
330
737A
330
737B
330
737C
330
737D
330
737E
330
737F
330
7380
330
7381
330
7382
330
7383
330
7384
330
7385
330
7386
330
7387
330
7388
330
7389
330
738A
330
738B
330
738C
330
738D
330
738E
330
738F
330
7390
330
7391
330
7392
330
7393
330
7394
330
7395
330
7396
330
7397
330
7398
330
7399
330
739A
330
739B
330
739C
330
739D
330
739E
330
739F
330
73A0
330
73A1
330
73A2
330
73A3
330
73A4
330
73A5
330
7A5C
330
7A5D
330
7A5E
330
7A61
330
7A62
330
7A6E
330
7A6F
330
7A71
330
7A72
330
7A73
330
7AB6
330
7BBD
330
7BBE
  0
IDBUFFER
  5
82D8
330
0
100
AcDbIdBuffer
  0
XRECORD
  5
8334
102
{ACAD_REACTORS
330
8333
102
}
330
8333
100
AcDbXrecord
280
     1
102
SHADEPLOT
 70
     0
102
SHADEPLOTRESLEVEL
 70
     2
102
SHADEPLOTCUSTOMDPI
 70
   300
  0
XRECORD
  5
8332
102
{ACAD_REACTORS
330
8331
102
}
330
8331
100
AcDbXrecord
280
     1
102
SHADEPLOT
 70
     0
102
SHADEPLOTRESLEVEL
 70
     2
102
SHADEPLOTCUSTOMDPI
 70
   300
  0
XRECORD
  5
830E
102
{ACAD_REACTORS
330
DDC
102
}
330
DDC
100
AcDbXrecord
280
     1
102
MATERIAL
148
0.0
149
0.0
149
0.0
 93
        0
 94
      127
282
     0
 72
     0
 77
     0
171
     0
175
     0
179
     0
273
     0
  0
XRECORD
  5
DDE
102
{ACAD_REACTORS
330
DDC
102
}
330
DDC
100
AcDbXrecord
280
     1
270
     1
271
     1
  0
XRECORD
  5
DDD
102
{ACAD_REACTORS
330
DDC
102
}
330
DDC
100
AcDbXrecord
280
     1
270
     1
271
     1
  0
XRECORD
  5
DE1
102
{ACAD_REACTORS
330
DDC
102
}
330
DDC
100
AcDbXrecord
280
     1
270
     1
271
     1
  0
XRECORD
  5
DE0
102
{ACAD_REACTORS
330
DDC
102
}
330
DDC
100
AcDbXrecord
280
     1
270
     1
271
     1
  0
XRECORD
  5
DE2
102
{ACAD_REACTORS
330
DDC
102
}
330
DDC
100
AcDbXrecord
280
     1
270
     1
271
     1
  0
XRECORD
  5
DDF
102
{ACAD_REACTORS
330
DDC
102
}
330
DDC
100
AcDbXrecord
280
     1
270
     1
271
     1
  0
XRECORD
  5
830D
102
{ACAD_REACTORS
330
DD4
102
}
330
DD4
100
AcDbXrecord
280
     1
102
MATERIAL
148
0.0
149
0.0
149
0.0
 93
        0
 94
      127
282
     0
 72
     0
 77
     0
171
     0
175
     0
179
     0
273
     0
  0
XRECORD
  5
DD6
102
{ACAD_REACTORS
330
DD4
102
}
330
DD4
100
AcDbXrecord
280
     1
270
     1
271
     1
  0
XRECORD
  5
DD5
102
{ACAD_REACTORS
330
DD4
102
}
330
DD4
100
AcDbXrecord
280
     1
270
     1
271
     1
  0
XRECORD
  5
DD9
102
{ACAD_REACTORS
330
DD4
102
}
330
DD4
100
AcDbXrecord
280
     1
270
     1
271
     1
  0
XRECORD
  5
DD8
102
{ACAD_REACTORS
330
DD4
102
}
330
DD4
100
AcDbXrecord
280
     1
270
     1
271
     1
  0
XRECORD
  5
DDA
102
{ACAD_REACTORS
330
DD4
102
}
330
DD4
100
AcDbXrecord
280
     1
270
     1
271
     1
  0
XRECORD
  5
DD7
102
{ACAD_REACTORS
330
DD4
102
}
330
DD4
100
AcDbXrecord
280
     1
270
     1
271
     1
  0
XRECORD
  5
830F
102
{ACAD_REACTORS
330
DE4
102
}
330
DE4
100
AcDbXrecord
280
     1
102
MATERIAL
148
0.0
149
0.0
149
0.0
 93
        0
 94
      127
282
     0
 72
     0
 77
     0
171
     0
175
     0
179
     0
273
     0
  0
XRECORD
  5
DE6
102
{ACAD_REACTORS
330
DE4
102
}
330
DE4
100
AcDbXrecord
280
     1
270
     1
271
     1
  0
XRECORD
  5
DE5
102
{ACAD_REACTORS
330
DE4
102
}
330
DE4
100
AcDbXrecord
280
     1
270
     1
271
     1
  0
XRECORD
  5
DE9
102
{ACAD_REACTORS
330
DE4
102
}
330
DE4
100
AcDbXrecord
280
     1
270
     1
271
     1
  0
XRECORD
  5
DE8
102
{ACAD_REACTORS
330
DE4
102
}
330
DE4
100
AcDbXrecord
280
     1
270
     1
271
     1
  0
XRECORD
  5
DEA
102
{ACAD_REACTORS
330
DE4
102
}
330
DE4
100
AcDbXrecord
280
     1
270
     1
271
     1
  0
XRECORD
  5
DE7
102
{ACAD_REACTORS
330
DE4
102
}
330
DE4
100
AcDbXrecord
280
     1
270
     1
271
     1
  0
XRECORD
  5
8336
102
{ACAD_REACTORS
330
8335
102
}
330
8335
100
AcDbXrecord
280
     1
102
SHADEPLOT
 70
     0
102
SHADEPLOTRESLEVEL
 70
     2
102
SHADEPLOTCUSTOMDPI
 70
   300
  0
XRECORD
  5
8338
102
{ACAD_REACTORS
330
8337
102
}
330
8337
100
AcDbXrecord
280
     1
102
SHADEPLOT
 70
     0
102
SHADEPLOTRESLEVEL
 70
     2
102
SHADEPLOTCUSTOMDPI
 70
   300
  0
XRECORD
  5
833A
102
{ACAD_REACTORS
330
8339
102
}
330
8339
100
AcDbXrecord
280
     1
102
SHADEPLOT
 70
     0
102
SHADEPLOTRESLEVEL
 70
     2
102
SHADEPLOTCUSTOMDPI
 70
   300
  0
XRECORD
  5
833C
102
{ACAD_REACTORS
330
833B
102
}
330
833B
100
AcDbXrecord
280
     1
102
SHADEPLOT
 70
     0
102
SHADEPLOTRESLEVEL
 70
     2
102
SHADEPLOTCUSTOMDPI
 70
   300
  0
XRECORD
  5
833E
102
{ACAD_REACTORS
330
833D
102
}
330
833D
100
AcDbXrecord
280
     1
102
SHADEPLOT
 70
     0
102
SHADEPLOTRESLEVEL
 70
     2
102
SHADEPLOTCUSTOMDPI
 70
   300
  0
CELLSTYLEMAP
  5
8308
102
{ACAD_REACTORS
330
105C
102
}
330
105C
100
AcDbCellStyleMap
 90
        3
300
CELLSTYLE
  1
TABLEFORMAT_BEGIN
 90
        5
170
     1
 91
        0
 92
    32768
 62
   257
 93
        1
300
CONTENTFORMAT
  1
CONTENTFORMAT_BEGIN
 90
        0
 91
        0
 92
      512
 93
        0
300

 40
0.0
140
1.0
 94
        5
 62
     0
340
F
144
6.0
309
CONTENTFORMAT_END
171
     1
301
MARGIN
  1
CELLMARGIN_BEGIN
 40
1.5
 40
1.5
 40
1.5
 40
1.5
 40
4.5
 40
4.5
309
CELLMARGIN_END
 94
        6
 95
        1
302
GRIDFORMAT
  1
GRIDFORMAT_BEGIN
 90
        0
 91
        1
 62
     0
 92
       -2
340
0
 93
        0
 40
1.125
309
GRIDFORMAT_END
 95
        2
302
GRIDFORMAT
  1
GRIDFORMAT_BEGIN
 90
        0
 91
        1
 62
     0
 92
       -2
340
0
 93
        0
 40
1.125
309
GRIDFORMAT_END
 95
        4
302
GRIDFORMAT
  1
GRIDFORMAT_BEGIN
 90
        0
 91
        1
 62
     0
 92
       -2
340
0
 93
        0
 40
1.125
309
GRIDFORMAT_END
 95
        8
302
GRIDFORMAT
  1
GRIDFORMAT_BEGIN
 90
        0
 91
        1
 62
     0
 92
       -2
340
0
 93
        0
 40
1.125
309
GRIDFORMAT_END
 95
       16
302
GRIDFORMAT
  1
GRIDFORMAT_BEGIN
 90
        0
 91
        1
 62
     0
 92
       -2
340
0
 93
        0
 40
1.125
309
GRIDFORMAT_END
 95
       32
302
GRIDFORMAT
  1
GRIDFORMAT_BEGIN
 90
        0
 91
        1
 62
     0
 92
       -2
340
0
 93
        0
 40
1.125
309
GRIDFORMAT_END
309
TABLEFORMAT_END
  1
CELLSTYLE_BEGIN
 90
        1
 91
        1
300
_TITLE
309
CELLSTYLE_END
300
CELLSTYLE
  1
TABLEFORMAT_BEGIN
 90
        5
170
     1
 91
        0
 92
        0
 62
   257
 93
        1
300
CONTENTFORMAT
  1
CONTENTFORMAT_BEGIN
 90
        0
 91
        0
 92
      512
 93
        0
300

 40
0.0
140
1.0
 94
        5
 62
     0
340
F
144
4.5
309
CONTENTFORMAT_END
171
     1
301
MARGIN
  1
CELLMARGIN_BEGIN
 40
1.5
 40
1.5
 40
1.5
 40
1.5
 40
4.5
 40
4.5
309
CELLMARGIN_END
 94
        6
 95
        1
302
GRIDFORMAT
  1
GRIDFORMAT_BEGIN
 90
        0
 91
        1
 62
     0
 92
       -2
340
0
 93
        0
 40
1.125
309
GRIDFORMAT_END
 95
        2
302
GRIDFORMAT
  1
GRIDFORMAT_BEGIN
 90
        0
 91
        1
 62
     0
 92
       -2
340
0
 93
        0
 40
1.125
309
GRIDFORMAT_END
 95
        4
302
GRIDFORMAT
  1
GRIDFORMAT_BEGIN
 90
        0
 91
        1
 62
     0
 92
       -2
340
0
 93
        0
 40
1.125
309
GRIDFORMAT_END
 95
        8
302
GRIDFORMAT
  1
GRIDFORMAT_BEGIN
 90
        0
 91
        1
 62
     0
 92
       -2
340
0
 93
        0
 40
1.125
309
GRIDFORMAT_END
 95
       16
302
GRIDFORMAT
  1
GRIDFORMAT_BEGIN
 90
        0
 91
        1
 62
     0
 92
       -2
340
0
 93
        0
 40
1.125
309
GRIDFORMAT_END
 95
       32
302
GRIDFORMAT
  1
GRIDFORMAT_BEGIN
 90
        0
 91
        1
 62
     0
 92
       -2
340
0
 93
        0
 40
1.125
309
GRIDFORMAT_END
309
TABLEFORMAT_END
  1
CELLSTYLE_BEGIN
 90
        2
 91
        1
300
_HEADER
309
CELLSTYLE_END
300
CELLSTYLE
  1
TABLEFORMAT_BEGIN
 90
        5
170
     1
 91
        0
 92
        0
 62
   257
 93
        1
300
CONTENTFORMAT
  1
CONTENTFORMAT_BEGIN
 90
        0
 91
        0
 92
      512
 93
        0
300

 40
0.0
140
1.0
 94
        2
 62
     0
340
F
144
4.5
309
CONTENTFORMAT_END
171
     1
301
MARGIN
  1
CELLMARGIN_BEGIN
 40
1.5
 40
1.5
 40
1.5
 40
1.5
 40
4.5
 40
4.5
309
CELLMARGIN_END
 94
        6
 95
        1
302
GRIDFORMAT
  1
GRIDFORMAT_BEGIN
 90
        0
 91
        1
 62
     0
 92
       -2
340
0
 93
        0
 40
1.125
309
GRIDFORMAT_END
 95
        2
302
GRIDFORMAT
  1
GRIDFORMAT_BEGIN
 90
        0
 91
        1
 62
     0
 92
       -2
340
0
 93
        0
 40
1.125
309
GRIDFORMAT_END
 95
        4
302
GRIDFORMAT
  1
GRIDFORMAT_BEGIN
 90
        0
 91
        1
 62
     0
 92
       -2
340
0
 93
        0
 40
1.125
309
GRIDFORMAT_END
 95
        8
302
GRIDFORMAT
  1
GRIDFORMAT_BEGIN
 90
        0
 91
        1
 62
     0
 92
       -2
340
0
 93
        0
 40
1.125
309
GRIDFORMAT_END
 95
       16
302
GRIDFORMAT
  1
GRIDFORMAT_BEGIN
 90
        0
 91
        1
 62
     0
 92
       -2
340
0
 93
        0
 40
1.125
309
GRIDFORMAT_END
 95
       32
302
GRIDFORMAT
  1
GRIDFORMAT_BEGIN
 90
        0
 91
        1
 62
     0
 92
       -2
340
0
 93
        0
 40
1.125
309
GRIDFORMAT_END
309
TABLEFORMAT_END
  1
CELLSTYLE_BEGIN
 90
        3
 91
        2
300
_DATA
309
CELLSTYLE_END
  0
XRECORD
  5
8330
102
{ACAD_REACTORS
330
105C
102
}
330
105C
100
AcDbXrecord
280
     1
102
ACAD_ROUNDTRIP_PRE2007_TABLESTYLE
 90
      512
 91
        0
  1

 92
      512
 93
        0
  2

 94
      512
 95
        0
  3

  0
XRECORD
  5
831B
102
{ACAD_REACTORS
330
831A
102
}
330
831A
100
AcDbXrecord
280
     1
102
RTVSPropertyOp0
 70
     1
102
RTVSPropertyOp1
 70
     1
102
RTVSPropertyOp2
 70
     1
102
RTVSPropertyOp3
 70
     1
102
RTVSPropertyOp4
 70
     1
102
RTVSPropertyOp5
 70
     1
102
RTVSPropertyOp6
 70
     1
102
RTVSPropertyOp7
 70
     1
102
RTVSPropertyOp8
 70
     1
102
RTVSPropertyOp9
 70
     1
102
RTVSPropertyOp10
 70
     1
102
RTVSPropertyOp11
 70
     1
102
RTVSPropertyOp12
 70
     1
102
RTVSPropertyOp13
 70
     1
102
RTVSPropertyOp14
 70
     1
102
RTVSPropertyOp15
 70
     1
102
RTVSPropertyOp16
 70
     1
102
RTVSPropertyOp17
 70
     1
102
RTVSPropertyOp18
 70
     1
102
RTVSPropertyOp19
 70
     1
102
RTVSPropertyOp20
 70
     1
102
RTVSPropertyOp21
 70
     1
102
RTVSPropertyOp22
 70
     1
102
RTVSPropertyOp23
 70
     1
102
RTVSPropertyOp24
 70
     1
102
RTVSPropertyOp25
 70
     1
102
RTVSPropertyOp26
 70
     1
102
RTVSPropertyOp27
 70
     1
102
RTVSPropertyOp28
 70
     1
102
RTVSPropertyOp29
 70
     1
102
RTVSPropertyOp30
 70
     1
102
RTVSPropertyOp31
 70
     1
102
RTVSPropertyOp32
 70
     1
  0
XRECORD
  5
831F
102
{ACAD_REACTORS
330
831E
102
}
330
831E
100
AcDbXrecord
280
     1
102
RTVSPropertyOp0
 70
     1
102
RTVSPropertyOp1
 70
     1
102
RTVSPropertyOp2
 70
     1
102
RTVSPropertyOp3
 70
     1
102
RTVSPropertyOp4
 70
     1
102
RTVSPropertyOp5
 70
     1
102
RTVSPropertyOp6
 70
     1
102
RTVSPropertyOp7
 70
     1
102
RTVSPropertyOp8
 70
     1
102
RTVSPropertyOp9
 70
     1
102
RTVSPropertyOp10
 70
     1
102
RTVSPropertyOp11
 70
     1
102
RTVSPropertyOp12
 70
     1
102
RTVSPropertyOp13
 70
     1
102
RTVSPropertyOp14
 70
     1
102
RTVSPropertyOp15
 70
     1
102
RTVSPropertyOp16
 70
     1
102
RTVSPropertyOp17
 70
     1
102
RTVSPropertyOp18
 70
     1
102
RTVSPropertyOp19
 70
     1
102
RTVSPropertyOp20
 70
     1
102
RTVSPropertyOp21
 70
     1
102
RTVSPropertyOp22
 70
     1
102
RTVSPropertyOp23
 70
     1
102
RTVSPropertyOp24
 70
     1
102
RTVSPropertyOp25
 70
     1
102
RTVSPropertyOp26
 70
     1
102
RTVSPropertyOp27
 70
     1
102
RTVSPropertyOp28
 70
     1
102
RTVSPropertyOp29
 70
     1
102
RTVSPropertyOp30
 70
     1
102
RTVSPropertyOp31
 70
     1
102
RTVSPropertyOp32
 70
     1
  0
XRECORD
  5
831D
102
{ACAD_REACTORS
330
831C
102
}
330
831C
100
AcDbXrecord
280
     1
102
RTVSPropertyOp0
 70
     1
102
RTVSPropertyOp1
 70
     1
102
RTVSPropertyOp2
 70
     1
102
RTVSPropertyOp3
 70
     1
102
RTVSPropertyOp4
 70
     1
102
RTVSPropertyOp5
 70
     1
102
RTVSPropertyOp6
 70
     1
102
RTVSPropertyOp7
 70
     1
102
RTVSPropertyOp8
 70
     1
102
RTVSPropertyOp9
 70
     1
102
RTVSPropertyOp10
 70
     1
102
RTVSPropertyOp11
 70
     1
102
RTVSPropertyOp12
 70
     1
102
RTVSPropertyOp13
 70
     1
102
RTVSPropertyOp14
 70
     1
102
RTVSPropertyOp15
 70
     1
102
RTVSPropertyOp16
 70
     1
102
RTVSPropertyOp17
 70
     1
102
RTVSPropertyOp18
 70
     1
102
RTVSPropertyOp19
 70
     1
102
RTVSPropertyOp20
 70
     1
102
RTVSPropertyOp21
 70
     1
102
RTVSPropertyOp22
 70
     1
102
RTVSPropertyOp23
 70
     1
102
RTVSPropertyOp24
 70
     1
102
RTVSPropertyOp25
 70
     1
102
RTVSPropertyOp26
 70
     1
102
RTVSPropertyOp27
 70
     1
102
RTVSPropertyOp28
 70
     1
102
RTVSPropertyOp29
 70
     1
102
RTVSPropertyOp30
 70
     1
102
RTVSPropertyOp31
 70
     1
102
RTVSPropertyOp32
 70
     1
  0
XRECORD
  5
8319
102
{ACAD_REACTORS
330
8318
102
}
330
8318
100
AcDbXrecord
280
     1
102
RTVSPropertyOp0
 70
     1
102
RTVSPropertyOp1
 70
     1
102
RTVSPropertyOp2
 70
     1
102
RTVSPropertyOp3
 70
     1
102
RTVSPropertyOp4
 70
     1
102
RTVSPropertyOp5
 70
     1
102
RTVSPropertyOp6
 70
     1
102
RTVSPropertyOp7
 70
     1
102
RTVSPropertyOp8
 70
     1
102
RTVSPropertyOp9
 70
     1
102
RTVSPropertyOp10
 70
     1
102
RTVSPropertyOp11
 70
     1
102
RTVSPropertyOp12
 70
     1
102
RTVSPropertyOp13
 70
     1
102
RTVSPropertyOp14
 70
     1
102
RTVSPropertyOp15
 70
     1
102
RTVSPropertyOp16
 70
     1
102
RTVSPropertyOp17
 70
     1
102
RTVSPropertyOp18
 70
     1
102
RTVSPropertyOp19
 70
     1
102
RTVSPropertyOp20
 70
     1
102
RTVSPropertyOp21
 70
     1
102
RTVSPropertyOp22
 70
     1
102
RTVSPropertyOp23
 70
     1
102
RTVSPropertyOp24
 70
     1
102
RTVSPropertyOp25
 70
     1
102
RTVSPropertyOp26
 70
     1
102
RTVSPropertyOp27
 70
     1
102
RTVSPropertyOp28
 70
     1
102
RTVSPropertyOp29
 70
     1
102
RTVSPropertyOp30
 70
     1
102
RTVSPropertyOp31
 70
     1
102
RTVSPropertyOp32
 70
     1
  0
XRECORD
  5
8327
102
{ACAD_REACTORS
330
8326
102
}
330
8326
100
AcDbXrecord
280
     1
102
RTVSPropertyOp0
 70
     1
102
RTVSPropertyOp1
 70
     1
102
RTVSPropertyOp2
 70
     1
102
RTVSPropertyOp3
 70
     1
102
RTVSPropertyOp4
 70
     1
102
RTVSPropertyOp5
 70
     1
102
RTVSPropertyOp6
 70
     1
102
RTVSPropertyOp7
 70
     1
102
RTVSPropertyOp8
 70
     1
102
RTVSPropertyOp9
 70
     1
102
RTVSPropertyOp10
 70
     1
102
RTVSPropertyOp11
 70
     1
102
RTVSPropertyOp12
 70
     1
102
RTVSPropertyOp13
 70
     1
102
RTVSPropertyOp14
 70
     1
102
RTVSPropertyOp15
 70
     1
102
RTVSPropertyOp16
 70
     1
102
RTVSPropertyOp17
 70
     1
102
RTVSPropertyOp18
 70
     1
102
RTVSPropertyOp19
 70
     1
102
RTVSPropertyOp20
 70
     1
102
RTVSPropertyOp21
 70
     1
102
RTVSPropertyOp22
 70
     1
102
RTVSPropertyOp23
 70
     1
102
RTVSPropertyOp24
 70
     1
102
RTVSPropertyOp25
 70
     1
102
RTVSPropertyOp26
 70
     1
102
RTVSPropertyOp27
 70
     1
102
RTVSPropertyOp28
 70
     1
102
RTVSPropertyOp29
 70
     1
102
RTVSPropertyOp30
 70
     1
102
RTVSPropertyOp31
 70
     1
102
RTVSPropertyOp32
 70
     1
  0
XRECORD
  5
832F
102
{ACAD_REACTORS
330
832E
102
}
330
832E
100
AcDbXrecord
280
     1
102
RTVSPropertyOp0
 70
     1
102
RTVSPropertyOp1
 70
     1
102
RTVSPropertyOp2
 70
     1
102
RTVSPropertyOp3
 70
     1
102
RTVSPropertyOp4
 70
     1
102
RTVSPropertyOp5
 70
     1
102
RTVSPropertyOp6
 70
     1
102
RTVSPropertyOp7
 70
     1
102
RTVSPropertyOp8
 70
     1
102
RTVSPropertyOp9
 70
     1
102
RTVSPropertyOp10
 70
     1
102
RTVSPropertyOp11
 70
     1
102
RTVSPropertyOp12
 70
     1
102
RTVSPropertyOp13
 70
     1
102
RTVSPropertyOp14
 70
     1
102
RTVSPropertyOp15
 70
     1
102
RTVSPropertyOp16
 70
     1
102
RTVSPropertyOp17
 70
     1
102
RTVSPropertyOp18
 70
     1
102
RTVSPropertyOp19
 70
     1
102
RTVSPropertyOp20
 70
     1
102
RTVSPropertyOp21
 70
     1
102
RTVSPropertyOp22
 70
     1
102
RTVSPropertyOp23
 70
     1
102
RTVSPropertyOp24
 70
     1
102
RTVSPropertyOp25
 70
     1
102
RTVSPropertyOp26
 70
     1
102
RTVSPropertyOp27
 70
     1
102
RTVSPropertyOp28
 70
     1
102
RTVSPropertyOp29
 70
     1
102
RTVSPropertyOp30
 70
     1
102
RTVSPropertyOp31
 70
     1
102
RTVSPropertyOp32
 70
     1
  0
XRECORD
  5
8321
102
{ACAD_REACTORS
330
8320
102
}
330
8320
100
AcDbXrecord
280
     1
102
RTVSPropertyOp0
 70
     1
102
RTVSPropertyOp1
 70
     1
102
RTVSPropertyOp2
 70
     1
102
RTVSPropertyOp3
 70
     1
102
RTVSPropertyOp4
 70
     1
102
RTVSPropertyOp5
 70
     1
102
RTVSPropertyOp6
 70
     1
102
RTVSPropertyOp7
 70
     1
102
RTVSPropertyOp8
 70
     1
102
RTVSPropertyOp9
 70
     1
102
RTVSPropertyOp10
 70
     1
102
RTVSPropertyOp11
 70
     1
102
RTVSPropertyOp12
 70
     1
102
RTVSPropertyOp13
 70
     1
102
RTVSPropertyOp14
 70
     1
102
RTVSPropertyOp15
 70
     1
102
RTVSPropertyOp16
 70
     1
102
RTVSPropertyOp17
 70
     1
102
RTVSPropertyOp18
 70
     1
102
RTVSPropertyOp19
 70
     1
102
RTVSPropertyOp20
 70
     1
102
RTVSPropertyOp21
 70
     1
102
RTVSPropertyOp22
 70
     1
102
RTVSPropertyOp23
 70
     1
102
RTVSPropertyOp24
 70
     1
102
RTVSPropertyOp25
 70
     1
102
RTVSPropertyOp26
 70
     1
102
RTVSPropertyOp27
 70
     1
102
RTVSPropertyOp28
 70
     1
102
RTVSPropertyOp29
 70
     1
102
RTVSPropertyOp30
 70
     1
102
RTVSPropertyOp31
 70
     1
102
RTVSPropertyOp32
 70
     1
  0
XRECORD
  5
8325
102
{ACAD_REACTORS
330
8324
102
}
330
8324
100
AcDbXrecord
280
     1
102
RTVSPropertyOp0
 70
     1
102
RTVSPropertyOp1
 70
     1
102
RTVSPropertyOp2
 70
     1
102
RTVSPropertyOp3
 70
     1
102
RTVSPropertyOp4
 70
     1
102
RTVSPropertyOp5
 70
     1
102
RTVSPropertyOp6
 70
     1
102
RTVSPropertyOp7
 70
     1
102
RTVSPropertyOp8
 70
     1
102
RTVSPropertyOp9
 70
     1
102
RTVSPropertyOp10
 70
     1
102
RTVSPropertyOp11
 70
     1
102
RTVSPropertyOp12
 70
     1
102
RTVSPropertyOp13
 70
     1
102
RTVSPropertyOp14
 70
     1
102
RTVSPropertyOp15
 70
     1
102
RTVSPropertyOp16
 70
     1
102
RTVSPropertyOp17
 70
     1
102
RTVSPropertyOp18
 70
     1
102
RTVSPropertyOp19
 70
     1
102
RTVSPropertyOp20
 70
     1
102
RTVSPropertyOp21
 70
     1
102
RTVSPropertyOp22
 70
     1
102
RTVSPropertyOp23
 70
     1
102
RTVSPropertyOp24
 70
     1
102
RTVSPropertyOp25
 70
     1
102
RTVSPropertyOp26
 70
     1
102
RTVSPropertyOp27
 70
     1
102
RTVSPropertyOp28
 70
     1
102
RTVSPropertyOp29
 70
     1
102
RTVSPropertyOp30
 70
     1
102
RTVSPropertyOp31
 70
     1
102
RTVSPropertyOp32
 70
     1
  0
XRECORD
  5
8352
102
{ACAD_REACTORS
330
8351
102
}
330
8351
100
AcDbXrecord
280
     1
102
RTVSPropertyOp0
 70
     0
102
RTVSPropertyOp1
 70
     0
102
RTVSPropertyOp2
 70
     0
102
RTVSPropertyOp3
 70
     0
102
RTVSPropertyOp4
 70
     0
102
RTVSPropertyOp5
 70
     0
102
RTVSPropertyOp6
 70
     0
102
RTVSPropertyOp7
 70
     0
102
RTVSPropertyOp8
 70
     0
102
RTVSPropertyOp9
 70
     0
102
RTVSPropertyOp10
 70
     0
102
RTVSPropertyOp11
 70
     0
102
RTVSPropertyOp12
 70
     0
102
RTVSPropertyOp13
 70
     0
102
RTVSPropertyOp14
 70
     2
102
RTVSPropertyOp15
 70
     0
102
RTVSPropertyOp16
 70
     0
102
RTVSPropertyOp17
 70
     0
102
RTVSPropertyOp18
 70
     0
102
RTVSPropertyOp19
 70
     0
102
RTVSPropertyOp20
 70
     0
102
RTVSPropertyOp21
 70
     0
102
RTVSPropertyOp22
 70
     0
102
RTVSPropertyOp23
 70
     0
102
RTVSPropertyOp24
 70
     0
102
RTVSPropertyOp25
 70
     0
102
RTVSPropertyOp26
 70
     0
102
RTVSPropertyOp27
 70
     0
102
RTVSPropertyOp28
 70
     0
102
RTVSPropertyOp29
 70
     0
102
RTVSPropertyOp30
 70
     0
102
RTVSPropertyOp31
 70
     0
102
RTVSPropertyOp32
 70
     0
  0
XRECORD
  5
832D
102
{ACAD_REACTORS
330
832C
102
}
330
832C
100
AcDbXrecord
280
     1
102
RTVSPropertyOp0
 70
     1
102
RTVSPropertyOp1
 70
     1
102
RTVSPropertyOp2
 70
     1
102
RTVSPropertyOp3
 70
     1
102
RTVSPropertyOp4
 70
     1
102
RTVSPropertyOp5
 70
     1
102
RTVSPropertyOp6
 70
     1
102
RTVSPropertyOp7
 70
     1
102
RTVSPropertyOp8
 70
     1
102
RTVSPropertyOp9
 70
     1
102
RTVSPropertyOp10
 70
     1
102
RTVSPropertyOp11
 70
     1
102
RTVSPropertyOp12
 70
     1
102
RTVSPropertyOp13
 70
     1
102
RTVSPropertyOp14
 70
     1
102
RTVSPropertyOp15
 70
     1
102
RTVSPropertyOp16
 70
     1
102
RTVSPropertyOp17
 70
     1
102
RTVSPropertyOp18
 70
     1
102
RTVSPropertyOp19
 70
     1
102
RTVSPropertyOp20
 70
     1
102
RTVSPropertyOp21
 70
     1
102
RTVSPropertyOp22
 70
     1
102
RTVSPropertyOp23
 70
     1
102
RTVSPropertyOp24
 70
     1
102
RTVSPropertyOp25
 70
     1
102
RTVSPropertyOp26
 70
     1
102
RTVSPropertyOp27
 70
     1
102
RTVSPropertyOp28
 70
     1
102
RTVSPropertyOp29
 70
     1
102
RTVSPropertyOp30
 70
     1
102
RTVSPropertyOp31
 70
     1
102
RTVSPropertyOp32
 70
     1
  0
XRECORD
  5
8311
102
{ACAD_REACTORS
330
8310
102
}
330
8310
100
AcDbXrecord
280
     1
102
RTVSPropertyOp0
 70
     1
102
RTVSPropertyOp1
 70
     1
102
RTVSPropertyOp2
 70
     1
102
RTVSPropertyOp3
 70
     1
102
RTVSPropertyOp4
 70
     1
102
RTVSPropertyOp5
 70
     1
102
RTVSPropertyOp6
 70
     1
102
RTVSPropertyOp7
 70
     1
102
RTVSPropertyOp8
 70
     1
102
RTVSPropertyOp9
 70
     1
102
RTVSPropertyOp10
 70
     1
102
RTVSPropertyOp11
 70
     1
102
RTVSPropertyOp12
 70
     1
102
RTVSPropertyOp13
 70
     1
102
RTVSPropertyOp14
 70
     1
102
RTVSPropertyOp15
 70
     1
102
RTVSPropertyOp16
 70
     1
102
RTVSPropertyOp17
 70
     1
102
RTVSPropertyOp18
 70
     1
102
RTVSPropertyOp19
 70
     1
102
RTVSPropertyOp20
 70
     1
102
RTVSPropertyOp21
 70
     1
102
RTVSPropertyOp22
 70
     1
102
RTVSPropertyOp23
 70
     1
102
RTVSPropertyOp24
 70
     1
102
RTVSPropertyOp25
 70
     1
102
RTVSPropertyOp26
 70
     1
102
RTVSPropertyOp27
 70
     1
102
RTVSPropertyOp28
 70
     1
102
RTVSPropertyOp29
 70
     1
102
RTVSPropertyOp30
 70
     1
102
RTVSPropertyOp31
 70
     1
102
RTVSPropertyOp32
 70
     1
  0
XRECORD
  5
8313
102
{ACAD_REACTORS
330
8312
102
}
330
8312
100
AcDbXrecord
280
     1
102
RTVSPropertyOp0
 70
     1
102
RTVSPropertyOp1
 70
     1
102
RTVSPropertyOp2
 70
     1
102
RTVSPropertyOp3
 70
     1
102
RTVSPropertyOp4
 70
     1
102
RTVSPropertyOp5
 70
     1
102
RTVSPropertyOp6
 70
     1
102
RTVSPropertyOp7
 70
     1
102
RTVSPropertyOp8
 70
     1
102
RTVSPropertyOp9
 70
     1
102
RTVSPropertyOp10
 70
     1
102
RTVSPropertyOp11
 70
     1
102
RTVSPropertyOp12
 70
     1
102
RTVSPropertyOp13
 70
     1
102
RTVSPropertyOp14
 70
     1
102
RTVSPropertyOp15
 70
     1
102
RTVSPropertyOp16
 70
     1
102
RTVSPropertyOp17
 70
     1
102
RTVSPropertyOp18
 70
     1
102
RTVSPropertyOp19
 70
     1
102
RTVSPropertyOp20
 70
     1
102
RTVSPropertyOp21
 70
     1
102
RTVSPropertyOp22
 70
     1
102
RTVSPropertyOp23
 70
     1
102
RTVSPropertyOp24
 70
     1
102
RTVSPropertyOp25
 70
     1
102
RTVSPropertyOp26
 70
     1
102
RTVSPropertyOp27
 70
     1
102
RTVSPropertyOp28
 70
     1
102
RTVSPropertyOp29
 70
     1
102
RTVSPropertyOp30
 70
     1
102
RTVSPropertyOp31
 70
     1
102
RTVSPropertyOp32
 70
     1
  0
XRECORD
  5
8315
102
{ACAD_REACTORS
330
8314
102
}
330
8314
100
AcDbXrecord
280
     1
102
RTVSPropertyOp0
 70
     1
102
RTVSPropertyOp1
 70
     1
102
RTVSPropertyOp2
 70
     1
102
RTVSPropertyOp3
 70
     1
102
RTVSPropertyOp4
 70
     1
102
RTVSPropertyOp5
 70
     1
102
RTVSPropertyOp6
 70
     1
102
RTVSPropertyOp7
 70
     1
102
RTVSPropertyOp8
 70
     1
102
RTVSPropertyOp9
 70
     1
102
RTVSPropertyOp10
 70
     1
102
RTVSPropertyOp11
 70
     1
102
RTVSPropertyOp12
 70
     1
102
RTVSPropertyOp13
 70
     1
102
RTVSPropertyOp14
 70
     1
102
RTVSPropertyOp15
 70
     1
102
RTVSPropertyOp16
 70
     1
102
RTVSPropertyOp17
 70
     1
102
RTVSPropertyOp18
 70
     1
102
RTVSPropertyOp19
 70
     1
102
RTVSPropertyOp20
 70
     1
102
RTVSPropertyOp21
 70
     1
102
RTVSPropertyOp22
 70
     1
102
RTVSPropertyOp23
 70
     1
102
RTVSPropertyOp24
 70
     1
102
RTVSPropertyOp25
 70
     1
102
RTVSPropertyOp26
 70
     1
102
RTVSPropertyOp27
 70
     1
102
RTVSPropertyOp28
 70
     1
102
RTVSPropertyOp29
 70
     1
102
RTVSPropertyOp30
 70
     1
102
RTVSPropertyOp31
 70
     1
102
RTVSPropertyOp32
 70
     1
  0
XRECORD
  5
8317
102
{ACAD_REACTORS
330
8316
102
}
330
8316
100
AcDbXrecord
280
     1
102
RTVSPropertyOp0
 70
     1
102
RTVSPropertyOp1
 70
     1
102
RTVSPropertyOp2
 70
     1
102
RTVSPropertyOp3
 70
     1
102
RTVSPropertyOp4
 70
     1
102
RTVSPropertyOp5
 70
     1
102
RTVSPropertyOp6
 70
     1
102
RTVSPropertyOp7
 70
     1
102
RTVSPropertyOp8
 70
     1
102
RTVSPropertyOp9
 70
     1
102
RTVSPropertyOp10
 70
     1
102
RTVSPropertyOp11
 70
     1
102
RTVSPropertyOp12
 70
     1
102
RTVSPropertyOp13
 70
     1
102
RTVSPropertyOp14
 70
     1
102
RTVSPropertyOp15
 70
     1
102
RTVSPropertyOp16
 70
     1
102
RTVSPropertyOp17
 70
     1
102
RTVSPropertyOp18
 70
     1
102
RTVSPropertyOp19
 70
     1
102
RTVSPropertyOp20
 70
     1
102
RTVSPropertyOp21
 70
     1
102
RTVSPropertyOp22
 70
     1
102
RTVSPropertyOp23
 70
     1
102
RTVSPropertyOp24
 70
     1
102
RTVSPropertyOp25
 70
     1
102
RTVSPropertyOp26
 70
     1
102
RTVSPropertyOp27
 70
     1
102
RTVSPropertyOp28
 70
     1
102
RTVSPropertyOp29
 70
     1
102
RTVSPropertyOp30
 70
     1
102
RTVSPropertyOp31
 70
     1
102
RTVSPropertyOp32
 70
     1
  0
XRECORD
  5
8342
102
{ACAD_REACTORS
330
8341
102
}
330
8341
100
AcDbXrecord
280
     1
102
RTVSPropertyOp0
 70
     1
102
RTVSPropertyOp1
 70
     1
102
RTVSPropertyOp2
 70
     1
102
RTVSPropertyOp3
 70
     1
102
RTVSPropertyOp4
 70
     1
102
RTVSPropertyOp5
 70
     1
102
RTVSPropertyOp6
 70
     1
102
RTVSPropertyOp7
 70
     1
102
RTVSPropertyOp8
 70
     1
102
RTVSPropertyOp9
 70
     1
102
RTVSPropertyOp10
 70
     1
102
RTVSPropertyOp11
 70
     1
102
RTVSPropertyOp12
 70
     1
102
RTVSPropertyOp13
 70
     1
102
RTVSPropertyOp14
 70
     1
102
RTVSPropertyOp15
 70
     1
102
RTVSPropertyOp16
 70
     1
102
RTVSPropertyOp17
 70
     1
102
RTVSPropertyOp18
 70
     1
102
RTVSPropertyOp19
 70
     1
102
RTVSPropertyOp20
 70
     1
102
RTVSPropertyOp21
 70
     1
102
RTVSPropertyOp22
 70
     1
102
RTVSPropertyOp23
 70
     1
102
RTVSPropertyOp24
 70
     1
102
RTVSPropertyOp25
 70
     1
102
RTVSPropertyOp26
 70
     1
102
RTVSPropertyOp27
 70
     1
102
RTVSPropertyOp28
 70
     1
102
RTVSPropertyOp29
 70
     1
102
RTVSPropertyOp30
 70
     1
102
RTVSPropertyOp31
 70
     1
102
RTVSPropertyOp32
 70
     1
  0
XRECORD
  5
834E
102
{ACAD_REACTORS
330
834D
102
}
330
834D
100
AcDbXrecord
280
     1
102
RTVSPropertyOp0
 70
     0
102
RTVSPropertyOp1
 70
     0
102
RTVSPropertyOp2
 70
     0
102
RTVSPropertyOp3
 70
     0
102
RTVSPropertyOp4
 70
     0
102
RTVSPropertyOp5
 70
     0
102
RTVSPropertyOp6
 70
     0
102
RTVSPropertyOp7
 70
     0
102
RTVSPropertyOp8
 70
     0
102
RTVSPropertyOp9
 70
     0
102
RTVSPropertyOp10
 70
     0
102
RTVSPropertyOp11
 70
     0
102
RTVSPropertyOp12
 70
     0
102
RTVSPropertyOp13
 70
     0
102
RTVSPropertyOp14
 70
     2
102
RTVSPropertyOp15
 70
     0
102
RTVSPropertyOp16
 70
     0
102
RTVSPropertyOp17
 70
     0
102
RTVSPropertyOp18
 70
     0
102
RTVSPropertyOp19
 70
     0
102
RTVSPropertyOp20
 70
     0
102
RTVSPropertyOp21
 70
     0
102
RTVSPropertyOp22
 70
     0
102
RTVSPropertyOp23
 70
     0
102
RTVSPropertyOp24
 70
     0
102
RTVSPropertyOp25
 70
     0
102
RTVSPropertyOp26
 70
     0
102
RTVSPropertyOp27
 70
     0
102
RTVSPropertyOp28
 70
     0
102
RTVSPropertyOp29
 70
     0
102
RTVSPropertyOp30
 70
     0
102
RTVSPropertyOp31
 70
     0
102
RTVSPropertyOp32
 70
     0
  0
XRECORD
  5
832B
102
{ACAD_REACTORS
330
832A
102
}
330
832A
100
AcDbXrecord
280
     1
102
RTVSPropertyOp0
 70
     1
102
RTVSPropertyOp1
 70
     1
102
RTVSPropertyOp2
 70
     1
102
RTVSPropertyOp3
 70
     1
102
RTVSPropertyOp4
 70
     1
102
RTVSPropertyOp5
 70
     1
102
RTVSPropertyOp6
 70
     1
102
RTVSPropertyOp7
 70
     1
102
RTVSPropertyOp8
 70
     1
102
RTVSPropertyOp9
 70
     1
102
RTVSPropertyOp10
 70
     1
102
RTVSPropertyOp11
 70
     1
102
RTVSPropertyOp12
 70
     1
102
RTVSPropertyOp13
 70
     1
102
RTVSPropertyOp14
 70
     1
102
RTVSPropertyOp15
 70
     1
102
RTVSPropertyOp16
 70
     1
102
RTVSPropertyOp17
 70
     1
102
RTVSPropertyOp18
 70
     1
102
RTVSPropertyOp19
 70
     1
102
RTVSPropertyOp20
 70
     1
102
RTVSPropertyOp21
 70
     1
102
RTVSPropertyOp22
 70
     1
102
RTVSPropertyOp23
 70
     1
102
RTVSPropertyOp24
 70
     1
102
RTVSPropertyOp25
 70
     1
102
RTVSPropertyOp26
 70
     1
102
RTVSPropertyOp27
 70
     1
102
RTVSPropertyOp28
 70
     1
102
RTVSPropertyOp29
 70
     1
102
RTVSPropertyOp30
 70
     1
102
RTVSPropertyOp31
 70
     1
102
RTVSPropertyOp32
 70
     1
  0
XRECORD
  5
8350
102
{ACAD_REACTORS
330
834F
102
}
330
834F
100
AcDbXrecord
280
     1
102
RTVSPropertyOp0
 70
     0
102
RTVSPropertyOp1
 70
     0
102
RTVSPropertyOp2
 70
     0
102
RTVSPropertyOp3
 70
     0
102
RTVSPropertyOp4
 70
     0
102
RTVSPropertyOp5
 70
     0
102
RTVSPropertyOp6
 70
     0
102
RTVSPropertyOp7
 70
     0
102
RTVSPropertyOp8
 70
     0
102
RTVSPropertyOp9
 70
     0
102
RTVSPropertyOp10
 70
     0
102
RTVSPropertyOp11
 70
     0
102
RTVSPropertyOp12
 70
     0
102
RTVSPropertyOp13
 70
     0
102
RTVSPropertyOp14
 70
     2
102
RTVSPropertyOp15
 70
     0
102
RTVSPropertyOp16
 70
     0
102
RTVSPropertyOp17
 70
     0
102
RTVSPropertyOp18
 70
     0
102
RTVSPropertyOp19
 70
     0
102
RTVSPropertyOp20
 70
     0
102
RTVSPropertyOp21
 70
     0
102
RTVSPropertyOp22
 70
     0
102
RTVSPropertyOp23
 70
     0
102
RTVSPropertyOp24
 70
     0
102
RTVSPropertyOp25
 70
     0
102
RTVSPropertyOp26
 70
     0
102
RTVSPropertyOp27
 70
     0
102
RTVSPropertyOp28
 70
     0
102
RTVSPropertyOp29
 70
     0
102
RTVSPropertyOp30
 70
     0
102
RTVSPropertyOp31
 70
     0
102
RTVSPropertyOp32
 70
     0
  0
XRECORD
  5
8323
102
{ACAD_REACTORS
330
8322
102
}
330
8322
100
AcDbXrecord
280
     1
102
RTVSPropertyOp0
 70
     1
102
RTVSPropertyOp1
 70
     1
102
RTVSPropertyOp2
 70
     1
102
RTVSPropertyOp3
 70
     1
102
RTVSPropertyOp4
 70
     1
102
RTVSPropertyOp5
 70
     1
102
RTVSPropertyOp6
 70
     1
102
RTVSPropertyOp7
 70
     1
102
RTVSPropertyOp8
 70
     1
102
RTVSPropertyOp9
 70
     1
102
RTVSPropertyOp10
 70
     1
102
RTVSPropertyOp11
 70
     1
102
RTVSPropertyOp12
 70
     1
102
RTVSPropertyOp13
 70
     1
102
RTVSPropertyOp14
 70
     1
102
RTVSPropertyOp15
 70
     1
102
RTVSPropertyOp16
 70
     1
102
RTVSPropertyOp17
 70
     1
102
RTVSPropertyOp18
 70
     1
102
RTVSPropertyOp19
 70
     1
102
RTVSPropertyOp20
 70
     1
102
RTVSPropertyOp21
 70
     1
102
RTVSPropertyOp22
 70
     1
102
RTVSPropertyOp23
 70
     1
102
RTVSPropertyOp24
 70
     1
102
RTVSPropertyOp25
 70
     1
102
RTVSPropertyOp26
 70
     1
102
RTVSPropertyOp27
 70
     1
102
RTVSPropertyOp28
 70
     1
102
RTVSPropertyOp29
 70
     1
102
RTVSPropertyOp30
 70
     1
102
RTVSPropertyOp31
 70
     1
102
RTVSPropertyOp32
 70
     1
  0
XRECORD
  5
834C
102
{ACAD_REACTORS
330
834B
102
}
330
834B
100
AcDbXrecord
280
     1
102
RTVSPropertyOp0
 70
     1
102
RTVSPropertyOp1
 70
     1
102
RTVSPropertyOp2
 70
     1
102
RTVSPropertyOp3
 70
     1
102
RTVSPropertyOp4
 70
     1
102
RTVSPropertyOp5
 70
     1
102
RTVSPropertyOp6
 70
     1
102
RTVSPropertyOp7
 70
     1
102
RTVSPropertyOp8
 70
     1
102
RTVSPropertyOp9
 70
     1
102
RTVSPropertyOp10
 70
     1
102
RTVSPropertyOp11
 70
     1
102
RTVSPropertyOp12
 70
     1
102
RTVSPropertyOp13
 70
     1
102
RTVSPropertyOp14
 70
     1
102
RTVSPropertyOp15
 70
     1
102
RTVSPropertyOp16
 70
     1
102
RTVSPropertyOp17
 70
     1
102
RTVSPropertyOp18
 70
     1
102
RTVSPropertyOp19
 70
     1
102
RTVSPropertyOp20
 70
     1
102
RTVSPropertyOp21
 70
     1
102
RTVSPropertyOp22
 70
     1
102
RTVSPropertyOp23
 70
     1
102
RTVSPropertyOp24
 70
     1
102
RTVSPropertyOp25
 70
     1
102
RTVSPropertyOp26
 70
     1
102
RTVSPropertyOp27
 70
     1
102
RTVSPropertyOp28
 70
     1
102
RTVSPropertyOp29
 70
     1
102
RTVSPropertyOp30
 70
     1
102
RTVSPropertyOp31
 70
     1
102
RTVSPropertyOp32
 70
     1
  0
XRECORD
  5
834A
102
{ACAD_REACTORS
330
8349
102
}
330
8349
100
AcDbXrecord
280
     1
102
RTVSPropertyOp0
 70
     1
102
RTVSPropertyOp1
 70
     1
102
RTVSPropertyOp2
 70
     1
102
RTVSPropertyOp3
 70
     1
102
RTVSPropertyOp4
 70
     1
102
RTVSPropertyOp5
 70
     1
102
RTVSPropertyOp6
 70
     1
102
RTVSPropertyOp7
 70
     1
102
RTVSPropertyOp8
 70
     1
102
RTVSPropertyOp9
 70
     1
102
RTVSPropertyOp10
 70
     1
102
RTVSPropertyOp11
 70
     1
102
RTVSPropertyOp12
 70
     1
102
RTVSPropertyOp13
 70
     1
102
RTVSPropertyOp14
 70
     1
102
RTVSPropertyOp15
 70
     1
102
RTVSPropertyOp16
 70
     1
102
RTVSPropertyOp17
 70
     1
102
RTVSPropertyOp18
 70
     1
102
RTVSPropertyOp19
 70
     1
102
RTVSPropertyOp20
 70
     1
102
RTVSPropertyOp21
 70
     1
102
RTVSPropertyOp22
 70
     1
102
RTVSPropertyOp23
 70
     1
102
RTVSPropertyOp24
 70
     1
102
RTVSPropertyOp25
 70
     1
102
RTVSPropertyOp26
 70
     1
102
RTVSPropertyOp27
 70
     1
102
RTVSPropertyOp28
 70
     1
102
RTVSPropertyOp29
 70
     1
102
RTVSPropertyOp30
 70
     1
102
RTVSPropertyOp31
 70
     1
102
RTVSPropertyOp32
 70
     1
  0
XRECORD
  5
8344
102
{ACAD_REACTORS
330
8343
102
}
330
8343
100
AcDbXrecord
280
     1
102
RTVSPropertyOp0
 70
     1
102
RTVSPropertyOp1
 70
     1
102
RTVSPropertyOp2
 70
     1
102
RTVSPropertyOp3
 70
     1
102
RTVSPropertyOp4
 70
     1
102
RTVSPropertyOp5
 70
     1
102
RTVSPropertyOp6
 70
     1
102
RTVSPropertyOp7
 70
     1
102
RTVSPropertyOp8
 70
     1
102
RTVSPropertyOp9
 70
     1
102
RTVSPropertyOp10
 70
     1
102
RTVSPropertyOp11
 70
     1
102
RTVSPropertyOp12
 70
     1
102
RTVSPropertyOp13
 70
     1
102
RTVSPropertyOp14
 70
     1
102
RTVSPropertyOp15
 70
     1
102
RTVSPropertyOp16
 70
     1
102
RTVSPropertyOp17
 70
     1
102
RTVSPropertyOp18
 70
     1
102
RTVSPropertyOp19
 70
     1
102
RTVSPropertyOp20
 70
     1
102
RTVSPropertyOp21
 70
     1
102
RTVSPropertyOp22
 70
     1
102
RTVSPropertyOp23
 70
     1
102
RTVSPropertyOp24
 70
     1
102
RTVSPropertyOp25
 70
     1
102
RTVSPropertyOp26
 70
     1
102
RTVSPropertyOp27
 70
     1
102
RTVSPropertyOp28
 70
     1
102
RTVSPropertyOp29
 70
     1
102
RTVSPropertyOp30
 70
     1
102
RTVSPropertyOp31
 70
     1
102
RTVSPropertyOp32
 70
     1
  0
XRECORD
  5
8346
102
{ACAD_REACTORS
330
8345
102
}
330
8345
100
AcDbXrecord
280
     1
102
RTVSPropertyOp0
 70
     1
102
RTVSPropertyOp1
 70
     1
102
RTVSPropertyOp2
 70
     1
102
RTVSPropertyOp3
 70
     1
102
RTVSPropertyOp4
 70
     1
102
RTVSPropertyOp5
 70
     1
102
RTVSPropertyOp6
 70
     1
102
RTVSPropertyOp7
 70
     1
102
RTVSPropertyOp8
 70
     1
102
RTVSPropertyOp9
 70
     1
102
RTVSPropertyOp10
 70
     1
102
RTVSPropertyOp11
 70
     1
102
RTVSPropertyOp12
 70
     1
102
RTVSPropertyOp13
 70
     1
102
RTVSPropertyOp14
 70
     1
102
RTVSPropertyOp15
 70
     1
102
RTVSPropertyOp16
 70
     1
102
RTVSPropertyOp17
 70
     1
102
RTVSPropertyOp18
 70
     1
102
RTVSPropertyOp19
 70
     1
102
RTVSPropertyOp20
 70
     1
102
RTVSPropertyOp21
 70
     1
102
RTVSPropertyOp22
 70
     1
102
RTVSPropertyOp23
 70
     1
102
RTVSPropertyOp24
 70
     1
102
RTVSPropertyOp25
 70
     1
102
RTVSPropertyOp26
 70
     1
102
RTVSPropertyOp27
 70
     1
102
RTVSPropertyOp28
 70
     1
102
RTVSPropertyOp29
 70
     1
102
RTVSPropertyOp30
 70
     1
102
RTVSPropertyOp31
 70
     1
102
RTVSPropertyOp32
 70
     1
  0
XRECORD
  5
8329
102
{ACAD_REACTORS
330
8328
102
}
330
8328
100
AcDbXrecord
280
     1
102
RTVSPropertyOp0
 70
     1
102
RTVSPropertyOp1
 70
     1
102
RTVSPropertyOp2
 70
     1
102
RTVSPropertyOp3
 70
     1
102
RTVSPropertyOp4
 70
     1
102
RTVSPropertyOp5
 70
     1
102
RTVSPropertyOp6
 70
     1
102
RTVSPropertyOp7
 70
     1
102
RTVSPropertyOp8
 70
     1
102
RTVSPropertyOp9
 70
     1
102
RTVSPropertyOp10
 70
     1
102
RTVSPropertyOp11
 70
     1
102
RTVSPropertyOp12
 70
     1
102
RTVSPropertyOp13
 70
     1
102
RTVSPropertyOp14
 70
     1
102
RTVSPropertyOp15
 70
     1
102
RTVSPropertyOp16
 70
     1
102
RTVSPropertyOp17
 70
     1
102
RTVSPropertyOp18
 70
     1
102
RTVSPropertyOp19
 70
     1
102
RTVSPropertyOp20
 70
     1
102
RTVSPropertyOp21
 70
     1
102
RTVSPropertyOp22
 70
     1
102
RTVSPropertyOp23
 70
     1
102
RTVSPropertyOp24
 70
     1
102
RTVSPropertyOp25
 70
     1
102
RTVSPropertyOp26
 70
     1
102
RTVSPropertyOp27
 70
     1
102
RTVSPropertyOp28
 70
     1
102
RTVSPropertyOp29
 70
     1
102
RTVSPropertyOp30
 70
     1
102
RTVSPropertyOp31
 70
     1
102
RTVSPropertyOp32
 70
     1
  0
XRECORD
  5
8340
102
{ACAD_REACTORS
330
833F
102
}
330
833F
100
AcDbXrecord
280
     1
102
RTVSPropertyOp0
 70
     1
102
RTVSPropertyOp1
 70
     1
102
RTVSPropertyOp2
 70
     1
102
RTVSPropertyOp3
 70
     1
102
RTVSPropertyOp4
 70
     1
102
RTVSPropertyOp5
 70
     1
102
RTVSPropertyOp6
 70
     1
102
RTVSPropertyOp7
 70
     1
102
RTVSPropertyOp8
 70
     1
102
RTVSPropertyOp9
 70
     1
102
RTVSPropertyOp10
 70
     1
102
RTVSPropertyOp11
 70
     1
102
RTVSPropertyOp12
 70
     1
102
RTVSPropertyOp13
 70
     1
102
RTVSPropertyOp14
 70
     1
102
RTVSPropertyOp15
 70
     1
102
RTVSPropertyOp16
 70
     1
102
RTVSPropertyOp17
 70
     1
102
RTVSPropertyOp18
 70
     1
102
RTVSPropertyOp19
 70
     1
102
RTVSPropertyOp20
 70
     1
102
RTVSPropertyOp21
 70
     1
102
RTVSPropertyOp22
 70
     1
102
RTVSPropertyOp23
 70
     1
102
RTVSPropertyOp24
 70
     1
102
RTVSPropertyOp25
 70
     1
102
RTVSPropertyOp26
 70
     1
102
RTVSPropertyOp27
 70
     1
102
RTVSPropertyOp28
 70
     1
102
RTVSPropertyOp29
 70
     1
102
RTVSPropertyOp30
 70
     1
102
RTVSPropertyOp31
 70
     1
102
RTVSPropertyOp32
 70
     1
  0
XRECORD
  5
8348
102
{ACAD_REACTORS
330
8347
102
}
330
8347
100
AcDbXrecord
280
     1
102
RTVSPropertyOp0
 70
     1
102
RTVSPropertyOp1
 70
     1
102
RTVSPropertyOp2
 70
     1
102
RTVSPropertyOp3
 70
     1
102
RTVSPropertyOp4
 70
     1
102
RTVSPropertyOp5
 70
     1
102
RTVSPropertyOp6
 70
     1
102
RTVSPropertyOp7
 70
     1
102
RTVSPropertyOp8
 70
     1
102
RTVSPropertyOp9
 70
     1
102
RTVSPropertyOp10
 70
     1
102
RTVSPropertyOp11
 70
     1
102
RTVSPropertyOp12
 70
     1
102
RTVSPropertyOp13
 70
     1
102
RTVSPropertyOp14
 70
     1
102
RTVSPropertyOp15
 70
     1
102
RTVSPropertyOp16
 70
     1
102
RTVSPropertyOp17
 70
     1
102
RTVSPropertyOp18
 70
     1
102
RTVSPropertyOp19
 70
     1
102
RTVSPropertyOp20
 70
     1
102
RTVSPropertyOp21
 70
     1
102
RTVSPropertyOp22
 70
     1
102
RTVSPropertyOp23
 70
     1
102
RTVSPropertyOp24
 70
     1
102
RTVSPropertyOp25
 70
     1
102
RTVSPropertyOp26
 70
     1
102
RTVSPropertyOp27
 70
     1
102
RTVSPropertyOp28
 70
     1
102
RTVSPropertyOp29
 70
     1
102
RTVSPropertyOp30
 70
     1
102
RTVSPropertyOp31
 70
     1
102
RTVSPropertyOp32
 70
     1
  0
ACAD_PROXY_OBJECT
  5
5D
330
5B
100
AcDbProxyObject
 90
      499
 91
      518
 95
   589845
 70
     0
 93
       95
310
45C20E80A0280A0280A02809
 94
        0
1001
ACAD
1000
AcRTDxfName
1000
ACMSURFSTANDARDANSI
  0
ACAD_PROXY_OBJECT
  5
5E
330
5B
100
AcDbProxyObject
 90
      499
 91
      519
 95
   589845
 70
     0
 93
      332
310
45D0E405014050140501405014050140501405014250140501405014050140501200000000000000040F
340
63
 94
        0
1001
ACAD
1000
AcRTDxfName
1000
ACMFCFSTANDARDANSI
  0
ACAD_PROXY_OBJECT
  5
5F
330
5B
100
AcDbProxyObject
 90
      499
 91
      520
 95
   589845
 70
     0
 93
      402
310
45CC199999999999E99F91F405014050140501405014050140501405014050140501405014050140501405014050140501407F
340
0
 94
        0
1001
ACAD
1000
AcRTDxfName
1000
ACMWELDSTANDARDANSI
  0
ACAD_PROXY_OBJECT
  5
60
330
5B
100
AcDbProxyObject
 90
      499
 91
      521
 95
   589845
 70
     0
 93
       10
310
45FF
 94
        0
1001
ACAD
1000
AcRTDxfName
1000
ACMIDSTANDARDANSI
  0
ACAD_PROXY_OBJECT
  5
61
330
5B
100
AcDbProxyObject
 90
      499
 91
      522
 95
   589845
 70
     0
 93
      223
310
45E290EA22A7D90F49F8000000000000108140000000000000420203
340
64
340
65
 94
        0
1001
ACAD
1000
AcRTDxfName
1000
ACMDATUMSTANDARDANSI
  0
ACAD_PROXY_OBJECT
  5
62
330
5B
100
AcDbProxyObject
 90
      499
 91
      523
 95
   589845
 70
     0
 93
     3170
310
45D07411255115350140D41BDCD014050140690140C00000000000024409044E414D454050B4465736372697A696F6E65405044064069640000000000201350101431050D7D11154D0D492541513901425350551154925053115014253585D195C9A585B19501901902A4500000000000003E4090344494D4050A44696D656
310
E73696F6E6940640640E9280000000000001390101431050D7D5939117D31050915310140D4551650140D45D1850140D014050490141000000000000024409044D415353405054D61737361405024050241503409090000000000000D10240D8DBD91014190DBD91A58D9501901906A4200000000000003E404050741435F4
310
E4F54454050744102000000000000051010740640640640A4050190440D0340902405014490D85D185B1BD9DBC81B585D195C9A585B1A5104290841505492505311040641505492505310A406415054925053108A4050A4290A4290140501F3373333333333B0FCCDCCCCCCCCCCEC3F000000000000021008622B632B731B7
310
903830B93A34A0341A4190140903413F
 94
        0
1001
ACAD
1000
AcRTDxfName
1000
ACMBOMSTANDARDANSI
  0
ENDSEC
  0
EOF
