ISO-10303-21;
HEADER;
/* Generated by software containing ST-Developer
 * from STEP Tools, Inc. (www.steptools.com) 
 */

FILE_DESCRIPTION(
/* description */ ('TUBO Q.25 # 1,5 INOX TRAFILATO AISI-304'),
/* implementation_level */ '2;1');

FILE_NAME(
/* name */ 'C:\\Users\\ddelbianco.DR\\Desktop\\ALESSIO\\DIERRE\\XB4092
4.stp',
/* time_stamp */ '2017-03-06T11:46:30+01:00',
/* author */ ('ddelbianco'),
/* organization */ (''),
/* preprocessor_version */ 'ST-DEVELOPER v16.1',
/* originating_system */ 'Autodesk Inventor 2016',
/* authorisation */ '');

FILE_SCHEMA (('CONFIG_CONTROL_DESIGN'));
ENDSEC;

DATA;
#10=MECHANICAL_DESIGN_GEOMETRIC_PRESENTATION_REPRESENTATION('',(#13),#447);
#11=SHAPE_REPRESENTATION_RELATIONSHIP('SRR','None',#456,#12);
#12=ADVANCED_BREP_SHAPE_REPRESENTATION('',(#14),#446);
#13=STYLED_ITEM('',(#465),#14);
#14=MANIFOLD_SOLID_BREP('Solido1',#271);
#15=CYLINDRICAL_SURFACE('',#282,1.5);
#16=CYLINDRICAL_SURFACE('',#285,1.5);
#17=CYLINDRICAL_SURFACE('',#288,1.5);
#18=CYLINDRICAL_SURFACE('',#291,1.5);
#19=FACE_BOUND('',#48,.T.);
#20=FACE_BOUND('',#58,.T.);
#21=CIRCLE('',#278,1.5);
#22=CIRCLE('',#279,1.5);
#23=CIRCLE('',#280,1.5);
#24=CIRCLE('',#281,1.5);
#25=CIRCLE('',#283,1.5);
#26=CIRCLE('',#286,1.5);
#27=CIRCLE('',#289,1.5);
#28=CIRCLE('',#292,1.5);
#29=FACE_OUTER_BOUND('',#43,.T.);
#30=FACE_OUTER_BOUND('',#44,.T.);
#31=FACE_OUTER_BOUND('',#45,.T.);
#32=FACE_OUTER_BOUND('',#46,.T.);
#33=FACE_OUTER_BOUND('',#47,.T.);
#34=FACE_OUTER_BOUND('',#49,.T.);
#35=FACE_OUTER_BOUND('',#50,.T.);
#36=FACE_OUTER_BOUND('',#51,.T.);
#37=FACE_OUTER_BOUND('',#52,.T.);
#38=FACE_OUTER_BOUND('',#53,.T.);
#39=FACE_OUTER_BOUND('',#54,.T.);
#40=FACE_OUTER_BOUND('',#55,.T.);
#41=FACE_OUTER_BOUND('',#56,.T.);
#42=FACE_OUTER_BOUND('',#57,.T.);
#43=EDGE_LOOP('',(#175,#176,#177,#178));
#44=EDGE_LOOP('',(#179,#180,#181,#182));
#45=EDGE_LOOP('',(#183,#184,#185,#186));
#46=EDGE_LOOP('',(#187,#188,#189,#190));
#47=EDGE_LOOP('',(#191,#192,#193,#194,#195,#196,#197,#198));
#48=EDGE_LOOP('',(#199,#200,#201,#202));
#49=EDGE_LOOP('',(#203,#204,#205,#206));
#50=EDGE_LOOP('',(#207,#208,#209,#210));
#51=EDGE_LOOP('',(#211,#212,#213,#214));
#52=EDGE_LOOP('',(#215,#216,#217,#218));
#53=EDGE_LOOP('',(#219,#220,#221,#222));
#54=EDGE_LOOP('',(#223,#224,#225,#226));
#55=EDGE_LOOP('',(#227,#228,#229,#230));
#56=EDGE_LOOP('',(#231,#232,#233,#234));
#57=EDGE_LOOP('',(#235,#236,#237,#238,#239,#240,#241,#242));
#58=EDGE_LOOP('',(#243,#244,#245,#246));
#59=LINE('',#373,#87);
#60=LINE('',#375,#88);
#61=LINE('',#377,#89);
#62=LINE('',#378,#90);
#63=LINE('',#381,#91);
#64=LINE('',#383,#92);
#65=LINE('',#384,#93);
#66=LINE('',#387,#94);
#67=LINE('',#389,#95);
#68=LINE('',#390,#96);
#69=LINE('',#392,#97);
#70=LINE('',#393,#98);
#71=LINE('',#397,#99);
#72=LINE('',#401,#100);
#73=LINE('',#405,#101);
#74=LINE('',#409,#102);
#75=LINE('',#413,#103);
#76=LINE('',#416,#104);
#77=LINE('',#419,#105);
#78=LINE('',#420,#106);
#79=LINE('',#424,#107);
#80=LINE('',#427,#108);
#81=LINE('',#428,#109);
#82=LINE('',#432,#110);
#83=LINE('',#435,#111);
#84=LINE('',#436,#112);
#85=LINE('',#440,#113);
#86=LINE('',#442,#114);
#87=VECTOR('',#299,100.);
#88=VECTOR('',#300,22.);
#89=VECTOR('',#301,100.);
#90=VECTOR('',#302,22.);
#91=VECTOR('',#305,22.);
#92=VECTOR('',#306,100.);
#93=VECTOR('',#307,22.);
#94=VECTOR('',#310,22.);
#95=VECTOR('',#311,100.);
#96=VECTOR('',#312,22.);
#97=VECTOR('',#315,22.);
#98=VECTOR('',#316,22.);
#99=VECTOR('',#319,22.0000000000002);
#100=VECTOR('',#322,22.);
#101=VECTOR('',#325,22.0000000000002);
#102=VECTOR('',#328,22.);
#103=VECTOR('',#333,100.);
#104=VECTOR('',#336,100.);
#105=VECTOR('',#339,22.);
#106=VECTOR('',#340,100.);
#107=VECTOR('',#345,100.);
#108=VECTOR('',#348,22.0000000000002);
#109=VECTOR('',#349,100.);
#110=VECTOR('',#354,100.);
#111=VECTOR('',#357,22.);
#112=VECTOR('',#358,100.);
#113=VECTOR('',#363,100.);
#114=VECTOR('',#366,22.0000000000002);
#115=VERTEX_POINT('',#371);
#116=VERTEX_POINT('',#372);
#117=VERTEX_POINT('',#374);
#118=VERTEX_POINT('',#376);
#119=VERTEX_POINT('',#380);
#120=VERTEX_POINT('',#382);
#121=VERTEX_POINT('',#386);
#122=VERTEX_POINT('',#388);
#123=VERTEX_POINT('',#395);
#124=VERTEX_POINT('',#396);
#125=VERTEX_POINT('',#398);
#126=VERTEX_POINT('',#400);
#127=VERTEX_POINT('',#402);
#128=VERTEX_POINT('',#404);
#129=VERTEX_POINT('',#406);
#130=VERTEX_POINT('',#408);
#131=VERTEX_POINT('',#412);
#132=VERTEX_POINT('',#414);
#133=VERTEX_POINT('',#418);
#134=VERTEX_POINT('',#422);
#135=VERTEX_POINT('',#426);
#136=VERTEX_POINT('',#430);
#137=VERTEX_POINT('',#434);
#138=VERTEX_POINT('',#438);
#139=EDGE_CURVE('',#115,#116,#59,.T.);
#140=EDGE_CURVE('',#117,#116,#60,.T.);
#141=EDGE_CURVE('',#118,#117,#61,.T.);
#142=EDGE_CURVE('',#115,#118,#62,.T.);
#143=EDGE_CURVE('',#119,#117,#63,.T.);
#144=EDGE_CURVE('',#120,#119,#64,.T.);
#145=EDGE_CURVE('',#118,#120,#65,.T.);
#146=EDGE_CURVE('',#121,#119,#66,.T.);
#147=EDGE_CURVE('',#121,#122,#67,.T.);
#148=EDGE_CURVE('',#120,#122,#68,.T.);
#149=EDGE_CURVE('',#116,#121,#69,.T.);
#150=EDGE_CURVE('',#122,#115,#70,.T.);
#151=EDGE_CURVE('',#123,#124,#71,.T.);
#152=EDGE_CURVE('',#124,#125,#21,.T.);
#153=EDGE_CURVE('',#125,#126,#72,.T.);
#154=EDGE_CURVE('',#126,#127,#22,.T.);
#155=EDGE_CURVE('',#127,#128,#73,.T.);
#156=EDGE_CURVE('',#128,#129,#23,.T.);
#157=EDGE_CURVE('',#129,#130,#74,.T.);
#158=EDGE_CURVE('',#130,#123,#24,.T.);
#159=EDGE_CURVE('',#131,#124,#75,.T.);
#160=EDGE_CURVE('',#132,#131,#25,.T.);
#161=EDGE_CURVE('',#132,#125,#76,.T.);
#162=EDGE_CURVE('',#133,#132,#77,.T.);
#163=EDGE_CURVE('',#133,#126,#78,.T.);
#164=EDGE_CURVE('',#134,#133,#26,.T.);
#165=EDGE_CURVE('',#134,#127,#79,.T.);
#166=EDGE_CURVE('',#135,#134,#80,.T.);
#167=EDGE_CURVE('',#135,#128,#81,.T.);
#168=EDGE_CURVE('',#136,#135,#27,.T.);
#169=EDGE_CURVE('',#136,#129,#82,.T.);
#170=EDGE_CURVE('',#137,#136,#83,.T.);
#171=EDGE_CURVE('',#137,#130,#84,.T.);
#172=EDGE_CURVE('',#138,#137,#28,.T.);
#173=EDGE_CURVE('',#123,#138,#85,.T.);
#174=EDGE_CURVE('',#131,#138,#86,.T.);
#175=ORIENTED_EDGE('',*,*,#139,.T.);
#176=ORIENTED_EDGE('',*,*,#140,.F.);
#177=ORIENTED_EDGE('',*,*,#141,.F.);
#178=ORIENTED_EDGE('',*,*,#142,.F.);
#179=ORIENTED_EDGE('',*,*,#141,.T.);
#180=ORIENTED_EDGE('',*,*,#143,.F.);
#181=ORIENTED_EDGE('',*,*,#144,.F.);
#182=ORIENTED_EDGE('',*,*,#145,.F.);
#183=ORIENTED_EDGE('',*,*,#144,.T.);
#184=ORIENTED_EDGE('',*,*,#146,.F.);
#185=ORIENTED_EDGE('',*,*,#147,.T.);
#186=ORIENTED_EDGE('',*,*,#148,.F.);
#187=ORIENTED_EDGE('',*,*,#147,.F.);
#188=ORIENTED_EDGE('',*,*,#149,.F.);
#189=ORIENTED_EDGE('',*,*,#139,.F.);
#190=ORIENTED_EDGE('',*,*,#150,.F.);
#191=ORIENTED_EDGE('',*,*,#151,.T.);
#192=ORIENTED_EDGE('',*,*,#152,.T.);
#193=ORIENTED_EDGE('',*,*,#153,.T.);
#194=ORIENTED_EDGE('',*,*,#154,.T.);
#195=ORIENTED_EDGE('',*,*,#155,.T.);
#196=ORIENTED_EDGE('',*,*,#156,.T.);
#197=ORIENTED_EDGE('',*,*,#157,.T.);
#198=ORIENTED_EDGE('',*,*,#158,.T.);
#199=ORIENTED_EDGE('',*,*,#140,.T.);
#200=ORIENTED_EDGE('',*,*,#149,.T.);
#201=ORIENTED_EDGE('',*,*,#146,.T.);
#202=ORIENTED_EDGE('',*,*,#143,.T.);
#203=ORIENTED_EDGE('',*,*,#159,.F.);
#204=ORIENTED_EDGE('',*,*,#160,.F.);
#205=ORIENTED_EDGE('',*,*,#161,.T.);
#206=ORIENTED_EDGE('',*,*,#152,.F.);
#207=ORIENTED_EDGE('',*,*,#161,.F.);
#208=ORIENTED_EDGE('',*,*,#162,.F.);
#209=ORIENTED_EDGE('',*,*,#163,.T.);
#210=ORIENTED_EDGE('',*,*,#153,.F.);
#211=ORIENTED_EDGE('',*,*,#163,.F.);
#212=ORIENTED_EDGE('',*,*,#164,.F.);
#213=ORIENTED_EDGE('',*,*,#165,.T.);
#214=ORIENTED_EDGE('',*,*,#154,.F.);
#215=ORIENTED_EDGE('',*,*,#165,.F.);
#216=ORIENTED_EDGE('',*,*,#166,.F.);
#217=ORIENTED_EDGE('',*,*,#167,.T.);
#218=ORIENTED_EDGE('',*,*,#155,.F.);
#219=ORIENTED_EDGE('',*,*,#167,.F.);
#220=ORIENTED_EDGE('',*,*,#168,.F.);
#221=ORIENTED_EDGE('',*,*,#169,.T.);
#222=ORIENTED_EDGE('',*,*,#156,.F.);
#223=ORIENTED_EDGE('',*,*,#169,.F.);
#224=ORIENTED_EDGE('',*,*,#170,.F.);
#225=ORIENTED_EDGE('',*,*,#171,.T.);
#226=ORIENTED_EDGE('',*,*,#157,.F.);
#227=ORIENTED_EDGE('',*,*,#171,.F.);
#228=ORIENTED_EDGE('',*,*,#172,.F.);
#229=ORIENTED_EDGE('',*,*,#173,.F.);
#230=ORIENTED_EDGE('',*,*,#158,.F.);
#231=ORIENTED_EDGE('',*,*,#173,.T.);
#232=ORIENTED_EDGE('',*,*,#174,.F.);
#233=ORIENTED_EDGE('',*,*,#159,.T.);
#234=ORIENTED_EDGE('',*,*,#151,.F.);
#235=ORIENTED_EDGE('',*,*,#174,.T.);
#236=ORIENTED_EDGE('',*,*,#172,.T.);
#237=ORIENTED_EDGE('',*,*,#170,.T.);
#238=ORIENTED_EDGE('',*,*,#168,.T.);
#239=ORIENTED_EDGE('',*,*,#166,.T.);
#240=ORIENTED_EDGE('',*,*,#164,.T.);
#241=ORIENTED_EDGE('',*,*,#162,.T.);
#242=ORIENTED_EDGE('',*,*,#160,.T.);
#243=ORIENTED_EDGE('',*,*,#142,.T.);
#244=ORIENTED_EDGE('',*,*,#145,.T.);
#245=ORIENTED_EDGE('',*,*,#148,.T.);
#246=ORIENTED_EDGE('',*,*,#150,.T.);
#247=PLANE('',#273);
#248=PLANE('',#274);
#249=PLANE('',#275);
#250=PLANE('',#276);
#251=PLANE('',#277);
#252=PLANE('',#284);
#253=PLANE('',#287);
#254=PLANE('',#290);
#255=PLANE('',#293);
#256=PLANE('',#294);
#257=ADVANCED_FACE('',(#29),#247,.F.);
#258=ADVANCED_FACE('',(#30),#248,.F.);
#259=ADVANCED_FACE('',(#31),#249,.F.);
#260=ADVANCED_FACE('',(#32),#250,.F.);
#261=ADVANCED_FACE('',(#33,#19),#251,.F.);
#262=ADVANCED_FACE('',(#34),#15,.T.);
#263=ADVANCED_FACE('',(#35),#252,.T.);
#264=ADVANCED_FACE('',(#36),#16,.T.);
#265=ADVANCED_FACE('',(#37),#253,.T.);
#266=ADVANCED_FACE('',(#38),#17,.T.);
#267=ADVANCED_FACE('',(#39),#254,.T.);
#268=ADVANCED_FACE('',(#40),#18,.T.);
#269=ADVANCED_FACE('',(#41),#255,.T.);
#270=ADVANCED_FACE('',(#42,#20),#256,.T.);
#271=CLOSED_SHELL('',(#257,#258,#259,#260,#261,#262,#263,#264,#265,#266,
#267,#268,#269,#270));
#272=AXIS2_PLACEMENT_3D('placement',#369,#295,#296);
#273=AXIS2_PLACEMENT_3D('',#370,#297,#298);
#274=AXIS2_PLACEMENT_3D('',#379,#303,#304);
#275=AXIS2_PLACEMENT_3D('',#385,#308,#309);
#276=AXIS2_PLACEMENT_3D('',#391,#313,#314);
#277=AXIS2_PLACEMENT_3D('',#394,#317,#318);
#278=AXIS2_PLACEMENT_3D('',#399,#320,#321);
#279=AXIS2_PLACEMENT_3D('',#403,#323,#324);
#280=AXIS2_PLACEMENT_3D('',#407,#326,#327);
#281=AXIS2_PLACEMENT_3D('',#410,#329,#330);
#282=AXIS2_PLACEMENT_3D('',#411,#331,#332);
#283=AXIS2_PLACEMENT_3D('',#415,#334,#335);
#284=AXIS2_PLACEMENT_3D('',#417,#337,#338);
#285=AXIS2_PLACEMENT_3D('',#421,#341,#342);
#286=AXIS2_PLACEMENT_3D('',#423,#343,#344);
#287=AXIS2_PLACEMENT_3D('',#425,#346,#347);
#288=AXIS2_PLACEMENT_3D('',#429,#350,#351);
#289=AXIS2_PLACEMENT_3D('',#431,#352,#353);
#290=AXIS2_PLACEMENT_3D('',#433,#355,#356);
#291=AXIS2_PLACEMENT_3D('',#437,#359,#360);
#292=AXIS2_PLACEMENT_3D('',#439,#361,#362);
#293=AXIS2_PLACEMENT_3D('',#441,#364,#365);
#294=AXIS2_PLACEMENT_3D('',#443,#367,#368);
#295=DIRECTION('axis',(0.,0.,1.));
#296=DIRECTION('refdir',(1.,0.,0.));
#297=DIRECTION('center_axis',(-1.,-1.00929365875014E-16,0.));
#298=DIRECTION('ref_axis',(1.77635683940025E-16,-1.,0.));
#299=DIRECTION('',(0.,0.,-1.));
#300=DIRECTION('',(1.00929365875014E-16,-1.,0.));
#301=DIRECTION('',(0.,0.,-1.));
#302=DIRECTION('',(-1.00929365875014E-16,1.,0.));
#303=DIRECTION('center_axis',(-2.01858731750028E-16,1.,0.));
#304=DIRECTION('ref_axis',(-1.,-1.77635683940025E-16,0.));
#305=DIRECTION('',(-1.,-2.01858731750028E-16,0.));
#306=DIRECTION('',(0.,0.,-1.));
#307=DIRECTION('',(1.,2.01858731750028E-16,0.));
#308=DIRECTION('center_axis',(1.,1.00929365875014E-16,0.));
#309=DIRECTION('ref_axis',(-1.77635683940025E-16,1.,0.));
#310=DIRECTION('',(-1.00929365875014E-16,1.,0.));
#311=DIRECTION('',(0.,0.,1.));
#312=DIRECTION('',(1.00929365875014E-16,-1.,0.));
#313=DIRECTION('center_axis',(0.,-1.,0.));
#314=DIRECTION('ref_axis',(1.,0.,0.));
#315=DIRECTION('',(1.,0.,0.));
#316=DIRECTION('',(-1.,0.,0.));
#317=DIRECTION('center_axis',(0.,0.,1.));
#318=DIRECTION('ref_axis',(1.,0.,0.));
#319=DIRECTION('',(-2.01858731750026E-16,1.,0.));
#320=DIRECTION('center_axis',(0.,0.,-1.));
#321=DIRECTION('ref_axis',(0.,-1.,0.));
#322=DIRECTION('',(1.,2.01858731750028E-16,0.));
#323=DIRECTION('center_axis',(0.,0.,-1.));
#324=DIRECTION('ref_axis',(-1.,0.,0.));
#325=DIRECTION('',(4.03717463500053E-16,-1.,0.));
#326=DIRECTION('center_axis',(0.,0.,-1.));
#327=DIRECTION('ref_axis',(0.,1.,0.));
#328=DIRECTION('',(-1.,-1.00929365875014E-16,0.));
#329=DIRECTION('center_axis',(0.,0.,-1.));
#330=DIRECTION('ref_axis',(1.,1.48029736616688E-15,0.));
#331=DIRECTION('center_axis',(0.,0.,1.));
#332=DIRECTION('ref_axis',(0.,-1.,0.));
#333=DIRECTION('',(0.,0.,-1.));
#334=DIRECTION('center_axis',(0.,0.,1.));
#335=DIRECTION('ref_axis',(0.,-1.,0.));
#336=DIRECTION('',(0.,0.,-1.));
#337=DIRECTION('center_axis',(-2.01858731750028E-16,1.,0.));
#338=DIRECTION('ref_axis',(-1.,-1.77635683940025E-16,0.));
#339=DIRECTION('',(-1.,-2.01858731750028E-16,0.));
#340=DIRECTION('',(0.,0.,-1.));
#341=DIRECTION('center_axis',(0.,0.,1.));
#342=DIRECTION('ref_axis',(-1.,0.,0.));
#343=DIRECTION('center_axis',(0.,0.,1.));
#344=DIRECTION('ref_axis',(-1.,0.,0.));
#345=DIRECTION('',(0.,0.,-1.));
#346=DIRECTION('center_axis',(1.,4.03717463500053E-16,0.));
#347=DIRECTION('ref_axis',(-3.5527136788005E-16,1.,0.));
#348=DIRECTION('',(-4.03717463500053E-16,1.,0.));
#349=DIRECTION('',(0.,0.,-1.));
#350=DIRECTION('center_axis',(0.,0.,1.));
#351=DIRECTION('ref_axis',(0.,1.,0.));
#352=DIRECTION('center_axis',(0.,0.,1.));
#353=DIRECTION('ref_axis',(0.,1.,0.));
#354=DIRECTION('',(0.,0.,-1.));
#355=DIRECTION('center_axis',(1.00929365875014E-16,-1.,0.));
#356=DIRECTION('ref_axis',(1.,1.77635683940025E-16,0.));
#357=DIRECTION('',(1.,1.00929365875014E-16,0.));
#358=DIRECTION('',(0.,0.,-1.));
#359=DIRECTION('center_axis',(0.,0.,1.));
#360=DIRECTION('ref_axis',(1.,1.48029736616688E-15,0.));
#361=DIRECTION('center_axis',(0.,0.,1.));
#362=DIRECTION('ref_axis',(1.,1.48029736616688E-15,0.));
#363=DIRECTION('',(0.,0.,1.));
#364=DIRECTION('center_axis',(-1.,-2.01858731750026E-16,0.));
#365=DIRECTION('ref_axis',(1.77635683940025E-16,-1.,0.));
#366=DIRECTION('',(2.01858731750026E-16,-1.,0.));
#367=DIRECTION('center_axis',(0.,0.,1.));
#368=DIRECTION('ref_axis',(1.,0.,0.));
#369=CARTESIAN_POINT('',(0.,0.,0.));
#370=CARTESIAN_POINT('Origin',(-11.,11.,0.));
#371=CARTESIAN_POINT('',(-11.,-11.,50.));
#372=CARTESIAN_POINT('',(-11.,-11.,-50.));
#373=CARTESIAN_POINT('',(-11.,-11.,0.));
#374=CARTESIAN_POINT('',(-11.,11.,-50.));
#375=CARTESIAN_POINT('',(-11.,5.49999999999994,-50.));
#376=CARTESIAN_POINT('',(-11.,11.,50.));
#377=CARTESIAN_POINT('',(-11.,11.,0.));
#378=CARTESIAN_POINT('',(-11.,5.49999999999994,50.));
#379=CARTESIAN_POINT('Origin',(11.,11.,0.));
#380=CARTESIAN_POINT('',(11.,11.,-50.));
#381=CARTESIAN_POINT('',(5.50000000000001,11.,-50.));
#382=CARTESIAN_POINT('',(11.,11.,50.));
#383=CARTESIAN_POINT('',(11.,11.,0.));
#384=CARTESIAN_POINT('',(5.50000000000001,11.,50.));
#385=CARTESIAN_POINT('Origin',(11.,-11.,0.));
#386=CARTESIAN_POINT('',(11.,-11.,-50.));
#387=CARTESIAN_POINT('',(11.,-5.50000000000005,-50.));
#388=CARTESIAN_POINT('',(11.,-11.,50.));
#389=CARTESIAN_POINT('',(11.,-11.,0.));
#390=CARTESIAN_POINT('',(11.,-5.50000000000005,50.));
#391=CARTESIAN_POINT('Origin',(-11.,-11.,0.));
#392=CARTESIAN_POINT('',(-5.49999999999999,-11.,-50.));
#393=CARTESIAN_POINT('',(-5.49999999999999,-11.,50.));
#394=CARTESIAN_POINT('Origin',(1.3926166863265E-14,-1.10577268332529E-13,
-50.));
#395=CARTESIAN_POINT('',(-12.5,-11.0000000000002,-50.));
#396=CARTESIAN_POINT('',(-12.5,11.,-50.));
#397=CARTESIAN_POINT('',(-12.5,-11.0000000000002,-50.));
#398=CARTESIAN_POINT('',(-11.,12.5,-50.));
#399=CARTESIAN_POINT('Origin',(-11.,11.,-50.));
#400=CARTESIAN_POINT('',(11.,12.5,-50.));
#401=CARTESIAN_POINT('',(-11.,12.5,-50.));
#402=CARTESIAN_POINT('',(12.5,11.,-50.));
#403=CARTESIAN_POINT('Origin',(11.,11.,-50.));
#404=CARTESIAN_POINT('',(12.5,-11.0000000000002,-50.));
#405=CARTESIAN_POINT('',(12.5,11.,-50.));
#406=CARTESIAN_POINT('',(11.,-12.5000000000002,-50.));
#407=CARTESIAN_POINT('Origin',(11.,-11.0000000000002,-50.));
#408=CARTESIAN_POINT('',(-11.,-12.5000000000002,-50.));
#409=CARTESIAN_POINT('',(11.,-12.5000000000002,-50.));
#410=CARTESIAN_POINT('Origin',(-11.,-11.0000000000002,-50.));
#411=CARTESIAN_POINT('Origin',(-11.,11.,0.));
#412=CARTESIAN_POINT('',(-12.5,11.,50.));
#413=CARTESIAN_POINT('',(-12.5,11.,0.));
#414=CARTESIAN_POINT('',(-11.,12.5,50.));
#415=CARTESIAN_POINT('Origin',(-11.,11.,50.));
#416=CARTESIAN_POINT('',(-11.,12.5,0.));
#417=CARTESIAN_POINT('Origin',(11.,12.5,0.));
#418=CARTESIAN_POINT('',(11.,12.5,50.));
#419=CARTESIAN_POINT('',(-11.,12.5,50.));
#420=CARTESIAN_POINT('',(11.,12.5,0.));
#421=CARTESIAN_POINT('Origin',(11.,11.,0.));
#422=CARTESIAN_POINT('',(12.5,11.,50.));
#423=CARTESIAN_POINT('Origin',(11.,11.,50.));
#424=CARTESIAN_POINT('',(12.5,11.,0.));
#425=CARTESIAN_POINT('Origin',(12.5,-11.0000000000002,0.));
#426=CARTESIAN_POINT('',(12.5,-11.0000000000002,50.));
#427=CARTESIAN_POINT('',(12.5,11.,50.));
#428=CARTESIAN_POINT('',(12.5,-11.0000000000002,0.));
#429=CARTESIAN_POINT('Origin',(11.,-11.0000000000002,0.));
#430=CARTESIAN_POINT('',(11.,-12.5000000000002,50.));
#431=CARTESIAN_POINT('Origin',(11.,-11.0000000000002,50.));
#432=CARTESIAN_POINT('',(11.,-12.5000000000002,0.));
#433=CARTESIAN_POINT('Origin',(-11.,-12.5000000000002,0.));
#434=CARTESIAN_POINT('',(-11.,-12.5000000000002,50.));
#435=CARTESIAN_POINT('',(11.,-12.5000000000002,50.));
#436=CARTESIAN_POINT('',(-11.,-12.5000000000002,0.));
#437=CARTESIAN_POINT('Origin',(-11.,-11.0000000000002,0.));
#438=CARTESIAN_POINT('',(-12.5,-11.0000000000002,50.));
#439=CARTESIAN_POINT('Origin',(-11.,-11.0000000000002,50.));
#440=CARTESIAN_POINT('',(-12.5,-11.0000000000002,0.));
#441=CARTESIAN_POINT('Origin',(-12.5,11.,0.));
#442=CARTESIAN_POINT('',(-12.5,-11.0000000000002,50.));
#443=CARTESIAN_POINT('Origin',(1.3926166863265E-14,-1.10577268332529E-13,
50.));
#444=UNCERTAINTY_MEASURE_WITH_UNIT(LENGTH_MEASURE(0.01),#448,
'DISTANCE_ACCURACY_VALUE',
'Maximum model space distance between geometric entities at asserted c
onnectivities');
#445=UNCERTAINTY_MEASURE_WITH_UNIT(LENGTH_MEASURE(1.E-6),#448,
'DISTANCE_ACCURACY_VALUE',
'Maximum model space distance between geometric entities at asserted c
onnectivities');
#446=(
GEOMETRIC_REPRESENTATION_CONTEXT(3)
GLOBAL_UNCERTAINTY_ASSIGNED_CONTEXT((#444))
GLOBAL_UNIT_ASSIGNED_CONTEXT((#448,#451,#449))
REPRESENTATION_CONTEXT('','3D')
);
#447=(
GEOMETRIC_REPRESENTATION_CONTEXT(3)
GLOBAL_UNCERTAINTY_ASSIGNED_CONTEXT((#445))
GLOBAL_UNIT_ASSIGNED_CONTEXT((#448,#451,#449))
REPRESENTATION_CONTEXT('','3D')
);
#448=(
LENGTH_UNIT()
NAMED_UNIT(*)
SI_UNIT(.MILLI.,.METRE.)
);
#449=(
NAMED_UNIT(*)
SI_UNIT($,.STERADIAN.)
SOLID_ANGLE_UNIT()
);
#450=DIMENSIONAL_EXPONENTS(0.,0.,0.,0.,0.,0.,0.);
#451=(
CONVERSION_BASED_UNIT('degree',#453)
NAMED_UNIT(#450)
PLANE_ANGLE_UNIT()
);
#452=(
NAMED_UNIT(*)
PLANE_ANGLE_UNIT()
SI_UNIT($,.RADIAN.)
);
#453=PLANE_ANGLE_MEASURE_WITH_UNIT(PLANE_ANGLE_MEASURE(0.01745329252),#452);
#454=SHAPE_DEFINITION_REPRESENTATION(#455,#456);
#455=PRODUCT_DEFINITION_SHAPE('',$,#458);
#456=SHAPE_REPRESENTATION('',(#272),#446);
#457=DESIGN_CONTEXT('part definition',#462,'design');
#458=PRODUCT_DEFINITION('XB40924','XB40924',#459,#457);
#459=PRODUCT_DEFINITION_FORMATION('','A',#464);
#460=PRODUCT_RELATED_PRODUCT_CATEGORY('XB40924','XB40924',(#464));
#461=APPLICATION_PROTOCOL_DEFINITION('international standard',
'ap203_configuration_controlled_3d_design_of_mechanical_parts_and_asse
mblies_mim_lf',2004,#462);
#462=APPLICATION_CONTEXT(
'Configuration Controlled 3D Design of Mechanical Parts and Assemblies');
#463=MECHANICAL_CONTEXT('part definition',#462,'mechanical');
#464=PRODUCT('XB40924','XB40924',$,(#463));
#465=PRESENTATION_STYLE_ASSIGNMENT((#466));
#466=SURFACE_STYLE_USAGE(.BOTH.,#467);
#467=SURFACE_SIDE_STYLE('',(#468));
#468=SURFACE_STYLE_FILL_AREA(#469);
#469=FILL_AREA_STYLE('',(#470));
#470=FILL_AREA_STYLE_COLOUR('',#471);
#471=COLOUR_RGB('',0.63921568627451,0.63921568627451,0.662745098039216);
ENDSEC;
END-ISO-10303-21;
