ISO-10303-21;
HEADER;
/****************************************************************
 * Generated by software with PDE/Lib inside                    *
 * PDElib Version v4.4, created Mon 02/23/2004                  *
 * International Technegroup Inc. (www.iti-oh.com)              *
 ****************************************************************/
FILE_DESCRIPTION(('STEP AP203'),'2;1');
FILE_NAME('22.033.00.stp','2011-03-21T16:09:51',(''),(''),'2009.3.110','THINKDESIGN','');
FILE_SCHEMA(('CONFIG_CONTROL_DESIGN'));
ENDSEC;
DATA;
#2=CARTESIAN_POINT('',(-12.999999999947622,100.0,12.499999999949972));
#3=DIRECTION('',(1.0,0.0,0.0));
#4=DIRECTION('',(0.0,0.0,1.0));
#5=AXIS2_PLACEMENT_3D('',#2,#3,#4);
#6=PLANE('',#5);
#7=CARTESIAN_POINT('',(-12.999999999947622,100.0,12.499999999949972));
#8=VERTEX_POINT('',#7);
#9=CARTESIAN_POINT('',(-12.999999999947622,100.0,14.999999999939966));
#10=VERTEX_POINT('',#9);
#11=CARTESIAN_POINT('',(-12.999999999947622,100.0,12.499999999949972));
#12=DIRECTION('',(0.0,0.0,1.0));
#13=VECTOR('',#12,2.499999999990001);
#14=LINE('',#11,#13);
#15=EDGE_CURVE('',#8,#10,#14,.T.);
#16=ORIENTED_EDGE('',*,*,#15,.T.);
#17=CARTESIAN_POINT('',(-12.999999999947622,9.184851E-016,14.999999999939973));
#18=VERTEX_POINT('',#17);
#19=CARTESIAN_POINT('',(-12.999999999947622,100.0,14.999999999939966));
#20=DIRECTION('',(0.0,-1.0,0.0));
#21=VECTOR('',#20,100.0);
#22=LINE('',#19,#21);
#23=EDGE_CURVE('',#10,#18,#22,.T.);
#24=ORIENTED_EDGE('',*,*,#23,.T.);
#25=CARTESIAN_POINT('',(-12.999999999947622,7.654042E-016,12.499999999949978));
#26=VERTEX_POINT('',#25);
#27=CARTESIAN_POINT('',(-12.999999999947622,7.654042E-016,12.499999999949978));
#28=DIRECTION('',(0.0,0.0,1.0));
#29=VECTOR('',#28,2.499999999990001);
#30=LINE('',#27,#29);
#31=EDGE_CURVE('',#26,#18,#30,.T.);
#32=ORIENTED_EDGE('',*,*,#31,.F.);
#33=CARTESIAN_POINT('',(-12.999999999947622,100.0,12.499999999949972));
#34=DIRECTION('',(0.0,-1.0,0.0));
#35=VECTOR('',#34,100.0);
#36=LINE('',#33,#35);
#37=EDGE_CURVE('',#8,#26,#36,.T.);
#38=ORIENTED_EDGE('',*,*,#37,.F.);
#39=EDGE_LOOP('',(#16,#24,#32,#38));
#40=FACE_OUTER_BOUND('',#39,.T.);
#41=ADVANCED_FACE('',(#40),#6,.T.);
#42=CARTESIAN_POINT('',(-12.999999999947622,100.0,14.999999999939966));
#43=DIRECTION('',(0.0,0.0,1.0));
#44=DIRECTION('',(-1.0,0.0,0.0));
#45=AXIS2_PLACEMENT_3D('',#42,#43,#44);
#46=PLANE('',#45);
#47=CARTESIAN_POINT('',(-14.999999999939437,100.0,14.999999999939966));
#48=VERTEX_POINT('',#47);
#49=CARTESIAN_POINT('',(-12.999999999947429,100.0,14.999999999939966));
#50=DIRECTION('',(-1.0,0.0,0.0));
#51=VECTOR('',#50,1.999999999992008);
#52=LINE('',#49,#51);
#53=EDGE_CURVE('',#10,#48,#52,.T.);
#54=ORIENTED_EDGE('',*,*,#53,.T.);
#55=CARTESIAN_POINT('',(-14.999999999939437,9.184851E-016,14.999999999939973));
#56=VERTEX_POINT('',#55);
#57=CARTESIAN_POINT('',(-14.999999999939437,100.0,14.999999999939966));
#58=DIRECTION('',(0.0,-1.0,0.0));
#59=VECTOR('',#58,100.0);
#60=LINE('',#57,#59);
#61=EDGE_CURVE('',#48,#56,#60,.T.);
#62=ORIENTED_EDGE('',*,*,#61,.T.);
#63=CARTESIAN_POINT('',(-12.999999999947429,9.184851E-016,14.999999999939973));
#64=DIRECTION('',(-1.0,0.0,0.0));
#65=VECTOR('',#64,1.999999999992008);
#66=LINE('',#63,#65);
#67=EDGE_CURVE('',#18,#56,#66,.T.);
#68=ORIENTED_EDGE('',*,*,#67,.F.);
#69=ORIENTED_EDGE('',*,*,#23,.F.);
#70=EDGE_LOOP('',(#54,#62,#68,#69));
#71=FACE_OUTER_BOUND('',#70,.T.);
#72=ADVANCED_FACE('',(#71),#46,.T.);
#73=CARTESIAN_POINT('',(-14.999999999939437,100.0,14.999999999939966));
#74=DIRECTION('',(-1.0,0.0,0.0));
#75=DIRECTION('',(0.0,0.0,-1.0));
#76=AXIS2_PLACEMENT_3D('',#73,#74,#75);
#77=PLANE('',#76);
#78=CARTESIAN_POINT('',(-14.999999999940346,100.0,6.999999999971799));
#79=VERTEX_POINT('',#78);
#80=CARTESIAN_POINT('',(-14.999999999939437,100.0,14.999999999939829));
#81=DIRECTION('',(0.0,0.0,-1.0));
#82=VECTOR('',#81,7.999999999968030);
#83=LINE('',#80,#82);
#84=EDGE_CURVE('',#48,#79,#83,.T.);
#85=ORIENTED_EDGE('',*,*,#84,.T.);
#86=CARTESIAN_POINT('',(-14.999999999940346,4.286264E-016,6.999999999971806));
#87=VERTEX_POINT('',#86);
#88=CARTESIAN_POINT('',(-14.999999999940346,100.0,6.999999999971799));
#89=DIRECTION('',(0.0,-1.0,0.0));
#90=VECTOR('',#89,100.0);
#91=LINE('',#88,#90);
#92=EDGE_CURVE('',#79,#87,#91,.T.);
#93=ORIENTED_EDGE('',*,*,#92,.T.);
#94=CARTESIAN_POINT('',(-14.999999999939437,9.184851E-016,14.999999999939835));
#95=DIRECTION('',(0.0,0.0,-1.0));
#96=VECTOR('',#95,7.999999999968029);
#97=LINE('',#94,#96);
#98=EDGE_CURVE('',#56,#87,#97,.T.);
#99=ORIENTED_EDGE('',*,*,#98,.F.);
#100=ORIENTED_EDGE('',*,*,#61,.F.);
#101=EDGE_LOOP('',(#85,#93,#99,#100));
#102=FACE_OUTER_BOUND('',#101,.T.);
#103=ADVANCED_FACE('',(#102),#77,.T.);
#104=CARTESIAN_POINT('',(-14.999999999940346,100.0,6.999999999971799));
#105=DIRECTION('',(0.0,0.0,-1.0));
#106=DIRECTION('',(1.0,0.0,0.0));
#107=AXIS2_PLACEMENT_3D('',#104,#105,#106);
#108=PLANE('',#107);
#109=CARTESIAN_POINT('',(-3.749999999984912,100.0,6.999999999971799));
#110=VERTEX_POINT('',#109);
#111=CARTESIAN_POINT('',(-14.999999999939915,100.0,6.999999999971799));
#112=DIRECTION('',(1.0,0.0,0.0));
#113=VECTOR('',#112,11.249999999955003);
#114=LINE('',#111,#113);
#115=EDGE_CURVE('',#79,#110,#114,.T.);
#116=ORIENTED_EDGE('',*,*,#115,.T.);
#117=CARTESIAN_POINT('',(-3.749999999984912,4.286264E-016,6.999999999971806));
#118=VERTEX_POINT('',#117);
#119=CARTESIAN_POINT('',(-3.749999999984912,100.0,6.999999999971799));
#120=DIRECTION('',(0.0,-1.0,0.0));
#121=VECTOR('',#120,100.0);
#122=LINE('',#119,#121);
#123=EDGE_CURVE('',#110,#118,#122,.T.);
#124=ORIENTED_EDGE('',*,*,#123,.T.);
#125=CARTESIAN_POINT('',(-14.999999999939915,4.286264E-016,6.999999999971806));
#126=DIRECTION('',(1.0,0.0,0.0));
#127=VECTOR('',#126,11.249999999955003);
#128=LINE('',#125,#127);
#129=EDGE_CURVE('',#87,#118,#128,.T.);
#130=ORIENTED_EDGE('',*,*,#129,.F.);
#131=ORIENTED_EDGE('',*,*,#92,.F.);
#132=EDGE_LOOP('',(#116,#124,#130,#131));
#133=FACE_OUTER_BOUND('',#132,.T.);
#134=ADVANCED_FACE('',(#133),#108,.T.);
#135=CARTESIAN_POINT('',(-3.749999999984912,100.0,6.999999999971799));
#136=DIRECTION('',(-1.0,0.0,0.0));
#137=DIRECTION('',(0.0,0.0,-1.0));
#138=AXIS2_PLACEMENT_3D('',#135,#136,#137);
#139=PLANE('',#138);
#140=CARTESIAN_POINT('',(-3.749999999984912,100.0,2.499999999989990));
#141=VERTEX_POINT('',#140);
#142=CARTESIAN_POINT('',(-3.749999999984912,100.0,6.999999999971963));
#143=DIRECTION('',(0.0,0.0,-1.0));
#144=VECTOR('',#143,4.499999999981973);
#145=LINE('',#142,#144);
#146=EDGE_CURVE('',#110,#141,#145,.T.);
#147=ORIENTED_EDGE('',*,*,#146,.T.);
#148=CARTESIAN_POINT('',(-3.749999999984912,1.530808E-016,2.499999999989996));
#149=VERTEX_POINT('',#148);
#150=CARTESIAN_POINT('',(-3.749999999984912,100.0,2.499999999989990));
#151=DIRECTION('',(0.0,-1.0,0.0));
#152=VECTOR('',#151,100.0);
#153=LINE('',#150,#152);
#154=EDGE_CURVE('',#141,#149,#153,.T.);
#155=ORIENTED_EDGE('',*,*,#154,.T.);
#156=CARTESIAN_POINT('',(-3.749999999984912,4.286264E-016,6.999999999971968));
#157=DIRECTION('',(0.0,0.0,-1.0));
#158=VECTOR('',#157,4.499999999981973);
#159=LINE('',#156,#158);
#160=EDGE_CURVE('',#118,#149,#159,.T.);
#161=ORIENTED_EDGE('',*,*,#160,.F.);
#162=ORIENTED_EDGE('',*,*,#123,.F.);
#163=EDGE_LOOP('',(#147,#155,#161,#162));
#164=FACE_OUTER_BOUND('',#163,.T.);
#165=ADVANCED_FACE('',(#164),#139,.T.);
#166=CARTESIAN_POINT('',(-3.749999999984912,100.0,2.499999999989990));
#167=DIRECTION('',(0.0,0.0,1.0));
#168=DIRECTION('',(-1.0,0.0,0.0));
#169=AXIS2_PLACEMENT_3D('',#166,#167,#168);
#170=PLANE('',#169);
#171=CARTESIAN_POINT('',(-6.499999999973998,100.0,2.499999999989990));
#172=VERTEX_POINT('',#171);
#173=CARTESIAN_POINT('',(-3.749999999985001,100.0,2.499999999989990));
#174=DIRECTION('',(-1.0,0.0,0.0));
#175=VECTOR('',#174,2.749999999988997);
#176=LINE('',#173,#175);
#177=EDGE_CURVE('',#141,#172,#176,.T.);
#178=ORIENTED_EDGE('',*,*,#177,.T.);
#179=CARTESIAN_POINT('',(-6.499999999973998,1.530808E-016,2.499999999989996));
#180=VERTEX_POINT('',#179);
#181=CARTESIAN_POINT('',(-6.499999999973998,100.0,2.499999999989990));
#182=DIRECTION('',(0.0,-1.0,0.0));
#183=VECTOR('',#182,100.0);
#184=LINE('',#181,#183);
#185=EDGE_CURVE('',#172,#180,#184,.T.);
#186=ORIENTED_EDGE('',*,*,#185,.T.);
#187=CARTESIAN_POINT('',(-3.749999999985001,1.530808E-016,2.499999999989996));
#188=DIRECTION('',(-1.0,0.0,0.0));
#189=VECTOR('',#188,2.749999999988997);
#190=LINE('',#187,#189);
#191=EDGE_CURVE('',#149,#180,#190,.T.);
#192=ORIENTED_EDGE('',*,*,#191,.F.);
#193=ORIENTED_EDGE('',*,*,#154,.F.);
#194=EDGE_LOOP('',(#178,#186,#192,#193));
#195=FACE_OUTER_BOUND('',#194,.T.);
#196=ADVANCED_FACE('',(#195),#170,.T.);
#197=CARTESIAN_POINT('',(-6.499999999973998,100.0,2.499999999989990));
#198=DIRECTION('',(-1.0,0.0,0.0));
#199=DIRECTION('',(0.0,0.0,-1.0));
#200=AXIS2_PLACEMENT_3D('',#197,#198,#199);
#201=PLANE('',#200);
#202=CARTESIAN_POINT('',(-6.499999999973998,100.0,-5.329071E-015));
#203=VERTEX_POINT('',#202);
#204=CARTESIAN_POINT('',(-6.499999999973998,100.0,2.499999999989995));
#205=DIRECTION('',(0.0,0.0,-1.0));
#206=VECTOR('',#205,2.499999999990000);
#207=LINE('',#204,#206);
#208=EDGE_CURVE('',#172,#203,#207,.T.);
#209=ORIENTED_EDGE('',*,*,#208,.T.);
#210=CARTESIAN_POINT('',(-6.499999999973998,0.0,0.0));
#211=VERTEX_POINT('',#210);
#212=CARTESIAN_POINT('',(-6.499999999973998,100.0,-5.329071E-015));
#213=DIRECTION('',(0.0,-1.0,0.0));
#214=VECTOR('',#213,100.0);
#215=LINE('',#212,#214);
#216=EDGE_CURVE('',#203,#211,#215,.T.);
#217=ORIENTED_EDGE('',*,*,#216,.T.);
#218=CARTESIAN_POINT('',(-6.499999999973998,1.530808E-016,2.499999999990000));
#219=DIRECTION('',(0.0,0.0,-1.0));
#220=VECTOR('',#219,2.499999999990000);
#221=LINE('',#218,#220);
#222=EDGE_CURVE('',#180,#211,#221,.T.);
#223=ORIENTED_EDGE('',*,*,#222,.F.);
#224=ORIENTED_EDGE('',*,*,#185,.F.);
#225=EDGE_LOOP('',(#209,#217,#223,#224));
#226=FACE_OUTER_BOUND('',#225,.T.);
#227=ADVANCED_FACE('',(#226),#201,.T.);
#228=CARTESIAN_POINT('',(-6.499999999973998,100.0,-5.329071E-015));
#229=DIRECTION('',(0.0,0.0,-1.0));
#230=DIRECTION('',(1.0,0.0,0.0));
#231=AXIS2_PLACEMENT_3D('',#228,#229,#230);
#232=PLANE('',#231);
#233=CARTESIAN_POINT('',(6.499999999974161,100.0,-5.329071E-015));
#234=VERTEX_POINT('',#233);
#235=CARTESIAN_POINT('',(-6.499999999973834,100.0,-5.329071E-015));
#236=DIRECTION('',(1.0,0.0,0.0));
#237=VECTOR('',#236,12.999999999947995);
#238=LINE('',#235,#237);
#239=EDGE_CURVE('',#203,#234,#238,.T.);
#240=ORIENTED_EDGE('',*,*,#239,.T.);
#241=CARTESIAN_POINT('',(6.499999999974161,0.0,0.0));
#242=VERTEX_POINT('',#241);
#243=CARTESIAN_POINT('',(6.499999999974161,100.0,-5.329071E-015));
#244=DIRECTION('',(0.0,-1.0,0.0));
#245=VECTOR('',#244,100.0);
#246=LINE('',#243,#245);
#247=EDGE_CURVE('',#234,#242,#246,.T.);
#248=ORIENTED_EDGE('',*,*,#247,.T.);
#249=CARTESIAN_POINT('',(-6.499999999973834,0.0,0.0));
#250=DIRECTION('',(1.0,0.0,0.0));
#251=VECTOR('',#250,12.999999999947995);
#252=LINE('',#249,#251);
#253=EDGE_CURVE('',#211,#242,#252,.T.);
#254=ORIENTED_EDGE('',*,*,#253,.F.);
#255=ORIENTED_EDGE('',*,*,#216,.F.);
#256=EDGE_LOOP('',(#240,#248,#254,#255));
#257=FACE_OUTER_BOUND('',#256,.T.);
#258=ADVANCED_FACE('',(#257),#232,.T.);
#259=CARTESIAN_POINT('',(6.499999999974161,100.0,-5.329071E-015));
#260=DIRECTION('',(1.0,0.0,0.0));
#261=DIRECTION('',(0.0,0.0,1.0));
#262=AXIS2_PLACEMENT_3D('',#259,#260,#261);
#263=PLANE('',#262);
#264=CARTESIAN_POINT('',(6.499999999974161,100.0,2.499999999989990));
#265=VERTEX_POINT('',#264);
#266=CARTESIAN_POINT('',(6.499999999974161,100.0,-5.329071E-015));
#267=DIRECTION('',(0.0,0.0,1.0));
#268=VECTOR('',#267,2.499999999990000);
#269=LINE('',#266,#268);
#270=EDGE_CURVE('',#234,#265,#269,.T.);
#271=ORIENTED_EDGE('',*,*,#270,.T.);
#272=CARTESIAN_POINT('',(6.499999999974161,1.530808E-016,2.499999999989996));
#273=VERTEX_POINT('',#272);
#274=CARTESIAN_POINT('',(6.499999999974161,100.0,2.499999999989990));
#275=DIRECTION('',(0.0,-1.0,0.0));
#276=VECTOR('',#275,100.0);
#277=LINE('',#274,#276);
#278=EDGE_CURVE('',#265,#273,#277,.T.);
#279=ORIENTED_EDGE('',*,*,#278,.T.);
#280=CARTESIAN_POINT('',(6.499999999974161,0.0,0.0));
#281=DIRECTION('',(0.0,0.0,1.0));
#282=VECTOR('',#281,2.499999999990000);
#283=LINE('',#280,#282);
#284=EDGE_CURVE('',#242,#273,#283,.T.);
#285=ORIENTED_EDGE('',*,*,#284,.F.);
#286=ORIENTED_EDGE('',*,*,#247,.F.);
#287=EDGE_LOOP('',(#271,#279,#285,#286));
#288=FACE_OUTER_BOUND('',#287,.T.);
#289=ADVANCED_FACE('',(#288),#263,.T.);
#290=CARTESIAN_POINT('',(6.499999999974161,100.0,2.499999999989990));
#291=DIRECTION('',(0.0,0.0,1.0));
#292=DIRECTION('',(-1.0,0.0,0.0));
#293=AXIS2_PLACEMENT_3D('',#290,#291,#292);
#294=PLANE('',#293);
#295=CARTESIAN_POINT('',(3.749999999985075,100.0,2.499999999989990));
#296=VERTEX_POINT('',#295);
#297=CARTESIAN_POINT('',(6.499999999974072,100.0,2.499999999989990));
#298=DIRECTION('',(-1.0,0.0,0.0));
#299=VECTOR('',#298,2.749999999988997);
#300=LINE('',#297,#299);
#301=EDGE_CURVE('',#265,#296,#300,.T.);
#302=ORIENTED_EDGE('',*,*,#301,.T.);
#303=CARTESIAN_POINT('',(3.749999999985075,1.530808E-016,2.499999999989996));
#304=VERTEX_POINT('',#303);
#305=CARTESIAN_POINT('',(3.749999999985075,100.0,2.499999999989990));
#306=DIRECTION('',(0.0,-1.0,0.0));
#307=VECTOR('',#306,100.0);
#308=LINE('',#305,#307);
#309=EDGE_CURVE('',#296,#304,#308,.T.);
#310=ORIENTED_EDGE('',*,*,#309,.T.);
#311=CARTESIAN_POINT('',(6.499999999974072,1.530808E-016,2.499999999989996));
#312=DIRECTION('',(-1.0,0.0,0.0));
#313=VECTOR('',#312,2.749999999988997);
#314=LINE('',#311,#313);
#315=EDGE_CURVE('',#273,#304,#314,.T.);
#316=ORIENTED_EDGE('',*,*,#315,.F.);
#317=ORIENTED_EDGE('',*,*,#278,.F.);
#318=EDGE_LOOP('',(#302,#310,#316,#317));
#319=FACE_OUTER_BOUND('',#318,.T.);
#320=ADVANCED_FACE('',(#319),#294,.T.);
#321=CARTESIAN_POINT('',(3.749999999985075,100.0,2.499999999989990));
#322=DIRECTION('',(1.0,0.0,0.0));
#323=DIRECTION('',(0.0,0.0,1.0));
#324=AXIS2_PLACEMENT_3D('',#321,#322,#323);
#325=PLANE('',#324);
#326=CARTESIAN_POINT('',(3.749999999985075,100.0,6.999999999971799));
#327=VERTEX_POINT('',#326);
#328=CARTESIAN_POINT('',(3.749999999985075,100.0,2.499999999989990));
#329=DIRECTION('',(0.0,0.0,1.0));
#330=VECTOR('',#329,4.499999999981973);
#331=LINE('',#328,#330);
#332=EDGE_CURVE('',#296,#327,#331,.T.);
#333=ORIENTED_EDGE('',*,*,#332,.T.);
#334=CARTESIAN_POINT('',(3.749999999985075,4.286264E-016,6.999999999971806));
#335=VERTEX_POINT('',#334);
#336=CARTESIAN_POINT('',(3.749999999985075,100.0,6.999999999971799));
#337=DIRECTION('',(0.0,-1.0,0.0));
#338=VECTOR('',#337,100.0);
#339=LINE('',#336,#338);
#340=EDGE_CURVE('',#327,#335,#339,.T.);
#341=ORIENTED_EDGE('',*,*,#340,.T.);
#342=CARTESIAN_POINT('',(3.749999999985075,1.530808E-016,2.499999999989996));
#343=DIRECTION('',(0.0,0.0,1.0));
#344=VECTOR('',#343,4.499999999981973);
#345=LINE('',#342,#344);
#346=EDGE_CURVE('',#304,#335,#345,.T.);
#347=ORIENTED_EDGE('',*,*,#346,.F.);
#348=ORIENTED_EDGE('',*,*,#309,.F.);
#349=EDGE_LOOP('',(#333,#341,#347,#348));
#350=FACE_OUTER_BOUND('',#349,.T.);
#351=ADVANCED_FACE('',(#350),#325,.T.);
#352=CARTESIAN_POINT('',(3.749999999985075,100.0,6.999999999971799));
#353=DIRECTION('',(0.0,0.0,-1.0));
#354=DIRECTION('',(1.0,0.0,0.0));
#355=AXIS2_PLACEMENT_3D('',#352,#353,#354);
#356=PLANE('',#355);
#357=CARTESIAN_POINT('',(14.999999999940510,100.0,6.999999999971799));
#358=VERTEX_POINT('',#357);
#359=CARTESIAN_POINT('',(3.749999999985075,100.0,6.999999999971799));
#360=DIRECTION('',(1.0,0.0,0.0));
#361=VECTOR('',#360,11.249999999955003);
#362=LINE('',#359,#361);
#363=EDGE_CURVE('',#327,#358,#362,.T.);
#364=ORIENTED_EDGE('',*,*,#363,.T.);
#365=CARTESIAN_POINT('',(14.999999999940510,4.286264E-016,6.999999999971806));
#366=VERTEX_POINT('',#365);
#367=CARTESIAN_POINT('',(14.999999999940510,100.0,6.999999999971799));
#368=DIRECTION('',(0.0,-1.0,0.0));
#369=VECTOR('',#368,100.0);
#370=LINE('',#367,#369);
#371=EDGE_CURVE('',#358,#366,#370,.T.);
#372=ORIENTED_EDGE('',*,*,#371,.T.);
#373=CARTESIAN_POINT('',(3.749999999985075,4.286264E-016,6.999999999971806));
#374=DIRECTION('',(1.0,0.0,0.0));
#375=VECTOR('',#374,11.249999999955003);
#376=LINE('',#373,#375);
#377=EDGE_CURVE('',#335,#366,#376,.T.);
#378=ORIENTED_EDGE('',*,*,#377,.F.);
#379=ORIENTED_EDGE('',*,*,#340,.F.);
#380=EDGE_LOOP('',(#364,#372,#378,#379));
#381=FACE_OUTER_BOUND('',#380,.T.);
#382=ADVANCED_FACE('',(#381),#356,.T.);
#383=CARTESIAN_POINT('',(14.999999999940510,100.0,6.999999999971799));
#384=DIRECTION('',(1.0,0.0,0.0));
#385=DIRECTION('',(0.0,0.0,1.0));
#386=AXIS2_PLACEMENT_3D('',#383,#384,#385);
#387=PLANE('',#386);
#388=CARTESIAN_POINT('',(14.999999999940510,100.0,14.999999999939966));
#389=VERTEX_POINT('',#388);
#390=CARTESIAN_POINT('',(14.999999999940510,100.0,6.999999999971799));
#391=DIRECTION('',(0.0,0.0,1.0));
#392=VECTOR('',#391,7.999999999968030);
#393=LINE('',#390,#392);
#394=EDGE_CURVE('',#358,#389,#393,.T.);
#395=ORIENTED_EDGE('',*,*,#394,.T.);
#396=CARTESIAN_POINT('',(14.999999999940510,9.184851E-016,14.999999999939973));
#397=VERTEX_POINT('',#396);
#398=CARTESIAN_POINT('',(14.999999999940510,100.0,14.999999999939966));
#399=DIRECTION('',(0.0,-1.0,0.0));
#400=VECTOR('',#399,100.0);
#401=LINE('',#398,#400);
#402=EDGE_CURVE('',#389,#397,#401,.T.);
#403=ORIENTED_EDGE('',*,*,#402,.T.);
#404=CARTESIAN_POINT('',(14.999999999940510,4.286264E-016,6.999999999971806));
#405=DIRECTION('',(0.0,0.0,1.0));
#406=VECTOR('',#405,7.999999999968029);
#407=LINE('',#404,#406);
#408=EDGE_CURVE('',#366,#397,#407,.T.);
#409=ORIENTED_EDGE('',*,*,#408,.F.);
#410=ORIENTED_EDGE('',*,*,#371,.F.);
#411=EDGE_LOOP('',(#395,#403,#409,#410));
#412=FACE_OUTER_BOUND('',#411,.T.);
#413=ADVANCED_FACE('',(#412),#387,.T.);
#414=CARTESIAN_POINT('',(14.999999999940510,100.0,14.999999999939966));
#415=DIRECTION('',(0.0,0.0,1.0));
#416=DIRECTION('',(-1.0,0.0,0.0));
#417=AXIS2_PLACEMENT_3D('',#414,#415,#416);
#418=PLANE('',#417);
#419=CARTESIAN_POINT('',(12.999999999948695,100.0,14.999999999939966));
#420=VERTEX_POINT('',#419);
#421=CARTESIAN_POINT('',(14.999999999940703,100.0,14.999999999939966));
#422=DIRECTION('',(-1.0,0.0,0.0));
#423=VECTOR('',#422,1.999999999992008);
#424=LINE('',#421,#423);
#425=EDGE_CURVE('',#389,#420,#424,.T.);
#426=ORIENTED_EDGE('',*,*,#425,.T.);
#427=CARTESIAN_POINT('',(12.999999999948695,9.184851E-016,14.999999999939973));
#428=VERTEX_POINT('',#427);
#429=CARTESIAN_POINT('',(12.999999999948695,100.0,14.999999999939966));
#430=DIRECTION('',(0.0,-1.0,0.0));
#431=VECTOR('',#430,100.0);
#432=LINE('',#429,#431);
#433=EDGE_CURVE('',#420,#428,#432,.T.);
#434=ORIENTED_EDGE('',*,*,#433,.T.);
#435=CARTESIAN_POINT('',(14.999999999940703,9.184851E-016,14.999999999939973));
#436=DIRECTION('',(-1.0,0.0,0.0));
#437=VECTOR('',#436,1.999999999992008);
#438=LINE('',#435,#437);
#439=EDGE_CURVE('',#397,#428,#438,.T.);
#440=ORIENTED_EDGE('',*,*,#439,.F.);
#441=ORIENTED_EDGE('',*,*,#402,.F.);
#442=EDGE_LOOP('',(#426,#434,#440,#441));
#443=FACE_OUTER_BOUND('',#442,.T.);
#444=ADVANCED_FACE('',(#443),#418,.T.);
#445=CARTESIAN_POINT('',(12.999999999948695,100.0,14.999999999939966));
#446=DIRECTION('',(-1.0,0.0,0.0));
#447=DIRECTION('',(0.0,0.0,-1.0));
#448=AXIS2_PLACEMENT_3D('',#445,#446,#447);
#449=PLANE('',#448);
#450=CARTESIAN_POINT('',(12.999999999948695,100.0,12.499999999949972));
#451=VERTEX_POINT('',#450);
#452=CARTESIAN_POINT('',(12.999999999948695,100.0,14.999999999939973));
#453=DIRECTION('',(0.0,0.0,-1.0));
#454=VECTOR('',#453,2.499999999990001);
#455=LINE('',#452,#454);
#456=EDGE_CURVE('',#420,#451,#455,.T.);
#457=ORIENTED_EDGE('',*,*,#456,.T.);
#458=CARTESIAN_POINT('',(12.999999999948695,7.654042E-016,12.499999999949978));
#459=VERTEX_POINT('',#458);
#460=CARTESIAN_POINT('',(12.999999999948695,100.0,12.499999999949972));
#461=DIRECTION('',(0.0,-1.0,0.0));
#462=VECTOR('',#461,100.0);
#463=LINE('',#460,#462);
#464=EDGE_CURVE('',#451,#459,#463,.T.);
#465=ORIENTED_EDGE('',*,*,#464,.T.);
#466=CARTESIAN_POINT('',(12.999999999948695,9.184851E-016,14.999999999939979));
#467=DIRECTION('',(0.0,0.0,-1.0));
#468=VECTOR('',#467,2.499999999990001);
#469=LINE('',#466,#468);
#470=EDGE_CURVE('',#428,#459,#469,.T.);
#471=ORIENTED_EDGE('',*,*,#470,.F.);
#472=ORIENTED_EDGE('',*,*,#433,.F.);
#473=EDGE_LOOP('',(#457,#465,#471,#472));
#474=FACE_OUTER_BOUND('',#473,.T.);
#475=ADVANCED_FACE('',(#474),#449,.T.);
#476=CARTESIAN_POINT('',(12.999999999948695,100.0,12.499999999949972));
#477=DIRECTION('',(0.0,0.0,1.0));
#478=DIRECTION('',(-1.0,0.0,0.0));
#479=AXIS2_PLACEMENT_3D('',#476,#477,#478);
#480=PLANE('',#479);
#481=CARTESIAN_POINT('',(12.999999999948695,100.0,12.499999999949972));
#482=DIRECTION('',(-1.0,0.0,0.0));
#483=VECTOR('',#482,25.999999999895991);
#484=LINE('',#481,#483);
#485=EDGE_CURVE('',#451,#8,#484,.T.);
#486=ORIENTED_EDGE('',*,*,#485,.T.);
#487=ORIENTED_EDGE('',*,*,#37,.T.);
#488=CARTESIAN_POINT('',(12.999999999948695,7.654042E-016,12.499999999949978));
#489=DIRECTION('',(-1.0,0.0,0.0));
#490=VECTOR('',#489,25.999999999895991);
#491=LINE('',#488,#490);
#492=EDGE_CURVE('',#459,#26,#491,.T.);
#493=ORIENTED_EDGE('',*,*,#492,.F.);
#494=ORIENTED_EDGE('',*,*,#464,.F.);
#495=EDGE_LOOP('',(#486,#487,#493,#494));
#496=FACE_OUTER_BOUND('',#495,.T.);
#497=ADVANCED_FACE('',(#496),#480,.T.);
#498=CARTESIAN_POINT('',(-18.000004738702419,100.0,-1.500004738753892));
#499=DIRECTION('',(0.0,-1.0,0.0));
#500=DIRECTION('',(1.0,0.0,0.0));
#501=AXIS2_PLACEMENT_3D('',#498,#499,#500);
#502=PLANE('',#501);
#503=ORIENTED_EDGE('',*,*,#485,.F.);
#504=ORIENTED_EDGE('',*,*,#456,.F.);
#505=ORIENTED_EDGE('',*,*,#425,.F.);
#506=ORIENTED_EDGE('',*,*,#394,.F.);
#507=ORIENTED_EDGE('',*,*,#363,.F.);
#508=ORIENTED_EDGE('',*,*,#332,.F.);
#509=ORIENTED_EDGE('',*,*,#301,.F.);
#510=ORIENTED_EDGE('',*,*,#270,.F.);
#511=ORIENTED_EDGE('',*,*,#239,.F.);
#512=ORIENTED_EDGE('',*,*,#208,.F.);
#513=ORIENTED_EDGE('',*,*,#177,.F.);
#514=ORIENTED_EDGE('',*,*,#146,.F.);
#515=ORIENTED_EDGE('',*,*,#115,.F.);
#516=ORIENTED_EDGE('',*,*,#84,.F.);
#517=ORIENTED_EDGE('',*,*,#53,.F.);
#518=ORIENTED_EDGE('',*,*,#15,.F.);
#519=EDGE_LOOP('',(#503,#504,#505,#506,#507,#508,#509,#510,#511,#512,#513,#514,#515,#516,#517,#518));
#520=FACE_OUTER_BOUND('',#519,.T.);
#521=ADVANCED_FACE('',(#520),#502,.F.);
#522=CARTESIAN_POINT('',(-18.000004738702419,-9.184880E-017,-1.500004738753887));
#523=DIRECTION('',(0.0,-1.0,0.0));
#524=DIRECTION('',(1.0,0.0,0.0));
#525=AXIS2_PLACEMENT_3D('',#522,#523,#524);
#526=PLANE('',#525);
#527=ORIENTED_EDGE('',*,*,#31,.T.);
#528=ORIENTED_EDGE('',*,*,#67,.T.);
#529=ORIENTED_EDGE('',*,*,#98,.T.);
#530=ORIENTED_EDGE('',*,*,#129,.T.);
#531=ORIENTED_EDGE('',*,*,#160,.T.);
#532=ORIENTED_EDGE('',*,*,#191,.T.);
#533=ORIENTED_EDGE('',*,*,#222,.T.);
#534=ORIENTED_EDGE('',*,*,#253,.T.);
#535=ORIENTED_EDGE('',*,*,#284,.T.);
#536=ORIENTED_EDGE('',*,*,#315,.T.);
#537=ORIENTED_EDGE('',*,*,#346,.T.);
#538=ORIENTED_EDGE('',*,*,#377,.T.);
#539=ORIENTED_EDGE('',*,*,#408,.T.);
#540=ORIENTED_EDGE('',*,*,#439,.T.);
#541=ORIENTED_EDGE('',*,*,#470,.T.);
#542=ORIENTED_EDGE('',*,*,#492,.T.);
#543=EDGE_LOOP('',(#527,#528,#529,#530,#531,#532,#533,#534,#535,#536,#537,#538,#539,#540,#541,#542));
#544=FACE_OUTER_BOUND('',#543,.T.);
#545=ADVANCED_FACE('',(#544),#526,.T.);
#546=CLOSED_SHELL('',(#41,#72,#103,#134,#165,#196,#227,#258,#289,#320,#351,#382,#413,#444,#475,#497,#521,#545));
#547=MANIFOLD_SOLID_BREP('',#546);
#553=(NAMED_UNIT(*)PLANE_ANGLE_UNIT()SI_UNIT($,.RADIAN.));
#554=DIMENSIONAL_EXPONENTS(0.0,0.0,0.0,0.0,0.0,0.0,0.0);
#555=PLANE_ANGLE_MEASURE_WITH_UNIT(PLANE_ANGLE_MEASURE(0.017453292500000),#553);
#559=(CONVERSION_BASED_UNIT('DEGREE',#555)NAMED_UNIT(#554)PLANE_ANGLE_UNIT());
#563=(NAMED_UNIT(*)SI_UNIT($,.STERADIAN.)SOLID_ANGLE_UNIT());
#567=(LENGTH_UNIT()NAMED_UNIT(*)SI_UNIT(.MILLI.,.METRE.));
#569=UNCERTAINTY_MEASURE_WITH_UNIT(LENGTH_MEASURE(0.001000000000000),#567,'DISTANCE_ACCURACY_VALUE','');
#571=(GEOMETRIC_REPRESENTATION_CONTEXT(3)GLOBAL_UNCERTAINTY_ASSIGNED_CONTEXT((#569))GLOBAL_UNIT_ASSIGNED_CONTEXT((#559,#563,#567))REPRESENTATION_CONTEXT('thinkdesign','2009.3.110'));
#572=ADVANCED_BREP_SHAPE_REPRESENTATION('',(#547),#571);
#573=APPLICATION_CONTEXT('configuration controlled 3D designs of mechanical parts and assemblies');
#574=APPLICATION_PROTOCOL_DEFINITION('International Standard','config_control_design',1995,#573);
#575=MECHANICAL_CONTEXT('None',#573,'mechanical');
#576=PRODUCT('None','None','None',(#575));
#577=PRODUCT_RELATED_PRODUCT_CATEGORY('detail',$,(#576));
#578=PRODUCT_CATEGORY('part',$);
#579=PRODUCT_CATEGORY_RELATIONSHIP('None','None',#578,#577);
#580=PERSON('PERSON1','None','None',$,$,$);
#581=ORGANIZATION('','None','None');
#582=PERSON_AND_ORGANIZATION(#580,#581);
#583=PERSON_AND_ORGANIZATION_ROLE('design_owner');
#584=CC_DESIGN_PERSON_AND_ORGANIZATION_ASSIGNMENT(#582,#583,(#576));
#585=PRODUCT_DEFINITION_FORMATION_WITH_SPECIFIED_SOURCE('None','None',#576,.NOT_KNOWN.);
#586=PERSON('PERSON2','None','None',$,$,$);
#587=ORGANIZATION('','None','None');
#588=PERSON_AND_ORGANIZATION(#586,#587);
#589=PERSON_AND_ORGANIZATION_ROLE('creator');
#590=CC_DESIGN_PERSON_AND_ORGANIZATION_ASSIGNMENT(#588,#589,(#585));
#591=PERSON('PERSON3','None','None',$,$,$);
#592=ORGANIZATION('','None','None');
#593=PERSON_AND_ORGANIZATION(#591,#592);
#594=PERSON_AND_ORGANIZATION_ROLE('part_supplier');
#595=CC_DESIGN_PERSON_AND_ORGANIZATION_ASSIGNMENT(#593,#594,(#585));
#596=APPROVAL_STATUS('approved');
#597=APPROVAL(#596,'None');
#598=PERSON('PERSON4','None','None',$,$,$);
#599=ORGANIZATION('','None','None');
#600=PERSON_AND_ORGANIZATION(#598,#599);
#601=APPROVAL_ROLE('None');
#602=APPROVAL_PERSON_ORGANIZATION(#600,#597,#601);
#603=CALENDAR_DATE(2011,21,3);
#604=COORDINATED_UNIVERSAL_TIME_OFFSET(0,0,.AHEAD.);
#605=LOCAL_TIME(16,9,51.0,#604);
#606=DATE_AND_TIME(#603,#605);
#607=APPROVAL_DATE_TIME(#606,#597);
#608=CC_DESIGN_APPROVAL(#597,(#585));
#609=SECURITY_CLASSIFICATION_LEVEL('unclassified');
#610=SECURITY_CLASSIFICATION('None','None',#609);
#611=CC_DESIGN_SECURITY_CLASSIFICATION(#610,(#585));
#612=APPROVAL_STATUS('approved');
#613=APPROVAL(#612,'None');
#614=PERSON('PERSON5','None','None',$,$,$);
#615=ORGANIZATION('','None','None');
#616=PERSON_AND_ORGANIZATION(#614,#615);
#617=APPROVAL_ROLE('None');
#618=APPROVAL_PERSON_ORGANIZATION(#616,#613,#617);
#619=CALENDAR_DATE(2011,21,3);
#620=COORDINATED_UNIVERSAL_TIME_OFFSET(0,0,.AHEAD.);
#621=LOCAL_TIME(16,9,51.0,#620);
#622=DATE_AND_TIME(#619,#621);
#623=APPROVAL_DATE_TIME(#622,#613);
#624=CC_DESIGN_APPROVAL(#613,(#610));
#625=PERSON('PERSON6','None','None',$,$,$);
#626=ORGANIZATION('','None','None');
#627=PERSON_AND_ORGANIZATION(#625,#626);
#628=PERSON_AND_ORGANIZATION_ROLE('classification_officer');
#629=CC_DESIGN_PERSON_AND_ORGANIZATION_ASSIGNMENT(#627,#628,(#610));
#630=DATE_TIME_ROLE('classification_date');
#631=CALENDAR_DATE(2011,21,3);
#632=COORDINATED_UNIVERSAL_TIME_OFFSET(0,0,.AHEAD.);
#633=LOCAL_TIME(16,9,51.0,#632);
#634=DATE_AND_TIME(#631,#633);
#635=CC_DESIGN_DATE_AND_TIME_ASSIGNMENT(#634,#630,(#610));
#636=DESIGN_CONTEXT('part definition',#573,'design');
#637=DOCUMENT_TYPE('cad_filename');
#638=DOCUMENT('None','None','None',#637);
#639=PRODUCT_DEFINITION_WITH_ASSOCIATED_DOCUMENTS('None','None',#585,#636,(#638));
#640=PERSON('PERSON7','None','None',$,$,$);
#641=ORGANIZATION('','None','None');
#642=PERSON_AND_ORGANIZATION(#640,#641);
#643=PERSON_AND_ORGANIZATION_ROLE('creator');
#644=CC_DESIGN_PERSON_AND_ORGANIZATION_ASSIGNMENT(#642,#643,(#639));
#645=DATE_TIME_ROLE('creation_date');
#646=CALENDAR_DATE(2011,21,3);
#647=COORDINATED_UNIVERSAL_TIME_OFFSET(0,0,.AHEAD.);
#648=LOCAL_TIME(16,9,51.0,#647);
#649=DATE_AND_TIME(#646,#648);
#650=CC_DESIGN_DATE_AND_TIME_ASSIGNMENT(#649,#645,(#639));
#651=APPROVAL_STATUS('approved');
#652=APPROVAL(#651,'None');
#653=PERSON('PERSON8','None','None',$,$,$);
#654=ORGANIZATION('','None','None');
#655=PERSON_AND_ORGANIZATION(#653,#654);
#656=APPROVAL_ROLE('None');
#657=APPROVAL_PERSON_ORGANIZATION(#655,#652,#656);
#658=CALENDAR_DATE(2011,21,3);
#659=COORDINATED_UNIVERSAL_TIME_OFFSET(0,0,.AHEAD.);
#660=LOCAL_TIME(16,9,51.0,#659);
#661=DATE_AND_TIME(#658,#660);
#662=APPROVAL_DATE_TIME(#661,#652);
#663=CC_DESIGN_APPROVAL(#652,(#639));
#664=PRODUCT_DEFINITION_SHAPE('None','None',#639);
#665=SHAPE_DEFINITION_REPRESENTATION(#664,#572);
#666=DIMENSIONAL_EXPONENTS(0.0,0.0,0.0,0.0,0.0,0.0,0.0);
#667=DIMENSIONAL_EXPONENTS(1.0,0.0,0.0,0.0,0.0,0.0,0.0);
ENDSEC;
END-ISO-10303-21;
