ISO-10303-21;
HEADER;
/* Generated by software containing ST-Developer
 * from STEP Tools, Inc. (www.steptools.com) 
 */

FILE_DESCRIPTION(
/* description */ (''),
/* implementation_level */ '2;1');

FILE_NAME(
/* name */ 
'C:\\Users\\tecnico7\\Desktop\\NUOVI DISEGNI 3D\\APRPZ0000011.stp',
/* time_stamp */ '2022-11-24T16:33:41+01:00',
/* author */ ('tecnico7'),
/* organization */ (''),
/* preprocessor_version */ 'ST-DEVELOPER v18.1',
/* originating_system */ 'Autodesk Inventor 2022',
/* authorisation */ '');

FILE_SCHEMA (('AUTOMOTIVE_DESIGN { 1 0 10303 214 3 1 1 }'));
ENDSEC;

DATA;
#10=MECHANICAL_DESIGN_GEOMETRIC_PRESENTATION_REPRESENTATION('',(#13),#728);
#11=SHAPE_REPRESENTATION_RELATIONSHIP('SRR','None',#735,#12);
#12=ADVANCED_BREP_SHAPE_REPRESENTATION('',(#14),#727);
#13=STYLED_ITEM('',(#744),#14);
#14=MANIFOLD_SOLID_BREP('Solido1',#435);
#15=CIRCLE('',#461,1.);
#16=CIRCLE('',#462,1.);
#17=CIRCLE('',#465,1.);
#18=CIRCLE('',#466,1.);
#19=CIRCLE('',#477,1.);
#20=CIRCLE('',#478,1.);
#21=CIRCLE('',#481,1.);
#22=CIRCLE('',#482,1.);
#23=CYLINDRICAL_SURFACE('',#460,1.);
#24=CYLINDRICAL_SURFACE('',#464,1.);
#25=CYLINDRICAL_SURFACE('',#476,1.);
#26=CYLINDRICAL_SURFACE('',#480,1.);
#27=FACE_OUTER_BOUND('',#49,.T.);
#28=FACE_OUTER_BOUND('',#50,.T.);
#29=FACE_OUTER_BOUND('',#51,.T.);
#30=FACE_OUTER_BOUND('',#52,.T.);
#31=FACE_OUTER_BOUND('',#53,.T.);
#32=FACE_OUTER_BOUND('',#54,.T.);
#33=FACE_OUTER_BOUND('',#55,.T.);
#34=FACE_OUTER_BOUND('',#56,.T.);
#35=FACE_OUTER_BOUND('',#57,.T.);
#36=FACE_OUTER_BOUND('',#58,.T.);
#37=FACE_OUTER_BOUND('',#59,.T.);
#38=FACE_OUTER_BOUND('',#60,.T.);
#39=FACE_OUTER_BOUND('',#61,.T.);
#40=FACE_OUTER_BOUND('',#62,.T.);
#41=FACE_OUTER_BOUND('',#63,.T.);
#42=FACE_OUTER_BOUND('',#64,.T.);
#43=FACE_OUTER_BOUND('',#65,.T.);
#44=FACE_OUTER_BOUND('',#66,.T.);
#45=FACE_OUTER_BOUND('',#67,.T.);
#46=FACE_OUTER_BOUND('',#68,.T.);
#47=FACE_OUTER_BOUND('',#69,.T.);
#48=FACE_OUTER_BOUND('',#70,.T.);
#49=EDGE_LOOP('',(#275,#276,#277,#278));
#50=EDGE_LOOP('',(#279,#280,#281,#282));
#51=EDGE_LOOP('',(#283,#284,#285,#286));
#52=EDGE_LOOP('',(#287,#288,#289,#290));
#53=EDGE_LOOP('',(#291,#292,#293,#294));
#54=EDGE_LOOP('',(#295,#296,#297,#298));
#55=EDGE_LOOP('',(#299,#300,#301,#302));
#56=EDGE_LOOP('',(#303,#304,#305,#306));
#57=EDGE_LOOP('',(#307,#308,#309,#310));
#58=EDGE_LOOP('',(#311,#312,#313,#314));
#59=EDGE_LOOP('',(#315,#316,#317,#318));
#60=EDGE_LOOP('',(#319,#320,#321,#322));
#61=EDGE_LOOP('',(#323,#324,#325,#326));
#62=EDGE_LOOP('',(#327,#328,#329,#330));
#63=EDGE_LOOP('',(#331,#332,#333,#334));
#64=EDGE_LOOP('',(#335,#336,#337,#338));
#65=EDGE_LOOP('',(#339,#340,#341,#342));
#66=EDGE_LOOP('',(#343,#344,#345,#346));
#67=EDGE_LOOP('',(#347,#348,#349,#350));
#68=EDGE_LOOP('',(#351,#352,#353,#354));
#69=EDGE_LOOP('',(#355,#356,#357,#358,#359,#360,#361,#362,#363,#364,#365,
#366,#367,#368,#369,#370,#371,#372,#373,#374));
#70=EDGE_LOOP('',(#375,#376,#377,#378,#379,#380,#381,#382,#383,#384,#385,
#386,#387,#388,#389,#390,#391,#392,#393,#394));
#71=LINE('',#606,#123);
#72=LINE('',#608,#124);
#73=LINE('',#610,#125);
#74=LINE('',#611,#126);
#75=LINE('',#614,#127);
#76=LINE('',#616,#128);
#77=LINE('',#617,#129);
#78=LINE('',#623,#130);
#79=LINE('',#626,#131);
#80=LINE('',#628,#132);
#81=LINE('',#629,#133);
#82=LINE('',#635,#134);
#83=LINE('',#638,#135);
#84=LINE('',#640,#136);
#85=LINE('',#641,#137);
#86=LINE('',#644,#138);
#87=LINE('',#646,#139);
#88=LINE('',#647,#140);
#89=LINE('',#650,#141);
#90=LINE('',#652,#142);
#91=LINE('',#653,#143);
#92=LINE('',#656,#144);
#93=LINE('',#658,#145);
#94=LINE('',#659,#146);
#95=LINE('',#662,#147);
#96=LINE('',#664,#148);
#97=LINE('',#665,#149);
#98=LINE('',#668,#150);
#99=LINE('',#670,#151);
#100=LINE('',#671,#152);
#101=LINE('',#674,#153);
#102=LINE('',#676,#154);
#103=LINE('',#677,#155);
#104=LINE('',#680,#156);
#105=LINE('',#682,#157);
#106=LINE('',#683,#158);
#107=LINE('',#686,#159);
#108=LINE('',#688,#160);
#109=LINE('',#689,#161);
#110=LINE('',#695,#162);
#111=LINE('',#698,#163);
#112=LINE('',#700,#164);
#113=LINE('',#701,#165);
#114=LINE('',#707,#166);
#115=LINE('',#710,#167);
#116=LINE('',#712,#168);
#117=LINE('',#713,#169);
#118=LINE('',#716,#170);
#119=LINE('',#718,#171);
#120=LINE('',#719,#172);
#121=LINE('',#721,#173);
#122=LINE('',#722,#174);
#123=VECTOR('',#492,10.);
#124=VECTOR('',#493,10.);
#125=VECTOR('',#494,10.);
#126=VECTOR('',#495,10.);
#127=VECTOR('',#498,10.);
#128=VECTOR('',#499,10.);
#129=VECTOR('',#500,10.);
#130=VECTOR('',#507,10.);
#131=VECTOR('',#510,10.);
#132=VECTOR('',#511,10.);
#133=VECTOR('',#512,10.);
#134=VECTOR('',#519,10.);
#135=VECTOR('',#522,10.);
#136=VECTOR('',#523,10.);
#137=VECTOR('',#524,10.);
#138=VECTOR('',#527,10.);
#139=VECTOR('',#528,10.);
#140=VECTOR('',#529,10.);
#141=VECTOR('',#532,10.);
#142=VECTOR('',#533,10.);
#143=VECTOR('',#534,10.);
#144=VECTOR('',#537,10.);
#145=VECTOR('',#538,10.);
#146=VECTOR('',#539,10.);
#147=VECTOR('',#542,10.);
#148=VECTOR('',#543,10.);
#149=VECTOR('',#544,10.);
#150=VECTOR('',#547,10.);
#151=VECTOR('',#548,10.);
#152=VECTOR('',#549,10.);
#153=VECTOR('',#552,10.);
#154=VECTOR('',#553,10.);
#155=VECTOR('',#554,10.);
#156=VECTOR('',#557,10.);
#157=VECTOR('',#558,10.);
#158=VECTOR('',#559,10.);
#159=VECTOR('',#562,10.);
#160=VECTOR('',#563,10.);
#161=VECTOR('',#564,10.);
#162=VECTOR('',#571,10.);
#163=VECTOR('',#574,10.);
#164=VECTOR('',#575,10.);
#165=VECTOR('',#576,10.);
#166=VECTOR('',#583,10.);
#167=VECTOR('',#586,10.);
#168=VECTOR('',#587,10.);
#169=VECTOR('',#588,10.);
#170=VECTOR('',#591,10.);
#171=VECTOR('',#592,10.);
#172=VECTOR('',#593,10.);
#173=VECTOR('',#596,10.);
#174=VECTOR('',#597,10.);
#175=VERTEX_POINT('',#604);
#176=VERTEX_POINT('',#605);
#177=VERTEX_POINT('',#607);
#178=VERTEX_POINT('',#609);
#179=VERTEX_POINT('',#613);
#180=VERTEX_POINT('',#615);
#181=VERTEX_POINT('',#619);
#182=VERTEX_POINT('',#621);
#183=VERTEX_POINT('',#625);
#184=VERTEX_POINT('',#627);
#185=VERTEX_POINT('',#631);
#186=VERTEX_POINT('',#633);
#187=VERTEX_POINT('',#637);
#188=VERTEX_POINT('',#639);
#189=VERTEX_POINT('',#643);
#190=VERTEX_POINT('',#645);
#191=VERTEX_POINT('',#649);
#192=VERTEX_POINT('',#651);
#193=VERTEX_POINT('',#655);
#194=VERTEX_POINT('',#657);
#195=VERTEX_POINT('',#661);
#196=VERTEX_POINT('',#663);
#197=VERTEX_POINT('',#667);
#198=VERTEX_POINT('',#669);
#199=VERTEX_POINT('',#673);
#200=VERTEX_POINT('',#675);
#201=VERTEX_POINT('',#679);
#202=VERTEX_POINT('',#681);
#203=VERTEX_POINT('',#685);
#204=VERTEX_POINT('',#687);
#205=VERTEX_POINT('',#691);
#206=VERTEX_POINT('',#693);
#207=VERTEX_POINT('',#697);
#208=VERTEX_POINT('',#699);
#209=VERTEX_POINT('',#703);
#210=VERTEX_POINT('',#705);
#211=VERTEX_POINT('',#709);
#212=VERTEX_POINT('',#711);
#213=VERTEX_POINT('',#715);
#214=VERTEX_POINT('',#717);
#215=EDGE_CURVE('',#175,#176,#71,.T.);
#216=EDGE_CURVE('',#176,#177,#72,.T.);
#217=EDGE_CURVE('',#178,#177,#73,.T.);
#218=EDGE_CURVE('',#175,#178,#74,.T.);
#219=EDGE_CURVE('',#179,#175,#75,.T.);
#220=EDGE_CURVE('',#180,#178,#76,.T.);
#221=EDGE_CURVE('',#179,#180,#77,.T.);
#222=EDGE_CURVE('',#181,#179,#15,.T.);
#223=EDGE_CURVE('',#182,#180,#16,.T.);
#224=EDGE_CURVE('',#181,#182,#78,.T.);
#225=EDGE_CURVE('',#183,#181,#79,.T.);
#226=EDGE_CURVE('',#184,#182,#80,.T.);
#227=EDGE_CURVE('',#183,#184,#81,.T.);
#228=EDGE_CURVE('',#185,#183,#17,.T.);
#229=EDGE_CURVE('',#186,#184,#18,.T.);
#230=EDGE_CURVE('',#185,#186,#82,.T.);
#231=EDGE_CURVE('',#187,#185,#83,.T.);
#232=EDGE_CURVE('',#188,#186,#84,.T.);
#233=EDGE_CURVE('',#187,#188,#85,.T.);
#234=EDGE_CURVE('',#189,#187,#86,.T.);
#235=EDGE_CURVE('',#190,#188,#87,.T.);
#236=EDGE_CURVE('',#189,#190,#88,.T.);
#237=EDGE_CURVE('',#191,#189,#89,.T.);
#238=EDGE_CURVE('',#192,#190,#90,.T.);
#239=EDGE_CURVE('',#191,#192,#91,.T.);
#240=EDGE_CURVE('',#193,#191,#92,.T.);
#241=EDGE_CURVE('',#194,#192,#93,.T.);
#242=EDGE_CURVE('',#193,#194,#94,.T.);
#243=EDGE_CURVE('',#195,#193,#95,.T.);
#244=EDGE_CURVE('',#196,#194,#96,.T.);
#245=EDGE_CURVE('',#195,#196,#97,.T.);
#246=EDGE_CURVE('',#197,#195,#98,.T.);
#247=EDGE_CURVE('',#198,#196,#99,.T.);
#248=EDGE_CURVE('',#197,#198,#100,.T.);
#249=EDGE_CURVE('',#199,#197,#101,.T.);
#250=EDGE_CURVE('',#200,#198,#102,.T.);
#251=EDGE_CURVE('',#199,#200,#103,.T.);
#252=EDGE_CURVE('',#201,#199,#104,.T.);
#253=EDGE_CURVE('',#202,#200,#105,.T.);
#254=EDGE_CURVE('',#201,#202,#106,.T.);
#255=EDGE_CURVE('',#203,#201,#107,.T.);
#256=EDGE_CURVE('',#204,#202,#108,.T.);
#257=EDGE_CURVE('',#203,#204,#109,.T.);
#258=EDGE_CURVE('',#205,#203,#19,.T.);
#259=EDGE_CURVE('',#206,#204,#20,.T.);
#260=EDGE_CURVE('',#205,#206,#110,.T.);
#261=EDGE_CURVE('',#207,#205,#111,.T.);
#262=EDGE_CURVE('',#208,#206,#112,.T.);
#263=EDGE_CURVE('',#207,#208,#113,.T.);
#264=EDGE_CURVE('',#209,#207,#21,.T.);
#265=EDGE_CURVE('',#210,#208,#22,.T.);
#266=EDGE_CURVE('',#209,#210,#114,.T.);
#267=EDGE_CURVE('',#211,#209,#115,.T.);
#268=EDGE_CURVE('',#212,#210,#116,.T.);
#269=EDGE_CURVE('',#211,#212,#117,.T.);
#270=EDGE_CURVE('',#213,#211,#118,.T.);
#271=EDGE_CURVE('',#214,#212,#119,.T.);
#272=EDGE_CURVE('',#213,#214,#120,.T.);
#273=EDGE_CURVE('',#176,#213,#121,.T.);
#274=EDGE_CURVE('',#177,#214,#122,.T.);
#275=ORIENTED_EDGE('',*,*,#215,.T.);
#276=ORIENTED_EDGE('',*,*,#216,.T.);
#277=ORIENTED_EDGE('',*,*,#217,.F.);
#278=ORIENTED_EDGE('',*,*,#218,.F.);
#279=ORIENTED_EDGE('',*,*,#219,.T.);
#280=ORIENTED_EDGE('',*,*,#218,.T.);
#281=ORIENTED_EDGE('',*,*,#220,.F.);
#282=ORIENTED_EDGE('',*,*,#221,.F.);
#283=ORIENTED_EDGE('',*,*,#222,.T.);
#284=ORIENTED_EDGE('',*,*,#221,.T.);
#285=ORIENTED_EDGE('',*,*,#223,.F.);
#286=ORIENTED_EDGE('',*,*,#224,.F.);
#287=ORIENTED_EDGE('',*,*,#225,.T.);
#288=ORIENTED_EDGE('',*,*,#224,.T.);
#289=ORIENTED_EDGE('',*,*,#226,.F.);
#290=ORIENTED_EDGE('',*,*,#227,.F.);
#291=ORIENTED_EDGE('',*,*,#228,.T.);
#292=ORIENTED_EDGE('',*,*,#227,.T.);
#293=ORIENTED_EDGE('',*,*,#229,.F.);
#294=ORIENTED_EDGE('',*,*,#230,.F.);
#295=ORIENTED_EDGE('',*,*,#231,.T.);
#296=ORIENTED_EDGE('',*,*,#230,.T.);
#297=ORIENTED_EDGE('',*,*,#232,.F.);
#298=ORIENTED_EDGE('',*,*,#233,.F.);
#299=ORIENTED_EDGE('',*,*,#234,.T.);
#300=ORIENTED_EDGE('',*,*,#233,.T.);
#301=ORIENTED_EDGE('',*,*,#235,.F.);
#302=ORIENTED_EDGE('',*,*,#236,.F.);
#303=ORIENTED_EDGE('',*,*,#237,.T.);
#304=ORIENTED_EDGE('',*,*,#236,.T.);
#305=ORIENTED_EDGE('',*,*,#238,.F.);
#306=ORIENTED_EDGE('',*,*,#239,.F.);
#307=ORIENTED_EDGE('',*,*,#240,.T.);
#308=ORIENTED_EDGE('',*,*,#239,.T.);
#309=ORIENTED_EDGE('',*,*,#241,.F.);
#310=ORIENTED_EDGE('',*,*,#242,.F.);
#311=ORIENTED_EDGE('',*,*,#243,.T.);
#312=ORIENTED_EDGE('',*,*,#242,.T.);
#313=ORIENTED_EDGE('',*,*,#244,.F.);
#314=ORIENTED_EDGE('',*,*,#245,.F.);
#315=ORIENTED_EDGE('',*,*,#246,.T.);
#316=ORIENTED_EDGE('',*,*,#245,.T.);
#317=ORIENTED_EDGE('',*,*,#247,.F.);
#318=ORIENTED_EDGE('',*,*,#248,.F.);
#319=ORIENTED_EDGE('',*,*,#249,.T.);
#320=ORIENTED_EDGE('',*,*,#248,.T.);
#321=ORIENTED_EDGE('',*,*,#250,.F.);
#322=ORIENTED_EDGE('',*,*,#251,.F.);
#323=ORIENTED_EDGE('',*,*,#252,.T.);
#324=ORIENTED_EDGE('',*,*,#251,.T.);
#325=ORIENTED_EDGE('',*,*,#253,.F.);
#326=ORIENTED_EDGE('',*,*,#254,.F.);
#327=ORIENTED_EDGE('',*,*,#255,.T.);
#328=ORIENTED_EDGE('',*,*,#254,.T.);
#329=ORIENTED_EDGE('',*,*,#256,.F.);
#330=ORIENTED_EDGE('',*,*,#257,.F.);
#331=ORIENTED_EDGE('',*,*,#258,.T.);
#332=ORIENTED_EDGE('',*,*,#257,.T.);
#333=ORIENTED_EDGE('',*,*,#259,.F.);
#334=ORIENTED_EDGE('',*,*,#260,.F.);
#335=ORIENTED_EDGE('',*,*,#261,.T.);
#336=ORIENTED_EDGE('',*,*,#260,.T.);
#337=ORIENTED_EDGE('',*,*,#262,.F.);
#338=ORIENTED_EDGE('',*,*,#263,.F.);
#339=ORIENTED_EDGE('',*,*,#264,.T.);
#340=ORIENTED_EDGE('',*,*,#263,.T.);
#341=ORIENTED_EDGE('',*,*,#265,.F.);
#342=ORIENTED_EDGE('',*,*,#266,.F.);
#343=ORIENTED_EDGE('',*,*,#267,.T.);
#344=ORIENTED_EDGE('',*,*,#266,.T.);
#345=ORIENTED_EDGE('',*,*,#268,.F.);
#346=ORIENTED_EDGE('',*,*,#269,.F.);
#347=ORIENTED_EDGE('',*,*,#270,.T.);
#348=ORIENTED_EDGE('',*,*,#269,.T.);
#349=ORIENTED_EDGE('',*,*,#271,.F.);
#350=ORIENTED_EDGE('',*,*,#272,.F.);
#351=ORIENTED_EDGE('',*,*,#273,.T.);
#352=ORIENTED_EDGE('',*,*,#272,.T.);
#353=ORIENTED_EDGE('',*,*,#274,.F.);
#354=ORIENTED_EDGE('',*,*,#216,.F.);
#355=ORIENTED_EDGE('',*,*,#274,.T.);
#356=ORIENTED_EDGE('',*,*,#271,.T.);
#357=ORIENTED_EDGE('',*,*,#268,.T.);
#358=ORIENTED_EDGE('',*,*,#265,.T.);
#359=ORIENTED_EDGE('',*,*,#262,.T.);
#360=ORIENTED_EDGE('',*,*,#259,.T.);
#361=ORIENTED_EDGE('',*,*,#256,.T.);
#362=ORIENTED_EDGE('',*,*,#253,.T.);
#363=ORIENTED_EDGE('',*,*,#250,.T.);
#364=ORIENTED_EDGE('',*,*,#247,.T.);
#365=ORIENTED_EDGE('',*,*,#244,.T.);
#366=ORIENTED_EDGE('',*,*,#241,.T.);
#367=ORIENTED_EDGE('',*,*,#238,.T.);
#368=ORIENTED_EDGE('',*,*,#235,.T.);
#369=ORIENTED_EDGE('',*,*,#232,.T.);
#370=ORIENTED_EDGE('',*,*,#229,.T.);
#371=ORIENTED_EDGE('',*,*,#226,.T.);
#372=ORIENTED_EDGE('',*,*,#223,.T.);
#373=ORIENTED_EDGE('',*,*,#220,.T.);
#374=ORIENTED_EDGE('',*,*,#217,.T.);
#375=ORIENTED_EDGE('',*,*,#273,.F.);
#376=ORIENTED_EDGE('',*,*,#215,.F.);
#377=ORIENTED_EDGE('',*,*,#219,.F.);
#378=ORIENTED_EDGE('',*,*,#222,.F.);
#379=ORIENTED_EDGE('',*,*,#225,.F.);
#380=ORIENTED_EDGE('',*,*,#228,.F.);
#381=ORIENTED_EDGE('',*,*,#231,.F.);
#382=ORIENTED_EDGE('',*,*,#234,.F.);
#383=ORIENTED_EDGE('',*,*,#237,.F.);
#384=ORIENTED_EDGE('',*,*,#240,.F.);
#385=ORIENTED_EDGE('',*,*,#243,.F.);
#386=ORIENTED_EDGE('',*,*,#246,.F.);
#387=ORIENTED_EDGE('',*,*,#249,.F.);
#388=ORIENTED_EDGE('',*,*,#252,.F.);
#389=ORIENTED_EDGE('',*,*,#255,.F.);
#390=ORIENTED_EDGE('',*,*,#258,.F.);
#391=ORIENTED_EDGE('',*,*,#261,.F.);
#392=ORIENTED_EDGE('',*,*,#264,.F.);
#393=ORIENTED_EDGE('',*,*,#267,.F.);
#394=ORIENTED_EDGE('',*,*,#270,.F.);
#395=PLANE('',#458);
#396=PLANE('',#459);
#397=PLANE('',#463);
#398=PLANE('',#467);
#399=PLANE('',#468);
#400=PLANE('',#469);
#401=PLANE('',#470);
#402=PLANE('',#471);
#403=PLANE('',#472);
#404=PLANE('',#473);
#405=PLANE('',#474);
#406=PLANE('',#475);
#407=PLANE('',#479);
#408=PLANE('',#483);
#409=PLANE('',#484);
#410=PLANE('',#485);
#411=PLANE('',#486);
#412=PLANE('',#487);
#413=ADVANCED_FACE('',(#27),#395,.T.);
#414=ADVANCED_FACE('',(#28),#396,.T.);
#415=ADVANCED_FACE('',(#29),#23,.T.);
#416=ADVANCED_FACE('',(#30),#397,.T.);
#417=ADVANCED_FACE('',(#31),#24,.T.);
#418=ADVANCED_FACE('',(#32),#398,.T.);
#419=ADVANCED_FACE('',(#33),#399,.T.);
#420=ADVANCED_FACE('',(#34),#400,.T.);
#421=ADVANCED_FACE('',(#35),#401,.T.);
#422=ADVANCED_FACE('',(#36),#402,.T.);
#423=ADVANCED_FACE('',(#37),#403,.T.);
#424=ADVANCED_FACE('',(#38),#404,.T.);
#425=ADVANCED_FACE('',(#39),#405,.T.);
#426=ADVANCED_FACE('',(#40),#406,.T.);
#427=ADVANCED_FACE('',(#41),#25,.T.);
#428=ADVANCED_FACE('',(#42),#407,.T.);
#429=ADVANCED_FACE('',(#43),#26,.T.);
#430=ADVANCED_FACE('',(#44),#408,.T.);
#431=ADVANCED_FACE('',(#45),#409,.T.);
#432=ADVANCED_FACE('',(#46),#410,.T.);
#433=ADVANCED_FACE('',(#47),#411,.T.);
#434=ADVANCED_FACE('',(#48),#412,.F.);
#435=CLOSED_SHELL('',(#413,#414,#415,#416,#417,#418,#419,#420,#421,#422,
#423,#424,#425,#426,#427,#428,#429,#430,#431,#432,#433,#434));
#436=DERIVED_UNIT_ELEMENT(#439,1.);
#437=DERIVED_UNIT_ELEMENT(#730,-3.);
#438=DIMENSIONAL_EXPONENTS(1.,0.,0.,0.,0.,0.,0.);
#439=(
CONVERSION_BASED_UNIT('gram',#441)
MASS_UNIT()
NAMED_UNIT(#438)
);
#440=(
MASS_UNIT()
NAMED_UNIT(*)
SI_UNIT(.KILO.,.GRAM.)
);
#441=MASS_MEASURE_WITH_UNIT(MASS_MEASURE(0.001),#440);
#442=DERIVED_UNIT((#436,#437));
#443=MEASURE_REPRESENTATION_ITEM('density measure',
POSITIVE_RATIO_MEASURE(0.94),#442);
#444=PROPERTY_DEFINITION_REPRESENTATION(#449,#446);
#445=PROPERTY_DEFINITION_REPRESENTATION(#450,#447);
#446=REPRESENTATION('material name',(#448),#727);
#447=REPRESENTATION('density',(#443),#727);
#448=DESCRIPTIVE_REPRESENTATION_ITEM('Polizene UHMW Nero',
'Polizene UHMW Nero');
#449=PROPERTY_DEFINITION('material property','material name',#737);
#450=PROPERTY_DEFINITION('material property','density of part',#737);
#451=DATE_TIME_ROLE('creation_date');
#452=APPLIED_DATE_AND_TIME_ASSIGNMENT(#453,#451,(#737));
#453=DATE_AND_TIME(#454,#455);
#454=CALENDAR_DATE(2016,19,12);
#455=LOCAL_TIME(0,0,0.,#456);
#456=COORDINATED_UNIVERSAL_TIME_OFFSET(0,0,.BEHIND.);
#457=AXIS2_PLACEMENT_3D('placement',#602,#488,#489);
#458=AXIS2_PLACEMENT_3D('',#603,#490,#491);
#459=AXIS2_PLACEMENT_3D('',#612,#496,#497);
#460=AXIS2_PLACEMENT_3D('',#618,#501,#502);
#461=AXIS2_PLACEMENT_3D('',#620,#503,#504);
#462=AXIS2_PLACEMENT_3D('',#622,#505,#506);
#463=AXIS2_PLACEMENT_3D('',#624,#508,#509);
#464=AXIS2_PLACEMENT_3D('',#630,#513,#514);
#465=AXIS2_PLACEMENT_3D('',#632,#515,#516);
#466=AXIS2_PLACEMENT_3D('',#634,#517,#518);
#467=AXIS2_PLACEMENT_3D('',#636,#520,#521);
#468=AXIS2_PLACEMENT_3D('',#642,#525,#526);
#469=AXIS2_PLACEMENT_3D('',#648,#530,#531);
#470=AXIS2_PLACEMENT_3D('',#654,#535,#536);
#471=AXIS2_PLACEMENT_3D('',#660,#540,#541);
#472=AXIS2_PLACEMENT_3D('',#666,#545,#546);
#473=AXIS2_PLACEMENT_3D('',#672,#550,#551);
#474=AXIS2_PLACEMENT_3D('',#678,#555,#556);
#475=AXIS2_PLACEMENT_3D('',#684,#560,#561);
#476=AXIS2_PLACEMENT_3D('',#690,#565,#566);
#477=AXIS2_PLACEMENT_3D('',#692,#567,#568);
#478=AXIS2_PLACEMENT_3D('',#694,#569,#570);
#479=AXIS2_PLACEMENT_3D('',#696,#572,#573);
#480=AXIS2_PLACEMENT_3D('',#702,#577,#578);
#481=AXIS2_PLACEMENT_3D('',#704,#579,#580);
#482=AXIS2_PLACEMENT_3D('',#706,#581,#582);
#483=AXIS2_PLACEMENT_3D('',#708,#584,#585);
#484=AXIS2_PLACEMENT_3D('',#714,#589,#590);
#485=AXIS2_PLACEMENT_3D('',#720,#594,#595);
#486=AXIS2_PLACEMENT_3D('',#723,#598,#599);
#487=AXIS2_PLACEMENT_3D('',#724,#600,#601);
#488=DIRECTION('axis',(0.,0.,1.));
#489=DIRECTION('refdir',(1.,0.,0.));
#490=DIRECTION('center_axis',(1.,0.,0.));
#491=DIRECTION('ref_axis',(0.,1.,0.));
#492=DIRECTION('',(0.,1.,0.));
#493=DIRECTION('',(0.,0.,1.));
#494=DIRECTION('',(0.,1.,0.));
#495=DIRECTION('',(0.,0.,1.));
#496=DIRECTION('center_axis',(0.,1.,0.));
#497=DIRECTION('ref_axis',(-1.,0.,0.));
#498=DIRECTION('',(-1.,0.,0.));
#499=DIRECTION('',(-1.,0.,0.));
#500=DIRECTION('',(0.,0.,1.));
#501=DIRECTION('center_axis',(0.,0.,1.));
#502=DIRECTION('ref_axis',(1.,-1.11022302462516E-15,0.));
#503=DIRECTION('center_axis',(0.,0.,1.));
#504=DIRECTION('ref_axis',(1.,-1.11022302462516E-15,0.));
#505=DIRECTION('center_axis',(0.,0.,1.));
#506=DIRECTION('ref_axis',(1.,-1.11022302462516E-15,0.));
#507=DIRECTION('',(0.,0.,1.));
#508=DIRECTION('center_axis',(1.,0.,0.));
#509=DIRECTION('ref_axis',(0.,1.,0.));
#510=DIRECTION('',(0.,1.,0.));
#511=DIRECTION('',(0.,1.,0.));
#512=DIRECTION('',(0.,0.,1.));
#513=DIRECTION('center_axis',(0.,0.,1.));
#514=DIRECTION('ref_axis',(0.,-1.,0.));
#515=DIRECTION('center_axis',(0.,0.,1.));
#516=DIRECTION('ref_axis',(0.,-1.,0.));
#517=DIRECTION('center_axis',(0.,0.,1.));
#518=DIRECTION('ref_axis',(0.,-1.,0.));
#519=DIRECTION('',(0.,0.,1.));
#520=DIRECTION('center_axis',(0.,-1.,0.));
#521=DIRECTION('ref_axis',(1.,0.,0.));
#522=DIRECTION('',(1.,0.,0.));
#523=DIRECTION('',(1.,0.,0.));
#524=DIRECTION('',(0.,0.,1.));
#525=DIRECTION('center_axis',(1.,0.,0.));
#526=DIRECTION('ref_axis',(0.,1.,0.));
#527=DIRECTION('',(0.,1.,0.));
#528=DIRECTION('',(0.,1.,0.));
#529=DIRECTION('',(0.,0.,1.));
#530=DIRECTION('center_axis',(0.,1.,0.));
#531=DIRECTION('ref_axis',(-1.,0.,0.));
#532=DIRECTION('',(-1.,0.,0.));
#533=DIRECTION('',(-1.,0.,0.));
#534=DIRECTION('',(0.,0.,1.));
#535=DIRECTION('center_axis',(1.,0.,0.));
#536=DIRECTION('ref_axis',(0.,1.,0.));
#537=DIRECTION('',(0.,1.,0.));
#538=DIRECTION('',(0.,1.,0.));
#539=DIRECTION('',(0.,0.,1.));
#540=DIRECTION('center_axis',(0.,-1.,0.));
#541=DIRECTION('ref_axis',(1.,0.,0.));
#542=DIRECTION('',(1.,0.,0.));
#543=DIRECTION('',(1.,0.,0.));
#544=DIRECTION('',(0.,0.,1.));
#545=DIRECTION('center_axis',(-1.,0.,0.));
#546=DIRECTION('ref_axis',(0.,-1.,0.));
#547=DIRECTION('',(0.,-1.,0.));
#548=DIRECTION('',(0.,-1.,0.));
#549=DIRECTION('',(0.,0.,1.));
#550=DIRECTION('center_axis',(0.,1.,0.));
#551=DIRECTION('ref_axis',(-1.,0.,0.));
#552=DIRECTION('',(-1.,0.,0.));
#553=DIRECTION('',(-1.,0.,0.));
#554=DIRECTION('',(0.,0.,1.));
#555=DIRECTION('center_axis',(-1.,0.,0.));
#556=DIRECTION('ref_axis',(0.,-1.,0.));
#557=DIRECTION('',(0.,-1.,0.));
#558=DIRECTION('',(0.,-1.,0.));
#559=DIRECTION('',(0.,0.,1.));
#560=DIRECTION('center_axis',(0.,-1.,0.));
#561=DIRECTION('ref_axis',(1.,0.,0.));
#562=DIRECTION('',(1.,0.,0.));
#563=DIRECTION('',(1.,0.,0.));
#564=DIRECTION('',(0.,0.,1.));
#565=DIRECTION('center_axis',(0.,0.,1.));
#566=DIRECTION('ref_axis',(-1.,0.,0.));
#567=DIRECTION('center_axis',(0.,0.,1.));
#568=DIRECTION('ref_axis',(-1.,0.,0.));
#569=DIRECTION('center_axis',(0.,0.,1.));
#570=DIRECTION('ref_axis',(-1.,0.,0.));
#571=DIRECTION('',(0.,0.,1.));
#572=DIRECTION('center_axis',(-1.,0.,0.));
#573=DIRECTION('ref_axis',(0.,-1.,0.));
#574=DIRECTION('',(0.,-1.,0.));
#575=DIRECTION('',(0.,-1.,0.));
#576=DIRECTION('',(0.,0.,1.));
#577=DIRECTION('center_axis',(0.,0.,1.));
#578=DIRECTION('ref_axis',(0.,1.,0.));
#579=DIRECTION('center_axis',(0.,0.,1.));
#580=DIRECTION('ref_axis',(0.,1.,0.));
#581=DIRECTION('center_axis',(0.,0.,1.));
#582=DIRECTION('ref_axis',(0.,1.,0.));
#583=DIRECTION('',(0.,0.,1.));
#584=DIRECTION('center_axis',(0.,1.,0.));
#585=DIRECTION('ref_axis',(-1.,0.,0.));
#586=DIRECTION('',(-1.,0.,0.));
#587=DIRECTION('',(-1.,0.,0.));
#588=DIRECTION('',(0.,0.,1.));
#589=DIRECTION('center_axis',(-1.,0.,0.));
#590=DIRECTION('ref_axis',(0.,-1.,0.));
#591=DIRECTION('',(0.,-1.,0.));
#592=DIRECTION('',(0.,-1.,0.));
#593=DIRECTION('',(0.,0.,1.));
#594=DIRECTION('center_axis',(0.,1.,0.));
#595=DIRECTION('ref_axis',(-1.,0.,0.));
#596=DIRECTION('',(-1.,0.,0.));
#597=DIRECTION('',(-1.,0.,0.));
#598=DIRECTION('center_axis',(0.,0.,1.));
#599=DIRECTION('ref_axis',(1.,0.,0.));
#600=DIRECTION('center_axis',(0.,0.,1.));
#601=DIRECTION('ref_axis',(1.,0.,0.));
#602=CARTESIAN_POINT('',(0.,0.,0.));
#603=CARTESIAN_POINT('Origin',(4.,7.35,0.));
#604=CARTESIAN_POINT('',(4.,7.35,0.));
#605=CARTESIAN_POINT('',(4.,10.35,0.));
#606=CARTESIAN_POINT('',(4.,7.35,0.));
#607=CARTESIAN_POINT('',(4.,10.35,3000.));
#608=CARTESIAN_POINT('',(4.,10.35,0.));
#609=CARTESIAN_POINT('',(4.,7.35,3000.));
#610=CARTESIAN_POINT('',(4.,7.35,3000.));
#611=CARTESIAN_POINT('',(4.,7.35,0.));
#612=CARTESIAN_POINT('Origin',(19.,7.35,0.));
#613=CARTESIAN_POINT('',(19.,7.35,0.));
#614=CARTESIAN_POINT('',(19.,7.35,0.));
#615=CARTESIAN_POINT('',(19.,7.35,3000.));
#616=CARTESIAN_POINT('',(19.,7.35,3000.));
#617=CARTESIAN_POINT('',(19.,7.35,0.));
#618=CARTESIAN_POINT('Origin',(19.,6.35,0.));
#619=CARTESIAN_POINT('',(20.,6.35,0.));
#620=CARTESIAN_POINT('Origin',(19.,6.35,0.));
#621=CARTESIAN_POINT('',(20.,6.35,3000.));
#622=CARTESIAN_POINT('Origin',(19.,6.35,3000.));
#623=CARTESIAN_POINT('',(20.,6.35,0.));
#624=CARTESIAN_POINT('Origin',(20.,3.35,0.));
#625=CARTESIAN_POINT('',(20.,3.35,0.));
#626=CARTESIAN_POINT('',(20.,3.35,0.));
#627=CARTESIAN_POINT('',(20.,3.35,3000.));
#628=CARTESIAN_POINT('',(20.,3.35,3000.));
#629=CARTESIAN_POINT('',(20.,3.35,0.));
#630=CARTESIAN_POINT('Origin',(19.,3.35,0.));
#631=CARTESIAN_POINT('',(19.,2.35,0.));
#632=CARTESIAN_POINT('Origin',(19.,3.35,0.));
#633=CARTESIAN_POINT('',(19.,2.35,3000.));
#634=CARTESIAN_POINT('Origin',(19.,3.35,3000.));
#635=CARTESIAN_POINT('',(19.,2.35,0.));
#636=CARTESIAN_POINT('Origin',(4.,2.35,0.));
#637=CARTESIAN_POINT('',(4.,2.35,0.));
#638=CARTESIAN_POINT('',(4.,2.35,0.));
#639=CARTESIAN_POINT('',(4.,2.35,3000.));
#640=CARTESIAN_POINT('',(4.,2.35,3000.));
#641=CARTESIAN_POINT('',(4.,2.35,0.));
#642=CARTESIAN_POINT('Origin',(4.,-2.35,0.));
#643=CARTESIAN_POINT('',(4.,-2.35,0.));
#644=CARTESIAN_POINT('',(4.,-2.35,0.));
#645=CARTESIAN_POINT('',(4.,-2.35,3000.));
#646=CARTESIAN_POINT('',(4.,-2.35,3000.));
#647=CARTESIAN_POINT('',(4.,-2.35,0.));
#648=CARTESIAN_POINT('Origin',(11.,-2.35,0.));
#649=CARTESIAN_POINT('',(11.,-2.35,0.));
#650=CARTESIAN_POINT('',(11.,-2.35,0.));
#651=CARTESIAN_POINT('',(11.,-2.35,3000.));
#652=CARTESIAN_POINT('',(11.,-2.35,3000.));
#653=CARTESIAN_POINT('',(11.,-2.35,0.));
#654=CARTESIAN_POINT('Origin',(11.,-5.65,0.));
#655=CARTESIAN_POINT('',(11.,-5.65,0.));
#656=CARTESIAN_POINT('',(11.,-5.65,0.));
#657=CARTESIAN_POINT('',(11.,-5.65,3000.));
#658=CARTESIAN_POINT('',(11.,-5.65,3000.));
#659=CARTESIAN_POINT('',(11.,-5.65,0.));
#660=CARTESIAN_POINT('Origin',(-11.,-5.65,0.));
#661=CARTESIAN_POINT('',(-11.,-5.65,0.));
#662=CARTESIAN_POINT('',(-11.,-5.65,0.));
#663=CARTESIAN_POINT('',(-11.,-5.65,3000.));
#664=CARTESIAN_POINT('',(-11.,-5.65,3000.));
#665=CARTESIAN_POINT('',(-11.,-5.65,0.));
#666=CARTESIAN_POINT('Origin',(-11.,-2.35,0.));
#667=CARTESIAN_POINT('',(-11.,-2.35,0.));
#668=CARTESIAN_POINT('',(-11.,-2.35,0.));
#669=CARTESIAN_POINT('',(-11.,-2.35,3000.));
#670=CARTESIAN_POINT('',(-11.,-2.35,3000.));
#671=CARTESIAN_POINT('',(-11.,-2.35,0.));
#672=CARTESIAN_POINT('Origin',(-4.,-2.35,0.));
#673=CARTESIAN_POINT('',(-4.,-2.35,0.));
#674=CARTESIAN_POINT('',(-4.,-2.35,0.));
#675=CARTESIAN_POINT('',(-4.,-2.35,3000.));
#676=CARTESIAN_POINT('',(-4.,-2.35,3000.));
#677=CARTESIAN_POINT('',(-4.,-2.35,0.));
#678=CARTESIAN_POINT('Origin',(-4.,2.35,0.));
#679=CARTESIAN_POINT('',(-4.,2.35,0.));
#680=CARTESIAN_POINT('',(-4.,2.35,0.));
#681=CARTESIAN_POINT('',(-4.,2.35,3000.));
#682=CARTESIAN_POINT('',(-4.,2.35,3000.));
#683=CARTESIAN_POINT('',(-4.,2.35,0.));
#684=CARTESIAN_POINT('Origin',(-19.,2.35,0.));
#685=CARTESIAN_POINT('',(-19.,2.35,0.));
#686=CARTESIAN_POINT('',(-19.,2.35,0.));
#687=CARTESIAN_POINT('',(-19.,2.35,3000.));
#688=CARTESIAN_POINT('',(-19.,2.35,3000.));
#689=CARTESIAN_POINT('',(-19.,2.35,0.));
#690=CARTESIAN_POINT('Origin',(-19.,3.35,0.));
#691=CARTESIAN_POINT('',(-20.,3.35,0.));
#692=CARTESIAN_POINT('Origin',(-19.,3.35,0.));
#693=CARTESIAN_POINT('',(-20.,3.35,3000.));
#694=CARTESIAN_POINT('Origin',(-19.,3.35,3000.));
#695=CARTESIAN_POINT('',(-20.,3.35,0.));
#696=CARTESIAN_POINT('Origin',(-20.,6.35,0.));
#697=CARTESIAN_POINT('',(-20.,6.35,0.));
#698=CARTESIAN_POINT('',(-20.,6.35,0.));
#699=CARTESIAN_POINT('',(-20.,6.35,3000.));
#700=CARTESIAN_POINT('',(-20.,6.35,3000.));
#701=CARTESIAN_POINT('',(-20.,6.35,0.));
#702=CARTESIAN_POINT('Origin',(-19.,6.35,0.));
#703=CARTESIAN_POINT('',(-19.,7.35,0.));
#704=CARTESIAN_POINT('Origin',(-19.,6.35,0.));
#705=CARTESIAN_POINT('',(-19.,7.35,3000.));
#706=CARTESIAN_POINT('Origin',(-19.,6.35,3000.));
#707=CARTESIAN_POINT('',(-19.,7.35,0.));
#708=CARTESIAN_POINT('Origin',(-4.,7.35,0.));
#709=CARTESIAN_POINT('',(-4.,7.35,0.));
#710=CARTESIAN_POINT('',(-4.,7.35,0.));
#711=CARTESIAN_POINT('',(-4.,7.35,3000.));
#712=CARTESIAN_POINT('',(-4.,7.35,3000.));
#713=CARTESIAN_POINT('',(-4.,7.35,0.));
#714=CARTESIAN_POINT('Origin',(-4.,10.35,0.));
#715=CARTESIAN_POINT('',(-4.,10.35,0.));
#716=CARTESIAN_POINT('',(-4.,10.35,0.));
#717=CARTESIAN_POINT('',(-4.,10.35,3000.));
#718=CARTESIAN_POINT('',(-4.,10.35,3000.));
#719=CARTESIAN_POINT('',(-4.,10.35,0.));
#720=CARTESIAN_POINT('Origin',(4.,10.35,0.));
#721=CARTESIAN_POINT('',(4.,10.35,0.));
#722=CARTESIAN_POINT('',(4.,10.35,3000.));
#723=CARTESIAN_POINT('Origin',(1.67492866255005E-16,2.1596805436355,3000.));
#724=CARTESIAN_POINT('Origin',(1.67492866255005E-16,2.1596805436355,0.));
#725=UNCERTAINTY_MEASURE_WITH_UNIT(LENGTH_MEASURE(0.01),#729,
'DISTANCE_ACCURACY_VALUE',
'Maximum model space distance between geometric entities at asserted c
onnectivities');
#726=UNCERTAINTY_MEASURE_WITH_UNIT(LENGTH_MEASURE(0.01),#729,
'DISTANCE_ACCURACY_VALUE',
'Maximum model space distance between geometric entities at asserted c
onnectivities');
#727=(
GEOMETRIC_REPRESENTATION_CONTEXT(3)
GLOBAL_UNCERTAINTY_ASSIGNED_CONTEXT((#725))
GLOBAL_UNIT_ASSIGNED_CONTEXT((#729,#731,#732))
REPRESENTATION_CONTEXT('','3D')
);
#728=(
GEOMETRIC_REPRESENTATION_CONTEXT(3)
GLOBAL_UNCERTAINTY_ASSIGNED_CONTEXT((#726))
GLOBAL_UNIT_ASSIGNED_CONTEXT((#729,#731,#732))
REPRESENTATION_CONTEXT('','3D')
);
#729=(
LENGTH_UNIT()
NAMED_UNIT(*)
SI_UNIT(.MILLI.,.METRE.)
);
#730=(
LENGTH_UNIT()
NAMED_UNIT(*)
SI_UNIT(.CENTI.,.METRE.)
);
#731=(
NAMED_UNIT(*)
PLANE_ANGLE_UNIT()
SI_UNIT($,.RADIAN.)
);
#732=(
NAMED_UNIT(*)
SI_UNIT($,.STERADIAN.)
SOLID_ANGLE_UNIT()
);
#733=SHAPE_DEFINITION_REPRESENTATION(#734,#735);
#734=PRODUCT_DEFINITION_SHAPE('',$,#737);
#735=SHAPE_REPRESENTATION('',(#457),#727);
#736=PRODUCT_DEFINITION_CONTEXT('part definition',#741,'design');
#737=PRODUCT_DEFINITION('APRPZ0000011','APRPZ0000011',#738,#736);
#738=PRODUCT_DEFINITION_FORMATION('',$,#743);
#739=PRODUCT_RELATED_PRODUCT_CATEGORY('APRPZ0000011','APRPZ0000011',(#743));
#740=APPLICATION_PROTOCOL_DEFINITION('international standard',
'automotive_design',2009,#741);
#741=APPLICATION_CONTEXT(
'Core Data for Automotive Mechanical Design Process');
#742=PRODUCT_CONTEXT('part definition',#741,'mechanical');
#743=PRODUCT('APRPZ0000011','APRPZ0000011',$,(#742));
#744=PRESENTATION_STYLE_ASSIGNMENT((#745));
#745=SURFACE_STYLE_USAGE(.BOTH.,#748);
#746=SURFACE_STYLE_RENDERING_WITH_PROPERTIES($,#752,(#747));
#747=SURFACE_STYLE_TRANSPARENT(0.);
#748=SURFACE_SIDE_STYLE('',(#749,#746));
#749=SURFACE_STYLE_FILL_AREA(#750);
#750=FILL_AREA_STYLE('',(#751));
#751=FILL_AREA_STYLE_COLOUR('',#752);
#752=COLOUR_RGB('',0.105882352941176,0.105882352941176,0.105882352941176);
ENDSEC;
END-ISO-10303-21;
