ISO-10303-21;
HEADER;
/****************************************************************
 * Generated by software with PDE/Lib inside                    *
 * PDElib Version v4.4, created Mon 02/23/2004                  *
 * International Technegroup Inc. (www.iti-oh.com)              *
 ****************************************************************/
FILE_DESCRIPTION(('STEP AP203'),'2;1');
FILE_NAME('21.060.00A.stp','2011-09-08T18:04:12',(''),(''),'2009.3.110','THINKDESIGN','');
FILE_SCHEMA(('CONFIG_CONTROL_DESIGN'));
ENDSEC;
DATA;
#2=CARTESIAN_POINT('',(200.000000010000010,-3.799999999999560,-2.500000000000002));
#3=DIRECTION('',(-1.0,0.0,0.0));
#4=DIRECTION('',(0.0,6.123234E-017,1.0));
#5=AXIS2_PLACEMENT_3D('',#2,#3,#4);
#6=CYLINDRICAL_SURFACE('',#5,0.500000000000001);
#7=CARTESIAN_POINT('',(200.0,-4.299999999999560,-2.500000000000000));
#8=VERTEX_POINT('',#7);
#9=CARTESIAN_POINT('',(200.0,-3.299999999999560,-2.500000000000000));
#10=VERTEX_POINT('',#9);
#11=CARTESIAN_POINT('',(200.0,-3.799999999999560,-2.500000000000000));
#12=DIRECTION('',(1.0,0.0,0.0));
#13=DIRECTION('',(0.0,6.123234E-017,1.0));
#14=AXIS2_PLACEMENT_3D('',#11,#12,#13);
#15=CIRCLE('',#14,0.500000000000001);
#16=EDGE_CURVE('',#8,#10,#15,.T.);
#17=ORIENTED_EDGE('',*,*,#16,.F.);
#18=CARTESIAN_POINT('',(0.0,-4.299999999999560,-2.500000000000000));
#19=VERTEX_POINT('',#18);
#20=CARTESIAN_POINT('',(200.0,-4.299999999999560,-2.500000000000000));
#21=DIRECTION('',(-1.0,0.0,0.0));
#22=VECTOR('',#21,200.0);
#23=LINE('',#20,#22);
#24=EDGE_CURVE('',#8,#19,#23,.T.);
#25=ORIENTED_EDGE('',*,*,#24,.T.);
#26=CARTESIAN_POINT('',(0.0,-3.299999999999560,-2.500000000000000));
#27=VERTEX_POINT('',#26);
#28=CARTESIAN_POINT('',(0.0,-3.799999999999560,-2.500000000000000));
#29=DIRECTION('',(1.0,0.0,0.0));
#30=DIRECTION('',(0.0,6.123234E-017,1.0));
#31=AXIS2_PLACEMENT_3D('',#28,#29,#30);
#32=CIRCLE('',#31,0.500000000000001);
#33=EDGE_CURVE('',#19,#27,#32,.T.);
#34=ORIENTED_EDGE('',*,*,#33,.T.);
#35=CARTESIAN_POINT('',(200.0,-3.299999999999560,-2.500000000000000));
#36=DIRECTION('',(-1.0,0.0,0.0));
#37=VECTOR('',#36,200.0);
#38=LINE('',#35,#37);
#39=EDGE_CURVE('',#10,#27,#38,.T.);
#40=ORIENTED_EDGE('',*,*,#39,.F.);
#41=EDGE_LOOP('',(#17,#25,#34,#40));
#42=FACE_OUTER_BOUND('',#41,.T.);
#43=ADVANCED_FACE('',(#42),#6,.T.);
#44=CARTESIAN_POINT('',(200.000000010000010,-4.667807808355803,0.900000000000002));
#45=DIRECTION('',(-1.0,0.0,0.0));
#46=DIRECTION('',(0.0,0.854202916972412,0.519939781739985));
#47=AXIS2_PLACEMENT_3D('',#44,#45,#46);
#48=CYLINDRICAL_SURFACE('',#47,0.099999999999999);
#49=CARTESIAN_POINT('',(200.0,-4.767807808355805,0.900000000000002));
#50=VERTEX_POINT('',#49);
#51=CARTESIAN_POINT('',(200.0,-4.713740333028635,0.811173184357550));
#52=VERTEX_POINT('',#51);
#53=CARTESIAN_POINT('',(200.0,-4.667807808355803,0.900000000000002));
#54=DIRECTION('',(1.0,0.0,0.0));
#55=DIRECTION('',(0.0,1.0,-6.123234E-017));
#56=AXIS2_PLACEMENT_3D('',#53,#54,#55);
#57=CIRCLE('',#56,0.099999999999999);
#58=EDGE_CURVE('',#50,#52,#57,.T.);
#59=ORIENTED_EDGE('',*,*,#58,.F.);
#60=CARTESIAN_POINT('',(0.0,-4.767807808355805,0.900000000000002));
#61=VERTEX_POINT('',#60);
#62=CARTESIAN_POINT('',(200.0,-4.767807808355805,0.900000000000002));
#63=DIRECTION('',(-1.0,0.0,0.0));
#64=VECTOR('',#63,200.0);
#65=LINE('',#62,#64);
#66=EDGE_CURVE('',#50,#61,#65,.T.);
#67=ORIENTED_EDGE('',*,*,#66,.T.);
#68=CARTESIAN_POINT('',(0.0,-4.713740333028635,0.811173184357550));
#69=VERTEX_POINT('',#68);
#70=CARTESIAN_POINT('',(0.0,-4.667807808355803,0.900000000000002));
#71=DIRECTION('',(1.0,0.0,0.0));
#72=DIRECTION('',(0.0,1.0,-6.123234E-017));
#73=AXIS2_PLACEMENT_3D('',#70,#71,#72);
#74=CIRCLE('',#73,0.099999999999999);
#75=EDGE_CURVE('',#61,#69,#74,.T.);
#76=ORIENTED_EDGE('',*,*,#75,.T.);
#77=CARTESIAN_POINT('',(200.0,-4.713740333028635,0.811173184357550));
#78=DIRECTION('',(-1.0,0.0,0.0));
#79=VECTOR('',#78,200.0);
#80=LINE('',#77,#79);
#81=EDGE_CURVE('',#52,#69,#80,.T.);
#82=ORIENTED_EDGE('',*,*,#81,.F.);
#83=EDGE_LOOP('',(#59,#67,#76,#82));
#84=FACE_OUTER_BOUND('',#83,.T.);
#85=ADVANCED_FACE('',(#84),#48,.T.);
#86=CARTESIAN_POINT('',(210.0,-3.299999999999560,-2.625000000000000));
#87=DIRECTION('',(0.0,-1.0,0.0));
#88=DIRECTION('',(0.0,0.0,1.0));
#89=AXIS2_PLACEMENT_3D('',#86,#87,#88);
#90=PLANE('',#89);
#91=CARTESIAN_POINT('',(0.0,-3.299999999999578,2.020667E-016));
#92=VERTEX_POINT('',#91);
#93=CARTESIAN_POINT('',(0.0,-3.299999999999560,-2.500000000000000));
#94=DIRECTION('',(0.0,0.0,1.0));
#95=VECTOR('',#94,2.500000000000000);
#96=LINE('',#93,#95);
#97=EDGE_CURVE('',#27,#92,#96,.T.);
#98=ORIENTED_EDGE('',*,*,#97,.T.);
#99=CARTESIAN_POINT('',(200.0,-3.299999999999578,2.020667E-016));
#100=VERTEX_POINT('',#99);
#101=CARTESIAN_POINT('',(200.0,-3.299999999999578,2.020667E-016));
#102=DIRECTION('',(-1.0,0.0,0.0));
#103=VECTOR('',#102,200.0);
#104=LINE('',#101,#103);
#105=EDGE_CURVE('',#100,#92,#104,.T.);
#106=ORIENTED_EDGE('',*,*,#105,.F.);
#107=CARTESIAN_POINT('',(200.0,-3.299999999999560,-2.500000000000000));
#108=DIRECTION('',(0.0,0.0,1.0));
#109=VECTOR('',#108,2.500000000000000);
#110=LINE('',#107,#109);
#111=EDGE_CURVE('',#10,#100,#110,.T.);
#112=ORIENTED_EDGE('',*,*,#111,.F.);
#113=ORIENTED_EDGE('',*,*,#39,.T.);
#114=EDGE_LOOP('',(#98,#106,#112,#113));
#115=FACE_OUTER_BOUND('',#114,.T.);
#116=ADVANCED_FACE('',(#115),#90,.F.);
#117=CARTESIAN_POINT('',(210.0,3.629999999999535,2.020667E-016));
#118=DIRECTION('',(0.0,0.0,1.0));
#119=DIRECTION('',(-1.0,0.0,0.0));
#120=AXIS2_PLACEMENT_3D('',#117,#118,#119);
#121=PLANE('',#120);
#122=CARTESIAN_POINT('',(0.0,3.299999999999580,2.020667E-016));
#123=VERTEX_POINT('',#122);
#124=CARTESIAN_POINT('',(0.0,-3.299999999999578,2.020667E-016));
#125=DIRECTION('',(0.0,1.0,0.0));
#126=VECTOR('',#125,6.599999999999156);
#127=LINE('',#124,#126);
#128=EDGE_CURVE('',#92,#123,#127,.T.);
#129=ORIENTED_EDGE('',*,*,#128,.T.);
#130=CARTESIAN_POINT('',(200.0,3.299999999999580,2.020667E-016));
#131=VERTEX_POINT('',#130);
#132=CARTESIAN_POINT('',(200.0,3.299999999999580,2.020667E-016));
#133=DIRECTION('',(-1.0,0.0,0.0));
#134=VECTOR('',#133,200.0);
#135=LINE('',#132,#134);
#136=EDGE_CURVE('',#131,#123,#135,.T.);
#137=ORIENTED_EDGE('',*,*,#136,.F.);
#138=CARTESIAN_POINT('',(200.0,-3.299999999999578,2.020667E-016));
#139=DIRECTION('',(0.0,1.0,0.0));
#140=VECTOR('',#139,6.599999999999156);
#141=LINE('',#138,#140);
#142=EDGE_CURVE('',#100,#131,#141,.T.);
#143=ORIENTED_EDGE('',*,*,#142,.F.);
#144=ORIENTED_EDGE('',*,*,#105,.T.);
#145=EDGE_LOOP('',(#129,#137,#143,#144));
#146=FACE_OUTER_BOUND('',#145,.T.);
#147=ADVANCED_FACE('',(#146),#121,.F.);
#148=CARTESIAN_POINT('',(210.0,3.299999999999580,-2.625000000000000));
#149=DIRECTION('',(0.0,1.0,0.0));
#150=DIRECTION('',(-1.0,0.0,0.0));
#151=AXIS2_PLACEMENT_3D('',#148,#149,#150);
#152=PLANE('',#151);
#153=CARTESIAN_POINT('',(0.0,3.299999999999580,-2.500000000000000));
#154=VERTEX_POINT('',#153);
#155=CARTESIAN_POINT('',(0.0,3.299999999999580,2.020667E-016));
#156=DIRECTION('',(0.0,0.0,-1.0));
#157=VECTOR('',#156,2.500000000000000);
#158=LINE('',#155,#157);
#159=EDGE_CURVE('',#123,#154,#158,.T.);
#160=ORIENTED_EDGE('',*,*,#159,.T.);
#161=CARTESIAN_POINT('',(200.0,3.299999999999580,-2.500000000000000));
#162=VERTEX_POINT('',#161);
#163=CARTESIAN_POINT('',(200.0,3.299999999999580,-2.500000000000000));
#164=DIRECTION('',(-1.0,0.0,0.0));
#165=VECTOR('',#164,200.0);
#166=LINE('',#163,#165);
#167=EDGE_CURVE('',#162,#154,#166,.T.);
#168=ORIENTED_EDGE('',*,*,#167,.F.);
#169=CARTESIAN_POINT('',(200.0,3.299999999999580,2.020667E-016));
#170=DIRECTION('',(0.0,0.0,-1.0));
#171=VECTOR('',#170,2.500000000000000);
#172=LINE('',#169,#171);
#173=EDGE_CURVE('',#131,#162,#172,.T.);
#174=ORIENTED_EDGE('',*,*,#173,.F.);
#175=ORIENTED_EDGE('',*,*,#136,.T.);
#176=EDGE_LOOP('',(#160,#168,#174,#175));
#177=FACE_OUTER_BOUND('',#176,.T.);
#178=ADVANCED_FACE('',(#177),#152,.F.);
#179=CARTESIAN_POINT('',(200.000000010000010,3.799999999999580,-2.499999999999831));
#180=DIRECTION('',(-1.0,0.0,0.0));
#181=DIRECTION('',(0.0,-0.645497224367235,0.763762615826538));
#182=AXIS2_PLACEMENT_3D('',#179,#180,#181);
#183=CYLINDRICAL_SURFACE('',#182,0.500000000000001);
#184=CARTESIAN_POINT('',(0.0,3.883333333333775,-2.006993351408342));
#185=VERTEX_POINT('',#184);
#186=CARTESIAN_POINT('',(0.0,3.799999999999580,-2.499999999999833));
#187=DIRECTION('',(1.0,0.0,0.0));
#188=DIRECTION('',(0.0,-1.0,6.123234E-017));
#189=AXIS2_PLACEMENT_3D('',#186,#187,#188);
#190=CIRCLE('',#189,0.500000000000001);
#191=EDGE_CURVE('',#154,#185,#190,.T.);
#192=ORIENTED_EDGE('',*,*,#191,.T.);
#193=CARTESIAN_POINT('',(200.0,3.883333333333775,-2.006993351408342));
#194=VERTEX_POINT('',#193);
#195=CARTESIAN_POINT('',(200.0,3.883333333333775,-2.006993351408342));
#196=DIRECTION('',(-1.0,0.0,0.0));
#197=VECTOR('',#196,200.0);
#198=LINE('',#195,#197);
#199=EDGE_CURVE('',#194,#185,#198,.T.);
#200=ORIENTED_EDGE('',*,*,#199,.F.);
#201=CARTESIAN_POINT('',(200.0,3.799999999999580,-2.499999999999833));
#202=DIRECTION('',(1.0,0.0,0.0));
#203=DIRECTION('',(0.0,-1.0,6.123234E-017));
#204=AXIS2_PLACEMENT_3D('',#201,#202,#203);
#205=CIRCLE('',#204,0.500000000000001);
#206=EDGE_CURVE('',#162,#194,#205,.T.);
#207=ORIENTED_EDGE('',*,*,#206,.F.);
#208=ORIENTED_EDGE('',*,*,#167,.T.);
#209=EDGE_LOOP('',(#192,#200,#207,#208));
#210=FACE_OUTER_BOUND('',#209,.T.);
#211=ADVANCED_FACE('',(#210),#183,.T.);
#212=CARTESIAN_POINT('',(200.000000010000010,3.900000000000434,-1.908392021690039));
#213=DIRECTION('',(-1.0,0.0,0.0));
#214=DIRECTION('',(0.0,0.763762615825963,0.645497224367916));
#215=AXIS2_PLACEMENT_3D('',#212,#213,#214);
#216=CYLINDRICAL_SURFACE('',#215,0.100000000000003);
#217=CARTESIAN_POINT('',(0.0,3.800000000000425,-1.908392021690043));
#218=VERTEX_POINT('',#217);
#219=CARTESIAN_POINT('',(0.0,3.900000000000434,-1.908392021690043));
#220=DIRECTION('',(-1.0,0.0,0.0));
#221=DIRECTION('',(0.0,1.0,-6.123234E-017));
#222=AXIS2_PLACEMENT_3D('',#219,#220,#221);
#223=CIRCLE('',#222,0.100000000000003);
#224=EDGE_CURVE('',#185,#218,#223,.T.);
#225=ORIENTED_EDGE('',*,*,#224,.T.);
#226=CARTESIAN_POINT('',(200.0,3.800000000000425,-1.908392021690043));
#227=VERTEX_POINT('',#226);
#228=CARTESIAN_POINT('',(200.0,3.800000000000425,-1.908392021690043));
#229=DIRECTION('',(-1.0,0.0,0.0));
#230=VECTOR('',#229,200.0);
#231=LINE('',#228,#230);
#232=EDGE_CURVE('',#227,#218,#231,.T.);
#233=ORIENTED_EDGE('',*,*,#232,.F.);
#234=CARTESIAN_POINT('',(200.0,3.900000000000434,-1.908392021690043));
#235=DIRECTION('',(-1.0,0.0,0.0));
#236=DIRECTION('',(0.0,1.0,-6.123234E-017));
#237=AXIS2_PLACEMENT_3D('',#234,#235,#236);
#238=CIRCLE('',#237,0.100000000000003);
#239=EDGE_CURVE('',#194,#227,#238,.T.);
#240=ORIENTED_EDGE('',*,*,#239,.F.);
#241=ORIENTED_EDGE('',*,*,#199,.T.);
#242=EDGE_LOOP('',(#225,#233,#240,#241));
#243=FACE_OUTER_BOUND('',#242,.T.);
#244=ADVANCED_FACE('',(#243),#216,.F.);
#245=CARTESIAN_POINT('',(-10.000000000000004,3.800000000000425,-1.969311622774544));
#246=DIRECTION('',(0.0,-1.0,0.0));
#247=DIRECTION('',(1.0,0.0,0.0));
#248=AXIS2_PLACEMENT_3D('',#245,#246,#247);
#249=PLANE('',#248);
#250=CARTESIAN_POINT('',(0.0,3.800000000000425,-0.689999999999999));
#251=VERTEX_POINT('',#250);
#252=CARTESIAN_POINT('',(0.0,3.800000000000425,-1.908392021690043));
#253=DIRECTION('',(0.0,0.0,1.0));
#254=VECTOR('',#253,1.218392021690043);
#255=LINE('',#252,#254);
#256=EDGE_CURVE('',#218,#251,#255,.T.);
#257=ORIENTED_EDGE('',*,*,#256,.T.);
#258=CARTESIAN_POINT('',(200.0,3.800000000000425,-0.689999999999999));
#259=VERTEX_POINT('',#258);
#260=CARTESIAN_POINT('',(200.0,3.800000000000425,-0.689999999999999));
#261=DIRECTION('',(-1.0,0.0,0.0));
#262=VECTOR('',#261,200.0);
#263=LINE('',#260,#262);
#264=EDGE_CURVE('',#259,#251,#263,.T.);
#265=ORIENTED_EDGE('',*,*,#264,.F.);
#266=CARTESIAN_POINT('',(200.0,3.800000000000425,-1.908392021690043));
#267=DIRECTION('',(0.0,0.0,1.0));
#268=VECTOR('',#267,1.218392021690043);
#269=LINE('',#266,#268);
#270=EDGE_CURVE('',#227,#259,#269,.T.);
#271=ORIENTED_EDGE('',*,*,#270,.F.);
#272=ORIENTED_EDGE('',*,*,#232,.T.);
#273=EDGE_LOOP('',(#257,#265,#271,#272));
#274=FACE_OUTER_BOUND('',#273,.T.);
#275=ADVANCED_FACE('',(#274),#249,.F.);
#276=CARTESIAN_POINT('',(200.000000010000010,5.490000000000430,-0.689999999999999));
#277=DIRECTION('',(-1.0,0.0,0.0));
#278=DIRECTION('',(0.0,0.854202916972414,-0.519939781739981));
#279=AXIS2_PLACEMENT_3D('',#276,#277,#278);
#280=CYLINDRICAL_SURFACE('',#279,1.689999999999997);
#281=CARTESIAN_POINT('',(0.0,4.713740333029493,0.811173184357546));
#282=VERTEX_POINT('',#281);
#283=CARTESIAN_POINT('',(0.0,5.490000000000423,-0.689999999999999));
#284=DIRECTION('',(-1.0,0.0,0.0));
#285=DIRECTION('',(0.0,1.0,-6.123234E-017));
#286=AXIS2_PLACEMENT_3D('',#283,#284,#285);
#287=CIRCLE('',#286,1.689999999999997);
#288=EDGE_CURVE('',#251,#282,#287,.T.);
#289=ORIENTED_EDGE('',*,*,#288,.T.);
#290=CARTESIAN_POINT('',(200.0,4.713740333029493,0.811173184357546));
#291=VERTEX_POINT('',#290);
#292=CARTESIAN_POINT('',(200.0,4.713740333029493,0.811173184357546));
#293=DIRECTION('',(-1.0,0.0,0.0));
#294=VECTOR('',#293,200.0);
#295=LINE('',#292,#294);
#296=EDGE_CURVE('',#291,#282,#295,.T.);
#297=ORIENTED_EDGE('',*,*,#296,.F.);
#298=CARTESIAN_POINT('',(200.0,5.490000000000423,-0.689999999999999));
#299=DIRECTION('',(-1.0,0.0,0.0));
#300=DIRECTION('',(0.0,1.0,-6.123234E-017));
#301=AXIS2_PLACEMENT_3D('',#298,#299,#300);
#302=CIRCLE('',#301,1.689999999999997);
#303=EDGE_CURVE('',#259,#291,#302,.T.);
#304=ORIENTED_EDGE('',*,*,#303,.F.);
#305=ORIENTED_EDGE('',*,*,#264,.T.);
#306=EDGE_LOOP('',(#289,#297,#304,#305));
#307=FACE_OUTER_BOUND('',#306,.T.);
#308=ADVANCED_FACE('',(#307),#280,.F.);
#309=CARTESIAN_POINT('',(200.000000010000010,4.667807808356644,0.899999999999999));
#310=DIRECTION('',(-1.0,0.0,0.0));
#311=DIRECTION('',(0.0,-1.0,6.123234E-017));
#312=AXIS2_PLACEMENT_3D('',#309,#310,#311);
#313=CYLINDRICAL_SURFACE('',#312,0.099999999999996);
#314=CARTESIAN_POINT('',(0.0,4.667807808356644,1.000000000000000));
#315=VERTEX_POINT('',#314);
#316=CARTESIAN_POINT('',(0.0,4.667807808356644,0.899999999999999));
#317=DIRECTION('',(1.0,0.0,0.0));
#318=DIRECTION('',(0.0,-1.0,6.123234E-017));
#319=AXIS2_PLACEMENT_3D('',#316,#317,#318);
#320=CIRCLE('',#319,0.099999999999996);
#321=EDGE_CURVE('',#282,#315,#320,.T.);
#322=ORIENTED_EDGE('',*,*,#321,.T.);
#323=CARTESIAN_POINT('',(200.0,4.667807808356644,1.000000000000000));
#324=VERTEX_POINT('',#323);
#325=CARTESIAN_POINT('',(200.0,4.667807808356644,1.000000000000000));
#326=DIRECTION('',(-1.0,0.0,0.0));
#327=VECTOR('',#326,200.0);
#328=LINE('',#325,#327);
#329=EDGE_CURVE('',#324,#315,#328,.T.);
#330=ORIENTED_EDGE('',*,*,#329,.F.);
#331=CARTESIAN_POINT('',(200.0,4.667807808356644,0.899999999999999));
#332=DIRECTION('',(1.0,0.0,0.0));
#333=DIRECTION('',(0.0,-1.0,6.123234E-017));
#334=AXIS2_PLACEMENT_3D('',#331,#332,#333);
#335=CIRCLE('',#334,0.099999999999996);
#336=EDGE_CURVE('',#291,#324,#335,.T.);
#337=ORIENTED_EDGE('',*,*,#336,.F.);
#338=ORIENTED_EDGE('',*,*,#296,.T.);
#339=EDGE_LOOP('',(#322,#330,#337,#338));
#340=FACE_OUTER_BOUND('',#339,.T.);
#341=ADVANCED_FACE('',(#340),#313,.T.);
#342=CARTESIAN_POINT('',(-10.000000000000004,5.134588589192264,1.000000000000000));
#343=DIRECTION('',(0.0,0.0,-1.0));
#344=DIRECTION('',(1.0,0.0,0.0));
#345=AXIS2_PLACEMENT_3D('',#342,#343,#344);
#346=PLANE('',#345);
#347=CARTESIAN_POINT('',(0.0,-4.667807808355803,1.000000000000004));
#348=VERTEX_POINT('',#347);
#349=CARTESIAN_POINT('',(0.0,4.667807808356644,1.000000000000000));
#350=DIRECTION('',(0.0,-1.0,0.0));
#351=VECTOR('',#350,9.335615616712445);
#352=LINE('',#349,#351);
#353=EDGE_CURVE('',#315,#348,#352,.T.);
#354=ORIENTED_EDGE('',*,*,#353,.T.);
#355=CARTESIAN_POINT('',(200.0,-4.667807808355803,1.000000000000004));
#356=VERTEX_POINT('',#355);
#357=CARTESIAN_POINT('',(200.0,-4.667807808355803,1.000000000000004));
#358=DIRECTION('',(-1.0,0.0,0.0));
#359=VECTOR('',#358,200.0);
#360=LINE('',#357,#359);
#361=EDGE_CURVE('',#356,#348,#360,.T.);
#362=ORIENTED_EDGE('',*,*,#361,.F.);
#363=CARTESIAN_POINT('',(200.0,4.667807808356644,1.000000000000000));
#364=DIRECTION('',(0.0,-1.0,0.0));
#365=VECTOR('',#364,9.335615616712445);
#366=LINE('',#363,#365);
#367=EDGE_CURVE('',#324,#356,#366,.T.);
#368=ORIENTED_EDGE('',*,*,#367,.F.);
#369=ORIENTED_EDGE('',*,*,#329,.T.);
#370=EDGE_LOOP('',(#354,#362,#368,#369));
#371=FACE_OUTER_BOUND('',#370,.T.);
#372=ADVANCED_FACE('',(#371),#346,.F.);
#373=CARTESIAN_POINT('',(200.000000010000010,-4.667807808355803,0.900000000000002));
#374=DIRECTION('',(-1.0,0.0,0.0));
#375=DIRECTION('',(0.0,0.707106781186547,-0.707106781186548));
#376=AXIS2_PLACEMENT_3D('',#373,#374,#375);
#377=CYLINDRICAL_SURFACE('',#376,0.099999999999999);
#378=ORIENTED_EDGE('',*,*,#66,.F.);
#379=CARTESIAN_POINT('',(200.0,-4.667807808355803,0.900000000000002));
#380=DIRECTION('',(1.0,0.0,0.0));
#381=DIRECTION('',(0.0,1.0,-6.123234E-017));
#382=AXIS2_PLACEMENT_3D('',#379,#380,#381);
#383=CIRCLE('',#382,0.099999999999999);
#384=EDGE_CURVE('',#356,#50,#383,.T.);
#385=ORIENTED_EDGE('',*,*,#384,.F.);
#386=ORIENTED_EDGE('',*,*,#361,.T.);
#387=CARTESIAN_POINT('',(0.0,-4.667807808355803,0.900000000000002));
#388=DIRECTION('',(1.0,0.0,0.0));
#389=DIRECTION('',(0.0,1.0,-6.123234E-017));
#390=AXIS2_PLACEMENT_3D('',#387,#388,#389);
#391=CIRCLE('',#390,0.099999999999999);
#392=EDGE_CURVE('',#348,#61,#391,.T.);
#393=ORIENTED_EDGE('',*,*,#392,.T.);
#394=EDGE_LOOP('',(#378,#385,#386,#393));
#395=FACE_OUTER_BOUND('',#394,.T.);
#396=ADVANCED_FACE('',(#395),#377,.T.);
#397=CARTESIAN_POINT('',(200.000000010000010,-5.489999999999576,-0.689999999999999));
#398=DIRECTION('',(-1.0,0.0,0.0));
#399=DIRECTION('',(0.0,-1.0,6.123234E-017));
#400=AXIS2_PLACEMENT_3D('',#397,#398,#399);
#401=CYLINDRICAL_SURFACE('',#400,1.690000000000001);
#402=CARTESIAN_POINT('',(0.0,-3.799999999999578,-0.689999999999999));
#403=VERTEX_POINT('',#402);
#404=CARTESIAN_POINT('',(0.0,-5.489999999999576,-0.689999999999999));
#405=DIRECTION('',(-1.0,0.0,0.0));
#406=DIRECTION('',(0.0,-1.0,6.123234E-017));
#407=AXIS2_PLACEMENT_3D('',#404,#405,#406);
#408=CIRCLE('',#407,1.690000000000001);
#409=EDGE_CURVE('',#69,#403,#408,.T.);
#410=ORIENTED_EDGE('',*,*,#409,.T.);
#411=CARTESIAN_POINT('',(200.0,-3.799999999999578,-0.689999999999999));
#412=VERTEX_POINT('',#411);
#413=CARTESIAN_POINT('',(200.0,-3.799999999999578,-0.689999999999999));
#414=DIRECTION('',(-1.0,0.0,0.0));
#415=VECTOR('',#414,200.0);
#416=LINE('',#413,#415);
#417=EDGE_CURVE('',#412,#403,#416,.T.);
#418=ORIENTED_EDGE('',*,*,#417,.F.);
#419=CARTESIAN_POINT('',(200.0,-5.489999999999576,-0.689999999999999));
#420=DIRECTION('',(-1.0,0.0,0.0));
#421=DIRECTION('',(0.0,-1.0,6.123234E-017));
#422=AXIS2_PLACEMENT_3D('',#419,#420,#421);
#423=CIRCLE('',#422,1.690000000000001);
#424=EDGE_CURVE('',#52,#412,#423,.T.);
#425=ORIENTED_EDGE('',*,*,#424,.F.);
#426=ORIENTED_EDGE('',*,*,#81,.T.);
#427=EDGE_LOOP('',(#410,#418,#425,#426));
#428=FACE_OUTER_BOUND('',#427,.T.);
#429=ADVANCED_FACE('',(#428),#401,.F.);
#430=CARTESIAN_POINT('',(210.0,-3.799999999999578,-1.969311622774544));
#431=DIRECTION('',(0.0,1.0,0.0));
#432=DIRECTION('',(-1.0,0.0,0.0));
#433=AXIS2_PLACEMENT_3D('',#430,#431,#432);
#434=PLANE('',#433);
#435=CARTESIAN_POINT('',(0.0,-3.799999999999578,-1.908392021690043));
#436=VERTEX_POINT('',#435);
#437=CARTESIAN_POINT('',(0.0,-3.799999999999578,-0.689999999999999));
#438=DIRECTION('',(0.0,0.0,-1.0));
#439=VECTOR('',#438,1.218392021690043);
#440=LINE('',#437,#439);
#441=EDGE_CURVE('',#403,#436,#440,.T.);
#442=ORIENTED_EDGE('',*,*,#441,.T.);
#443=CARTESIAN_POINT('',(200.0,-3.799999999999578,-1.908392021690043));
#444=VERTEX_POINT('',#443);
#445=CARTESIAN_POINT('',(200.0,-3.799999999999578,-1.908392021690043));
#446=DIRECTION('',(-1.0,0.0,0.0));
#447=VECTOR('',#446,200.0);
#448=LINE('',#445,#447);
#449=EDGE_CURVE('',#444,#436,#448,.T.);
#450=ORIENTED_EDGE('',*,*,#449,.F.);
#451=CARTESIAN_POINT('',(200.0,-3.799999999999578,-0.689999999999999));
#452=DIRECTION('',(0.0,0.0,-1.0));
#453=VECTOR('',#452,1.218392021690043);
#454=LINE('',#451,#453);
#455=EDGE_CURVE('',#412,#444,#454,.T.);
#456=ORIENTED_EDGE('',*,*,#455,.F.);
#457=ORIENTED_EDGE('',*,*,#417,.T.);
#458=EDGE_LOOP('',(#442,#450,#456,#457));
#459=FACE_OUTER_BOUND('',#458,.T.);
#460=ADVANCED_FACE('',(#459),#434,.F.);
#461=CARTESIAN_POINT('',(200.000000010000010,-3.899999999999579,-1.908392021690043));
#462=DIRECTION('',(-1.0,0.0,0.0));
#463=DIRECTION('',(0.0,-1.0,6.123234E-017));
#464=AXIS2_PLACEMENT_3D('',#461,#462,#463);
#465=CYLINDRICAL_SURFACE('',#464,0.099999999999999);
#466=CARTESIAN_POINT('',(0.0,-3.883333333332903,-2.006993351408363));
#467=VERTEX_POINT('',#466);
#468=CARTESIAN_POINT('',(0.0,-3.899999999999579,-1.908392021690043));
#469=DIRECTION('',(-1.0,0.0,0.0));
#470=DIRECTION('',(0.0,-1.0,6.123234E-017));
#471=AXIS2_PLACEMENT_3D('',#468,#469,#470);
#472=CIRCLE('',#471,0.099999999999999);
#473=EDGE_CURVE('',#436,#467,#472,.T.);
#474=ORIENTED_EDGE('',*,*,#473,.T.);
#475=CARTESIAN_POINT('',(200.0,-3.883333333332903,-2.006993351408363));
#476=VERTEX_POINT('',#475);
#477=CARTESIAN_POINT('',(200.0,-3.883333333332903,-2.006993351408363));
#478=DIRECTION('',(-1.0,0.0,0.0));
#479=VECTOR('',#478,200.0);
#480=LINE('',#477,#479);
#481=EDGE_CURVE('',#476,#467,#480,.T.);
#482=ORIENTED_EDGE('',*,*,#481,.F.);
#483=CARTESIAN_POINT('',(200.0,-3.899999999999579,-1.908392021690043));
#484=DIRECTION('',(-1.0,0.0,0.0));
#485=DIRECTION('',(0.0,-1.0,6.123234E-017));
#486=AXIS2_PLACEMENT_3D('',#483,#484,#485);
#487=CIRCLE('',#486,0.099999999999999);
#488=EDGE_CURVE('',#444,#476,#487,.T.);
#489=ORIENTED_EDGE('',*,*,#488,.F.);
#490=ORIENTED_EDGE('',*,*,#449,.T.);
#491=EDGE_LOOP('',(#474,#482,#489,#490));
#492=FACE_OUTER_BOUND('',#491,.T.);
#493=ADVANCED_FACE('',(#492),#465,.F.);
#494=CARTESIAN_POINT('',(200.000000010000010,-3.799999999999557,-2.500000000000000));
#495=DIRECTION('',(-1.0,0.0,0.0));
#496=DIRECTION('',(0.0,0.763762615825979,-0.645497224367896));
#497=AXIS2_PLACEMENT_3D('',#494,#495,#496);
#498=CYLINDRICAL_SURFACE('',#497,0.500000000000001);
#499=ORIENTED_EDGE('',*,*,#24,.F.);
#500=CARTESIAN_POINT('',(200.0,-3.799999999999560,-2.500000000000000));
#501=DIRECTION('',(1.0,0.0,0.0));
#502=DIRECTION('',(0.0,6.123234E-017,1.0));
#503=AXIS2_PLACEMENT_3D('',#500,#501,#502);
#504=CIRCLE('',#503,0.500000000000001);
#505=EDGE_CURVE('',#476,#8,#504,.T.);
#506=ORIENTED_EDGE('',*,*,#505,.F.);
#507=ORIENTED_EDGE('',*,*,#481,.T.);
#508=CARTESIAN_POINT('',(0.0,-3.799999999999560,-2.500000000000000));
#509=DIRECTION('',(1.0,0.0,0.0));
#510=DIRECTION('',(0.0,6.123234E-017,1.0));
#511=AXIS2_PLACEMENT_3D('',#508,#509,#510);
#512=CIRCLE('',#511,0.500000000000001);
#513=EDGE_CURVE('',#467,#19,#512,.T.);
#514=ORIENTED_EDGE('',*,*,#513,.T.);
#515=EDGE_LOOP('',(#499,#506,#507,#514));
#516=FACE_OUTER_BOUND('',#515,.T.);
#517=ADVANCED_FACE('',(#516),#498,.T.);
#518=CARTESIAN_POINT('',(200.0,-5.244580348246203,-3.199999999999999));
#519=DIRECTION('',(1.0,0.0,0.0));
#520=DIRECTION('',(0.0,1.0,0.0));
#521=AXIS2_PLACEMENT_3D('',#518,#519,#520);
#522=PLANE('',#521);
#523=ORIENTED_EDGE('',*,*,#111,.T.);
#524=ORIENTED_EDGE('',*,*,#142,.T.);
#525=ORIENTED_EDGE('',*,*,#173,.T.);
#526=ORIENTED_EDGE('',*,*,#206,.T.);
#527=ORIENTED_EDGE('',*,*,#239,.T.);
#528=ORIENTED_EDGE('',*,*,#270,.T.);
#529=ORIENTED_EDGE('',*,*,#303,.T.);
#530=ORIENTED_EDGE('',*,*,#336,.T.);
#531=ORIENTED_EDGE('',*,*,#367,.T.);
#532=ORIENTED_EDGE('',*,*,#384,.T.);
#533=ORIENTED_EDGE('',*,*,#58,.T.);
#534=ORIENTED_EDGE('',*,*,#424,.T.);
#535=ORIENTED_EDGE('',*,*,#455,.T.);
#536=ORIENTED_EDGE('',*,*,#488,.T.);
#537=ORIENTED_EDGE('',*,*,#505,.T.);
#538=ORIENTED_EDGE('',*,*,#16,.T.);
#539=EDGE_LOOP('',(#523,#524,#525,#526,#527,#528,#529,#530,#531,#532,#533,#534,#535,#536,#537,#538));
#540=FACE_OUTER_BOUND('',#539,.T.);
#541=ADVANCED_FACE('',(#540),#522,.T.);
#542=CARTESIAN_POINT('',(0.0,-5.244580348246203,-3.199999999999999));
#543=DIRECTION('',(1.0,0.0,0.0));
#544=DIRECTION('',(0.0,1.0,0.0));
#545=AXIS2_PLACEMENT_3D('',#542,#543,#544);
#546=PLANE('',#545);
#547=ORIENTED_EDGE('',*,*,#97,.F.);
#548=ORIENTED_EDGE('',*,*,#33,.F.);
#549=ORIENTED_EDGE('',*,*,#513,.F.);
#550=ORIENTED_EDGE('',*,*,#473,.F.);
#551=ORIENTED_EDGE('',*,*,#441,.F.);
#552=ORIENTED_EDGE('',*,*,#409,.F.);
#553=ORIENTED_EDGE('',*,*,#75,.F.);
#554=ORIENTED_EDGE('',*,*,#392,.F.);
#555=ORIENTED_EDGE('',*,*,#353,.F.);
#556=ORIENTED_EDGE('',*,*,#321,.F.);
#557=ORIENTED_EDGE('',*,*,#288,.F.);
#558=ORIENTED_EDGE('',*,*,#256,.F.);
#559=ORIENTED_EDGE('',*,*,#224,.F.);
#560=ORIENTED_EDGE('',*,*,#191,.F.);
#561=ORIENTED_EDGE('',*,*,#159,.F.);
#562=ORIENTED_EDGE('',*,*,#128,.F.);
#563=EDGE_LOOP('',(#547,#548,#549,#550,#551,#552,#553,#554,#555,#556,#557,#558,#559,#560,#561,#562));
#564=FACE_OUTER_BOUND('',#563,.T.);
#565=ADVANCED_FACE('',(#564),#546,.F.);
#566=CLOSED_SHELL('',(#43,#85,#116,#147,#178,#211,#244,#275,#308,#341,#372,#396,#429,#460,#493,#517,#541,#565));
#567=MANIFOLD_SOLID_BREP('Importato1',#566);
#573=(NAMED_UNIT(*)PLANE_ANGLE_UNIT()SI_UNIT($,.RADIAN.));
#574=DIMENSIONAL_EXPONENTS(0.0,0.0,0.0,0.0,0.0,0.0,0.0);
#575=PLANE_ANGLE_MEASURE_WITH_UNIT(PLANE_ANGLE_MEASURE(0.017453292500000),#573);
#579=(CONVERSION_BASED_UNIT('DEGREE',#575)NAMED_UNIT(#574)PLANE_ANGLE_UNIT());
#583=(NAMED_UNIT(*)SI_UNIT($,.STERADIAN.)SOLID_ANGLE_UNIT());
#587=(LENGTH_UNIT()NAMED_UNIT(*)SI_UNIT(.MILLI.,.METRE.));
#589=UNCERTAINTY_MEASURE_WITH_UNIT(LENGTH_MEASURE(0.001000000000000),#587,'DISTANCE_ACCURACY_VALUE','');
#591=(GEOMETRIC_REPRESENTATION_CONTEXT(3)GLOBAL_UNCERTAINTY_ASSIGNED_CONTEXT((#589))GLOBAL_UNIT_ASSIGNED_CONTEXT((#579,#583,#587))REPRESENTATION_CONTEXT('thinkdesign','2009.3.110'));
#592=ADVANCED_BREP_SHAPE_REPRESENTATION('',(#567),#591);
#593=APPLICATION_CONTEXT('configuration controlled 3D designs of mechanical parts and assemblies');
#594=APPLICATION_PROTOCOL_DEFINITION('International Standard','config_control_design',1995,#593);
#595=MECHANICAL_CONTEXT('None',#593,'mechanical');
#596=PRODUCT('None','None','None',(#595));
#597=PRODUCT_RELATED_PRODUCT_CATEGORY('detail',$,(#596));
#598=PRODUCT_CATEGORY('part',$);
#599=PRODUCT_CATEGORY_RELATIONSHIP('None','None',#598,#597);
#600=PERSON('PERSON1','None','None',$,$,$);
#601=ORGANIZATION('','None','None');
#602=PERSON_AND_ORGANIZATION(#600,#601);
#603=PERSON_AND_ORGANIZATION_ROLE('design_owner');
#604=CC_DESIGN_PERSON_AND_ORGANIZATION_ASSIGNMENT(#602,#603,(#596));
#605=PRODUCT_DEFINITION_FORMATION_WITH_SPECIFIED_SOURCE('None','None',#596,.NOT_KNOWN.);
#606=PERSON('PERSON2','None','None',$,$,$);
#607=ORGANIZATION('','None','None');
#608=PERSON_AND_ORGANIZATION(#606,#607);
#609=PERSON_AND_ORGANIZATION_ROLE('creator');
#610=CC_DESIGN_PERSON_AND_ORGANIZATION_ASSIGNMENT(#608,#609,(#605));
#611=PERSON('PERSON3','None','None',$,$,$);
#612=ORGANIZATION('','None','None');
#613=PERSON_AND_ORGANIZATION(#611,#612);
#614=PERSON_AND_ORGANIZATION_ROLE('part_supplier');
#615=CC_DESIGN_PERSON_AND_ORGANIZATION_ASSIGNMENT(#613,#614,(#605));
#616=APPROVAL_STATUS('approved');
#617=APPROVAL(#616,'None');
#618=PERSON('PERSON4','None','None',$,$,$);
#619=ORGANIZATION('','None','None');
#620=PERSON_AND_ORGANIZATION(#618,#619);
#621=APPROVAL_ROLE('None');
#622=APPROVAL_PERSON_ORGANIZATION(#620,#617,#621);
#623=CALENDAR_DATE(2011,8,9);
#624=COORDINATED_UNIVERSAL_TIME_OFFSET(0,0,.AHEAD.);
#625=LOCAL_TIME(18,4,12.0,#624);
#626=DATE_AND_TIME(#623,#625);
#627=APPROVAL_DATE_TIME(#626,#617);
#628=CC_DESIGN_APPROVAL(#617,(#605));
#629=SECURITY_CLASSIFICATION_LEVEL('unclassified');
#630=SECURITY_CLASSIFICATION('None','None',#629);
#631=CC_DESIGN_SECURITY_CLASSIFICATION(#630,(#605));
#632=APPROVAL_STATUS('approved');
#633=APPROVAL(#632,'None');
#634=PERSON('PERSON5','None','None',$,$,$);
#635=ORGANIZATION('','None','None');
#636=PERSON_AND_ORGANIZATION(#634,#635);
#637=APPROVAL_ROLE('None');
#638=APPROVAL_PERSON_ORGANIZATION(#636,#633,#637);
#639=CALENDAR_DATE(2011,8,9);
#640=COORDINATED_UNIVERSAL_TIME_OFFSET(0,0,.AHEAD.);
#641=LOCAL_TIME(18,4,12.0,#640);
#642=DATE_AND_TIME(#639,#641);
#643=APPROVAL_DATE_TIME(#642,#633);
#644=CC_DESIGN_APPROVAL(#633,(#630));
#645=PERSON('PERSON6','None','None',$,$,$);
#646=ORGANIZATION('','None','None');
#647=PERSON_AND_ORGANIZATION(#645,#646);
#648=PERSON_AND_ORGANIZATION_ROLE('classification_officer');
#649=CC_DESIGN_PERSON_AND_ORGANIZATION_ASSIGNMENT(#647,#648,(#630));
#650=DATE_TIME_ROLE('classification_date');
#651=CALENDAR_DATE(2011,8,9);
#652=COORDINATED_UNIVERSAL_TIME_OFFSET(0,0,.AHEAD.);
#653=LOCAL_TIME(18,4,12.0,#652);
#654=DATE_AND_TIME(#651,#653);
#655=CC_DESIGN_DATE_AND_TIME_ASSIGNMENT(#654,#650,(#630));
#656=DESIGN_CONTEXT('part definition',#593,'design');
#657=DOCUMENT_TYPE('cad_filename');
#658=DOCUMENT('None','None','None',#657);
#659=PRODUCT_DEFINITION_WITH_ASSOCIATED_DOCUMENTS('None','None',#605,#656,(#658));
#660=PERSON('PERSON7','None','None',$,$,$);
#661=ORGANIZATION('','None','None');
#662=PERSON_AND_ORGANIZATION(#660,#661);
#663=PERSON_AND_ORGANIZATION_ROLE('creator');
#664=CC_DESIGN_PERSON_AND_ORGANIZATION_ASSIGNMENT(#662,#663,(#659));
#665=DATE_TIME_ROLE('creation_date');
#666=CALENDAR_DATE(2011,8,9);
#667=COORDINATED_UNIVERSAL_TIME_OFFSET(0,0,.AHEAD.);
#668=LOCAL_TIME(18,4,12.0,#667);
#669=DATE_AND_TIME(#666,#668);
#670=CC_DESIGN_DATE_AND_TIME_ASSIGNMENT(#669,#665,(#659));
#671=APPROVAL_STATUS('approved');
#672=APPROVAL(#671,'None');
#673=PERSON('PERSON8','None','None',$,$,$);
#674=ORGANIZATION('','None','None');
#675=PERSON_AND_ORGANIZATION(#673,#674);
#676=APPROVAL_ROLE('None');
#677=APPROVAL_PERSON_ORGANIZATION(#675,#672,#676);
#678=CALENDAR_DATE(2011,8,9);
#679=COORDINATED_UNIVERSAL_TIME_OFFSET(0,0,.AHEAD.);
#680=LOCAL_TIME(18,4,12.0,#679);
#681=DATE_AND_TIME(#678,#680);
#682=APPROVAL_DATE_TIME(#681,#672);
#683=CC_DESIGN_APPROVAL(#672,(#659));
#684=PRODUCT_DEFINITION_SHAPE('None','None',#659);
#685=SHAPE_DEFINITION_REPRESENTATION(#684,#592);
#686=DIMENSIONAL_EXPONENTS(0.0,0.0,0.0,0.0,0.0,0.0,0.0);
#687=DIMENSIONAL_EXPONENTS(1.0,0.0,0.0,0.0,0.0,0.0,0.0);
ENDSEC;
END-ISO-10303-21;
