ISO-10303-21;
HEADER;
/* Generated by software containing ST-Developer
 * from STEP Tools, Inc. (www.steptools.com) 
 */

FILE_DESCRIPTION(
/* description */ ('VITE TCEI  6X16 INOX RIBASSATA'),
/* implementation_level */ '2;1');

FILE_NAME(
/* name */ 'C:\\Users\\tecnico7\\Desktop\\tavole temporanee\\25.176.04.
stp',
/* time_stamp */ '2022-11-16T16:08:21+01:00',
/* author */ ('tecnico7'),
/* organization */ (''),
/* preprocessor_version */ 'ST-DEVELOPER v18.1',
/* originating_system */ 'Autodesk Inventor 2022',
/* authorisation */ '');

FILE_SCHEMA (('AUTOMOTIVE_DESIGN { 1 0 10303 214 3 1 1 }'));
ENDSEC;

DATA;
#10=MECHANICAL_DESIGN_GEOMETRIC_PRESENTATION_REPRESENTATION('',(#13),#473);
#11=SHAPE_REPRESENTATION_RELATIONSHIP('SRR','None',#480,#12);
#12=ADVANCED_BREP_SHAPE_REPRESENTATION('',(#14),#472);
#13=STYLED_ITEM('',(#489),#14);
#14=MANIFOLD_SOLID_BREP('Solid1',#259);
#15=(
BOUNDED_CURVE()
B_SPLINE_CURVE(2,(#430,#431,#432),.UNSPECIFIED.,.F.,.F.)
B_SPLINE_CURVE_WITH_KNOTS((3,3),(0.,0.292109034519481),.UNSPECIFIED.)
CURVE()
GEOMETRIC_REPRESENTATION_ITEM()
RATIONAL_B_SPLINE_CURVE((1.,1.15470053837925,1.))
REPRESENTATION_ITEM('')
);
#16=(
BOUNDED_CURVE()
B_SPLINE_CURVE(2,(#437,#438,#439),.UNSPECIFIED.,.F.,.F.)
B_SPLINE_CURVE_WITH_KNOTS((3,3),(0.,0.29210903451948),.UNSPECIFIED.)
CURVE()
GEOMETRIC_REPRESENTATION_ITEM()
RATIONAL_B_SPLINE_CURVE((1.,1.15470053837925,1.))
REPRESENTATION_ITEM('')
);
#17=(
BOUNDED_CURVE()
B_SPLINE_CURVE(2,(#443,#444,#445),.UNSPECIFIED.,.F.,.F.)
B_SPLINE_CURVE_WITH_KNOTS((3,3),(0.,0.292109034519481),.UNSPECIFIED.)
CURVE()
GEOMETRIC_REPRESENTATION_ITEM()
RATIONAL_B_SPLINE_CURVE((1.,1.15470053837925,1.))
REPRESENTATION_ITEM('')
);
#18=(
BOUNDED_CURVE()
B_SPLINE_CURVE(2,(#449,#450,#451),.UNSPECIFIED.,.F.,.F.)
B_SPLINE_CURVE_WITH_KNOTS((3,3),(0.,0.292109034519481),.UNSPECIFIED.)
CURVE()
GEOMETRIC_REPRESENTATION_ITEM()
RATIONAL_B_SPLINE_CURVE((1.,1.15470053837926,1.))
REPRESENTATION_ITEM('')
);
#19=(
BOUNDED_CURVE()
B_SPLINE_CURVE(2,(#455,#456,#457),.UNSPECIFIED.,.F.,.F.)
B_SPLINE_CURVE_WITH_KNOTS((3,3),(0.,0.14605451725974),.UNSPECIFIED.)
CURVE()
GEOMETRIC_REPRESENTATION_ITEM()
RATIONAL_B_SPLINE_CURVE((1.,1.07735026918963,1.07735026918963))
REPRESENTATION_ITEM('')
);
#20=(
BOUNDED_CURVE()
B_SPLINE_CURVE(2,(#460,#461,#462),.UNSPECIFIED.,.F.,.F.)
B_SPLINE_CURVE_WITH_KNOTS((3,3),(0.14605451725974,0.292109034519481),
 .UNSPECIFIED.)
CURVE()
GEOMETRIC_REPRESENTATION_ITEM()
RATIONAL_B_SPLINE_CURVE((1.07735026918963,1.07735026918963,1.))
REPRESENTATION_ITEM('')
);
#21=(
BOUNDED_CURVE()
B_SPLINE_CURVE(2,(#464,#465,#466),.UNSPECIFIED.,.F.,.F.)
B_SPLINE_CURVE_WITH_KNOTS((3,3),(0.,0.292109034519481),.UNSPECIFIED.)
CURVE()
GEOMETRIC_REPRESENTATION_ITEM()
RATIONAL_B_SPLINE_CURVE((1.,1.15470053837925,1.))
REPRESENTATION_ITEM('')
);
#22=CONICAL_SURFACE('',#292,2.693275,0.785398163397448);
#23=CONICAL_SURFACE('',#308,1.44337567297406,1.0471975511966);
#24=FACE_BOUND('',#87,.T.);
#25=FACE_BOUND('',#92,.T.);
#26=PLANE('',#290);
#27=PLANE('',#294);
#28=PLANE('',#300);
#29=PLANE('',#302);
#30=PLANE('',#303);
#31=PLANE('',#304);
#32=PLANE('',#305);
#33=PLANE('',#306);
#34=PLANE('',#307);
#35=LINE('',#395,#51);
#36=LINE('',#402,#52);
#37=LINE('',#415,#53);
#38=LINE('',#417,#54);
#39=LINE('',#419,#55);
#40=LINE('',#421,#56);
#41=LINE('',#423,#57);
#42=LINE('',#424,#58);
#43=LINE('',#426,#59);
#44=LINE('',#433,#60);
#45=LINE('',#434,#61);
#46=LINE('',#440,#62);
#47=LINE('',#446,#63);
#48=LINE('',#452,#64);
#49=LINE('',#459,#65);
#50=LINE('',#469,#66);
#51=VECTOR('',#327,3.);
#52=VECTOR('',#336,2.693275);
#53=VECTOR('',#351,10.);
#54=VECTOR('',#352,10.);
#55=VECTOR('',#353,10.);
#56=VECTOR('',#354,10.);
#57=VECTOR('',#355,10.);
#58=VECTOR('',#356,10.);
#59=VECTOR('',#359,5.);
#60=VECTOR('',#362,10.);
#61=VECTOR('',#363,10.);
#62=VECTOR('',#366,10.);
#63=VECTOR('',#369,10.);
#64=VECTOR('',#372,10.);
#65=VECTOR('',#375,10.);
#66=VECTOR('',#380,1.44337567297406);
#67=CYLINDRICAL_SURFACE('',#287,3.);
#68=CYLINDRICAL_SURFACE('',#301,5.);
#69=FACE_OUTER_BOUND('',#84,.T.);
#70=FACE_OUTER_BOUND('',#85,.T.);
#71=FACE_OUTER_BOUND('',#86,.T.);
#72=FACE_OUTER_BOUND('',#88,.T.);
#73=FACE_OUTER_BOUND('',#89,.T.);
#74=FACE_OUTER_BOUND('',#90,.T.);
#75=FACE_OUTER_BOUND('',#91,.T.);
#76=FACE_OUTER_BOUND('',#93,.T.);
#77=FACE_OUTER_BOUND('',#94,.T.);
#78=FACE_OUTER_BOUND('',#95,.T.);
#79=FACE_OUTER_BOUND('',#96,.T.);
#80=FACE_OUTER_BOUND('',#97,.T.);
#81=FACE_OUTER_BOUND('',#98,.T.);
#82=FACE_OUTER_BOUND('',#99,.T.);
#83=FACE_OUTER_BOUND('',#100,.T.);
#84=EDGE_LOOP('',(#172,#173,#174,#175,#176));
#85=EDGE_LOOP('',(#177,#178,#179,#180,#181,#182));
#86=EDGE_LOOP('',(#183));
#87=EDGE_LOOP('',(#184));
#88=EDGE_LOOP('',(#185,#186,#187,#188,#189));
#89=EDGE_LOOP('',(#190));
#90=EDGE_LOOP('',(#191,#192,#193,#194,#195));
#91=EDGE_LOOP('',(#196));
#92=EDGE_LOOP('',(#197,#198,#199,#200,#201,#202));
#93=EDGE_LOOP('',(#203,#204,#205,#206,#207));
#94=EDGE_LOOP('',(#208,#209,#210,#211));
#95=EDGE_LOOP('',(#212,#213,#214,#215));
#96=EDGE_LOOP('',(#216,#217,#218,#219));
#97=EDGE_LOOP('',(#220,#221,#222,#223));
#98=EDGE_LOOP('',(#224,#225,#226,#227,#228));
#99=EDGE_LOOP('',(#229,#230,#231,#232));
#100=EDGE_LOOP('',(#233,#234,#235,#236,#237,#238,#239,#240,#241));
#101=CIRCLE('',#283,3.1);
#102=CIRCLE('',#284,0.1);
#103=CIRCLE('',#285,3.);
#104=CIRCLE('',#286,3.);
#105=CIRCLE('',#288,3.);
#106=CIRCLE('',#289,3.);
#107=CIRCLE('',#291,5.);
#108=CIRCLE('',#293,2.38655);
#109=CIRCLE('',#296,5.);
#110=CIRCLE('',#297,5.);
#111=CIRCLE('',#298,0.6);
#112=CIRCLE('',#299,4.4);
#113=VERTEX_POINT('',#383);
#114=VERTEX_POINT('',#385);
#115=VERTEX_POINT('',#387);
#116=VERTEX_POINT('',#391);
#117=VERTEX_POINT('',#392);
#118=VERTEX_POINT('',#397);
#119=VERTEX_POINT('',#400);
#120=VERTEX_POINT('',#405);
#121=VERTEX_POINT('',#406);
#122=VERTEX_POINT('',#409);
#123=VERTEX_POINT('',#413);
#124=VERTEX_POINT('',#414);
#125=VERTEX_POINT('',#416);
#126=VERTEX_POINT('',#418);
#127=VERTEX_POINT('',#420);
#128=VERTEX_POINT('',#422);
#129=VERTEX_POINT('',#428);
#130=VERTEX_POINT('',#429);
#131=VERTEX_POINT('',#436);
#132=VERTEX_POINT('',#442);
#133=VERTEX_POINT('',#448);
#134=VERTEX_POINT('',#454);
#135=VERTEX_POINT('',#458);
#136=VERTEX_POINT('',#468);
#137=EDGE_CURVE('',#113,#113,#101,.T.);
#138=EDGE_CURVE('',#113,#114,#102,.T.);
#139=EDGE_CURVE('',#114,#115,#103,.T.);
#140=EDGE_CURVE('',#115,#114,#104,.T.);
#141=EDGE_CURVE('',#116,#117,#105,.T.);
#142=EDGE_CURVE('',#117,#116,#106,.T.);
#143=EDGE_CURVE('',#117,#115,#35,.T.);
#144=EDGE_CURVE('',#118,#118,#107,.T.);
#145=EDGE_CURVE('',#119,#119,#108,.T.);
#146=EDGE_CURVE('',#119,#116,#36,.T.);
#147=EDGE_CURVE('',#120,#121,#109,.T.);
#148=EDGE_CURVE('',#121,#120,#110,.T.);
#149=EDGE_CURVE('',#120,#122,#111,.T.);
#150=EDGE_CURVE('',#122,#122,#112,.T.);
#151=EDGE_CURVE('',#123,#124,#37,.T.);
#152=EDGE_CURVE('',#124,#125,#38,.T.);
#153=EDGE_CURVE('',#125,#126,#39,.T.);
#154=EDGE_CURVE('',#126,#127,#40,.T.);
#155=EDGE_CURVE('',#127,#128,#41,.T.);
#156=EDGE_CURVE('',#128,#123,#42,.T.);
#157=EDGE_CURVE('',#118,#121,#43,.T.);
#158=EDGE_CURVE('',#129,#130,#15,.T.);
#159=EDGE_CURVE('',#129,#128,#44,.T.);
#160=EDGE_CURVE('',#130,#127,#45,.T.);
#161=EDGE_CURVE('',#131,#129,#16,.T.);
#162=EDGE_CURVE('',#131,#123,#46,.T.);
#163=EDGE_CURVE('',#132,#131,#17,.T.);
#164=EDGE_CURVE('',#132,#124,#47,.T.);
#165=EDGE_CURVE('',#133,#132,#18,.T.);
#166=EDGE_CURVE('',#125,#133,#48,.T.);
#167=EDGE_CURVE('',#130,#134,#19,.T.);
#168=EDGE_CURVE('',#135,#126,#49,.T.);
#169=EDGE_CURVE('',#134,#135,#20,.T.);
#170=EDGE_CURVE('',#135,#133,#21,.T.);
#171=EDGE_CURVE('',#136,#134,#50,.T.);
#172=ORIENTED_EDGE('',*,*,#137,.T.);
#173=ORIENTED_EDGE('',*,*,#138,.T.);
#174=ORIENTED_EDGE('',*,*,#139,.T.);
#175=ORIENTED_EDGE('',*,*,#140,.T.);
#176=ORIENTED_EDGE('',*,*,#138,.F.);
#177=ORIENTED_EDGE('',*,*,#141,.F.);
#178=ORIENTED_EDGE('',*,*,#142,.F.);
#179=ORIENTED_EDGE('',*,*,#143,.T.);
#180=ORIENTED_EDGE('',*,*,#139,.F.);
#181=ORIENTED_EDGE('',*,*,#140,.F.);
#182=ORIENTED_EDGE('',*,*,#143,.F.);
#183=ORIENTED_EDGE('',*,*,#144,.T.);
#184=ORIENTED_EDGE('',*,*,#137,.F.);
#185=ORIENTED_EDGE('',*,*,#145,.T.);
#186=ORIENTED_EDGE('',*,*,#146,.T.);
#187=ORIENTED_EDGE('',*,*,#141,.T.);
#188=ORIENTED_EDGE('',*,*,#142,.T.);
#189=ORIENTED_EDGE('',*,*,#146,.F.);
#190=ORIENTED_EDGE('',*,*,#145,.F.);
#191=ORIENTED_EDGE('',*,*,#147,.T.);
#192=ORIENTED_EDGE('',*,*,#148,.T.);
#193=ORIENTED_EDGE('',*,*,#149,.T.);
#194=ORIENTED_EDGE('',*,*,#150,.T.);
#195=ORIENTED_EDGE('',*,*,#149,.F.);
#196=ORIENTED_EDGE('',*,*,#150,.F.);
#197=ORIENTED_EDGE('',*,*,#151,.T.);
#198=ORIENTED_EDGE('',*,*,#152,.T.);
#199=ORIENTED_EDGE('',*,*,#153,.T.);
#200=ORIENTED_EDGE('',*,*,#154,.T.);
#201=ORIENTED_EDGE('',*,*,#155,.T.);
#202=ORIENTED_EDGE('',*,*,#156,.T.);
#203=ORIENTED_EDGE('',*,*,#144,.F.);
#204=ORIENTED_EDGE('',*,*,#157,.T.);
#205=ORIENTED_EDGE('',*,*,#147,.F.);
#206=ORIENTED_EDGE('',*,*,#148,.F.);
#207=ORIENTED_EDGE('',*,*,#157,.F.);
#208=ORIENTED_EDGE('',*,*,#158,.F.);
#209=ORIENTED_EDGE('',*,*,#159,.T.);
#210=ORIENTED_EDGE('',*,*,#155,.F.);
#211=ORIENTED_EDGE('',*,*,#160,.F.);
#212=ORIENTED_EDGE('',*,*,#161,.F.);
#213=ORIENTED_EDGE('',*,*,#162,.T.);
#214=ORIENTED_EDGE('',*,*,#156,.F.);
#215=ORIENTED_EDGE('',*,*,#159,.F.);
#216=ORIENTED_EDGE('',*,*,#163,.F.);
#217=ORIENTED_EDGE('',*,*,#164,.T.);
#218=ORIENTED_EDGE('',*,*,#151,.F.);
#219=ORIENTED_EDGE('',*,*,#162,.F.);
#220=ORIENTED_EDGE('',*,*,#165,.F.);
#221=ORIENTED_EDGE('',*,*,#166,.F.);
#222=ORIENTED_EDGE('',*,*,#152,.F.);
#223=ORIENTED_EDGE('',*,*,#164,.F.);
#224=ORIENTED_EDGE('',*,*,#167,.F.);
#225=ORIENTED_EDGE('',*,*,#160,.T.);
#226=ORIENTED_EDGE('',*,*,#154,.F.);
#227=ORIENTED_EDGE('',*,*,#168,.F.);
#228=ORIENTED_EDGE('',*,*,#169,.F.);
#229=ORIENTED_EDGE('',*,*,#170,.F.);
#230=ORIENTED_EDGE('',*,*,#168,.T.);
#231=ORIENTED_EDGE('',*,*,#153,.F.);
#232=ORIENTED_EDGE('',*,*,#166,.T.);
#233=ORIENTED_EDGE('',*,*,#171,.T.);
#234=ORIENTED_EDGE('',*,*,#169,.T.);
#235=ORIENTED_EDGE('',*,*,#170,.T.);
#236=ORIENTED_EDGE('',*,*,#165,.T.);
#237=ORIENTED_EDGE('',*,*,#163,.T.);
#238=ORIENTED_EDGE('',*,*,#161,.T.);
#239=ORIENTED_EDGE('',*,*,#158,.T.);
#240=ORIENTED_EDGE('',*,*,#167,.T.);
#241=ORIENTED_EDGE('',*,*,#171,.F.);
#242=TOROIDAL_SURFACE('',#282,3.1,0.1);
#243=TOROIDAL_SURFACE('',#295,4.4,0.6);
#244=ADVANCED_FACE('',(#69),#242,.F.);
#245=ADVANCED_FACE('',(#70),#67,.T.);
#246=ADVANCED_FACE('',(#71,#24),#26,.T.);
#247=ADVANCED_FACE('',(#72),#22,.T.);
#248=ADVANCED_FACE('',(#73),#27,.T.);
#249=ADVANCED_FACE('',(#74),#243,.T.);
#250=ADVANCED_FACE('',(#75,#25),#28,.T.);
#251=ADVANCED_FACE('',(#76),#68,.T.);
#252=ADVANCED_FACE('',(#77),#29,.F.);
#253=ADVANCED_FACE('',(#78),#30,.F.);
#254=ADVANCED_FACE('',(#79),#31,.F.);
#255=ADVANCED_FACE('',(#80),#32,.F.);
#256=ADVANCED_FACE('',(#81),#33,.F.);
#257=ADVANCED_FACE('',(#82),#34,.F.);
#258=ADVANCED_FACE('',(#83),#23,.F.);
#259=CLOSED_SHELL('',(#244,#245,#246,#247,#248,#249,#250,#251,#252,#253,
#254,#255,#256,#257,#258));
#260=DERIVED_UNIT_ELEMENT(#263,1.);
#261=DERIVED_UNIT_ELEMENT(#475,-3.);
#262=DIMENSIONAL_EXPONENTS(1.,0.,0.,0.,0.,0.,0.);
#263=(
CONVERSION_BASED_UNIT('gram',#265)
MASS_UNIT()
NAMED_UNIT(#262)
);
#264=(
MASS_UNIT()
NAMED_UNIT(*)
SI_UNIT(.KILO.,.GRAM.)
);
#265=MASS_MEASURE_WITH_UNIT(MASS_MEASURE(0.001),#264);
#266=DERIVED_UNIT((#260,#261));
#267=MEASURE_REPRESENTATION_ITEM('density measure',
POSITIVE_RATIO_MEASURE(8.08),#266);
#268=PROPERTY_DEFINITION_REPRESENTATION(#273,#270);
#269=PROPERTY_DEFINITION_REPRESENTATION(#274,#271);
#270=REPRESENTATION('material name',(#272),#472);
#271=REPRESENTATION('density',(#267),#472);
#272=DESCRIPTIVE_REPRESENTATION_ITEM('Acciaio Inox AISI304',
'Acciaio Inox AISI304');
#273=PROPERTY_DEFINITION('material property','material name',#482);
#274=PROPERTY_DEFINITION('material property','density of part',#482);
#275=DATE_TIME_ROLE('creation_date');
#276=APPLIED_DATE_AND_TIME_ASSIGNMENT(#277,#275,(#482));
#277=DATE_AND_TIME(#278,#279);
#278=CALENDAR_DATE(2015,6,8);
#279=LOCAL_TIME(0,0,0.,#280);
#280=COORDINATED_UNIVERSAL_TIME_OFFSET(0,0,.BEHIND.);
#281=AXIS2_PLACEMENT_3D('placement',#381,#309,#310);
#282=AXIS2_PLACEMENT_3D('',#382,#311,#312);
#283=AXIS2_PLACEMENT_3D('',#384,#313,#314);
#284=AXIS2_PLACEMENT_3D('',#386,#315,#316);
#285=AXIS2_PLACEMENT_3D('',#388,#317,#318);
#286=AXIS2_PLACEMENT_3D('',#389,#319,#320);
#287=AXIS2_PLACEMENT_3D('',#390,#321,#322);
#288=AXIS2_PLACEMENT_3D('',#393,#323,#324);
#289=AXIS2_PLACEMENT_3D('',#394,#325,#326);
#290=AXIS2_PLACEMENT_3D('',#396,#328,#329);
#291=AXIS2_PLACEMENT_3D('',#398,#330,#331);
#292=AXIS2_PLACEMENT_3D('',#399,#332,#333);
#293=AXIS2_PLACEMENT_3D('',#401,#334,#335);
#294=AXIS2_PLACEMENT_3D('',#403,#337,#338);
#295=AXIS2_PLACEMENT_3D('',#404,#339,#340);
#296=AXIS2_PLACEMENT_3D('',#407,#341,#342);
#297=AXIS2_PLACEMENT_3D('',#408,#343,#344);
#298=AXIS2_PLACEMENT_3D('',#410,#345,#346);
#299=AXIS2_PLACEMENT_3D('',#411,#347,#348);
#300=AXIS2_PLACEMENT_3D('',#412,#349,#350);
#301=AXIS2_PLACEMENT_3D('',#425,#357,#358);
#302=AXIS2_PLACEMENT_3D('',#427,#360,#361);
#303=AXIS2_PLACEMENT_3D('',#435,#364,#365);
#304=AXIS2_PLACEMENT_3D('',#441,#367,#368);
#305=AXIS2_PLACEMENT_3D('',#447,#370,#371);
#306=AXIS2_PLACEMENT_3D('',#453,#373,#374);
#307=AXIS2_PLACEMENT_3D('',#463,#376,#377);
#308=AXIS2_PLACEMENT_3D('',#467,#378,#379);
#309=DIRECTION('axis',(0.,0.,1.));
#310=DIRECTION('refdir',(1.,0.,0.));
#311=DIRECTION('center_axis',(1.,1.76085023486831E-33,0.));
#312=DIRECTION('ref_axis',(0.,0.,-1.));
#313=DIRECTION('center_axis',(1.,1.76085023486831E-33,0.));
#314=DIRECTION('ref_axis',(1.76085023486831E-33,-1.,1.22464679914735E-16));
#315=DIRECTION('center_axis',(1.76085023486831E-33,-1.,-1.22464679914735E-16));
#316=DIRECTION('ref_axis',(0.,-1.22464679914735E-16,1.));
#317=DIRECTION('center_axis',(-1.,-1.76085023486831E-33,0.));
#318=DIRECTION('ref_axis',(0.,-1.,1.22464679914735E-16));
#319=DIRECTION('center_axis',(-1.,-1.76085023486831E-33,0.));
#320=DIRECTION('ref_axis',(0.,-1.,1.22464679914735E-16));
#321=DIRECTION('center_axis',(1.,1.76085023486831E-33,0.));
#322=DIRECTION('ref_axis',(0.,1.,0.));
#323=DIRECTION('center_axis',(1.,1.76085023486831E-33,0.));
#324=DIRECTION('ref_axis',(0.,-1.,0.));
#325=DIRECTION('center_axis',(1.,1.76085023486831E-33,0.));
#326=DIRECTION('ref_axis',(0.,-1.,0.));
#327=DIRECTION('',(-1.,-1.76085023486831E-33,0.));
#328=DIRECTION('center_axis',(1.,1.76085023486831E-33,0.));
#329=DIRECTION('ref_axis',(0.,0.,-1.));
#330=DIRECTION('center_axis',(1.,1.76085023486831E-33,0.));
#331=DIRECTION('ref_axis',(0.,1.,0.));
#332=DIRECTION('center_axis',(-1.,-1.76085023486831E-33,0.));
#333=DIRECTION('ref_axis',(7.80157452919765E-34,-1.,0.));
#334=DIRECTION('center_axis',(-1.,-1.76085023486831E-33,0.));
#335=DIRECTION('ref_axis',(1.76085023486831E-33,-1.,0.));
#336=DIRECTION('',(-0.707106781186548,0.707106781186547,8.65956056235493E-17));
#337=DIRECTION('center_axis',(1.,1.76085023486831E-33,0.));
#338=DIRECTION('ref_axis',(0.,0.,-1.));
#339=DIRECTION('center_axis',(1.,1.76085023486831E-33,0.));
#340=DIRECTION('ref_axis',(0.,0.,-1.));
#341=DIRECTION('center_axis',(-1.,-1.76085023486831E-33,0.));
#342=DIRECTION('ref_axis',(0.,-1.,1.22464679914735E-16));
#343=DIRECTION('center_axis',(-1.,-1.76085023486831E-33,0.));
#344=DIRECTION('ref_axis',(0.,-1.,1.22464679914735E-16));
#345=DIRECTION('center_axis',(1.76085023486831E-33,-1.,-1.22464679914735E-16));
#346=DIRECTION('ref_axis',(0.,-1.22464679914735E-16,1.));
#347=DIRECTION('center_axis',(1.,1.76085023486831E-33,0.));
#348=DIRECTION('ref_axis',(1.76085023486831E-33,-1.,1.22464679914735E-16));
#349=DIRECTION('center_axis',(-1.,-1.76085023486831E-33,0.));
#350=DIRECTION('ref_axis',(0.,0.,1.));
#351=DIRECTION('',(-1.69302464898075E-48,9.61481343191782E-16,1.));
#352=DIRECTION('',(1.52494103565575E-33,-0.866025403784438,0.5));
#353=DIRECTION('',(1.52494103565575E-33,-0.866025403784439,-0.5));
#354=DIRECTION('',(1.69302464898075E-49,-9.61481343191782E-17,-1.));
#355=DIRECTION('',(-1.52494103565575E-33,0.866025403784439,-0.5));
#356=DIRECTION('',(-1.52494103565575E-33,0.866025403784439,0.5));
#357=DIRECTION('center_axis',(1.,1.76085023486831E-33,0.));
#358=DIRECTION('ref_axis',(0.,1.,0.));
#359=DIRECTION('',(-1.,-1.76085023486831E-33,0.));
#360=DIRECTION('center_axis',(7.70371977754895E-34,-0.5,-0.866025403784439));
#361=DIRECTION('ref_axis',(-1.,0.,-8.89548937465866E-34));
#362=DIRECTION('',(-1.,-1.76085023486831E-33,0.));
#363=DIRECTION('',(-1.,-1.76085023486831E-33,0.));
#364=DIRECTION('center_axis',(-7.70371977754894E-34,0.5,-0.866025403784439));
#365=DIRECTION('ref_axis',(-1.,0.,8.89548937465865E-34));
#366=DIRECTION('',(-1.,-1.76085023486831E-33,0.));
#367=DIRECTION('center_axis',(-1.54074395550979E-33,1.,-9.61481343191782E-16));
#368=DIRECTION('ref_axis',(0.,9.61481343191782E-16,1.));
#369=DIRECTION('',(-1.,-1.76085023486831E-33,0.));
#370=DIRECTION('center_axis',(-7.70371977754895E-34,0.5,0.866025403784438));
#371=DIRECTION('ref_axis',(1.,0.,8.89548937465866E-34));
#372=DIRECTION('',(1.,1.76085023486831E-33,0.));
#373=DIRECTION('center_axis',(1.54074395550979E-33,-1.,9.61481343191782E-17));
#374=DIRECTION('ref_axis',(0.,-9.61481343191782E-17,-1.));
#375=DIRECTION('',(-1.,-1.76085023486831E-33,0.));
#376=DIRECTION('center_axis',(7.70371977754894E-34,-0.5,0.866025403784439));
#377=DIRECTION('ref_axis',(1.,0.,-8.89548937465865E-34));
#378=DIRECTION('center_axis',(-1.,-1.76085023486831E-33,0.));
#379=DIRECTION('ref_axis',(0.,1.,0.));
#380=DIRECTION('',(-0.5,-0.866025403784439,-1.06057523872491E-16));
#381=CARTESIAN_POINT('',(0.,0.,0.));
#382=CARTESIAN_POINT('Origin',(0.100000000000002,-2.79975187344061E-32,
0.));
#383=CARTESIAN_POINT('',(2.22044604925031E-15,-3.79640507735679E-16,3.1));
#384=CARTESIAN_POINT('Origin',(2.22044604925031E-15,-2.81736037578929E-32,
0.));
#385=CARTESIAN_POINT('',(0.100000000000002,-3.67394039744206E-16,3.));
#386=CARTESIAN_POINT('Origin',(0.100000000000002,-3.79640507735679E-16,
3.1));
#387=CARTESIAN_POINT('',(0.100000000000002,-3.,-3.67394039744206E-16));
#388=CARTESIAN_POINT('Origin',(0.100000000000002,-2.79975187344061E-32,
0.));
#389=CARTESIAN_POINT('Origin',(0.100000000000002,-2.79975187344061E-32,
0.));
#390=CARTESIAN_POINT('Origin',(9.25,-1.18857390853611E-32,0.));
#391=CARTESIAN_POINT('',(15.38655,3.,3.67394039744206E-16));
#392=CARTESIAN_POINT('',(15.38655,-3.,-3.67394039744206E-16));
#393=CARTESIAN_POINT('Origin',(15.38655,-1.08019357657996E-33,0.));
#394=CARTESIAN_POINT('Origin',(15.38655,-1.08019357657996E-33,0.));
#395=CARTESIAN_POINT('',(9.25,-3.,-3.67394039744206E-16));
#396=CARTESIAN_POINT('Origin',(2.22044604925031E-15,4.,0.));
#397=CARTESIAN_POINT('',(2.22044604925031E-15,-5.,-6.12323399573677E-16));
#398=CARTESIAN_POINT('Origin',(2.22044604925031E-15,-2.81736037578929E-32,
0.));
#399=CARTESIAN_POINT('Origin',(15.693275,-5.40096788289981E-34,0.));
#400=CARTESIAN_POINT('',(16.,2.38655,-2.92268081850512E-16));
#401=CARTESIAN_POINT('Origin',(16.,6.41463530422127E-49,0.));
#402=CARTESIAN_POINT('',(15.693275,2.693275,3.29831060797359E-16));
#403=CARTESIAN_POINT('Origin',(16.,1.5,0.));
#404=CARTESIAN_POINT('Origin',(-3.39999999999999,-3.41604945564452E-32,
0.));
#405=CARTESIAN_POINT('',(-3.39999999999999,-6.12323399573677E-16,5.));
#406=CARTESIAN_POINT('',(-3.39999999999999,-5.,-6.12323399573677E-16));
#407=CARTESIAN_POINT('Origin',(-3.39999999999999,-3.41604945564452E-32,
0.));
#408=CARTESIAN_POINT('Origin',(-3.39999999999999,-3.41604945564452E-32,
0.));
#409=CARTESIAN_POINT('',(-3.99999999999999,-5.38844591624836E-16,4.4));
#410=CARTESIAN_POINT('Origin',(-3.39999999999999,-5.38844591624836E-16,
4.4));
#411=CARTESIAN_POINT('Origin',(-3.99999999999999,-3.52170046973662E-32,
0.));
#412=CARTESIAN_POINT('Origin',(-3.99999999999999,3.94337567297406,0.));
#413=CARTESIAN_POINT('',(-3.99999999999999,2.5,-1.44337567297407));
#414=CARTESIAN_POINT('',(-3.99999999999999,2.5,1.44337567297406));
#415=CARTESIAN_POINT('',(-3.99999999999999,2.5,0.721687836487029));
#416=CARTESIAN_POINT('',(-3.99999999999999,3.53525079574969E-16,2.88675134594813));
#417=CARTESIAN_POINT('',(-3.99999999999999,0.625,2.52590742770461));
#418=CARTESIAN_POINT('',(-3.99999999999999,-2.5,1.44337567297406));
#419=CARTESIAN_POINT('',(-3.99999999999999,-1.875,1.80421959121758));
#420=CARTESIAN_POINT('',(-3.99999999999999,-2.5,-1.44337567297406));
#421=CARTESIAN_POINT('',(-3.99999999999999,-2.5,-0.721687836487032));
#422=CARTESIAN_POINT('',(-3.99999999999999,-3.48144858900706E-16,-2.88675134594813));
#423=CARTESIAN_POINT('',(-3.99999999999999,-0.625,-2.52590742770461));
#424=CARTESIAN_POINT('',(-3.99999999999999,1.875,-1.80421959121758));
#425=CARTESIAN_POINT('Origin',(-2.,-3.16953042276296E-32,0.));
#426=CARTESIAN_POINT('',(-2.,-5.,-6.12323399573677E-16));
#427=CARTESIAN_POINT('Origin',(-3.99999999999999,-3.48144858900706E-16,
-2.88675134594813));
#428=CARTESIAN_POINT('',(-1.99999999999999,-1.11022302462516E-15,-2.88675134594813));
#429=CARTESIAN_POINT('',(-1.99999999999999,-2.5,-1.44337567297406));
#430=CARTESIAN_POINT('Ctrl Pts',(-2.,4.16333634234434E-15,-2.88675134594813));
#431=CARTESIAN_POINT('Ctrl Pts',(-1.58333333333333,-1.25,-2.1650635094611));
#432=CARTESIAN_POINT('Ctrl Pts',(-2.,-2.5,-1.44337567297406));
#433=CARTESIAN_POINT('',(-2.99999999999999,-1.11022302462516E-15,-2.88675134594813));
#434=CARTESIAN_POINT('',(-2.99999999999999,-2.5,-1.44337567297406));
#435=CARTESIAN_POINT('Origin',(-3.99999999999999,2.5,-1.44337567297407));
#436=CARTESIAN_POINT('',(-1.99999999999999,2.5,-1.44337567297407));
#437=CARTESIAN_POINT('Ctrl Pts',(-2.,2.5,-1.44337567297406));
#438=CARTESIAN_POINT('Ctrl Pts',(-1.58333333333333,1.25,-2.1650635094611));
#439=CARTESIAN_POINT('Ctrl Pts',(-2.,-3.19189119579733E-15,-2.88675134594813));
#440=CARTESIAN_POINT('',(-2.99999999999999,2.5,-1.44337567297407));
#441=CARTESIAN_POINT('Origin',(-3.99999999999999,2.5,1.44337567297406));
#442=CARTESIAN_POINT('',(-1.99999999999999,2.5,1.44337567297406));
#443=CARTESIAN_POINT('Ctrl Pts',(-2.,2.5,1.44337567297407));
#444=CARTESIAN_POINT('Ctrl Pts',(-1.58333333333333,2.5,-2.0573228564437E-15));
#445=CARTESIAN_POINT('Ctrl Pts',(-2.,2.5,-1.44337567297407));
#446=CARTESIAN_POINT('',(-2.99999999999999,2.5,1.44337567297406));
#447=CARTESIAN_POINT('Origin',(-3.99999999999999,1.11205382709433E-16,2.88675134594813));
#448=CARTESIAN_POINT('',(-1.99999999999999,-5.55111512312578E-16,2.88675134594813));
#449=CARTESIAN_POINT('Ctrl Pts',(-2.,-4.44089209850063E-15,2.88675134594813));
#450=CARTESIAN_POINT('Ctrl Pts',(-1.58333333333333,1.25,2.16506350946109));
#451=CARTESIAN_POINT('Ctrl Pts',(-2.,2.50000000000001,1.44337567297406));
#452=CARTESIAN_POINT('',(-2.99999999999999,-5.55111512312578E-16,2.88675134594813));
#453=CARTESIAN_POINT('Origin',(-3.99999999999999,-2.5,-1.44337567297406));
#454=CARTESIAN_POINT('',(-1.77670900630739,-2.5,-2.17487887254876E-16));
#455=CARTESIAN_POINT('Ctrl Pts',(-2.,-2.5,-1.44337567297407));
#456=CARTESIAN_POINT('Ctrl Pts',(-1.77670900630739,-2.5,-0.669872981077808));
#457=CARTESIAN_POINT('Ctrl Pts',(-1.77670900630739,-2.5,-1.28814074722915E-16));
#458=CARTESIAN_POINT('',(-1.99999999999999,-2.5,1.44337567297406));
#459=CARTESIAN_POINT('',(-2.99999999999999,-2.5,1.44337567297406));
#460=CARTESIAN_POINT('Ctrl Pts',(-1.77670900630739,-2.5,-1.28814074722915E-16));
#461=CARTESIAN_POINT('Ctrl Pts',(-1.77670900630739,-2.5,0.669872981077809));
#462=CARTESIAN_POINT('Ctrl Pts',(-2.,-2.5,1.44337567297407));
#463=CARTESIAN_POINT('Origin',(-3.99999999999999,-2.5,1.44337567297406));
#464=CARTESIAN_POINT('Ctrl Pts',(-2.,-2.5,1.44337567297406));
#465=CARTESIAN_POINT('Ctrl Pts',(-1.58333333333333,-1.25,2.1650635094611));
#466=CARTESIAN_POINT('Ctrl Pts',(-2.,4.71844785465692E-15,2.88675134594813));
#467=CARTESIAN_POINT('Origin',(-1.16666666666666,-3.0227929031906E-32,0.));
#468=CARTESIAN_POINT('',(-0.333333333333327,-2.87605538361824E-32,0.));
#469=CARTESIAN_POINT('',(-1.16666666666666,-1.44337567297406,-1.76762539787484E-16));
#470=UNCERTAINTY_MEASURE_WITH_UNIT(LENGTH_MEASURE(0.01),#474,
'DISTANCE_ACCURACY_VALUE',
'Maximum model space distance between geometric entities at asserted c
onnectivities');
#471=UNCERTAINTY_MEASURE_WITH_UNIT(LENGTH_MEASURE(0.01),#474,
'DISTANCE_ACCURACY_VALUE',
'Maximum model space distance between geometric entities at asserted c
onnectivities');
#472=(
GEOMETRIC_REPRESENTATION_CONTEXT(3)
GLOBAL_UNCERTAINTY_ASSIGNED_CONTEXT((#470))
GLOBAL_UNIT_ASSIGNED_CONTEXT((#474,#476,#477))
REPRESENTATION_CONTEXT('','3D')
);
#473=(
GEOMETRIC_REPRESENTATION_CONTEXT(3)
GLOBAL_UNCERTAINTY_ASSIGNED_CONTEXT((#471))
GLOBAL_UNIT_ASSIGNED_CONTEXT((#474,#476,#477))
REPRESENTATION_CONTEXT('','3D')
);
#474=(
LENGTH_UNIT()
NAMED_UNIT(*)
SI_UNIT(.MILLI.,.METRE.)
);
#475=(
LENGTH_UNIT()
NAMED_UNIT(*)
SI_UNIT(.CENTI.,.METRE.)
);
#476=(
NAMED_UNIT(*)
PLANE_ANGLE_UNIT()
SI_UNIT($,.RADIAN.)
);
#477=(
NAMED_UNIT(*)
SI_UNIT($,.STERADIAN.)
SOLID_ANGLE_UNIT()
);
#478=SHAPE_DEFINITION_REPRESENTATION(#479,#480);
#479=PRODUCT_DEFINITION_SHAPE('',$,#482);
#480=SHAPE_REPRESENTATION('',(#281),#472);
#481=PRODUCT_DEFINITION_CONTEXT('part definition',#486,'design');
#482=PRODUCT_DEFINITION('!25.176.04!!!','25.176.04',#483,#481);
#483=PRODUCT_DEFINITION_FORMATION('',$,#488);
#484=PRODUCT_RELATED_PRODUCT_CATEGORY('25.176.04','25.176.04',(#488));
#485=APPLICATION_PROTOCOL_DEFINITION('international standard',
'automotive_design',2009,#486);
#486=APPLICATION_CONTEXT(
'Core Data for Automotive Mechanical Design Process');
#487=PRODUCT_CONTEXT('part definition',#486,'mechanical');
#488=PRODUCT('!25.176.04!!!','25.176.04',
'VITE TCEI  6X16 INOX RIBASSATA',(#487));
#489=PRESENTATION_STYLE_ASSIGNMENT((#490));
#490=SURFACE_STYLE_USAGE(.BOTH.,#493);
#491=SURFACE_STYLE_RENDERING_WITH_PROPERTIES($,#497,(#492));
#492=SURFACE_STYLE_TRANSPARENT(0.);
#493=SURFACE_SIDE_STYLE('',(#494,#491));
#494=SURFACE_STYLE_FILL_AREA(#495);
#495=FILL_AREA_STYLE('',(#496));
#496=FILL_AREA_STYLE_COLOUR('',#497);
#497=COLOUR_RGB('',0.63921568627451,0.63921568627451,0.662745098039216);
ENDSEC;
END-ISO-10303-21;
