ISO-10303-21;
HEADER;
/* Generated by software containing ST-Developer
 * from STEP Tools, Inc. (www.steptools.com) 
 */

FILE_DESCRIPTION(
/* description */ ('RISCONTRO MAGNETE SOFFIETTI'),
/* implementation_level */ '2;1');

FILE_NAME(
/* name */ 'C:\\Users\\tecnico7\\Desktop\\NUOVI DISEGNI 3D\\19.166.00.
stp',
/* time_stamp */ '2022-11-24T08:39:37+01:00',
/* author */ ('tecnico7'),
/* organization */ (''),
/* preprocessor_version */ 'ST-DEVELOPER v18.1',
/* originating_system */ 'Autodesk Inventor 2022',
/* authorisation */ '');

FILE_SCHEMA (('AUTOMOTIVE_DESIGN { 1 0 10303 214 3 1 1 }'));
ENDSEC;

DATA;
#10=MECHANICAL_DESIGN_GEOMETRIC_PRESENTATION_REPRESENTATION('',(#13),#410);
#11=SHAPE_REPRESENTATION_RELATIONSHIP('SRR','None',#417,#12);
#12=ADVANCED_BREP_SHAPE_REPRESENTATION('',(#14),#409);
#13=STYLED_ITEM('',(#426),#14);
#14=MANIFOLD_SOLID_BREP('Solido1',#229);
#15=FACE_BOUND('',#48,.T.);
#16=FACE_BOUND('',#49,.T.);
#17=FACE_BOUND('',#51,.T.);
#18=FACE_BOUND('',#52,.T.);
#19=PLANE('',#261);
#20=PLANE('',#265);
#21=PLANE('',#269);
#22=PLANE('',#273);
#23=PLANE('',#274);
#24=PLANE('',#275);
#25=FACE_OUTER_BOUND('',#37,.T.);
#26=FACE_OUTER_BOUND('',#38,.T.);
#27=FACE_OUTER_BOUND('',#39,.T.);
#28=FACE_OUTER_BOUND('',#40,.T.);
#29=FACE_OUTER_BOUND('',#41,.T.);
#30=FACE_OUTER_BOUND('',#42,.T.);
#31=FACE_OUTER_BOUND('',#43,.T.);
#32=FACE_OUTER_BOUND('',#44,.T.);
#33=FACE_OUTER_BOUND('',#45,.T.);
#34=FACE_OUTER_BOUND('',#46,.T.);
#35=FACE_OUTER_BOUND('',#47,.T.);
#36=FACE_OUTER_BOUND('',#50,.T.);
#37=EDGE_LOOP('',(#151,#152,#153,#154));
#38=EDGE_LOOP('',(#155,#156,#157,#158));
#39=EDGE_LOOP('',(#159,#160,#161,#162));
#40=EDGE_LOOP('',(#163,#164,#165,#166));
#41=EDGE_LOOP('',(#167,#168,#169,#170));
#42=EDGE_LOOP('',(#171,#172,#173,#174));
#43=EDGE_LOOP('',(#175,#176,#177,#178));
#44=EDGE_LOOP('',(#179,#180,#181,#182));
#45=EDGE_LOOP('',(#183,#184,#185,#186));
#46=EDGE_LOOP('',(#187,#188,#189,#190));
#47=EDGE_LOOP('',(#191,#192,#193,#194,#195,#196,#197,#198));
#48=EDGE_LOOP('',(#199));
#49=EDGE_LOOP('',(#200));
#50=EDGE_LOOP('',(#201,#202,#203,#204,#205,#206,#207,#208));
#51=EDGE_LOOP('',(#209));
#52=EDGE_LOOP('',(#210));
#53=LINE('',#349,#71);
#54=LINE('',#355,#72);
#55=LINE('',#362,#73);
#56=LINE('',#365,#74);
#57=LINE('',#368,#75);
#58=LINE('',#370,#76);
#59=LINE('',#371,#77);
#60=LINE('',#377,#78);
#61=LINE('',#380,#79);
#62=LINE('',#382,#80);
#63=LINE('',#383,#81);
#64=LINE('',#389,#82);
#65=LINE('',#392,#83);
#66=LINE('',#394,#84);
#67=LINE('',#395,#85);
#68=LINE('',#401,#86);
#69=LINE('',#403,#87);
#70=LINE('',#404,#88);
#71=VECTOR('',#282,2.75);
#72=VECTOR('',#289,2.75);
#73=VECTOR('',#296,10.);
#74=VECTOR('',#299,10.);
#75=VECTOR('',#302,10.);
#76=VECTOR('',#303,10.);
#77=VECTOR('',#304,10.);
#78=VECTOR('',#311,10.);
#79=VECTOR('',#314,10.);
#80=VECTOR('',#315,10.);
#81=VECTOR('',#316,10.);
#82=VECTOR('',#323,10.);
#83=VECTOR('',#326,10.);
#84=VECTOR('',#327,10.);
#85=VECTOR('',#328,10.);
#86=VECTOR('',#335,10.);
#87=VECTOR('',#338,10.);
#88=VECTOR('',#339,10.);
#89=CIRCLE('',#253,2.75);
#90=CIRCLE('',#254,2.75);
#91=CIRCLE('',#256,2.75);
#92=CIRCLE('',#257,2.75);
#93=CIRCLE('',#259,1.);
#94=CIRCLE('',#260,1.);
#95=CIRCLE('',#263,1.);
#96=CIRCLE('',#264,1.);
#97=CIRCLE('',#267,1.);
#98=CIRCLE('',#268,1.);
#99=CIRCLE('',#271,1.);
#100=CIRCLE('',#272,1.);
#101=VERTEX_POINT('',#346);
#102=VERTEX_POINT('',#348);
#103=VERTEX_POINT('',#352);
#104=VERTEX_POINT('',#354);
#105=VERTEX_POINT('',#358);
#106=VERTEX_POINT('',#359);
#107=VERTEX_POINT('',#361);
#108=VERTEX_POINT('',#363);
#109=VERTEX_POINT('',#367);
#110=VERTEX_POINT('',#369);
#111=VERTEX_POINT('',#373);
#112=VERTEX_POINT('',#375);
#113=VERTEX_POINT('',#379);
#114=VERTEX_POINT('',#381);
#115=VERTEX_POINT('',#385);
#116=VERTEX_POINT('',#387);
#117=VERTEX_POINT('',#391);
#118=VERTEX_POINT('',#393);
#119=VERTEX_POINT('',#397);
#120=VERTEX_POINT('',#399);
#121=EDGE_CURVE('',#101,#101,#89,.T.);
#122=EDGE_CURVE('',#101,#102,#53,.T.);
#123=EDGE_CURVE('',#102,#102,#90,.T.);
#124=EDGE_CURVE('',#103,#103,#91,.T.);
#125=EDGE_CURVE('',#103,#104,#54,.T.);
#126=EDGE_CURVE('',#104,#104,#92,.T.);
#127=EDGE_CURVE('',#105,#106,#93,.T.);
#128=EDGE_CURVE('',#106,#107,#55,.T.);
#129=EDGE_CURVE('',#108,#107,#94,.T.);
#130=EDGE_CURVE('',#105,#108,#56,.T.);
#131=EDGE_CURVE('',#109,#105,#57,.T.);
#132=EDGE_CURVE('',#110,#108,#58,.T.);
#133=EDGE_CURVE('',#109,#110,#59,.T.);
#134=EDGE_CURVE('',#111,#109,#95,.T.);
#135=EDGE_CURVE('',#112,#110,#96,.T.);
#136=EDGE_CURVE('',#111,#112,#60,.T.);
#137=EDGE_CURVE('',#113,#111,#61,.T.);
#138=EDGE_CURVE('',#114,#112,#62,.T.);
#139=EDGE_CURVE('',#113,#114,#63,.T.);
#140=EDGE_CURVE('',#115,#113,#97,.T.);
#141=EDGE_CURVE('',#116,#114,#98,.T.);
#142=EDGE_CURVE('',#115,#116,#64,.T.);
#143=EDGE_CURVE('',#117,#115,#65,.T.);
#144=EDGE_CURVE('',#118,#116,#66,.T.);
#145=EDGE_CURVE('',#117,#118,#67,.T.);
#146=EDGE_CURVE('',#119,#117,#99,.T.);
#147=EDGE_CURVE('',#120,#118,#100,.T.);
#148=EDGE_CURVE('',#119,#120,#68,.T.);
#149=EDGE_CURVE('',#106,#119,#69,.T.);
#150=EDGE_CURVE('',#107,#120,#70,.T.);
#151=ORIENTED_EDGE('',*,*,#121,.F.);
#152=ORIENTED_EDGE('',*,*,#122,.T.);
#153=ORIENTED_EDGE('',*,*,#123,.F.);
#154=ORIENTED_EDGE('',*,*,#122,.F.);
#155=ORIENTED_EDGE('',*,*,#124,.F.);
#156=ORIENTED_EDGE('',*,*,#125,.T.);
#157=ORIENTED_EDGE('',*,*,#126,.F.);
#158=ORIENTED_EDGE('',*,*,#125,.F.);
#159=ORIENTED_EDGE('',*,*,#127,.T.);
#160=ORIENTED_EDGE('',*,*,#128,.T.);
#161=ORIENTED_EDGE('',*,*,#129,.F.);
#162=ORIENTED_EDGE('',*,*,#130,.F.);
#163=ORIENTED_EDGE('',*,*,#131,.T.);
#164=ORIENTED_EDGE('',*,*,#130,.T.);
#165=ORIENTED_EDGE('',*,*,#132,.F.);
#166=ORIENTED_EDGE('',*,*,#133,.F.);
#167=ORIENTED_EDGE('',*,*,#134,.T.);
#168=ORIENTED_EDGE('',*,*,#133,.T.);
#169=ORIENTED_EDGE('',*,*,#135,.F.);
#170=ORIENTED_EDGE('',*,*,#136,.F.);
#171=ORIENTED_EDGE('',*,*,#137,.T.);
#172=ORIENTED_EDGE('',*,*,#136,.T.);
#173=ORIENTED_EDGE('',*,*,#138,.F.);
#174=ORIENTED_EDGE('',*,*,#139,.F.);
#175=ORIENTED_EDGE('',*,*,#140,.T.);
#176=ORIENTED_EDGE('',*,*,#139,.T.);
#177=ORIENTED_EDGE('',*,*,#141,.F.);
#178=ORIENTED_EDGE('',*,*,#142,.F.);
#179=ORIENTED_EDGE('',*,*,#143,.T.);
#180=ORIENTED_EDGE('',*,*,#142,.T.);
#181=ORIENTED_EDGE('',*,*,#144,.F.);
#182=ORIENTED_EDGE('',*,*,#145,.F.);
#183=ORIENTED_EDGE('',*,*,#146,.T.);
#184=ORIENTED_EDGE('',*,*,#145,.T.);
#185=ORIENTED_EDGE('',*,*,#147,.F.);
#186=ORIENTED_EDGE('',*,*,#148,.F.);
#187=ORIENTED_EDGE('',*,*,#149,.T.);
#188=ORIENTED_EDGE('',*,*,#148,.T.);
#189=ORIENTED_EDGE('',*,*,#150,.F.);
#190=ORIENTED_EDGE('',*,*,#128,.F.);
#191=ORIENTED_EDGE('',*,*,#150,.T.);
#192=ORIENTED_EDGE('',*,*,#147,.T.);
#193=ORIENTED_EDGE('',*,*,#144,.T.);
#194=ORIENTED_EDGE('',*,*,#141,.T.);
#195=ORIENTED_EDGE('',*,*,#138,.T.);
#196=ORIENTED_EDGE('',*,*,#135,.T.);
#197=ORIENTED_EDGE('',*,*,#132,.T.);
#198=ORIENTED_EDGE('',*,*,#129,.T.);
#199=ORIENTED_EDGE('',*,*,#123,.T.);
#200=ORIENTED_EDGE('',*,*,#126,.T.);
#201=ORIENTED_EDGE('',*,*,#149,.F.);
#202=ORIENTED_EDGE('',*,*,#127,.F.);
#203=ORIENTED_EDGE('',*,*,#131,.F.);
#204=ORIENTED_EDGE('',*,*,#134,.F.);
#205=ORIENTED_EDGE('',*,*,#137,.F.);
#206=ORIENTED_EDGE('',*,*,#140,.F.);
#207=ORIENTED_EDGE('',*,*,#143,.F.);
#208=ORIENTED_EDGE('',*,*,#146,.F.);
#209=ORIENTED_EDGE('',*,*,#121,.T.);
#210=ORIENTED_EDGE('',*,*,#124,.T.);
#211=CYLINDRICAL_SURFACE('',#252,2.75);
#212=CYLINDRICAL_SURFACE('',#255,2.75);
#213=CYLINDRICAL_SURFACE('',#258,1.);
#214=CYLINDRICAL_SURFACE('',#262,1.);
#215=CYLINDRICAL_SURFACE('',#266,1.);
#216=CYLINDRICAL_SURFACE('',#270,1.);
#217=ADVANCED_FACE('',(#25),#211,.F.);
#218=ADVANCED_FACE('',(#26),#212,.F.);
#219=ADVANCED_FACE('',(#27),#213,.T.);
#220=ADVANCED_FACE('',(#28),#19,.T.);
#221=ADVANCED_FACE('',(#29),#214,.T.);
#222=ADVANCED_FACE('',(#30),#20,.T.);
#223=ADVANCED_FACE('',(#31),#215,.T.);
#224=ADVANCED_FACE('',(#32),#21,.T.);
#225=ADVANCED_FACE('',(#33),#216,.T.);
#226=ADVANCED_FACE('',(#34),#22,.T.);
#227=ADVANCED_FACE('',(#35,#15,#16),#23,.T.);
#228=ADVANCED_FACE('',(#36,#17,#18),#24,.F.);
#229=CLOSED_SHELL('',(#217,#218,#219,#220,#221,#222,#223,#224,#225,#226,
#227,#228));
#230=DERIVED_UNIT_ELEMENT(#233,1.);
#231=DERIVED_UNIT_ELEMENT(#412,-3.);
#232=DIMENSIONAL_EXPONENTS(1.,0.,0.,0.,0.,0.,0.);
#233=(
CONVERSION_BASED_UNIT('gram',#235)
MASS_UNIT()
NAMED_UNIT(#232)
);
#234=(
MASS_UNIT()
NAMED_UNIT(*)
SI_UNIT(.KILO.,.GRAM.)
);
#235=MASS_MEASURE_WITH_UNIT(MASS_MEASURE(0.001),#234);
#236=DERIVED_UNIT((#230,#231));
#237=MEASURE_REPRESENTATION_ITEM('density measure',
POSITIVE_RATIO_MEASURE(7.86),#236);
#238=PROPERTY_DEFINITION_REPRESENTATION(#243,#240);
#239=PROPERTY_DEFINITION_REPRESENTATION(#244,#241);
#240=REPRESENTATION('material name',(#242),#409);
#241=REPRESENTATION('density',(#237),#409);
#242=DESCRIPTIVE_REPRESENTATION_ITEM('Acciaio dolce saldato',
'Acciaio dolce saldato');
#243=PROPERTY_DEFINITION('material property','material name',#419);
#244=PROPERTY_DEFINITION('material property','density of part',#419);
#245=DATE_TIME_ROLE('creation_date');
#246=APPLIED_DATE_AND_TIME_ASSIGNMENT(#247,#245,(#419));
#247=DATE_AND_TIME(#248,#249);
#248=CALENDAR_DATE(2014,21,5);
#249=LOCAL_TIME(0,0,0.,#250);
#250=COORDINATED_UNIVERSAL_TIME_OFFSET(0,0,.BEHIND.);
#251=AXIS2_PLACEMENT_3D('placement',#344,#276,#277);
#252=AXIS2_PLACEMENT_3D('',#345,#278,#279);
#253=AXIS2_PLACEMENT_3D('',#347,#280,#281);
#254=AXIS2_PLACEMENT_3D('',#350,#283,#284);
#255=AXIS2_PLACEMENT_3D('',#351,#285,#286);
#256=AXIS2_PLACEMENT_3D('',#353,#287,#288);
#257=AXIS2_PLACEMENT_3D('',#356,#290,#291);
#258=AXIS2_PLACEMENT_3D('',#357,#292,#293);
#259=AXIS2_PLACEMENT_3D('',#360,#294,#295);
#260=AXIS2_PLACEMENT_3D('',#364,#297,#298);
#261=AXIS2_PLACEMENT_3D('',#366,#300,#301);
#262=AXIS2_PLACEMENT_3D('',#372,#305,#306);
#263=AXIS2_PLACEMENT_3D('',#374,#307,#308);
#264=AXIS2_PLACEMENT_3D('',#376,#309,#310);
#265=AXIS2_PLACEMENT_3D('',#378,#312,#313);
#266=AXIS2_PLACEMENT_3D('',#384,#317,#318);
#267=AXIS2_PLACEMENT_3D('',#386,#319,#320);
#268=AXIS2_PLACEMENT_3D('',#388,#321,#322);
#269=AXIS2_PLACEMENT_3D('',#390,#324,#325);
#270=AXIS2_PLACEMENT_3D('',#396,#329,#330);
#271=AXIS2_PLACEMENT_3D('',#398,#331,#332);
#272=AXIS2_PLACEMENT_3D('',#400,#333,#334);
#273=AXIS2_PLACEMENT_3D('',#402,#336,#337);
#274=AXIS2_PLACEMENT_3D('',#405,#340,#341);
#275=AXIS2_PLACEMENT_3D('',#406,#342,#343);
#276=DIRECTION('axis',(0.,0.,1.));
#277=DIRECTION('refdir',(1.,0.,0.));
#278=DIRECTION('center_axis',(1.,0.,0.));
#279=DIRECTION('ref_axis',(0.,-1.,0.));
#280=DIRECTION('center_axis',(1.,0.,0.));
#281=DIRECTION('ref_axis',(0.,-1.,0.));
#282=DIRECTION('',(1.,0.,0.));
#283=DIRECTION('center_axis',(-1.,0.,0.));
#284=DIRECTION('ref_axis',(0.,-1.,0.));
#285=DIRECTION('center_axis',(1.,0.,0.));
#286=DIRECTION('ref_axis',(0.,-1.,0.));
#287=DIRECTION('center_axis',(1.,0.,0.));
#288=DIRECTION('ref_axis',(0.,-1.,0.));
#289=DIRECTION('',(1.,0.,0.));
#290=DIRECTION('center_axis',(-1.,0.,0.));
#291=DIRECTION('ref_axis',(0.,-1.,0.));
#292=DIRECTION('center_axis',(1.,0.,0.));
#293=DIRECTION('ref_axis',(0.,0.,1.));
#294=DIRECTION('center_axis',(1.,0.,0.));
#295=DIRECTION('ref_axis',(0.,0.,1.));
#296=DIRECTION('',(1.,0.,0.));
#297=DIRECTION('center_axis',(1.,0.,0.));
#298=DIRECTION('ref_axis',(0.,0.,1.));
#299=DIRECTION('',(1.,0.,0.));
#300=DIRECTION('center_axis',(0.,0.,1.));
#301=DIRECTION('ref_axis',(0.,-1.,0.));
#302=DIRECTION('',(0.,-1.,0.));
#303=DIRECTION('',(0.,-1.,0.));
#304=DIRECTION('',(1.,0.,0.));
#305=DIRECTION('center_axis',(1.,0.,0.));
#306=DIRECTION('ref_axis',(0.,1.,0.));
#307=DIRECTION('center_axis',(1.,0.,0.));
#308=DIRECTION('ref_axis',(0.,1.,0.));
#309=DIRECTION('center_axis',(1.,0.,0.));
#310=DIRECTION('ref_axis',(0.,1.,0.));
#311=DIRECTION('',(1.,0.,0.));
#312=DIRECTION('center_axis',(0.,1.,0.));
#313=DIRECTION('ref_axis',(0.,0.,1.));
#314=DIRECTION('',(0.,0.,1.));
#315=DIRECTION('',(0.,0.,1.));
#316=DIRECTION('',(1.,0.,0.));
#317=DIRECTION('center_axis',(1.,0.,0.));
#318=DIRECTION('ref_axis',(0.,0.,-1.));
#319=DIRECTION('center_axis',(1.,0.,0.));
#320=DIRECTION('ref_axis',(0.,0.,-1.));
#321=DIRECTION('center_axis',(1.,0.,0.));
#322=DIRECTION('ref_axis',(0.,0.,-1.));
#323=DIRECTION('',(1.,0.,0.));
#324=DIRECTION('center_axis',(0.,0.,-1.));
#325=DIRECTION('ref_axis',(0.,1.,0.));
#326=DIRECTION('',(0.,1.,0.));
#327=DIRECTION('',(0.,1.,0.));
#328=DIRECTION('',(1.,0.,0.));
#329=DIRECTION('center_axis',(1.,0.,0.));
#330=DIRECTION('ref_axis',(0.,-1.,0.));
#331=DIRECTION('center_axis',(1.,0.,0.));
#332=DIRECTION('ref_axis',(0.,-1.,0.));
#333=DIRECTION('center_axis',(1.,0.,0.));
#334=DIRECTION('ref_axis',(0.,-1.,0.));
#335=DIRECTION('',(1.,0.,0.));
#336=DIRECTION('center_axis',(0.,-1.,2.53765261826115E-16));
#337=DIRECTION('ref_axis',(0.,-2.53765261826115E-16,-1.));
#338=DIRECTION('',(0.,-2.53765261826115E-16,-1.));
#339=DIRECTION('',(0.,-2.53765261826115E-16,-1.));
#340=DIRECTION('center_axis',(1.,0.,0.));
#341=DIRECTION('ref_axis',(0.,0.,-1.));
#342=DIRECTION('center_axis',(1.,0.,0.));
#343=DIRECTION('ref_axis',(0.,0.,-1.));
#344=CARTESIAN_POINT('',(0.,0.,0.));
#345=CARTESIAN_POINT('Origin',(0.,11.0000009219922,7.47982409239739));
#346=CARTESIAN_POINT('',(0.,13.7500009219922,7.47982409239739));
#347=CARTESIAN_POINT('Origin',(0.,11.0000009219922,7.47982409239739));
#348=CARTESIAN_POINT('',(5.,13.7500009219922,7.47982409239739));
#349=CARTESIAN_POINT('',(0.,13.7500009219922,7.47982409239739));
#350=CARTESIAN_POINT('Origin',(5.,11.0000009219922,7.47982409239739));
#351=CARTESIAN_POINT('Origin',(0.,11.0000009219922,22.4798240923974));
#352=CARTESIAN_POINT('',(0.,13.7500009219922,22.4798240923974));
#353=CARTESIAN_POINT('Origin',(0.,11.0000009219922,22.4798240923974));
#354=CARTESIAN_POINT('',(5.,13.7500009219922,22.4798240923974));
#355=CARTESIAN_POINT('',(0.,13.7500009219922,22.4798240923974));
#356=CARTESIAN_POINT('Origin',(5.,11.0000009219922,22.4798240923974));
#357=CARTESIAN_POINT('Origin',(0.,1.00000092199218,28.9798240923974));
#358=CARTESIAN_POINT('',(0.,1.00000092199218,29.9798240923974));
#359=CARTESIAN_POINT('',(0.,9.21992182156828E-7,28.9798240923974));
#360=CARTESIAN_POINT('Origin',(0.,1.00000092199218,28.9798240923974));
#361=CARTESIAN_POINT('',(5.,9.21992182156828E-7,28.9798240923974));
#362=CARTESIAN_POINT('',(0.,9.21992182156828E-7,28.9798240923974));
#363=CARTESIAN_POINT('',(5.,1.00000092199218,29.9798240923974));
#364=CARTESIAN_POINT('Origin',(5.,1.00000092199218,28.9798240923974));
#365=CARTESIAN_POINT('',(0.,1.00000092199218,29.9798240923974));
#366=CARTESIAN_POINT('Origin',(0.,64.0000009219922,29.9798240923974));
#367=CARTESIAN_POINT('',(0.,64.0000009219922,29.9798240923974));
#368=CARTESIAN_POINT('',(0.,64.0000009219922,29.9798240923974));
#369=CARTESIAN_POINT('',(5.,64.0000009219922,29.9798240923974));
#370=CARTESIAN_POINT('',(5.,64.0000009219922,29.9798240923974));
#371=CARTESIAN_POINT('',(0.,64.0000009219922,29.9798240923974));
#372=CARTESIAN_POINT('Origin',(0.,64.0000009219922,28.9798240923974));
#373=CARTESIAN_POINT('',(0.,65.0000009219922,28.9798240923974));
#374=CARTESIAN_POINT('Origin',(0.,64.0000009219922,28.9798240923974));
#375=CARTESIAN_POINT('',(5.,65.0000009219922,28.9798240923974));
#376=CARTESIAN_POINT('Origin',(5.,64.0000009219922,28.9798240923974));
#377=CARTESIAN_POINT('',(0.,65.0000009219922,28.9798240923974));
#378=CARTESIAN_POINT('Origin',(0.,65.0000009219922,0.979824092397394));
#379=CARTESIAN_POINT('',(0.,65.0000009219922,0.979824092397394));
#380=CARTESIAN_POINT('',(0.,65.0000009219922,0.979824092397394));
#381=CARTESIAN_POINT('',(5.,65.0000009219922,0.979824092397394));
#382=CARTESIAN_POINT('',(5.,65.0000009219922,0.979824092397394));
#383=CARTESIAN_POINT('',(0.,65.0000009219922,0.979824092397394));
#384=CARTESIAN_POINT('Origin',(0.,64.0000009219922,0.979824092397394));
#385=CARTESIAN_POINT('',(0.,64.0000009219922,-0.0201759076026065));
#386=CARTESIAN_POINT('Origin',(0.,64.0000009219922,0.979824092397394));
#387=CARTESIAN_POINT('',(5.,64.0000009219922,-0.0201759076026065));
#388=CARTESIAN_POINT('Origin',(5.,64.0000009219922,0.979824092397394));
#389=CARTESIAN_POINT('',(0.,64.0000009219922,-0.0201759076026065));
#390=CARTESIAN_POINT('Origin',(0.,1.00000092199218,-0.0201759076026065));
#391=CARTESIAN_POINT('',(0.,1.00000092199218,-0.0201759076026065));
#392=CARTESIAN_POINT('',(0.,1.00000092199218,-0.0201759076026065));
#393=CARTESIAN_POINT('',(5.,1.00000092199218,-0.0201759076026065));
#394=CARTESIAN_POINT('',(5.,1.00000092199218,-0.0201759076026065));
#395=CARTESIAN_POINT('',(0.,1.00000092199218,-0.0201759076026065));
#396=CARTESIAN_POINT('Origin',(0.,1.00000092199218,0.979824092397394));
#397=CARTESIAN_POINT('',(0.,9.219921750514E-7,0.979824092397394));
#398=CARTESIAN_POINT('Origin',(0.,1.00000092199218,0.979824092397394));
#399=CARTESIAN_POINT('',(5.,9.219921750514E-7,0.979824092397394));
#400=CARTESIAN_POINT('Origin',(5.,1.00000092199218,0.979824092397394));
#401=CARTESIAN_POINT('',(0.,9.219921750514E-7,0.979824092397394));
#402=CARTESIAN_POINT('Origin',(0.,9.21992182156828E-7,28.9798240923974));
#403=CARTESIAN_POINT('',(0.,9.21992182156828E-7,28.9798240923974));
#404=CARTESIAN_POINT('',(5.,9.21992182156828E-7,28.9798240923974));
#405=CARTESIAN_POINT('Origin',(5.,32.5000009219922,14.9798240923974));
#406=CARTESIAN_POINT('Origin',(0.,32.5000009219922,14.9798240923974));
#407=UNCERTAINTY_MEASURE_WITH_UNIT(LENGTH_MEASURE(0.01),#411,
'DISTANCE_ACCURACY_VALUE',
'Maximum model space distance between geometric entities at asserted c
onnectivities');
#408=UNCERTAINTY_MEASURE_WITH_UNIT(LENGTH_MEASURE(0.01),#411,
'DISTANCE_ACCURACY_VALUE',
'Maximum model space distance between geometric entities at asserted c
onnectivities');
#409=(
GEOMETRIC_REPRESENTATION_CONTEXT(3)
GLOBAL_UNCERTAINTY_ASSIGNED_CONTEXT((#407))
GLOBAL_UNIT_ASSIGNED_CONTEXT((#411,#413,#414))
REPRESENTATION_CONTEXT('','3D')
);
#410=(
GEOMETRIC_REPRESENTATION_CONTEXT(3)
GLOBAL_UNCERTAINTY_ASSIGNED_CONTEXT((#408))
GLOBAL_UNIT_ASSIGNED_CONTEXT((#411,#413,#414))
REPRESENTATION_CONTEXT('','3D')
);
#411=(
LENGTH_UNIT()
NAMED_UNIT(*)
SI_UNIT(.MILLI.,.METRE.)
);
#412=(
LENGTH_UNIT()
NAMED_UNIT(*)
SI_UNIT(.CENTI.,.METRE.)
);
#413=(
NAMED_UNIT(*)
PLANE_ANGLE_UNIT()
SI_UNIT($,.RADIAN.)
);
#414=(
NAMED_UNIT(*)
SI_UNIT($,.STERADIAN.)
SOLID_ANGLE_UNIT()
);
#415=SHAPE_DEFINITION_REPRESENTATION(#416,#417);
#416=PRODUCT_DEFINITION_SHAPE('',$,#419);
#417=SHAPE_REPRESENTATION('',(#251),#409);
#418=PRODUCT_DEFINITION_CONTEXT('part definition',#423,'design');
#419=PRODUCT_DEFINITION('19.166.00','19.166.00',#420,#418);
#420=PRODUCT_DEFINITION_FORMATION('A',$,#425);
#421=PRODUCT_RELATED_PRODUCT_CATEGORY('19.166.00','19.166.00',(#425));
#422=APPLICATION_PROTOCOL_DEFINITION('international standard',
'automotive_design',2009,#423);
#423=APPLICATION_CONTEXT(
'Core Data for Automotive Mechanical Design Process');
#424=PRODUCT_CONTEXT('part definition',#423,'mechanical');
#425=PRODUCT('19.166.00','19.166.00','RISCONTRO MAGNETE SOFFIETTI',(#424));
#426=PRESENTATION_STYLE_ASSIGNMENT((#427));
#427=SURFACE_STYLE_USAGE(.BOTH.,#430);
#428=SURFACE_STYLE_RENDERING_WITH_PROPERTIES($,#434,(#429));
#429=SURFACE_STYLE_TRANSPARENT(0.);
#430=SURFACE_SIDE_STYLE('',(#431,#428));
#431=SURFACE_STYLE_FILL_AREA(#432);
#432=FILL_AREA_STYLE('',(#433));
#433=FILL_AREA_STYLE_COLOUR('',#434);
#434=COLOUR_RGB('',0.690196078431373,0.67843137254902,0.67843137254902);
ENDSEC;
END-ISO-10303-21;
